  0
SECTION
  2
HEADER
999
MacDraft 5.0\0
  9
$ACADVER
  1
AC1006
  9
$CLAYER
  8
LAYER-1
  9
$EXTMIN
 10
0.000000
 20
0.000000
  9
$EXTMAX
 10
7.004300
 20
9.982810
  9
$FASTZOOM
 70
0
  9
$FILLMODE
 70
1
  0
ENDSEC
  0
SECTION
  2
TABLES
  0
TABLE
  2
LTYPE
 70
16
  0
LTYPE
  2
CONTINUOUS
 70
64
  3
Solid Line
 72
65
 73
0
 40
0.000000
  0
LTYPE
  2
LTYPE01
 70
64
  3
CUSTOM
 72
65
 73
2
 40
0.111111
 49
0.083333
 49
-0.027778
  0
LTYPE
  2
LTYPE02
 70
64
  3
CUSTOM
 72
65
 73
2
 40
0.194444
 49
0.166667
 49
-0.027778
  0
LTYPE
  2
LTYPE03
 70
64
  3
CUSTOM
 72
65
 73
2
 40
0.375000
 49
0.333333
 49
-0.041667
  0
LTYPE
  2
LTYPE04
 70
64
  3
CUSTOM
 72
65
 73
2
 40
0.722222
 49
0.666667
 49
-0.055556
  0
LTYPE
  2
LTYPE05
 70
64
  3
CUSTOM
 72
65
 73
4
 40
0.152778
 49
0.083333
 49
-0.027778
 49
0.013889
 49
-0.027778
  0
LTYPE
  2
LTYPE06
 70
64
  3
CUSTOM
 72
65
 73
4
 40
0.236111
 49
0.166667
 49
-0.027778
 49
0.013889
 49
-0.027778
  0
LTYPE
  2
LTYPE07
 70
64
  3
CUSTOM
 72
65
 73
4
 40
0.444444
 49
0.333333
 49
-0.041667
 49
0.027778
 49
-0.041667
  0
LTYPE
  2
LTYPE08
 70
64
  3
CUSTOM
 72
65
 73
4
 40
0.805556
 49
0.666667
 49
-0.055556
 49
0.027778
 49
-0.055556
  0
LTYPE
  2
LTYPE09
 70
64
  3
CUSTOM
 72
65
 73
6
 40
0.194444
 49
0.083333
 49
-0.027778
 49
0.013889
 49
-0.027778
 49
0.013889
 49
-0.027778
  0
LTYPE
  2
LTYPE10
 70
64
  3
CUSTOM
 72
65
 73
6
 40
0.277778
 49
0.166667
 49
-0.027778
 49
0.013889
 49
-0.027778
 49
0.013889
 49
-0.027778
  0
LTYPE
  2
LTYPE11
 70
64
  3
CUSTOM
 72
65
 73
6
 40
0.500000
 49
0.333333
 49
-0.041667
 49
0.027778
 49
-0.027778
 49
0.027778
 49
-0.041667
  0
LTYPE
  2
LTYPE12
 70
64
  3
CUSTOM
 72
65
 73
6
 40
0.861111
 49
0.666667
 49
-0.055556
 49
0.027778
 49
-0.027778
 49
0.027778
 49
-0.055556
  0
LTYPE
  2
LTYPE13
 70
64
  3
CUSTOM
 72
65
 73
8
 40
0.319444
 49
0.166667
 49
-0.027778
 49
0.013889
 49
-0.027778
 49
0.013889
 49
-0.027778
 49
0.013889
 49
-0.027778
  0
LTYPE
  2
LTYPE14
 70
64
  3
CUSTOM
 72
65
 73
8
 40
0.555556
 49
0.333333
 49
-0.041667
 49
0.027778
 49
-0.027778
 49
0.027778
 49
-0.027778
 49
0.027778
 49
-0.041667
  0
LTYPE
  2
LTYPE15
 70
64
  3
CUSTOM
 72
65
 73
8
 40
0.944444
 49
0.666667
 49
-0.055556
 49
0.027778
 49
-0.041667
 49
0.027778
 49
-0.041667
 49
0.027778
 49
-0.055556
  0
ENDTAB
  0
TABLE
  2
LAYER
 70
1
  0
LAYER
  2
LAYER-1
 70
0
 62
7
  6
CONTINUOUS
  0
ENDTAB
  0
ENDSEC
  0
SECTION
  2
BLOCKS
  0
ENDSEC
  0
SECTION
  2
ENTITIES
  0
POLYLINE
  8
LAYER-1
 66
  1
 70
  0
 62
  0
 10
3.468958
 20
0.218764
 30
0.000000
  0
VERTEX
  8
LAYER-1
 10
3.468958
 20
0.218764
 30
0.000000
  0
VERTEX
  8
LAYER-1
 10
3.468958
 20
0.217573
 30
0.000000
  0
SEQEND
  8
LAYER-1
  0
POLYLINE
  8
LAYER-1
 66
  1
 70
  1
 62
  0
 10
1.297101
 20
0.123596
 30
0.000000
  0
VERTEX
  8
LAYER-1
 10
1.297101
 20
0.123596
 30
0.000000
  0
VERTEX
  8
LAYER-1
 10
1.304045
 20
0.097555
 30
0.000000
  0
VERTEX
  8
LAYER-1
 10
1.329220
 20
0.111443
 30
0.000000
  0
SEQEND
  8
LAYER-1
  0
POLYLINE
  8
LAYER-1
 66
  1
 70
  1
 62
  0
 10
1.487205
 20
0.228628
 30
0.000000
  0
VERTEX
  8
LAYER-1
 10
1.487205
 20
0.228628
 30
0.000000
  0
VERTEX
  8
LAYER-1
 10
1.474185
 20
0.206058
 30
0.000000
  0
VERTEX
  8
LAYER-1
 10
1.504567
 20
0.226891
 30
0.000000
  0
SEQEND
  8
LAYER-1
  0
POLYLINE
  8
LAYER-1
 66
  1
 70
  1
 62
  0
 10
1.133039
 20
0.164395
 30
0.000000
  0
VERTEX
  8
LAYER-1
 10
1.133039
 20
0.164395
 30
0.000000
  0
VERTEX
  8
LAYER-1
 10
1.116546
 20
0.139220
 30
0.000000
  0
VERTEX
  8
LAYER-1
 10
1.131302
 20
0.131408
 30
0.000000
  0
SEQEND
  8
LAYER-1
  0
POLYLINE
  8
LAYER-1
 66
  1
 70
  0
 62
  0
 10
1.299706
 20
0.165264
 30
0.000000
  0
VERTEX
  8
LAYER-1
 10
1.299706
 20
0.165264
 30
0.000000
  0
VERTEX
  8
LAYER-1
 10
1.295366
 20
0.165264
 30
0.000000
  0
VERTEX
  8
LAYER-1
 10
1.291893
 20
0.160923
 30
0.000000
  0
VERTEX
  8
LAYER-1
 10
1.291025
 20
0.155715
 30
0.000000
  0
VERTEX
  8
LAYER-1
 10
1.292761
 20
0.151375
 30
0.000000
  0
VERTEX
  8
LAYER-1
 10
1.297102
 20
0.149639
 30
0.000000
  0
VERTEX
  8
LAYER-1
 10
1.301441
 20
0.149639
 30
0.000000
  0
VERTEX
  8
LAYER-1
 10
1.305782
 20
0.153110
 30
0.000000
  0
VERTEX
  8
LAYER-1
 10
1.305782
 20
0.157451
 30
0.000000
  0
VERTEX
  8
LAYER-1
 10
1.304914
 20
0.161791
 30
0.000000
  0
VERTEX
  8
LAYER-1
 10
1.300573
 20
0.164396
 30
0.000000
  0
SEQEND
  8
LAYER-1
  0
POLYLINE
  8
LAYER-1
 66
  1
 70
  1
 62
  0
 10
0.937726
 20
0.203456
 30
0.000000
  0
VERTEX
  8
LAYER-1
 10
0.937726
 20
0.203456
 30
0.000000
  0
VERTEX
  8
LAYER-1
 10
0.924705
 20
0.180887
 30
0.000000
  0
VERTEX
  8
LAYER-1
 10
0.955087
 20
0.201719
 30
0.000000
  0
SEQEND
  8
LAYER-1
  0
POLYLINE
  8
LAYER-1
 66
  1
 70
  1
 62
  0
 10
1.069504
 20
0.203122
 30
0.000000
  0
VERTEX
  8
LAYER-1
 10
1.069504
 20
0.203122
 30
0.000000
  0
VERTEX
  8
LAYER-1
 10
1.056817
 20
0.183758
 30
0.000000
  0
VERTEX
  8
LAYER-1
 10
1.068169
 20
0.177748
 30
0.000000
  0
SEQEND
  8
LAYER-1
  0
POLYLINE
  8
LAYER-1
 66
  1
 70
  0
 62
  0
 10
1.427310
 20
0.184359
 30
0.000000
  0
VERTEX
  8
LAYER-1
 10
1.427310
 20
0.184359
 30
0.000000
  0
VERTEX
  8
LAYER-1
 10
1.422969
 20
0.184359
 30
0.000000
  0
VERTEX
  8
LAYER-1
 10
1.419497
 20
0.180019
 30
0.000000
  0
VERTEX
  8
LAYER-1
 10
1.418629
 20
0.174811
 30
0.000000
  0
VERTEX
  8
LAYER-1
 10
1.420365
 20
0.170470
 30
0.000000
  0
VERTEX
  8
LAYER-1
 10
1.424705
 20
0.168734
 30
0.000000
  0
VERTEX
  8
LAYER-1
 10
1.429046
 20
0.168734
 30
0.000000
  0
VERTEX
  8
LAYER-1
 10
1.433386
 20
0.172206
 30
0.000000
  0
VERTEX
  8
LAYER-1
 10
1.433386
 20
0.176547
 30
0.000000
  0
VERTEX
  8
LAYER-1
 10
1.432518
 20
0.180888
 30
0.000000
  0
VERTEX
  8
LAYER-1
 10
1.428178
 20
0.183491
 30
0.000000
  0
SEQEND
  8
LAYER-1
  0
POLYLINE
  8
LAYER-1
 66
  1
 70
  0
 62
  0
 10
1.185122
 20
0.158318
 30
0.000000
  0
VERTEX
  8
LAYER-1
 10
1.185122
 20
0.158318
 30
0.000000
  0
VERTEX
  8
LAYER-1
 10
1.180782
 20
0.158318
 30
0.000000
  0
VERTEX
  8
LAYER-1
 10
1.177309
 20
0.153977
 30
0.000000
  0
VERTEX
  8
LAYER-1
 10
1.176441
 20
0.148770
 30
0.000000
  0
VERTEX
  8
LAYER-1
 10
1.178177
 20
0.144429
 30
0.000000
  0
VERTEX
  8
LAYER-1
 10
1.182518
 20
0.142693
 30
0.000000
  0
VERTEX
  8
LAYER-1
 10
1.186859
 20
0.142693
 30
0.000000
  0
VERTEX
  8
LAYER-1
 10
1.191198
 20
0.146165
 30
0.000000
  0
VERTEX
  8
LAYER-1
 10
1.191198
 20
0.150506
 30
0.000000
  0
VERTEX
  8
LAYER-1
 10
1.190331
 20
0.154846
 30
0.000000
  0
VERTEX
  8
LAYER-1
 10
1.185990
 20
0.157450
 30
0.000000
  0
SEQEND
  8
LAYER-1
  0
POLYLINE
  8
LAYER-1
 66
  1
 70
  0
 62
  0
 10
1.021059
 20
0.150506
 30
0.000000
  0
VERTEX
  8
LAYER-1
 10
1.021059
 20
0.150506
 30
0.000000
  0
VERTEX
  8
LAYER-1
 10
1.016720
 20
0.150506
 30
0.000000
  0
VERTEX
  8
LAYER-1
 10
1.013247
 20
0.146165
 30
0.000000
  0
VERTEX
  8
LAYER-1
 10
1.012379
 20
0.140957
 30
0.000000
  0
VERTEX
  8
LAYER-1
 10
1.014115
 20
0.136616
 30
0.000000
  0
VERTEX
  8
LAYER-1
 10
1.018455
 20
0.134881
 30
0.000000
  0
VERTEX
  8
LAYER-1
 10
1.022795
 20
0.134881
 30
0.000000
  0
VERTEX
  8
LAYER-1
 10
1.027136
 20
0.138352
 30
0.000000
  0
VERTEX
  8
LAYER-1
 10
1.027136
 20
0.142693
 30
0.000000
  0
VERTEX
  8
LAYER-1
 10
1.026268
 20
0.147034
 30
0.000000
  0
VERTEX
  8
LAYER-1
 10
1.021927
 20
0.149638
 30
0.000000
  0
SEQEND
  8
LAYER-1
  0
POLYLINE
  8
LAYER-1
 66
  1
 70
  1
 62
  0
 10
1.649099
 20
0.175245
 30
0.000000
  0
VERTEX
  8
LAYER-1
 10
1.649099
 20
0.175245
 30
0.000000
  0
VERTEX
  8
LAYER-1
 10
1.623058
 20
0.168300
 30
0.000000
  0
VERTEX
  8
LAYER-1
 10
1.636946
 20
0.143127
 30
0.000000
  0
SEQEND
  8
LAYER-1
  0
POLYLINE
  8
LAYER-1
 66
  1
 70
  1
 62
  0
 10
1.710642
 20
0.115647
 30
0.000000
  0
VERTEX
  8
LAYER-1
 10
1.710642
 20
0.115647
 30
0.000000
  0
VERTEX
  8
LAYER-1
 10
1.733212
 20
0.102626
 30
0.000000
  0
VERTEX
  8
LAYER-1
 10
1.712380
 20
0.133008
 30
0.000000
  0
SEQEND
  8
LAYER-1
  0
POLYLINE
  8
LAYER-1
 66
  1
 70
  1
 62
  0
 10
1.241981
 20
0.183057
 30
0.000000
  0
VERTEX
  8
LAYER-1
 10
1.241981
 20
0.183057
 30
0.000000
  0
VERTEX
  8
LAYER-1
 10
1.216807
 20
0.199549
 30
0.000000
  0
VERTEX
  8
LAYER-1
 10
1.208995
 20
0.184793
 30
0.000000
  0
SEQEND
  8
LAYER-1
  0
POLYLINE
  8
LAYER-1
 66
  1
 70
  0
 62
  0
 10
1.660384
 20
0.211703
 30
0.000000
  0
VERTEX
  8
LAYER-1
 10
1.660384
 20
0.211703
 30
0.000000
  0
VERTEX
  8
LAYER-1
 10
1.660384
 20
0.216044
 30
0.000000
  0
VERTEX
  8
LAYER-1
 10
1.656043
 20
0.219515
 30
0.000000
  0
VERTEX
  8
LAYER-1
 10
1.650836
 20
0.220384
 30
0.000000
  0
VERTEX
  8
LAYER-1
 10
1.646495
 20
0.218647
 30
0.000000
  0
VERTEX
  8
LAYER-1
 10
1.644759
 20
0.214307
 30
0.000000
  0
VERTEX
  8
LAYER-1
 10
1.644759
 20
0.209968
 30
0.000000
  0
VERTEX
  8
LAYER-1
 10
1.648231
 20
0.205627
 30
0.000000
  0
VERTEX
  8
LAYER-1
 10
1.652571
 20
0.205627
 30
0.000000
  0
VERTEX
  8
LAYER-1
 10
1.656912
 20
0.206495
 30
0.000000
  0
VERTEX
  8
LAYER-1
 10
1.659517
 20
0.210835
 30
0.000000
  0
SEQEND
  8
LAYER-1
  0
POLYLINE
  8
LAYER-1
 66
  1
 70
  1
 62
  0
 10
1.612641
 20
0.187396
 30
0.000000
  0
VERTEX
  8
LAYER-1
 10
1.612641
 20
0.187396
 30
0.000000
  0
VERTEX
  8
LAYER-1
 10
1.590071
 20
0.200417
 30
0.000000
  0
VERTEX
  8
LAYER-1
 10
1.610903
 20
0.170036
 30
0.000000
  0
SEQEND
  8
LAYER-1
  0
POLYLINE
  8
LAYER-1
 66
  1
 70
  1
 62
  0
 10
1.260743
 20
0.199716
 30
0.000000
  0
VERTEX
  8
LAYER-1
 10
1.260743
 20
0.199716
 30
0.000000
  0
VERTEX
  8
LAYER-1
 10
1.241379
 20
0.212402
 30
0.000000
  0
VERTEX
  8
LAYER-1
 10
1.235368
 20
0.201052
 30
0.000000
  0
SEQEND
  8
LAYER-1
  0
POLYLINE
  8
LAYER-1
 66
  1
 70
  0
 62
  0
 10
1.726616
 20
0.076064
 30
0.000000
  0
VERTEX
  8
LAYER-1
 10
1.726616
 20
0.076064
 30
0.000000
  0
VERTEX
  8
LAYER-1
 10
1.726616
 20
0.071724
 30
0.000000
  0
VERTEX
  8
LAYER-1
 10
1.730957
 20
0.068252
 30
0.000000
  0
VERTEX
  8
LAYER-1
 10
1.736164
 20
0.067384
 30
0.000000
  0
VERTEX
  8
LAYER-1
 10
1.740505
 20
0.069120
 30
0.000000
  0
VERTEX
  8
LAYER-1
 10
1.742241
 20
0.073460
 30
0.000000
  0
VERTEX
  8
LAYER-1
 10
1.742241
 20
0.077801
 30
0.000000
  0
VERTEX
  8
LAYER-1
 10
1.738769
 20
0.082141
 30
0.000000
  0
VERTEX
  8
LAYER-1
 10
1.734428
 20
0.082141
 30
0.000000
  0
VERTEX
  8
LAYER-1
 10
1.730088
 20
0.081273
 30
0.000000
  0
VERTEX
  8
LAYER-1
 10
1.727483
 20
0.076932
 30
0.000000
  0
SEQEND
  8
LAYER-1
  0
POLYLINE
  8
LAYER-1
 66
  1
 70
  0
 62
  0
 10
1.235904
 20
0.130974
 30
0.000000
  0
VERTEX
  8
LAYER-1
 10
1.235904
 20
0.130974
 30
0.000000
  0
VERTEX
  8
LAYER-1
 10
1.235904
 20
0.135314
 30
0.000000
  0
VERTEX
  8
LAYER-1
 10
1.231563
 20
0.138786
 30
0.000000
  0
VERTEX
  8
LAYER-1
 10
1.226356
 20
0.139654
 30
0.000000
  0
VERTEX
  8
LAYER-1
 10
1.222015
 20
0.137918
 30
0.000000
  0
VERTEX
  8
LAYER-1
 10
1.220279
 20
0.133577
 30
0.000000
  0
VERTEX
  8
LAYER-1
 10
1.220279
 20
0.129238
 30
0.000000
  0
VERTEX
  8
LAYER-1
 10
1.223751
 20
0.124897
 30
0.000000
  0
VERTEX
  8
LAYER-1
 10
1.228092
 20
0.124897
 30
0.000000
  0
VERTEX
  8
LAYER-1
 10
1.232432
 20
0.125765
 30
0.000000
  0
VERTEX
  8
LAYER-1
 10
1.235037
 20
0.130106
 30
0.000000
  0
SEQEND
  8
LAYER-1
  0
POLYLINE
  8
LAYER-1
 66
  1
 70
  0
 62
  0
 10
1.537988
 20
0.165697
 30
0.000000
  0
VERTEX
  8
LAYER-1
 10
1.537988
 20
0.165697
 30
0.000000
  0
VERTEX
  8
LAYER-1
 10
1.537988
 20
0.170038
 30
0.000000
  0
VERTEX
  8
LAYER-1
 10
1.533647
 20
0.173509
 30
0.000000
  0
VERTEX
  8
LAYER-1
 10
1.528440
 20
0.174377
 30
0.000000
  0
VERTEX
  8
LAYER-1
 10
1.524099
 20
0.172641
 30
0.000000
  0
VERTEX
  8
LAYER-1
 10
1.522363
 20
0.168301
 30
0.000000
  0
VERTEX
  8
LAYER-1
 10
1.522363
 20
0.163962
 30
0.000000
  0
VERTEX
  8
LAYER-1
 10
1.525835
 20
0.159620
 30
0.000000
  0
VERTEX
  8
LAYER-1
 10
1.530175
 20
0.159620
 30
0.000000
  0
VERTEX
  8
LAYER-1
 10
1.534516
 20
0.160489
 30
0.000000
  0
VERTEX
  8
LAYER-1
 10
1.537121
 20
0.164829
 30
0.000000
  0
SEQEND
  8
LAYER-1
  0
POLYLINE
  8
LAYER-1
 66
  1
 70
  1
 62
  0
 10
1.757172
 20
0.157884
 30
0.000000
  0
VERTEX
  8
LAYER-1
 10
1.757172
 20
0.157884
 30
0.000000
  0
VERTEX
  8
LAYER-1
 10
1.764115
 20
0.131844
 30
0.000000
  0
VERTEX
  8
LAYER-1
 10
1.783213
 20
0.147468
 30
0.000000
  0
SEQEND
  8
LAYER-1
  0
POLYLINE
  8
LAYER-1
 66
  1
 70
  1
 62
  0
 10
1.941199
 20
0.179587
 30
0.000000
  0
VERTEX
  8
LAYER-1
 10
1.941199
 20
0.179587
 30
0.000000
  0
VERTEX
  8
LAYER-1
 10
1.928178
 20
0.157016
 30
0.000000
  0
VERTEX
  8
LAYER-1
 10
1.958560
 20
0.177850
 30
0.000000
  0
SEQEND
  8
LAYER-1
  0
POLYLINE
  8
LAYER-1
 66
  1
 70
  1
 62
  0
 10
1.991103
 20
0.078126
 30
0.000000
  0
VERTEX
  8
LAYER-1
 10
1.991103
 20
0.078126
 30
0.000000
  0
VERTEX
  8
LAYER-1
 10
1.974611
 20
0.052952
 30
0.000000
  0
VERTEX
  8
LAYER-1
 10
1.989367
 20
0.045140
 30
0.000000
  0
SEQEND
  8
LAYER-1
  0
POLYLINE
  8
LAYER-1
 66
  1
 70
  0
 62
  0
 10
1.729394
 20
0.182190
 30
0.000000
  0
VERTEX
  8
LAYER-1
 10
1.729394
 20
0.182190
 30
0.000000
  0
VERTEX
  8
LAYER-1
 10
1.725053
 20
0.182190
 30
0.000000
  0
VERTEX
  8
LAYER-1
 10
1.721581
 20
0.177850
 30
0.000000
  0
VERTEX
  8
LAYER-1
 10
1.720713
 20
0.172641
 30
0.000000
  0
VERTEX
  8
LAYER-1
 10
1.722449
 20
0.168301
 30
0.000000
  0
VERTEX
  8
LAYER-1
 10
1.726789
 20
0.166565
 30
0.000000
  0
VERTEX
  8
LAYER-1
 10
1.731129
 20
0.166565
 30
0.000000
  0
VERTEX
  8
LAYER-1
 10
1.735469
 20
0.170037
 30
0.000000
  0
VERTEX
  8
LAYER-1
 10
1.735469
 20
0.174377
 30
0.000000
  0
VERTEX
  8
LAYER-1
 10
1.734601
 20
0.178719
 30
0.000000
  0
VERTEX
  8
LAYER-1
 10
1.730262
 20
0.181322
 30
0.000000
  0
SEQEND
  8
LAYER-1
  0
POLYLINE
  8
LAYER-1
 66
  1
 70
  1
 62
  0
 10
1.766720
 20
0.114482
 30
0.000000
  0
VERTEX
  8
LAYER-1
 10
1.766720
 20
0.114482
 30
0.000000
  0
VERTEX
  8
LAYER-1
 10
1.753699
 20
0.091912
 30
0.000000
  0
VERTEX
  8
LAYER-1
 10
1.784081
 20
0.112745
 30
0.000000
  0
SEQEND
  8
LAYER-1
  0
POLYLINE
  8
LAYER-1
 66
  1
 70
  1
 62
  0
 10
2.022520
 20
0.060234
 30
0.000000
  0
VERTEX
  8
LAYER-1
 10
2.022520
 20
0.060234
 30
0.000000
  0
VERTEX
  8
LAYER-1
 10
2.035208
 20
0.079598
 30
0.000000
  0
VERTEX
  8
LAYER-1
 10
2.023856
 20
0.085609
 30
0.000000
  0
SEQEND
  8
LAYER-1
  0
POLYLINE
  8
LAYER-1
 66
  1
 70
  0
 62
  0
 10
1.921746
 20
0.060681
 30
0.000000
  0
VERTEX
  8
LAYER-1
 10
1.921746
 20
0.060681
 30
0.000000
  0
VERTEX
  8
LAYER-1
 10
1.926086
 20
0.060681
 30
0.000000
  0
VERTEX
  8
LAYER-1
 10
1.929558
 20
0.065022
 30
0.000000
  0
VERTEX
  8
LAYER-1
 10
1.930426
 20
0.070229
 30
0.000000
  0
VERTEX
  8
LAYER-1
 10
1.928690
 20
0.074571
 30
0.000000
  0
VERTEX
  8
LAYER-1
 10
1.924350
 20
0.076306
 30
0.000000
  0
VERTEX
  8
LAYER-1
 10
1.920010
 20
0.076306
 30
0.000000
  0
VERTEX
  8
LAYER-1
 10
1.915669
 20
0.072834
 30
0.000000
  0
VERTEX
  8
LAYER-1
 10
1.915669
 20
0.068493
 30
0.000000
  0
VERTEX
  8
LAYER-1
 10
1.916537
 20
0.064153
 30
0.000000
  0
VERTEX
  8
LAYER-1
 10
1.920878
 20
0.061548
 30
0.000000
  0
SEQEND
  8
LAYER-1
  0
POLYLINE
  8
LAYER-1
 66
  1
 70
  0
 62
  0
 10
1.611250
 20
0.096548
 30
0.000000
  0
VERTEX
  8
LAYER-1
 10
1.611250
 20
0.096548
 30
0.000000
  0
VERTEX
  8
LAYER-1
 10
1.615591
 20
0.096548
 30
0.000000
  0
VERTEX
  8
LAYER-1
 10
1.619063
 20
0.100889
 30
0.000000
  0
VERTEX
  8
LAYER-1
 10
1.619932
 20
0.106097
 30
0.000000
  0
VERTEX
  8
LAYER-1
 10
1.618196
 20
0.110438
 30
0.000000
  0
VERTEX
  8
LAYER-1
 10
1.613855
 20
0.112173
 30
0.000000
  0
VERTEX
  8
LAYER-1
 10
1.609514
 20
0.112173
 30
0.000000
  0
VERTEX
  8
LAYER-1
 10
1.605174
 20
0.108702
 30
0.000000
  0
VERTEX
  8
LAYER-1
 10
1.605174
 20
0.104361
 30
0.000000
  0
VERTEX
  8
LAYER-1
 10
1.606043
 20
0.100021
 30
0.000000
  0
VERTEX
  8
LAYER-1
 10
1.610383
 20
0.097416
 30
0.000000
  0
SEQEND
  8
LAYER-1
  0
POLYLINE
  8
LAYER-1
 66
  1
 70
  1
 62
  0
 10
2.106564
 20
0.162659
 30
0.000000
  0
VERTEX
  8
LAYER-1
 10
2.106564
 20
0.162659
 30
0.000000
  0
VERTEX
  8
LAYER-1
 10
2.080524
 20
0.155714
 30
0.000000
  0
VERTEX
  8
LAYER-1
 10
2.094411
 20
0.130541
 30
0.000000
  0
SEQEND
  8
LAYER-1
  0
POLYLINE
  8
LAYER-1
 66
  1
 70
  1
 62
  0
 10
1.845448
 20
0.123064
 30
0.000000
  0
VERTEX
  8
LAYER-1
 10
1.845448
 20
0.123064
 30
0.000000
  0
VERTEX
  8
LAYER-1
 10
1.822877
 20
0.136085
 30
0.000000
  0
VERTEX
  8
LAYER-1
 10
1.843710
 20
0.105703
 30
0.000000
  0
SEQEND
  8
LAYER-1
  0
POLYLINE
  8
LAYER-1
 66
  1
 70
  1
 62
  0
 10
1.875304
 20
0.045491
 30
0.000000
  0
VERTEX
  8
LAYER-1
 10
1.875304
 20
0.045491
 30
0.000000
  0
VERTEX
  8
LAYER-1
 10
1.900478
 20
0.028997
 30
0.000000
  0
VERTEX
  8
LAYER-1
 10
1.908290
 20
0.043755
 30
0.000000
  0
SEQEND
  8
LAYER-1
  0
POLYLINE
  8
LAYER-1
 66
  1
 70
  0
 62
  0
 10
2.137814
 20
0.212136
 30
0.000000
  0
VERTEX
  8
LAYER-1
 10
2.137814
 20
0.212136
 30
0.000000
  0
VERTEX
  8
LAYER-1
 10
2.137814
 20
0.216476
 30
0.000000
  0
VERTEX
  8
LAYER-1
 10
2.133474
 20
0.219949
 30
0.000000
  0
VERTEX
  8
LAYER-1
 10
2.128266
 20
0.220816
 30
0.000000
  0
VERTEX
  8
LAYER-1
 10
2.123925
 20
0.219081
 30
0.000000
  0
VERTEX
  8
LAYER-1
 10
2.122189
 20
0.214739
 30
0.000000
  0
VERTEX
  8
LAYER-1
 10
2.122189
 20
0.210400
 30
0.000000
  0
VERTEX
  8
LAYER-1
 10
2.125661
 20
0.206059
 30
0.000000
  0
VERTEX
  8
LAYER-1
 10
2.130002
 20
0.206059
 30
0.000000
  0
VERTEX
  8
LAYER-1
 10
2.134342
 20
0.206927
 30
0.000000
  0
VERTEX
  8
LAYER-1
 10
2.136947
 20
0.211268
 30
0.000000
  0
SEQEND
  8
LAYER-1
  0
POLYLINE
  8
LAYER-1
 66
  1
 70
  1
 62
  0
 10
2.070107
 20
0.174811
 30
0.000000
  0
VERTEX
  8
LAYER-1
 10
2.070107
 20
0.174811
 30
0.000000
  0
VERTEX
  8
LAYER-1
 10
2.047536
 20
0.187831
 30
0.000000
  0
VERTEX
  8
LAYER-1
 10
2.068369
 20
0.157450
 30
0.000000
  0
SEQEND
  8
LAYER-1
  0
POLYLINE
  8
LAYER-1
 66
  1
 70
  1
 62
  0
 10
0.838869
 20
0.211434
 30
0.000000
  0
VERTEX
  8
LAYER-1
 10
0.838869
 20
0.211434
 30
0.000000
  0
VERTEX
  8
LAYER-1
 10
0.819505
 20
0.224121
 30
0.000000
  0
VERTEX
  8
LAYER-1
 10
0.813493
 20
0.212770
 30
0.000000
  0
SEQEND
  8
LAYER-1
  0
POLYLINE
  8
LAYER-1
 66
  1
 70
  0
 62
  0
 10
1.849786
 20
0.182960
 30
0.000000
  0
VERTEX
  8
LAYER-1
 10
1.849786
 20
0.182960
 30
0.000000
  0
VERTEX
  8
LAYER-1
 10
1.849786
 20
0.187299
 30
0.000000
  0
VERTEX
  8
LAYER-1
 10
1.845446
 20
0.190771
 30
0.000000
  0
VERTEX
  8
LAYER-1
 10
1.840238
 20
0.191639
 30
0.000000
  0
VERTEX
  8
LAYER-1
 10
1.835897
 20
0.189903
 30
0.000000
  0
VERTEX
  8
LAYER-1
 10
1.834161
 20
0.185564
 30
0.000000
  0
VERTEX
  8
LAYER-1
 10
1.834161
 20
0.181224
 30
0.000000
  0
VERTEX
  8
LAYER-1
 10
1.837633
 20
0.176883
 30
0.000000
  0
VERTEX
  8
LAYER-1
 10
1.841974
 20
0.176883
 30
0.000000
  0
VERTEX
  8
LAYER-1
 10
1.846314
 20
0.177751
 30
0.000000
  0
VERTEX
  8
LAYER-1
 10
1.848919
 20
0.182092
 30
0.000000
  0
SEQEND
  8
LAYER-1
  0
POLYLINE
  8
LAYER-1
 66
  1
 70
  0
 62
  0
 10
0.815766
 20
0.144428
 30
0.000000
  0
VERTEX
  8
LAYER-1
 10
0.815766
 20
0.144428
 30
0.000000
  0
VERTEX
  8
LAYER-1
 10
0.815766
 20
0.148769
 30
0.000000
  0
VERTEX
  8
LAYER-1
 10
0.811425
 20
0.152240
 30
0.000000
  0
VERTEX
  8
LAYER-1
 10
0.806217
 20
0.153108
 30
0.000000
  0
VERTEX
  8
LAYER-1
 10
0.801877
 20
0.151372
 30
0.000000
  0
VERTEX
  8
LAYER-1
 10
0.800141
 20
0.147032
 30
0.000000
  0
VERTEX
  8
LAYER-1
 10
0.800141
 20
0.142693
 30
0.000000
  0
VERTEX
  8
LAYER-1
 10
0.803612
 20
0.138351
 30
0.000000
  0
VERTEX
  8
LAYER-1
 10
0.807953
 20
0.138351
 30
0.000000
  0
VERTEX
  8
LAYER-1
 10
0.812294
 20
0.139219
 30
0.000000
  0
VERTEX
  8
LAYER-1
 10
0.814899
 20
0.143560
 30
0.000000
  0
SEQEND
  8
LAYER-1
  0
POLYLINE
  8
LAYER-1
 66
  1
 70
  0
 62
  0
 10
1.938161
 20
0.212133
 30
0.000000
  0
VERTEX
  8
LAYER-1
 10
1.938161
 20
0.212133
 30
0.000000
  0
VERTEX
  8
LAYER-1
 10
1.938161
 20
0.216474
 30
0.000000
  0
VERTEX
  8
LAYER-1
 10
1.933820
 20
0.219945
 30
0.000000
  0
VERTEX
  8
LAYER-1
 10
1.928613
 20
0.220813
 30
0.000000
  0
VERTEX
  8
LAYER-1
 10
1.924272
 20
0.219077
 30
0.000000
  0
VERTEX
  8
LAYER-1
 10
1.922536
 20
0.214737
 30
0.000000
  0
VERTEX
  8
LAYER-1
 10
1.922536
 20
0.210397
 30
0.000000
  0
VERTEX
  8
LAYER-1
 10
1.926008
 20
0.206056
 30
0.000000
  0
VERTEX
  8
LAYER-1
 10
1.930348
 20
0.206056
 30
0.000000
  0
VERTEX
  8
LAYER-1
 10
1.934689
 20
0.206924
 30
0.000000
  0
VERTEX
  8
LAYER-1
 10
1.937294
 20
0.211265
 30
0.000000
  0
SEQEND
  8
LAYER-1
  0
POLYLINE
  8
LAYER-1
 66
  1
 70
  1
 62
  0
 10
1.497449
 20
0.076669
 30
0.000000
  0
VERTEX
  8
LAYER-1
 10
1.497449
 20
0.076669
 30
0.000000
  0
VERTEX
  8
LAYER-1
 10
1.471408
 20
0.069724
 30
0.000000
  0
VERTEX
  8
LAYER-1
 10
1.485296
 20
0.044551
 30
0.000000
  0
SEQEND
  8
LAYER-1
  0
POLYLINE
  8
LAYER-1
 66
  1
 70
  1
 62
  0
 10
2.343977
 20
0.140089
 30
0.000000
  0
VERTEX
  8
LAYER-1
 10
2.343977
 20
0.140089
 30
0.000000
  0
VERTEX
  8
LAYER-1
 10
2.366546
 20
0.127068
 30
0.000000
  0
VERTEX
  8
LAYER-1
 10
2.345713
 20
0.157450
 30
0.000000
  0
SEQEND
  8
LAYER-1
  0
POLYLINE
  8
LAYER-1
 66
  1
 70
  1
 62
  0
 10
0.953351
 20
0.157015
 30
0.000000
  0
VERTEX
  8
LAYER-1
 10
0.953351
 20
0.157015
 30
0.000000
  0
VERTEX
  8
LAYER-1
 10
0.978525
 20
0.140522
 30
0.000000
  0
VERTEX
  8
LAYER-1
 10
0.986338
 20
0.155280
 30
0.000000
  0
SEQEND
  8
LAYER-1
  0
POLYLINE
  8
LAYER-1
 66
  1
 70
  0
 62
  0
 10
2.271928
 20
0.186961
 30
0.000000
  0
VERTEX
  8
LAYER-1
 10
2.271928
 20
0.186961
 30
0.000000
  0
VERTEX
  8
LAYER-1
 10
2.271928
 20
0.182621
 30
0.000000
  0
VERTEX
  8
LAYER-1
 10
2.276269
 20
0.179149
 30
0.000000
  0
VERTEX
  8
LAYER-1
 10
2.281477
 20
0.178281
 30
0.000000
  0
VERTEX
  8
LAYER-1
 10
2.285817
 20
0.180017
 30
0.000000
  0
VERTEX
  8
LAYER-1
 10
2.287553
 20
0.184358
 30
0.000000
  0
VERTEX
  8
LAYER-1
 10
2.287553
 20
0.188696
 30
0.000000
  0
VERTEX
  8
LAYER-1
 10
2.284081
 20
0.193037
 30
0.000000
  0
VERTEX
  8
LAYER-1
 10
2.279741
 20
0.193037
 30
0.000000
  0
VERTEX
  8
LAYER-1
 10
2.275400
 20
0.192169
 30
0.000000
  0
VERTEX
  8
LAYER-1
 10
2.272796
 20
0.187828
 30
0.000000
  0
SEQEND
  8
LAYER-1
  0
POLYLINE
  8
LAYER-1
 66
  1
 70
  1
 62
  0
 10
2.221580
 20
0.198246
 30
0.000000
  0
VERTEX
  8
LAYER-1
 10
2.221580
 20
0.198246
 30
0.000000
  0
VERTEX
  8
LAYER-1
 10
2.244150
 20
0.185226
 30
0.000000
  0
VERTEX
  8
LAYER-1
 10
2.223317
 20
0.215608
 30
0.000000
  0
SEQEND
  8
LAYER-1
  0
POLYLINE
  8
LAYER-1
 66
  1
 70
  1
 62
  0
 10
0.951950
 20
0.104766
 30
0.000000
  0
VERTEX
  8
LAYER-1
 10
0.951950
 20
0.104766
 30
0.000000
  0
VERTEX
  8
LAYER-1
 10
0.971315
 20
0.092079
 30
0.000000
  0
VERTEX
  8
LAYER-1
 10
0.977325
 20
0.103430
 30
0.000000
  0
SEQEND
  8
LAYER-1
  0
POLYLINE
  8
LAYER-1
 66
  1
 70
  0
 62
  0
 10
1.678091
 20
0.057051
 30
0.000000
  0
VERTEX
  8
LAYER-1
 10
1.678091
 20
0.057051
 30
0.000000
  0
VERTEX
  8
LAYER-1
 10
1.678091
 20
0.061390
 30
0.000000
  0
VERTEX
  8
LAYER-1
 10
1.673750
 20
0.064863
 30
0.000000
  0
VERTEX
  8
LAYER-1
 10
1.668543
 20
0.065731
 30
0.000000
  0
VERTEX
  8
LAYER-1
 10
1.664202
 20
0.063995
 30
0.000000
  0
VERTEX
  8
LAYER-1
 10
1.662466
 20
0.059654
 30
0.000000
  0
VERTEX
  8
LAYER-1
 10
1.662466
 20
0.055314
 30
0.000000
  0
VERTEX
  8
LAYER-1
 10
1.665938
 20
0.050975
 30
0.000000
  0
VERTEX
  8
LAYER-1
 10
1.670278
 20
0.050975
 30
0.000000
  0
VERTEX
  8
LAYER-1
 10
1.674619
 20
0.051842
 30
0.000000
  0
VERTEX
  8
LAYER-1
 10
1.677223
 20
0.056183
 30
0.000000
  0
SEQEND
  8
LAYER-1
  0
POLYLINE
  8
LAYER-1
 66
  1
 70
  0
 62
  0
 10
2.483733
 20
0.140089
 30
0.000000
  0
VERTEX
  8
LAYER-1
 10
2.483733
 20
0.140089
 30
0.000000
  0
VERTEX
  8
LAYER-1
 10
2.483733
 20
0.135749
 30
0.000000
  0
VERTEX
  8
LAYER-1
 10
2.488074
 20
0.132277
 30
0.000000
  0
VERTEX
  8
LAYER-1
 10
2.493282
 20
0.131409
 30
0.000000
  0
VERTEX
  8
LAYER-1
 10
2.497623
 20
0.133145
 30
0.000000
  0
VERTEX
  8
LAYER-1
 10
2.499358
 20
0.137484
 30
0.000000
  0
VERTEX
  8
LAYER-1
 10
2.499358
 20
0.141825
 30
0.000000
  0
VERTEX
  8
LAYER-1
 10
2.495887
 20
0.146166
 30
0.000000
  0
VERTEX
  8
LAYER-1
 10
2.491546
 20
0.146166
 30
0.000000
  0
VERTEX
  8
LAYER-1
 10
2.487205
 20
0.145297
 30
0.000000
  0
VERTEX
  8
LAYER-1
 10
2.484602
 20
0.140957
 30
0.000000
  0
SEQEND
  8
LAYER-1
  0
POLYLINE
  8
LAYER-1
 66
  1
 70
  0
 62
  0
 10
2.317935
 20
0.194776
 30
0.000000
  0
VERTEX
  8
LAYER-1
 10
2.317935
 20
0.194776
 30
0.000000
  0
VERTEX
  8
LAYER-1
 10
2.317935
 20
0.190435
 30
0.000000
  0
VERTEX
  8
LAYER-1
 10
2.322276
 20
0.186963
 30
0.000000
  0
VERTEX
  8
LAYER-1
 10
2.327483
 20
0.186096
 30
0.000000
  0
VERTEX
  8
LAYER-1
 10
2.331824
 20
0.187831
 30
0.000000
  0
VERTEX
  8
LAYER-1
 10
2.333560
 20
0.192171
 30
0.000000
  0
VERTEX
  8
LAYER-1
 10
2.333560
 20
0.196512
 30
0.000000
  0
VERTEX
  8
LAYER-1
 10
2.330088
 20
0.200852
 30
0.000000
  0
VERTEX
  8
LAYER-1
 10
2.325748
 20
0.200852
 30
0.000000
  0
VERTEX
  8
LAYER-1
 10
2.321407
 20
0.199983
 30
0.000000
  0
VERTEX
  8
LAYER-1
 10
2.318802
 20
0.195644
 30
0.000000
  0
SEQEND
  8
LAYER-1
  0
POLYLINE
  8
LAYER-1
 66
  1
 70
  1
 62
  0
 10
2.080088
 20
0.111877
 30
0.000000
  0
VERTEX
  8
LAYER-1
 10
2.080088
 20
0.111877
 30
0.000000
  0
VERTEX
  8
LAYER-1
 10
2.087033
 20
0.085837
 30
0.000000
  0
VERTEX
  8
LAYER-1
 10
2.112206
 20
0.099725
 30
0.000000
  0
SEQEND
  8
LAYER-1
  0
POLYLINE
  8
LAYER-1
 66
  1
 70
  1
 62
  0
 10
2.184603
 20
0.099120
 30
0.000000
  0
VERTEX
  8
LAYER-1
 10
2.184603
 20
0.099120
 30
0.000000
  0
VERTEX
  8
LAYER-1
 10
2.171581
 20
0.076549
 30
0.000000
  0
VERTEX
  8
LAYER-1
 10
2.201963
 20
0.097382
 30
0.000000
  0
SEQEND
  8
LAYER-1
  0
POLYLINE
  8
LAYER-1
 66
  1
 70
  1
 62
  0
 10
1.900567
 20
0.129575
 30
0.000000
  0
VERTEX
  8
LAYER-1
 10
1.900567
 20
0.129575
 30
0.000000
  0
VERTEX
  8
LAYER-1
 10
1.884074
 20
0.104401
 30
0.000000
  0
VERTEX
  8
LAYER-1
 10
1.898831
 20
0.096589
 30
0.000000
  0
SEQEND
  8
LAYER-1
  0
POLYLINE
  8
LAYER-1
 66
  1
 70
  0
 62
  0
 10
2.030610
 20
0.143127
 30
0.000000
  0
VERTEX
  8
LAYER-1
 10
2.030610
 20
0.143127
 30
0.000000
  0
VERTEX
  8
LAYER-1
 10
2.026269
 20
0.143127
 30
0.000000
  0
VERTEX
  8
LAYER-1
 10
2.022797
 20
0.138787
 30
0.000000
  0
VERTEX
  8
LAYER-1
 10
2.021929
 20
0.133579
 30
0.000000
  0
VERTEX
  8
LAYER-1
 10
2.023665
 20
0.129239
 30
0.000000
  0
VERTEX
  8
LAYER-1
 10
2.028006
 20
0.127502
 30
0.000000
  0
VERTEX
  8
LAYER-1
 10
2.032345
 20
0.127502
 30
0.000000
  0
VERTEX
  8
LAYER-1
 10
2.036686
 20
0.130975
 30
0.000000
  0
VERTEX
  8
LAYER-1
 10
2.036686
 20
0.135315
 30
0.000000
  0
VERTEX
  8
LAYER-1
 10
2.035818
 20
0.139656
 30
0.000000
  0
VERTEX
  8
LAYER-1
 10
2.031477
 20
0.142260
 30
0.000000
  0
SEQEND
  8
LAYER-1
  0
POLYLINE
  8
LAYER-1
 66
  1
 70
  1
 62
  0
 10
0.888249
 20
0.219515
 30
0.000000
  0
VERTEX
  8
LAYER-1
 10
0.888249
 20
0.219515
 30
0.000000
  0
VERTEX
  8
LAYER-1
 10
0.875227
 20
0.196944
 30
0.000000
  0
VERTEX
  8
LAYER-1
 10
0.905609
 20
0.217777
 30
0.000000
  0
SEQEND
  8
LAYER-1
  0
POLYLINE
  8
LAYER-1
 66
  1
 70
  1
 62
  0
 10
1.885644
 20
0.162225
 30
0.000000
  0
VERTEX
  8
LAYER-1
 10
1.885644
 20
0.162225
 30
0.000000
  0
VERTEX
  8
LAYER-1
 10
1.872957
 20
0.142860
 30
0.000000
  0
VERTEX
  8
LAYER-1
 10
1.884308
 20
0.136849
 30
0.000000
  0
SEQEND
  8
LAYER-1
  0
POLYLINE
  8
LAYER-1
 66
  1
 70
  0
 62
  0
 10
2.182519
 20
0.144864
 30
0.000000
  0
VERTEX
  8
LAYER-1
 10
2.182519
 20
0.144864
 30
0.000000
  0
VERTEX
  8
LAYER-1
 10
2.178179
 20
0.144864
 30
0.000000
  0
VERTEX
  8
LAYER-1
 10
2.174706
 20
0.140522
 30
0.000000
  0
VERTEX
  8
LAYER-1
 10
2.173838
 20
0.135315
 30
0.000000
  0
VERTEX
  8
LAYER-1
 10
2.175574
 20
0.130975
 30
0.000000
  0
VERTEX
  8
LAYER-1
 10
2.179915
 20
0.129239
 30
0.000000
  0
VERTEX
  8
LAYER-1
 10
2.184256
 20
0.129239
 30
0.000000
  0
VERTEX
  8
LAYER-1
 10
2.188595
 20
0.132710
 30
0.000000
  0
VERTEX
  8
LAYER-1
 10
2.188595
 20
0.137051
 30
0.000000
  0
VERTEX
  8
LAYER-1
 10
2.187727
 20
0.141391
 30
0.000000
  0
VERTEX
  8
LAYER-1
 10
2.183387
 20
0.143996
 30
0.000000
  0
SEQEND
  8
LAYER-1
  0
POLYLINE
  8
LAYER-1
 66
  1
 70
  0
 62
  0
 10
2.242415
 20
0.150071
 30
0.000000
  0
VERTEX
  8
LAYER-1
 10
2.242415
 20
0.150071
 30
0.000000
  0
VERTEX
  8
LAYER-1
 10
2.238074
 20
0.150071
 30
0.000000
  0
VERTEX
  8
LAYER-1
 10
2.234602
 20
0.145731
 30
0.000000
  0
VERTEX
  8
LAYER-1
 10
2.233735
 20
0.140522
 30
0.000000
  0
VERTEX
  8
LAYER-1
 10
2.235470
 20
0.136182
 30
0.000000
  0
VERTEX
  8
LAYER-1
 10
2.239811
 20
0.134446
 30
0.000000
  0
VERTEX
  8
LAYER-1
 10
2.244151
 20
0.134446
 30
0.000000
  0
VERTEX
  8
LAYER-1
 10
2.248491
 20
0.137918
 30
0.000000
  0
VERTEX
  8
LAYER-1
 10
2.248491
 20
0.142259
 30
0.000000
  0
VERTEX
  8
LAYER-1
 10
2.247624
 20
0.146600
 30
0.000000
  0
VERTEX
  8
LAYER-1
 10
2.243283
 20
0.149204
 30
0.000000
  0
SEQEND
  8
LAYER-1
  0
POLYLINE
  8
LAYER-1
 66
  1
 70
  0
 62
  0
 10
0.898665
 20
0.137050
 30
0.000000
  0
VERTEX
  8
LAYER-1
 10
0.898665
 20
0.137050
 30
0.000000
  0
VERTEX
  8
LAYER-1
 10
0.894324
 20
0.137050
 30
0.000000
  0
VERTEX
  8
LAYER-1
 10
0.890852
 20
0.132709
 30
0.000000
  0
VERTEX
  8
LAYER-1
 10
0.889984
 20
0.127502
 30
0.000000
  0
VERTEX
  8
LAYER-1
 10
0.891720
 20
0.123161
 30
0.000000
  0
VERTEX
  8
LAYER-1
 10
0.896061
 20
0.121425
 30
0.000000
  0
VERTEX
  8
LAYER-1
 10
0.900401
 20
0.121425
 30
0.000000
  0
VERTEX
  8
LAYER-1
 10
0.904741
 20
0.124897
 30
0.000000
  0
VERTEX
  8
LAYER-1
 10
0.904741
 20
0.129238
 30
0.000000
  0
VERTEX
  8
LAYER-1
 10
0.903874
 20
0.133578
 30
0.000000
  0
VERTEX
  8
LAYER-1
 10
0.899533
 20
0.136183
 30
0.000000
  0
SEQEND
  8
LAYER-1
  0
POLYLINE
  8
LAYER-1
 66
  1
 70
  1
 62
  0
 10
2.549706
 20
0.176981
 30
0.000000
  0
VERTEX
  8
LAYER-1
 10
2.549706
 20
0.176981
 30
0.000000
  0
VERTEX
  8
LAYER-1
 10
2.556651
 20
0.150939
 30
0.000000
  0
VERTEX
  8
LAYER-1
 10
2.581824
 20
0.164827
 30
0.000000
  0
SEQEND
  8
LAYER-1
  0
POLYLINE
  8
LAYER-1
 66
  1
 70
  1
 62
  0
 10
2.712033
 20
0.205626
 30
0.000000
  0
VERTEX
  8
LAYER-1
 10
2.712033
 20
0.205626
 30
0.000000
  0
VERTEX
  8
LAYER-1
 10
2.699012
 20
0.183057
 30
0.000000
  0
VERTEX
  8
LAYER-1
 10
2.729394
 20
0.203889
 30
0.000000
  0
SEQEND
  8
LAYER-1
  0
POLYLINE
  8
LAYER-1
 66
  1
 70
  1
 62
  0
 10
1.388248
 20
0.156581
 30
0.000000
  0
VERTEX
  8
LAYER-1
 10
1.388248
 20
0.156581
 30
0.000000
  0
VERTEX
  8
LAYER-1
 10
1.371755
 20
0.131407
 30
0.000000
  0
VERTEX
  8
LAYER-1
 10
1.386512
 20
0.123594
 30
0.000000
  0
SEQEND
  8
LAYER-1
  0
POLYLINE
  8
LAYER-1
 66
  1
 70
  0
 62
  0
 10
2.500227
 20
0.208230
 30
0.000000
  0
VERTEX
  8
LAYER-1
 10
2.500227
 20
0.208230
 30
0.000000
  0
VERTEX
  8
LAYER-1
 10
2.495887
 20
0.208230
 30
0.000000
  0
VERTEX
  8
LAYER-1
 10
2.492415
 20
0.203889
 30
0.000000
  0
VERTEX
  8
LAYER-1
 10
2.491546
 20
0.198681
 30
0.000000
  0
VERTEX
  8
LAYER-1
 10
2.493283
 20
0.194340
 30
0.000000
  0
VERTEX
  8
LAYER-1
 10
2.497623
 20
0.192605
 30
0.000000
  0
VERTEX
  8
LAYER-1
 10
2.501963
 20
0.192605
 30
0.000000
  0
VERTEX
  8
LAYER-1
 10
2.506304
 20
0.196076
 30
0.000000
  0
VERTEX
  8
LAYER-1
 10
2.506304
 20
0.200417
 30
0.000000
  0
VERTEX
  8
LAYER-1
 10
2.505435
 20
0.204758
 30
0.000000
  0
VERTEX
  8
LAYER-1
 10
2.501095
 20
0.207362
 30
0.000000
  0
SEQEND
  8
LAYER-1
  0
POLYLINE
  8
LAYER-1
 66
  1
 70
  1
 62
  0
 10
2.537554
 20
0.140522
 30
0.000000
  0
VERTEX
  8
LAYER-1
 10
2.537554
 20
0.140522
 30
0.000000
  0
VERTEX
  8
LAYER-1
 10
2.524533
 20
0.117952
 30
0.000000
  0
VERTEX
  8
LAYER-1
 10
2.554915
 20
0.138785
 30
0.000000
  0
SEQEND
  8
LAYER-1
  0
POLYLINE
  8
LAYER-1
 66
  1
 70
  1
 62
  0
 10
1.096481
 20
0.230893
 30
0.000000
  0
VERTEX
  8
LAYER-1
 10
1.096481
 20
0.230893
 30
0.000000
  0
VERTEX
  8
LAYER-1
 10
1.115845
 20
0.218207
 30
0.000000
  0
VERTEX
  8
LAYER-1
 10
1.121856
 20
0.229557
 30
0.000000
  0
SEQEND
  8
LAYER-1
  0
POLYLINE
  8
LAYER-1
 66
  1
 70
  0
 62
  0
 10
2.652137
 20
0.209965
 30
0.000000
  0
VERTEX
  8
LAYER-1
 10
2.652137
 20
0.209965
 30
0.000000
  0
VERTEX
  8
LAYER-1
 10
2.647796
 20
0.209965
 30
0.000000
  0
VERTEX
  8
LAYER-1
 10
2.644324
 20
0.205625
 30
0.000000
  0
VERTEX
  8
LAYER-1
 10
2.643456
 20
0.200417
 30
0.000000
  0
VERTEX
  8
LAYER-1
 10
2.645192
 20
0.196076
 30
0.000000
  0
VERTEX
  8
LAYER-1
 10
2.649533
 20
0.194340
 30
0.000000
  0
VERTEX
  8
LAYER-1
 10
2.653873
 20
0.194340
 30
0.000000
  0
VERTEX
  8
LAYER-1
 10
2.658213
 20
0.197812
 30
0.000000
  0
VERTEX
  8
LAYER-1
 10
2.658213
 20
0.202153
 30
0.000000
  0
VERTEX
  8
LAYER-1
 10
2.657345
 20
0.206494
 30
0.000000
  0
VERTEX
  8
LAYER-1
 10
2.653005
 20
0.209097
 30
0.000000
  0
SEQEND
  8
LAYER-1
  0
POLYLINE
  8
LAYER-1
 66
  1
 70
  0
 62
  0
 10
1.440332
 20
0.150505
 30
0.000000
  0
VERTEX
  8
LAYER-1
 10
1.440332
 20
0.150505
 30
0.000000
  0
VERTEX
  8
LAYER-1
 10
1.435991
 20
0.150505
 30
0.000000
  0
VERTEX
  8
LAYER-1
 10
1.432519
 20
0.146164
 30
0.000000
  0
VERTEX
  8
LAYER-1
 10
1.431651
 20
0.140956
 30
0.000000
  0
VERTEX
  8
LAYER-1
 10
1.433387
 20
0.136615
 30
0.000000
  0
VERTEX
  8
LAYER-1
 10
1.437727
 20
0.134880
 30
0.000000
  0
VERTEX
  8
LAYER-1
 10
1.442068
 20
0.134880
 30
0.000000
  0
VERTEX
  8
LAYER-1
 10
1.446407
 20
0.138351
 30
0.000000
  0
VERTEX
  8
LAYER-1
 10
1.446407
 20
0.142693
 30
0.000000
  0
VERTEX
  8
LAYER-1
 10
1.445540
 20
0.147033
 30
0.000000
  0
VERTEX
  8
LAYER-1
 10
1.441200
 20
0.149637
 30
0.000000
  0
SEQEND
  8
LAYER-1
  0
POLYLINE
  8
LAYER-1
 66
  1
 70
  0
 62
  0
 10
1.023664
 20
0.127068
 30
0.000000
  0
VERTEX
  8
LAYER-1
 10
1.023664
 20
0.127068
 30
0.000000
  0
VERTEX
  8
LAYER-1
 10
1.019324
 20
0.127068
 30
0.000000
  0
VERTEX
  8
LAYER-1
 10
1.015852
 20
0.122726
 30
0.000000
  0
VERTEX
  8
LAYER-1
 10
1.014984
 20
0.117519
 30
0.000000
  0
VERTEX
  8
LAYER-1
 10
1.016720
 20
0.113178
 30
0.000000
  0
VERTEX
  8
LAYER-1
 10
1.021060
 20
0.111443
 30
0.000000
  0
VERTEX
  8
LAYER-1
 10
1.025400
 20
0.111443
 30
0.000000
  0
VERTEX
  8
LAYER-1
 10
1.029740
 20
0.114914
 30
0.000000
  0
VERTEX
  8
LAYER-1
 10
1.029740
 20
0.119255
 30
0.000000
  0
VERTEX
  8
LAYER-1
 10
1.028872
 20
0.123595
 30
0.000000
  0
VERTEX
  8
LAYER-1
 10
1.024532
 20
0.126200
 30
0.000000
  0
SEQEND
  8
LAYER-1
  0
POLYLINE
  8
LAYER-1
 66
  1
 70
  1
 62
  0
 10
2.991547
 20
0.201285
 30
0.000000
  0
VERTEX
  8
LAYER-1
 10
2.991547
 20
0.201285
 30
0.000000
  0
VERTEX
  8
LAYER-1
 10
2.998491
 20
0.175245
 30
0.000000
  0
VERTEX
  8
LAYER-1
 10
3.023665
 20
0.189132
 30
0.000000
  0
SEQEND
  8
LAYER-1
  0
POLYLINE
  8
LAYER-1
 66
  1
 70
  1
 62
  0
 10
3.153873
 20
0.229932
 30
0.000000
  0
VERTEX
  8
LAYER-1
 10
3.153873
 20
0.229932
 30
0.000000
  0
VERTEX
  8
LAYER-1
 10
3.140852
 20
0.207362
 30
0.000000
  0
VERTEX
  8
LAYER-1
 10
3.171234
 20
0.228194
 30
0.000000
  0
SEQEND
  8
LAYER-1
  0
POLYLINE
  8
LAYER-1
 66
  1
 70
  1
 62
  0
 10
2.382171
 20
0.165696
 30
0.000000
  0
VERTEX
  8
LAYER-1
 10
2.382171
 20
0.165696
 30
0.000000
  0
VERTEX
  8
LAYER-1
 10
2.407345
 20
0.149202
 30
0.000000
  0
VERTEX
  8
LAYER-1
 10
2.415157
 20
0.163960
 30
0.000000
  0
SEQEND
  8
LAYER-1
  0
POLYLINE
  8
LAYER-1
 66
  1
 70
  0
 62
  0
 10
2.952484
 20
0.222120
 30
0.000000
  0
VERTEX
  8
LAYER-1
 10
2.952484
 20
0.222120
 30
0.000000
  0
VERTEX
  8
LAYER-1
 10
2.948144
 20
0.222120
 30
0.000000
  0
VERTEX
  8
LAYER-1
 10
2.944672
 20
0.217779
 30
0.000000
  0
VERTEX
  8
LAYER-1
 10
2.943804
 20
0.212571
 30
0.000000
  0
VERTEX
  8
LAYER-1
 10
2.945540
 20
0.208231
 30
0.000000
  0
VERTEX
  8
LAYER-1
 10
2.949880
 20
0.206495
 30
0.000000
  0
VERTEX
  8
LAYER-1
 10
2.954220
 20
0.206495
 30
0.000000
  0
VERTEX
  8
LAYER-1
 10
2.958561
 20
0.209966
 30
0.000000
  0
VERTEX
  8
LAYER-1
 10
2.958561
 20
0.214307
 30
0.000000
  0
VERTEX
  8
LAYER-1
 10
2.957693
 20
0.218647
 30
0.000000
  0
VERTEX
  8
LAYER-1
 10
2.953352
 20
0.221252
 30
0.000000
  0
SEQEND
  8
LAYER-1
  0
POLYLINE
  8
LAYER-1
 66
  1
 70
  1
 62
  0
 10
2.968110
 20
0.133578
 30
0.000000
  0
VERTEX
  8
LAYER-1
 10
2.968110
 20
0.133578
 30
0.000000
  0
VERTEX
  8
LAYER-1
 10
2.955089
 20
0.111008
 30
0.000000
  0
VERTEX
  8
LAYER-1
 10
2.985471
 20
0.131840
 30
0.000000
  0
SEQEND
  8
LAYER-1
  0
POLYLINE
  8
LAYER-1
 66
  1
 70
  1
 62
  0
 10
3.062560
 20
0.127165
 30
0.000000
  0
VERTEX
  8
LAYER-1
 10
3.062560
 20
0.127165
 30
0.000000
  0
VERTEX
  8
LAYER-1
 10
3.049874
 20
0.107802
 30
0.000000
  0
VERTEX
  8
LAYER-1
 10
3.061224
 20
0.101790
 30
0.000000
  0
SEQEND
  8
LAYER-1
  0
POLYLINE
  8
LAYER-1
 66
  1
 70
  0
 62
  0
 10
3.093977
 20
0.226459
 30
0.000000
  0
VERTEX
  8
LAYER-1
 10
3.093977
 20
0.226459
 30
0.000000
  0
VERTEX
  8
LAYER-1
 10
3.089638
 20
0.226459
 30
0.000000
  0
VERTEX
  8
LAYER-1
 10
3.086165
 20
0.222119
 30
0.000000
  0
VERTEX
  8
LAYER-1
 10
3.085297
 20
0.216911
 30
0.000000
  0
VERTEX
  8
LAYER-1
 10
3.087033
 20
0.212570
 30
0.000000
  0
VERTEX
  8
LAYER-1
 10
3.091373
 20
0.210834
 30
0.000000
  0
VERTEX
  8
LAYER-1
 10
3.095714
 20
0.210834
 30
0.000000
  0
VERTEX
  8
LAYER-1
 10
3.100054
 20
0.214306
 30
0.000000
  0
VERTEX
  8
LAYER-1
 10
3.100054
 20
0.218647
 30
0.000000
  0
VERTEX
  8
LAYER-1
 10
3.099186
 20
0.222988
 30
0.000000
  0
VERTEX
  8
LAYER-1
 10
3.094845
 20
0.225593
 30
0.000000
  0
SEQEND
  8
LAYER-1
  0
POLYLINE
  8
LAYER-1
 66
  1
 70
  0
 62
  0
 10
2.370887
 20
0.218647
 30
0.000000
  0
VERTEX
  8
LAYER-1
 10
2.370887
 20
0.218647
 30
0.000000
  0
VERTEX
  8
LAYER-1
 10
2.370887
 20
0.214306
 30
0.000000
  0
VERTEX
  8
LAYER-1
 10
2.375228
 20
0.210834
 30
0.000000
  0
VERTEX
  8
LAYER-1
 10
2.380436
 20
0.209965
 30
0.000000
  0
VERTEX
  8
LAYER-1
 10
2.384776
 20
0.211701
 30
0.000000
  0
VERTEX
  8
LAYER-1
 10
2.386512
 20
0.216042
 30
0.000000
  0
VERTEX
  8
LAYER-1
 10
2.386512
 20
0.220383
 30
0.000000
  0
VERTEX
  8
LAYER-1
 10
2.383040
 20
0.224724
 30
0.000000
  0
VERTEX
  8
LAYER-1
 10
2.378700
 20
0.224724
 30
0.000000
  0
VERTEX
  8
LAYER-1
 10
2.374359
 20
0.223855
 30
0.000000
  0
VERTEX
  8
LAYER-1
 10
2.371754
 20
0.219514
 30
0.000000
  0
SEQEND
  8
LAYER-1
  0
POLYLINE
  8
LAYER-1
 66
  1
 70
  0
 62
  0
 10
2.934255
 20
0.134444
 30
0.000000
  0
VERTEX
  8
LAYER-1
 10
2.934255
 20
0.134444
 30
0.000000
  0
VERTEX
  8
LAYER-1
 10
2.929914
 20
0.134444
 30
0.000000
  0
VERTEX
  8
LAYER-1
 10
2.926442
 20
0.130103
 30
0.000000
  0
VERTEX
  8
LAYER-1
 10
2.925574
 20
0.124896
 30
0.000000
  0
VERTEX
  8
LAYER-1
 10
2.927310
 20
0.120555
 30
0.000000
  0
VERTEX
  8
LAYER-1
 10
2.931651
 20
0.118819
 30
0.000000
  0
VERTEX
  8
LAYER-1
 10
2.935990
 20
0.118819
 30
0.000000
  0
VERTEX
  8
LAYER-1
 10
2.940331
 20
0.122291
 30
0.000000
  0
VERTEX
  8
LAYER-1
 10
2.940331
 20
0.126632
 30
0.000000
  0
VERTEX
  8
LAYER-1
 10
2.939463
 20
0.130972
 30
0.000000
  0
VERTEX
  8
LAYER-1
 10
2.935122
 20
0.133577
 30
0.000000
  0
SEQEND
  8
LAYER-1
  0
POLYLINE
  8
LAYER-1
 66
  1
 70
  1
 62
  0
 10
2.801443
 20
0.122727
 30
0.000000
  0
VERTEX
  8
LAYER-1
 10
2.801443
 20
0.122727
 30
0.000000
  0
VERTEX
  8
LAYER-1
 10
2.775401
 20
0.115783
 30
0.000000
  0
VERTEX
  8
LAYER-1
 10
2.789290
 20
0.090609
 30
0.000000
  0
SEQEND
  8
LAYER-1
  0
POLYLINE
  8
LAYER-1
 66
  1
 70
  1
 62
  0
 10
1.424708
 20
0.097120
 30
0.000000
  0
VERTEX
  8
LAYER-1
 10
1.424708
 20
0.097120
 30
0.000000
  0
VERTEX
  8
LAYER-1
 10
1.399532
 20
0.113613
 30
0.000000
  0
VERTEX
  8
LAYER-1
 10
1.391720
 20
0.098856
 30
0.000000
  0
SEQEND
  8
LAYER-1
  0
POLYLINE
  8
LAYER-1
 66
  1
 70
  0
 62
  0
 10
2.832693
 20
0.172206
 30
0.000000
  0
VERTEX
  8
LAYER-1
 10
2.832693
 20
0.172206
 30
0.000000
  0
VERTEX
  8
LAYER-1
 10
2.832693
 20
0.176547
 30
0.000000
  0
VERTEX
  8
LAYER-1
 10
2.828353
 20
0.180019
 30
0.000000
  0
VERTEX
  8
LAYER-1
 10
2.823145
 20
0.180887
 30
0.000000
  0
VERTEX
  8
LAYER-1
 10
2.818804
 20
0.179151
 30
0.000000
  0
VERTEX
  8
LAYER-1
 10
2.817068
 20
0.174810
 30
0.000000
  0
VERTEX
  8
LAYER-1
 10
2.817068
 20
0.170470
 30
0.000000
  0
VERTEX
  8
LAYER-1
 10
2.820540
 20
0.166131
 30
0.000000
  0
VERTEX
  8
LAYER-1
 10
2.824881
 20
0.166131
 30
0.000000
  0
VERTEX
  8
LAYER-1
 10
2.829222
 20
0.166997
 30
0.000000
  0
VERTEX
  8
LAYER-1
 10
2.831824
 20
0.171338
 30
0.000000
  0
SEQEND
  8
LAYER-1
  0
POLYLINE
  8
LAYER-1
 66
  1
 70
  1
 62
  0
 10
2.764983
 20
0.134881
 30
0.000000
  0
VERTEX
  8
LAYER-1
 10
2.764983
 20
0.134881
 30
0.000000
  0
VERTEX
  8
LAYER-1
 10
2.742415
 20
0.147901
 30
0.000000
  0
VERTEX
  8
LAYER-1
 10
2.763248
 20
0.117519
 30
0.000000
  0
SEQEND
  8
LAYER-1
  0
POLYLINE
  8
LAYER-1
 66
  1
 70
  1
 62
  0
 10
1.502499
 20
0.116383
 30
0.000000
  0
VERTEX
  8
LAYER-1
 10
1.502499
 20
0.116383
 30
0.000000
  0
VERTEX
  8
LAYER-1
 10
1.483132
 20
0.129069
 30
0.000000
  0
VERTEX
  8
LAYER-1
 10
1.477123
 20
0.117718
 30
0.000000
  0
SEQEND
  8
LAYER-1
  0
POLYLINE
  8
LAYER-1
 66
  1
 70
  0
 62
  0
 10
1.562728
 20
0.104932
 30
0.000000
  0
VERTEX
  8
LAYER-1
 10
1.562728
 20
0.104932
 30
0.000000
  0
VERTEX
  8
LAYER-1
 10
1.562728
 20
0.109272
 30
0.000000
  0
VERTEX
  8
LAYER-1
 10
1.558387
 20
0.112745
 30
0.000000
  0
VERTEX
  8
LAYER-1
 10
1.553180
 20
0.113613
 30
0.000000
  0
VERTEX
  8
LAYER-1
 10
1.548839
 20
0.111877
 30
0.000000
  0
VERTEX
  8
LAYER-1
 10
1.547103
 20
0.107536
 30
0.000000
  0
VERTEX
  8
LAYER-1
 10
1.547103
 20
0.103195
 30
0.000000
  0
VERTEX
  8
LAYER-1
 10
1.550575
 20
0.098856
 30
0.000000
  0
VERTEX
  8
LAYER-1
 10
1.554915
 20
0.098856
 30
0.000000
  0
VERTEX
  8
LAYER-1
 10
1.559256
 20
0.099724
 30
0.000000
  0
VERTEX
  8
LAYER-1
 10
1.561859
 20
0.104064
 30
0.000000
  0
SEQEND
  8
LAYER-1
  0
POLYLINE
  8
LAYER-1
 66
  1
 70
  0
 62
  0
 10
2.682520
 20
0.124463
 30
0.000000
  0
VERTEX
  8
LAYER-1
 10
2.682520
 20
0.124463
 30
0.000000
  0
VERTEX
  8
LAYER-1
 10
2.682520
 20
0.128804
 30
0.000000
  0
VERTEX
  8
LAYER-1
 10
2.678179
 20
0.132276
 30
0.000000
  0
VERTEX
  8
LAYER-1
 10
2.672971
 20
0.133144
 30
0.000000
  0
VERTEX
  8
LAYER-1
 10
2.668631
 20
0.131408
 30
0.000000
  0
VERTEX
  8
LAYER-1
 10
2.666895
 20
0.127068
 30
0.000000
  0
VERTEX
  8
LAYER-1
 10
2.666895
 20
0.122727
 30
0.000000
  0
VERTEX
  8
LAYER-1
 10
2.670366
 20
0.118387
 30
0.000000
  0
VERTEX
  8
LAYER-1
 10
2.674707
 20
0.118387
 30
0.000000
  0
VERTEX
  8
LAYER-1
 10
2.679048
 20
0.119256
 30
0.000000
  0
VERTEX
  8
LAYER-1
 10
2.681651
 20
0.123595
 30
0.000000
  0
SEQEND
  8
LAYER-1
  0
POLYLINE
  8
LAYER-1
 66
  1
 70
  1
 62
  0
 10
2.875227
 20
0.125766
 30
0.000000
  0
VERTEX
  8
LAYER-1
 10
2.875227
 20
0.125766
 30
0.000000
  0
VERTEX
  8
LAYER-1
 10
2.868283
 20
0.151807
 30
0.000000
  0
VERTEX
  8
LAYER-1
 10
2.843109
 20
0.137920
 30
0.000000
  0
SEQEND
  8
LAYER-1
  0
POLYLINE
  8
LAYER-1
 66
  1
 70
  1
 62
  0
 10
2.322276
 20
0.112745
 30
0.000000
  0
VERTEX
  8
LAYER-1
 10
2.322276
 20
0.112745
 30
0.000000
  0
VERTEX
  8
LAYER-1
 10
2.299705
 20
0.125766
 30
0.000000
  0
VERTEX
  8
LAYER-1
 10
2.320538
 20
0.095384
 30
0.000000
  0
SEQEND
  8
LAYER-1
  0
POLYLINE
  8
LAYER-1
 66
  1
 70
  1
 62
  0
 10
3.100055
 20
0.137051
 30
0.000000
  0
VERTEX
  8
LAYER-1
 10
3.100055
 20
0.137051
 30
0.000000
  0
VERTEX
  8
LAYER-1
 10
3.116548
 20
0.162225
 30
0.000000
  0
VERTEX
  8
LAYER-1
 10
3.101791
 20
0.170037
 30
0.000000
  0
SEQEND
  8
LAYER-1
  0
POLYLINE
  8
LAYER-1
 66
  1
 70
  0
 62
  0
 10
3.235470
 20
0.104930
 30
0.000000
  0
VERTEX
  8
LAYER-1
 10
3.235470
 20
0.104930
 30
0.000000
  0
VERTEX
  8
LAYER-1
 10
3.239811
 20
0.104930
 30
0.000000
  0
VERTEX
  8
LAYER-1
 10
3.243283
 20
0.109271
 30
0.000000
  0
VERTEX
  8
LAYER-1
 10
3.244151
 20
0.114478
 30
0.000000
  0
VERTEX
  8
LAYER-1
 10
3.242415
 20
0.118819
 30
0.000000
  0
VERTEX
  8
LAYER-1
 10
3.238074
 20
0.120555
 30
0.000000
  0
VERTEX
  8
LAYER-1
 10
3.233734
 20
0.120555
 30
0.000000
  0
VERTEX
  8
LAYER-1
 10
3.229393
 20
0.117083
 30
0.000000
  0
VERTEX
  8
LAYER-1
 10
3.229393
 20
0.112743
 30
0.000000
  0
VERTEX
  8
LAYER-1
 10
3.230261
 20
0.108402
 30
0.000000
  0
VERTEX
  8
LAYER-1
 10
3.234602
 20
0.105797
 30
0.000000
  0
SEQEND
  8
LAYER-1
  0
POLYLINE
  8
LAYER-1
 66
  1
 70
  1
 62
  0
 10
2.887380
 20
0.162225
 30
0.000000
  0
VERTEX
  8
LAYER-1
 10
2.887380
 20
0.162225
 30
0.000000
  0
VERTEX
  8
LAYER-1
 10
2.900401
 20
0.184795
 30
0.000000
  0
VERTEX
  8
LAYER-1
 10
2.870019
 20
0.163962
 30
0.000000
  0
SEQEND
  8
LAYER-1
  0
POLYLINE
  8
LAYER-1
 66
  1
 70
  1
 62
  0
 10
3.141020
 20
0.113080
 30
0.000000
  0
VERTEX
  8
LAYER-1
 10
3.141020
 20
0.113080
 30
0.000000
  0
VERTEX
  8
LAYER-1
 10
3.153706
 20
0.132444
 30
0.000000
  0
VERTEX
  8
LAYER-1
 10
3.142356
 20
0.138456
 30
0.000000
  0
SEQEND
  8
LAYER-1
  0
POLYLINE
  8
LAYER-1
 66
  1
 70
  0
 62
  0
 10
2.462031
 20
0.172641
 30
0.000000
  0
VERTEX
  8
LAYER-1
 10
2.462031
 20
0.172641
 30
0.000000
  0
VERTEX
  8
LAYER-1
 10
2.462031
 20
0.176981
 30
0.000000
  0
VERTEX
  8
LAYER-1
 10
2.457691
 20
0.180454
 30
0.000000
  0
VERTEX
  8
LAYER-1
 10
2.452483
 20
0.181321
 30
0.000000
  0
VERTEX
  8
LAYER-1
 10
2.448143
 20
0.179585
 30
0.000000
  0
VERTEX
  8
LAYER-1
 10
2.446407
 20
0.175245
 30
0.000000
  0
VERTEX
  8
LAYER-1
 10
2.446407
 20
0.170904
 30
0.000000
  0
VERTEX
  8
LAYER-1
 10
2.449879
 20
0.166565
 30
0.000000
  0
VERTEX
  8
LAYER-1
 10
2.454219
 20
0.166565
 30
0.000000
  0
VERTEX
  8
LAYER-1
 10
2.458560
 20
0.167432
 30
0.000000
  0
VERTEX
  8
LAYER-1
 10
2.461164
 20
0.171772
 30
0.000000
  0
SEQEND
  8
LAYER-1
  0
POLYLINE
  8
LAYER-1
 66
  1
 70
  0
 62
  0
 10
3.047971
 20
0.143127
 30
0.000000
  0
VERTEX
  8
LAYER-1
 10
3.047971
 20
0.143127
 30
0.000000
  0
VERTEX
  8
LAYER-1
 10
3.052312
 20
0.143127
 30
0.000000
  0
VERTEX
  8
LAYER-1
 10
3.055784
 20
0.147469
 30
0.000000
  0
VERTEX
  8
LAYER-1
 10
3.056652
 20
0.152676
 30
0.000000
  0
VERTEX
  8
LAYER-1
 10
3.054916
 20
0.157016
 30
0.000000
  0
VERTEX
  8
LAYER-1
 10
3.050575
 20
0.158752
 30
0.000000
  0
VERTEX
  8
LAYER-1
 10
3.046235
 20
0.158752
 30
0.000000
  0
VERTEX
  8
LAYER-1
 10
3.041894
 20
0.155281
 30
0.000000
  0
VERTEX
  8
LAYER-1
 10
3.041894
 20
0.150940
 30
0.000000
  0
VERTEX
  8
LAYER-1
 10
3.042763
 20
0.146600
 30
0.000000
  0
VERTEX
  8
LAYER-1
 10
3.047103
 20
0.143995
 30
0.000000
  0
SEQEND
  8
LAYER-1
  0
POLYLINE
  8
LAYER-1
 66
  1
 70
  0
 62
  0
 10
3.212034
 20
0.150940
 30
0.000000
  0
VERTEX
  8
LAYER-1
 10
3.212034
 20
0.150940
 30
0.000000
  0
VERTEX
  8
LAYER-1
 10
3.216374
 20
0.150940
 30
0.000000
  0
VERTEX
  8
LAYER-1
 10
3.219846
 20
0.155281
 30
0.000000
  0
VERTEX
  8
LAYER-1
 10
3.220714
 20
0.160489
 30
0.000000
  0
VERTEX
  8
LAYER-1
 10
3.218978
 20
0.164829
 30
0.000000
  0
VERTEX
  8
LAYER-1
 10
3.214637
 20
0.166565
 30
0.000000
  0
VERTEX
  8
LAYER-1
 10
3.210298
 20
0.166565
 30
0.000000
  0
VERTEX
  8
LAYER-1
 10
3.205957
 20
0.163094
 30
0.000000
  0
VERTEX
  8
LAYER-1
 10
3.205957
 20
0.158752
 30
0.000000
  0
VERTEX
  8
LAYER-1
 10
3.206825
 20
0.154412
 30
0.000000
  0
VERTEX
  8
LAYER-1
 10
3.211166
 20
0.151807
 30
0.000000
  0
SEQEND
  8
LAYER-1
  0
POLYLINE
  8
LAYER-1
 66
  1
 70
  1
 62
  0
 10
3.619150
 20
0.149204
 30
0.000000
  0
VERTEX
  8
LAYER-1
 10
3.619150
 20
0.149204
 30
0.000000
  0
VERTEX
  8
LAYER-1
 10
3.626094
 20
0.123163
 30
0.000000
  0
VERTEX
  8
LAYER-1
 10
3.651268
 20
0.137051
 30
0.000000
  0
SEQEND
  8
LAYER-1
  0
POLYLINE
  8
LAYER-1
 66
  1
 70
  1
 62
  0
 10
3.785383
 20
0.103197
 30
0.000000
  0
VERTEX
  8
LAYER-1
 10
3.785383
 20
0.103197
 30
0.000000
  0
VERTEX
  8
LAYER-1
 10
3.772361
 20
0.080627
 30
0.000000
  0
VERTEX
  8
LAYER-1
 10
3.802745
 20
0.101460
 30
0.000000
  0
SEQEND
  8
LAYER-1
  0
POLYLINE
  8
LAYER-1
 66
  1
 70
  1
 62
  0
 10
3.670364
 20
0.193470
 30
0.000000
  0
VERTEX
  8
LAYER-1
 10
3.670364
 20
0.193470
 30
0.000000
  0
VERTEX
  8
LAYER-1
 10
3.653873
 20
0.168297
 30
0.000000
  0
VERTEX
  8
LAYER-1
 10
3.668629
 20
0.160484
 30
0.000000
  0
SEQEND
  8
LAYER-1
  0
POLYLINE
  8
LAYER-1
 66
  1
 70
  0
 62
  0
 10
3.585295
 20
0.180454
 30
0.000000
  0
VERTEX
  8
LAYER-1
 10
3.585295
 20
0.180454
 30
0.000000
  0
VERTEX
  8
LAYER-1
 10
3.580955
 20
0.180454
 30
0.000000
  0
VERTEX
  8
LAYER-1
 10
3.577483
 20
0.176114
 30
0.000000
  0
VERTEX
  8
LAYER-1
 10
3.576614
 20
0.170906
 30
0.000000
  0
VERTEX
  8
LAYER-1
 10
3.578351
 20
0.166565
 30
0.000000
  0
VERTEX
  8
LAYER-1
 10
3.582692
 20
0.164829
 30
0.000000
  0
VERTEX
  8
LAYER-1
 10
3.587031
 20
0.164829
 30
0.000000
  0
VERTEX
  8
LAYER-1
 10
3.591370
 20
0.168301
 30
0.000000
  0
VERTEX
  8
LAYER-1
 10
3.591370
 20
0.172641
 30
0.000000
  0
VERTEX
  8
LAYER-1
 10
3.590502
 20
0.176982
 30
0.000000
  0
VERTEX
  8
LAYER-1
 10
3.586163
 20
0.179587
 30
0.000000
  0
SEQEND
  8
LAYER-1
  0
POLYLINE
  8
LAYER-1
 66
  1
 70
  1
 62
  0
 10
3.568802
 20
0.120556
 30
0.000000
  0
VERTEX
  8
LAYER-1
 10
3.568802
 20
0.120556
 30
0.000000
  0
VERTEX
  8
LAYER-1
 10
3.555782
 20
0.097987
 30
0.000000
  0
VERTEX
  8
LAYER-1
 10
3.586163
 20
0.118819
 30
0.000000
  0
SEQEND
  8
LAYER-1
  0
POLYLINE
  8
LAYER-1
 66
  1
 70
  1
 62
  0
 10
3.624257
 20
0.218909
 30
0.000000
  0
VERTEX
  8
LAYER-1
 10
3.624257
 20
0.218909
 30
0.000000
  0
VERTEX
  8
LAYER-1
 10
3.643623
 20
0.206222
 30
0.000000
  0
VERTEX
  8
LAYER-1
 10
3.649633
 20
0.217573
 30
0.000000
  0
SEQEND
  8
LAYER-1
  0
POLYLINE
  8
LAYER-1
 66
  1
 70
  0
 62
  0
 10
3.508905
 20
0.170159
 30
0.000000
  0
VERTEX
  8
LAYER-1
 10
3.508905
 20
0.170159
 30
0.000000
  0
VERTEX
  8
LAYER-1
 10
3.504565
 20
0.170159
 30
0.000000
  0
VERTEX
  8
LAYER-1
 10
3.501093
 20
0.165818
 30
0.000000
  0
VERTEX
  8
LAYER-1
 10
3.500226
 20
0.160611
 30
0.000000
  0
VERTEX
  8
LAYER-1
 10
3.501962
 20
0.156269
 30
0.000000
  0
VERTEX
  8
LAYER-1
 10
3.506301
 20
0.154534
 30
0.000000
  0
VERTEX
  8
LAYER-1
 10
3.510642
 20
0.154534
 30
0.000000
  0
VERTEX
  8
LAYER-1
 10
3.514982
 20
0.158006
 30
0.000000
  0
VERTEX
  8
LAYER-1
 10
3.514982
 20
0.162347
 30
0.000000
  0
VERTEX
  8
LAYER-1
 10
3.514114
 20
0.166687
 30
0.000000
  0
VERTEX
  8
LAYER-1
 10
3.509774
 20
0.169291
 30
0.000000
  0
SEQEND
  8
LAYER-1
  0
POLYLINE
  8
LAYER-1
 66
  1
 70
  0
 62
  0
 10
3.885645
 20
0.142255
 30
0.000000
  0
VERTEX
  8
LAYER-1
 10
3.885645
 20
0.142255
 30
0.000000
  0
VERTEX
  8
LAYER-1
 10
3.881305
 20
0.142255
 30
0.000000
  0
VERTEX
  8
LAYER-1
 10
3.877833
 20
0.137914
 30
0.000000
  0
VERTEX
  8
LAYER-1
 10
3.876965
 20
0.132707
 30
0.000000
  0
VERTEX
  8
LAYER-1
 10
3.878701
 20
0.128365
 30
0.000000
  0
VERTEX
  8
LAYER-1
 10
3.883041
 20
0.126630
 30
0.000000
  0
VERTEX
  8
LAYER-1
 10
3.887381
 20
0.126630
 30
0.000000
  0
VERTEX
  8
LAYER-1
 10
3.891722
 20
0.130102
 30
0.000000
  0
VERTEX
  8
LAYER-1
 10
3.891722
 20
0.134443
 30
0.000000
  0
VERTEX
  8
LAYER-1
 10
3.890854
 20
0.138783
 30
0.000000
  0
VERTEX
  8
LAYER-1
 10
3.886513
 20
0.141387
 30
0.000000
  0
SEQEND
  8
LAYER-1
  0
POLYLINE
  8
LAYER-1
 66
  1
 70
  0
 62
  0
 10
3.617413
 20
0.113612
 30
0.000000
  0
VERTEX
  8
LAYER-1
 10
3.617413
 20
0.113612
 30
0.000000
  0
VERTEX
  8
LAYER-1
 10
3.613074
 20
0.113612
 30
0.000000
  0
VERTEX
  8
LAYER-1
 10
3.609601
 20
0.109271
 30
0.000000
  0
VERTEX
  8
LAYER-1
 10
3.608733
 20
0.104063
 30
0.000000
  0
VERTEX
  8
LAYER-1
 10
3.610469
 20
0.099722
 30
0.000000
  0
VERTEX
  8
LAYER-1
 10
3.614809
 20
0.097987
 30
0.000000
  0
VERTEX
  8
LAYER-1
 10
3.619149
 20
0.097987
 30
0.000000
  0
VERTEX
  8
LAYER-1
 10
3.623490
 20
0.101458
 30
0.000000
  0
VERTEX
  8
LAYER-1
 10
3.623490
 20
0.105799
 30
0.000000
  0
VERTEX
  8
LAYER-1
 10
3.622622
 20
0.110140
 30
0.000000
  0
VERTEX
  8
LAYER-1
 10
3.618281
 20
0.112744
 30
0.000000
  0
SEQEND
  8
LAYER-1
  0
POLYLINE
  8
LAYER-1
 66
  1
 70
  1
 62
  0
 10
3.415591
 20
0.173075
 30
0.000000
  0
VERTEX
  8
LAYER-1
 10
3.415591
 20
0.173075
 30
0.000000
  0
VERTEX
  8
LAYER-1
 10
3.389551
 20
0.166131
 30
0.000000
  0
VERTEX
  8
LAYER-1
 10
3.403438
 20
0.140957
 30
0.000000
  0
SEQEND
  8
LAYER-1
  0
POLYLINE
  8
LAYER-1
 66
  1
 70
  1
 62
  0
 10
3.322711
 20
0.121859
 30
0.000000
  0
VERTEX
  8
LAYER-1
 10
3.322711
 20
0.121859
 30
0.000000
  0
VERTEX
  8
LAYER-1
 10
3.300140
 20
0.134881
 30
0.000000
  0
VERTEX
  8
LAYER-1
 10
3.320973
 20
0.104499
 30
0.000000
  0
SEQEND
  8
LAYER-1
  0
POLYLINE
  8
LAYER-1
 66
  1
 70
  1
 62
  0
 10
3.286251
 20
0.166996
 30
0.000000
  0
VERTEX
  8
LAYER-1
 10
3.286251
 20
0.166996
 30
0.000000
  0
VERTEX
  8
LAYER-1
 10
3.261078
 20
0.183489
 30
0.000000
  0
VERTEX
  8
LAYER-1
 10
3.253265
 20
0.168732
 30
0.000000
  0
SEQEND
  8
LAYER-1
  0
POLYLINE
  8
LAYER-1
 66
  1
 70
  0
 62
  0
 10
3.446841
 20
0.222553
 30
0.000000
  0
VERTEX
  8
LAYER-1
 10
3.446841
 20
0.222553
 30
0.000000
  0
VERTEX
  8
LAYER-1
 10
3.446841
 20
0.226894
 30
0.000000
  0
VERTEX
  8
LAYER-1
 10
3.442501
 20
0.230365
 30
0.000000
  0
VERTEX
  8
LAYER-1
 10
3.437293
 20
0.231233
 30
0.000000
  0
VERTEX
  8
LAYER-1
 10
3.432952
 20
0.229497
 30
0.000000
  0
VERTEX
  8
LAYER-1
 10
3.431216
 20
0.225157
 30
0.000000
  0
VERTEX
  8
LAYER-1
 10
3.431216
 20
0.220818
 30
0.000000
  0
VERTEX
  8
LAYER-1
 10
3.434688
 20
0.216476
 30
0.000000
  0
VERTEX
  8
LAYER-1
 10
3.439029
 20
0.216476
 30
0.000000
  0
VERTEX
  8
LAYER-1
 10
3.443370
 20
0.217344
 30
0.000000
  0
VERTEX
  8
LAYER-1
 10
3.445974
 20
0.221685
 30
0.000000
  0
SEQEND
  8
LAYER-1
  0
POLYLINE
  8
LAYER-1
 66
  1
 70
  1
 62
  0
 10
3.379133
 20
0.185227
 30
0.000000
  0
VERTEX
  8
LAYER-1
 10
3.379133
 20
0.185227
 30
0.000000
  0
VERTEX
  8
LAYER-1
 10
3.356564
 20
0.198247
 30
0.000000
  0
VERTEX
  8
LAYER-1
 10
3.377396
 20
0.167866
 30
0.000000
  0
SEQEND
  8
LAYER-1
  0
POLYLINE
  8
LAYER-1
 66
  1
 70
  1
 62
  0
 10
3.330788
 20
0.192268
 30
0.000000
  0
VERTEX
  8
LAYER-1
 10
3.330788
 20
0.192268
 30
0.000000
  0
VERTEX
  8
LAYER-1
 10
3.318101
 20
0.172905
 30
0.000000
  0
VERTEX
  8
LAYER-1
 10
3.329452
 20
0.166894
 30
0.000000
  0
SEQEND
  8
LAYER-1
  0
POLYLINE
  8
LAYER-1
 66
  1
 70
  0
 62
  0
 10
3.448577
 20
0.094950
 30
0.000000
  0
VERTEX
  8
LAYER-1
 10
3.448577
 20
0.094950
 30
0.000000
  0
VERTEX
  8
LAYER-1
 10
3.448577
 20
0.099289
 30
0.000000
  0
VERTEX
  8
LAYER-1
 10
3.444236
 20
0.102762
 30
0.000000
  0
VERTEX
  8
LAYER-1
 10
3.439029
 20
0.103630
 30
0.000000
  0
VERTEX
  8
LAYER-1
 10
3.434688
 20
0.101894
 30
0.000000
  0
VERTEX
  8
LAYER-1
 10
3.432952
 20
0.097553
 30
0.000000
  0
VERTEX
  8
LAYER-1
 10
3.432952
 20
0.093213
 30
0.000000
  0
VERTEX
  8
LAYER-1
 10
3.436424
 20
0.088872
 30
0.000000
  0
VERTEX
  8
LAYER-1
 10
3.440765
 20
0.088872
 30
0.000000
  0
VERTEX
  8
LAYER-1
 10
3.445105
 20
0.089740
 30
0.000000
  0
VERTEX
  8
LAYER-1
 10
3.447710
 20
0.094081
 30
0.000000
  0
SEQEND
  8
LAYER-1
  0
POLYLINE
  8
LAYER-1
 66
  1
 70
  0
 62
  0
 10
3.366980
 20
0.095818
 30
0.000000
  0
VERTEX
  8
LAYER-1
 10
3.366980
 20
0.095818
 30
0.000000
  0
VERTEX
  8
LAYER-1
 10
3.366980
 20
0.100158
 30
0.000000
  0
VERTEX
  8
LAYER-1
 10
3.362639
 20
0.103630
 30
0.000000
  0
VERTEX
  8
LAYER-1
 10
3.357432
 20
0.104497
 30
0.000000
  0
VERTEX
  8
LAYER-1
 10
3.353091
 20
0.102762
 30
0.000000
  0
VERTEX
  8
LAYER-1
 10
3.351355
 20
0.098421
 30
0.000000
  0
VERTEX
  8
LAYER-1
 10
3.351355
 20
0.094081
 30
0.000000
  0
VERTEX
  8
LAYER-1
 10
3.354827
 20
0.089740
 30
0.000000
  0
VERTEX
  8
LAYER-1
 10
3.359168
 20
0.089740
 30
0.000000
  0
VERTEX
  8
LAYER-1
 10
3.363508
 20
0.090608
 30
0.000000
  0
VERTEX
  8
LAYER-1
 10
3.366113
 20
0.094950
 30
0.000000
  0
SEQEND
  8
LAYER-1
  0
POLYLINE
  8
LAYER-1
 66
  1
 70
  0
 62
  0
 10
3.296668
 20
0.206059
 30
0.000000
  0
VERTEX
  8
LAYER-1
 10
3.296668
 20
0.206059
 30
0.000000
  0
VERTEX
  8
LAYER-1
 10
3.296668
 20
0.210400
 30
0.000000
  0
VERTEX
  8
LAYER-1
 10
3.292327
 20
0.213871
 30
0.000000
  0
VERTEX
  8
LAYER-1
 10
3.287120
 20
0.214739
 30
0.000000
  0
VERTEX
  8
LAYER-1
 10
3.282779
 20
0.213003
 30
0.000000
  0
VERTEX
  8
LAYER-1
 10
3.281043
 20
0.208663
 30
0.000000
  0
VERTEX
  8
LAYER-1
 10
3.281043
 20
0.204324
 30
0.000000
  0
VERTEX
  8
LAYER-1
 10
3.284515
 20
0.199983
 30
0.000000
  0
VERTEX
  8
LAYER-1
 10
3.288856
 20
0.199983
 30
0.000000
  0
VERTEX
  8
LAYER-1
 10
3.293196
 20
0.200851
 30
0.000000
  0
VERTEX
  8
LAYER-1
 10
3.295801
 20
0.205191
 30
0.000000
  0
SEQEND
  8
LAYER-1
  0
POLYLINE
  8
LAYER-1
 66
  1
 70
  1
 62
  0
 10
4.079220
 20
0.195644
 30
0.000000
  0
VERTEX
  8
LAYER-1
 10
4.079220
 20
0.195644
 30
0.000000
  0
VERTEX
  8
LAYER-1
 10
4.086164
 20
0.169603
 30
0.000000
  0
VERTEX
  8
LAYER-1
 10
4.111338
 20
0.183491
 30
0.000000
  0
SEQEND
  8
LAYER-1
  0
POLYLINE
  8
LAYER-1
 66
  1
 70
  1
 62
  0
 10
4.241547
 20
0.224290
 30
0.000000
  0
VERTEX
  8
LAYER-1
 10
4.241547
 20
0.224290
 30
0.000000
  0
VERTEX
  8
LAYER-1
 10
4.228526
 20
0.201720
 30
0.000000
  0
VERTEX
  8
LAYER-1
 10
4.258908
 20
0.222553
 30
0.000000
  0
SEQEND
  8
LAYER-1
  0
POLYLINE
  8
LAYER-1
 66
  1
 70
  1
 62
  0
 10
4.220714
 20
0.139219
 30
0.000000
  0
VERTEX
  8
LAYER-1
 10
4.220714
 20
0.139219
 30
0.000000
  0
VERTEX
  8
LAYER-1
 10
4.204221
 20
0.114045
 30
0.000000
  0
VERTEX
  8
LAYER-1
 10
4.218978
 20
0.106233
 30
0.000000
  0
SEQEND
  8
LAYER-1
  0
POLYLINE
  8
LAYER-1
 66
  1
 70
  0
 62
  0
 10
4.029741
 20
0.226894
 30
0.000000
  0
VERTEX
  8
LAYER-1
 10
4.029741
 20
0.226894
 30
0.000000
  0
VERTEX
  8
LAYER-1
 10
4.025400
 20
0.226894
 30
0.000000
  0
VERTEX
  8
LAYER-1
 10
4.021929
 20
0.222553
 30
0.000000
  0
VERTEX
  8
LAYER-1
 10
4.021061
 20
0.217345
 30
0.000000
  0
VERTEX
  8
LAYER-1
 10
4.022796
 20
0.213005
 30
0.000000
  0
VERTEX
  8
LAYER-1
 10
4.027137
 20
0.211269
 30
0.000000
  0
VERTEX
  8
LAYER-1
 10
4.031477
 20
0.211269
 30
0.000000
  0
VERTEX
  8
LAYER-1
 10
4.035817
 20
0.214740
 30
0.000000
  0
VERTEX
  8
LAYER-1
 10
4.035817
 20
0.219081
 30
0.000000
  0
VERTEX
  8
LAYER-1
 10
4.034949
 20
0.223422
 30
0.000000
  0
VERTEX
  8
LAYER-1
 10
4.030609
 20
0.226026
 30
0.000000
  0
SEQEND
  8
LAYER-1
  0
POLYLINE
  8
LAYER-1
 66
  1
 70
  1
 62
  0
 10
4.051007
 20
0.158751
 30
0.000000
  0
VERTEX
  8
LAYER-1
 10
4.051007
 20
0.158751
 30
0.000000
  0
VERTEX
  8
LAYER-1
 10
4.073577
 20
0.145731
 30
0.000000
  0
VERTEX
  8
LAYER-1
 10
4.052744
 20
0.176112
 30
0.000000
  0
SEQEND
  8
LAYER-1
  0
POLYLINE
  8
LAYER-1
 66
  1
 70
  1
 62
  0
 10
4.167661
 20
0.150771
 30
0.000000
  0
VERTEX
  8
LAYER-1
 10
4.167661
 20
0.150771
 30
0.000000
  0
VERTEX
  8
LAYER-1
 10
4.187027
 20
0.138084
 30
0.000000
  0
VERTEX
  8
LAYER-1
 10
4.193037
 20
0.149435
 30
0.000000
  0
SEQEND
  8
LAYER-1
  0
POLYLINE
  8
LAYER-1
 66
  1
 70
  0
 62
  0
 10
4.181651
 20
0.228630
 30
0.000000
  0
VERTEX
  8
LAYER-1
 10
4.181651
 20
0.228630
 30
0.000000
  0
VERTEX
  8
LAYER-1
 10
4.177311
 20
0.228630
 30
0.000000
  0
VERTEX
  8
LAYER-1
 10
4.173838
 20
0.224289
 30
0.000000
  0
VERTEX
  8
LAYER-1
 10
4.172970
 20
0.219081
 30
0.000000
  0
VERTEX
  8
LAYER-1
 10
4.174706
 20
0.214740
 30
0.000000
  0
VERTEX
  8
LAYER-1
 10
4.179047
 20
0.213005
 30
0.000000
  0
VERTEX
  8
LAYER-1
 10
4.183387
 20
0.213005
 30
0.000000
  0
VERTEX
  8
LAYER-1
 10
4.187727
 20
0.216476
 30
0.000000
  0
VERTEX
  8
LAYER-1
 10
4.187727
 20
0.220818
 30
0.000000
  0
VERTEX
  8
LAYER-1
 10
4.186859
 20
0.225158
 30
0.000000
  0
VERTEX
  8
LAYER-1
 10
4.182518
 20
0.227762
 30
0.000000
  0
SEQEND
  8
LAYER-1
  0
POLYLINE
  8
LAYER-1
 66
  1
 70
  0
 62
  0
 10
4.265853
 20
0.101893
 30
0.000000
  0
VERTEX
  8
LAYER-1
 10
4.265853
 20
0.101893
 30
0.000000
  0
VERTEX
  8
LAYER-1
 10
4.261512
 20
0.101893
 30
0.000000
  0
VERTEX
  8
LAYER-1
 10
4.258041
 20
0.097552
 30
0.000000
  0
VERTEX
  8
LAYER-1
 10
4.257173
 20
0.092344
 30
0.000000
  0
VERTEX
  8
LAYER-1
 10
4.258909
 20
0.088003
 30
0.000000
  0
VERTEX
  8
LAYER-1
 10
4.263248
 20
0.086268
 30
0.000000
  0
VERTEX
  8
LAYER-1
 10
4.267589
 20
0.086268
 30
0.000000
  0
VERTEX
  8
LAYER-1
 10
4.271930
 20
0.089739
 30
0.000000
  0
VERTEX
  8
LAYER-1
 10
4.271930
 20
0.094081
 30
0.000000
  0
VERTEX
  8
LAYER-1
 10
4.271061
 20
0.098421
 30
0.000000
  0
VERTEX
  8
LAYER-1
 10
4.266721
 20
0.101025
 30
0.000000
  0
SEQEND
  8
LAYER-1
  0
POLYLINE
  8
LAYER-1
 66
  1
 70
  0
 62
  0
 10
4.112207
 20
0.156578
 30
0.000000
  0
VERTEX
  8
LAYER-1
 10
4.112207
 20
0.156578
 30
0.000000
  0
VERTEX
  8
LAYER-1
 10
4.107866
 20
0.156578
 30
0.000000
  0
VERTEX
  8
LAYER-1
 10
4.104394
 20
0.152238
 30
0.000000
  0
VERTEX
  8
LAYER-1
 10
4.103526
 20
0.147030
 30
0.000000
  0
VERTEX
  8
LAYER-1
 10
4.105262
 20
0.142689
 30
0.000000
  0
VERTEX
  8
LAYER-1
 10
4.109602
 20
0.140953
 30
0.000000
  0
VERTEX
  8
LAYER-1
 10
4.113942
 20
0.140953
 30
0.000000
  0
VERTEX
  8
LAYER-1
 10
4.118283
 20
0.144425
 30
0.000000
  0
VERTEX
  8
LAYER-1
 10
4.118283
 20
0.148766
 30
0.000000
  0
VERTEX
  8
LAYER-1
 10
4.117414
 20
0.153107
 30
0.000000
  0
VERTEX
  8
LAYER-1
 10
4.113074
 20
0.155711
 30
0.000000
  0
SEQEND
  8
LAYER-1
  0
POLYLINE
  8
LAYER-1
 66
  1
 70
  1
 62
  0
 10
3.947277
 20
0.165259
 30
0.000000
  0
VERTEX
  8
LAYER-1
 10
3.947277
 20
0.165259
 30
0.000000
  0
VERTEX
  8
LAYER-1
 10
3.940332
 20
0.191299
 30
0.000000
  0
VERTEX
  8
LAYER-1
 10
3.915158
 20
0.177413
 30
0.000000
  0
SEQEND
  8
LAYER-1
  0
POLYLINE
  8
LAYER-1
 66
  1
 70
  1
 62
  0
 10
3.536251
 20
0.196943
 30
0.000000
  0
VERTEX
  8
LAYER-1
 10
3.536251
 20
0.196943
 30
0.000000
  0
VERTEX
  8
LAYER-1
 10
3.549271
 20
0.219513
 30
0.000000
  0
VERTEX
  8
LAYER-1
 10
3.518890
 20
0.198680
 30
0.000000
  0
SEQEND
  8
LAYER-1
  0
POLYLINE
  8
LAYER-1
 66
  1
 70
  1
 62
  0
 10
3.833560
 20
0.190434
 30
0.000000
  0
VERTEX
  8
LAYER-1
 10
3.833560
 20
0.190434
 30
0.000000
  0
VERTEX
  8
LAYER-1
 10
3.850054
 20
0.215608
 30
0.000000
  0
VERTEX
  8
LAYER-1
 10
3.835296
 20
0.223420
 30
0.000000
  0
SEQEND
  8
LAYER-1
  0
POLYLINE
  8
LAYER-1
 66
  1
 70
  0
 62
  0
 10
3.996755
 20
0.134009
 30
0.000000
  0
VERTEX
  8
LAYER-1
 10
3.996755
 20
0.134009
 30
0.000000
  0
VERTEX
  8
LAYER-1
 10
4.001096
 20
0.134009
 30
0.000000
  0
VERTEX
  8
LAYER-1
 10
4.004567
 20
0.138351
 30
0.000000
  0
VERTEX
  8
LAYER-1
 10
4.005436
 20
0.143558
 30
0.000000
  0
VERTEX
  8
LAYER-1
 10
4.003701
 20
0.147899
 30
0.000000
  0
VERTEX
  8
LAYER-1
 10
3.999360
 20
0.149634
 30
0.000000
  0
VERTEX
  8
LAYER-1
 10
3.995019
 20
0.149634
 30
0.000000
  0
VERTEX
  8
LAYER-1
 10
3.990679
 20
0.146163
 30
0.000000
  0
VERTEX
  8
LAYER-1
 10
3.990679
 20
0.141822
 30
0.000000
  0
VERTEX
  8
LAYER-1
 10
3.991547
 20
0.137482
 30
0.000000
  0
VERTEX
  8
LAYER-1
 10
3.995888
 20
0.134877
 30
0.000000
  0
SEQEND
  8
LAYER-1
  0
POLYLINE
  8
LAYER-1
 66
  1
 70
  1
 62
  0
 10
3.950748
 20
0.130539
 30
0.000000
  0
VERTEX
  8
LAYER-1
 10
3.950748
 20
0.130539
 30
0.000000
  0
VERTEX
  8
LAYER-1
 10
3.963769
 20
0.153109
 30
0.000000
  0
VERTEX
  8
LAYER-1
 10
3.933387
 20
0.132277
 30
0.000000
  0
SEQEND
  8
LAYER-1
  0
POLYLINE
  8
LAYER-1
 66
  1
 70
  1
 62
  0
 10
3.896161
 20
0.171940
 30
0.000000
  0
VERTEX
  8
LAYER-1
 10
3.896161
 20
0.171940
 30
0.000000
  0
VERTEX
  8
LAYER-1
 10
3.876797
 20
0.184628
 30
0.000000
  0
VERTEX
  8
LAYER-1
 10
3.870786
 20
0.173276
 30
0.000000
  0
SEQEND
  8
LAYER-1
  0
POLYLINE
  8
LAYER-1
 66
  1
 70
  0
 62
  0
 10
3.873055
 20
0.068596
 30
0.000000
  0
VERTEX
  8
LAYER-1
 10
3.873055
 20
0.068596
 30
0.000000
  0
VERTEX
  8
LAYER-1
 10
3.877396
 20
0.068596
 30
0.000000
  0
VERTEX
  8
LAYER-1
 10
3.880868
 20
0.072936
 30
0.000000
  0
VERTEX
  8
LAYER-1
 10
3.881737
 20
0.078144
 30
0.000000
  0
VERTEX
  8
LAYER-1
 10
3.880001
 20
0.082485
 30
0.000000
  0
VERTEX
  8
LAYER-1
 10
3.875660
 20
0.084221
 30
0.000000
  0
VERTEX
  8
LAYER-1
 10
3.871320
 20
0.084221
 30
0.000000
  0
VERTEX
  8
LAYER-1
 10
3.866979
 20
0.080749
 30
0.000000
  0
VERTEX
  8
LAYER-1
 10
3.866979
 20
0.076408
 30
0.000000
  0
VERTEX
  8
LAYER-1
 10
3.867848
 20
0.072067
 30
0.000000
  0
VERTEX
  8
LAYER-1
 10
3.872189
 20
0.069462
 30
0.000000
  0
SEQEND
  8
LAYER-1
  0
POLYLINE
  8
LAYER-1
 66
  1
 70
  0
 62
  0
 10
3.783212
 20
0.211390
 30
0.000000
  0
VERTEX
  8
LAYER-1
 10
3.783212
 20
0.211390
 30
0.000000
  0
VERTEX
  8
LAYER-1
 10
3.787553
 20
0.211390
 30
0.000000
  0
VERTEX
  8
LAYER-1
 10
3.791025
 20
0.215730
 30
0.000000
  0
VERTEX
  8
LAYER-1
 10
3.791892
 20
0.220938
 30
0.000000
  0
VERTEX
  8
LAYER-1
 10
3.790156
 20
0.225279
 30
0.000000
  0
VERTEX
  8
LAYER-1
 10
3.785815
 20
0.227015
 30
0.000000
  0
VERTEX
  8
LAYER-1
 10
3.781476
 20
0.227015
 30
0.000000
  0
VERTEX
  8
LAYER-1
 10
3.777136
 20
0.223543
 30
0.000000
  0
VERTEX
  8
LAYER-1
 10
3.777136
 20
0.219203
 30
0.000000
  0
VERTEX
  8
LAYER-1
 10
3.778002
 20
0.214862
 30
0.000000
  0
VERTEX
  8
LAYER-1
 10
3.782343
 20
0.212257
 30
0.000000
  0
SEQEND
  8
LAYER-1
  0
POLYLINE
  8
LAYER-1
 66
  1
 70
  0
 62
  0
 10
3.945540
 20
0.204324
 30
0.000000
  0
VERTEX
  8
LAYER-1
 10
3.945540
 20
0.204324
 30
0.000000
  0
VERTEX
  8
LAYER-1
 10
3.949881
 20
0.204324
 30
0.000000
  0
VERTEX
  8
LAYER-1
 10
3.953353
 20
0.208664
 30
0.000000
  0
VERTEX
  8
LAYER-1
 10
3.954220
 20
0.213871
 30
0.000000
  0
VERTEX
  8
LAYER-1
 10
3.952484
 20
0.218213
 30
0.000000
  0
VERTEX
  8
LAYER-1
 10
3.948143
 20
0.219949
 30
0.000000
  0
VERTEX
  8
LAYER-1
 10
3.943804
 20
0.219949
 30
0.000000
  0
VERTEX
  8
LAYER-1
 10
3.939464
 20
0.216476
 30
0.000000
  0
VERTEX
  8
LAYER-1
 10
3.939464
 20
0.212136
 30
0.000000
  0
VERTEX
  8
LAYER-1
 10
3.940331
 20
0.207795
 30
0.000000
  0
VERTEX
  8
LAYER-1
 10
3.944671
 20
0.205190
 30
0.000000
  0
SEQEND
  8
LAYER-1
  0
POLYLINE
  8
LAYER-1
 66
  1
 70
  1
 62
  0
 10
4.701615
 20
0.173509
 30
0.000000
  0
VERTEX
  8
LAYER-1
 10
4.701615
 20
0.173509
 30
0.000000
  0
VERTEX
  8
LAYER-1
 10
4.708560
 20
0.147469
 30
0.000000
  0
VERTEX
  8
LAYER-1
 10
4.733733
 20
0.161357
 30
0.000000
  0
SEQEND
  8
LAYER-1
  0
POLYLINE
  8
LAYER-1
 66
  1
 70
  1
 62
  0
 10
4.828350
 20
0.209100
 30
0.000000
  0
VERTEX
  8
LAYER-1
 10
4.828350
 20
0.209100
 30
0.000000
  0
VERTEX
  8
LAYER-1
 10
4.815330
 20
0.186531
 30
0.000000
  0
VERTEX
  8
LAYER-1
 10
4.845712
 20
0.207363
 30
0.000000
  0
SEQEND
  8
LAYER-1
  0
POLYLINE
  8
LAYER-1
 66
  1
 70
  1
 62
  0
 10
4.503701
 20
0.197815
 30
0.000000
  0
VERTEX
  8
LAYER-1
 10
4.503701
 20
0.197815
 30
0.000000
  0
VERTEX
  8
LAYER-1
 10
4.487208
 20
0.172641
 30
0.000000
  0
VERTEX
  8
LAYER-1
 10
4.501965
 20
0.164829
 30
0.000000
  0
SEQEND
  8
LAYER-1
  0
POLYLINE
  8
LAYER-1
 66
  1
 70
  0
 62
  0
 10
4.613942
 20
0.190004
 30
0.000000
  0
VERTEX
  8
LAYER-1
 10
4.613942
 20
0.190004
 30
0.000000
  0
VERTEX
  8
LAYER-1
 10
4.609602
 20
0.190004
 30
0.000000
  0
VERTEX
  8
LAYER-1
 10
4.606130
 20
0.185665
 30
0.000000
  0
VERTEX
  8
LAYER-1
 10
4.605261
 20
0.180457
 30
0.000000
  0
VERTEX
  8
LAYER-1
 10
4.606997
 20
0.176116
 30
0.000000
  0
VERTEX
  8
LAYER-1
 10
4.611338
 20
0.174381
 30
0.000000
  0
VERTEX
  8
LAYER-1
 10
4.615679
 20
0.174381
 30
0.000000
  0
VERTEX
  8
LAYER-1
 10
4.620018
 20
0.177852
 30
0.000000
  0
VERTEX
  8
LAYER-1
 10
4.620018
 20
0.182193
 30
0.000000
  0
VERTEX
  8
LAYER-1
 10
4.619150
 20
0.186534
 30
0.000000
  0
VERTEX
  8
LAYER-1
 10
4.614810
 20
0.189137
 30
0.000000
  0
SEQEND
  8
LAYER-1
  0
POLYLINE
  8
LAYER-1
 66
  1
 70
  1
 62
  0
 10
4.643457
 20
0.143995
 30
0.000000
  0
VERTEX
  8
LAYER-1
 10
4.643457
 20
0.143995
 30
0.000000
  0
VERTEX
  8
LAYER-1
 10
4.630436
 20
0.121426
 30
0.000000
  0
VERTEX
  8
LAYER-1
 10
4.660817
 20
0.142259
 30
0.000000
  0
SEQEND
  8
LAYER-1
  0
POLYLINE
  8
LAYER-1
 66
  1
 70
  1
 62
  0
 10
4.850754
 20
0.144527
 30
0.000000
  0
VERTEX
  8
LAYER-1
 10
4.850754
 20
0.144527
 30
0.000000
  0
VERTEX
  8
LAYER-1
 10
4.838067
 20
0.125162
 30
0.000000
  0
VERTEX
  8
LAYER-1
 10
4.849419
 20
0.119152
 30
0.000000
  0
SEQEND
  8
LAYER-1
  0
POLYLINE
  8
LAYER-1
 66
  1
 70
  0
 62
  0
 10
4.758038
 20
0.213439
 30
0.000000
  0
VERTEX
  8
LAYER-1
 10
4.758038
 20
0.213439
 30
0.000000
  0
VERTEX
  8
LAYER-1
 10
4.753697
 20
0.213439
 30
0.000000
  0
VERTEX
  8
LAYER-1
 10
4.750225
 20
0.209099
 30
0.000000
  0
VERTEX
  8
LAYER-1
 10
4.749357
 20
0.203890
 30
0.000000
  0
VERTEX
  8
LAYER-1
 10
4.751093
 20
0.199550
 30
0.000000
  0
VERTEX
  8
LAYER-1
 10
4.755433
 20
0.197814
 30
0.000000
  0
VERTEX
  8
LAYER-1
 10
4.759774
 20
0.197814
 30
0.000000
  0
VERTEX
  8
LAYER-1
 10
4.764114
 20
0.201286
 30
0.000000
  0
VERTEX
  8
LAYER-1
 10
4.764114
 20
0.205627
 30
0.000000
  0
VERTEX
  8
LAYER-1
 10
4.763245
 20
0.209968
 30
0.000000
  0
VERTEX
  8
LAYER-1
 10
4.758906
 20
0.212571
 30
0.000000
  0
SEQEND
  8
LAYER-1
  0
POLYLINE
  8
LAYER-1
 66
  1
 70
  0
 62
  0
 10
4.545367
 20
0.203890
 30
0.000000
  0
VERTEX
  8
LAYER-1
 10
4.545367
 20
0.203890
 30
0.000000
  0
VERTEX
  8
LAYER-1
 10
4.541027
 20
0.203890
 30
0.000000
  0
VERTEX
  8
LAYER-1
 10
4.537554
 20
0.199549
 30
0.000000
  0
VERTEX
  8
LAYER-1
 10
4.536686
 20
0.194341
 30
0.000000
  0
VERTEX
  8
LAYER-1
 10
4.538423
 20
0.190001
 30
0.000000
  0
VERTEX
  8
LAYER-1
 10
4.542763
 20
0.188265
 30
0.000000
  0
VERTEX
  8
LAYER-1
 10
4.547104
 20
0.188265
 30
0.000000
  0
VERTEX
  8
LAYER-1
 10
4.551443
 20
0.191737
 30
0.000000
  0
VERTEX
  8
LAYER-1
 10
4.551443
 20
0.196077
 30
0.000000
  0
VERTEX
  8
LAYER-1
 10
4.550576
 20
0.200418
 30
0.000000
  0
VERTEX
  8
LAYER-1
 10
4.546236
 20
0.203022
 30
0.000000
  0
SEQEND
  8
LAYER-1
  0
POLYLINE
  8
LAYER-1
 66
  1
 70
  0
 62
  0
 10
4.792763
 20
0.176111
 30
0.000000
  0
VERTEX
  8
LAYER-1
 10
4.792763
 20
0.176111
 30
0.000000
  0
VERTEX
  8
LAYER-1
 10
4.788423
 20
0.176111
 30
0.000000
  0
VERTEX
  8
LAYER-1
 10
4.784950
 20
0.171770
 30
0.000000
  0
VERTEX
  8
LAYER-1
 10
4.784083
 20
0.166562
 30
0.000000
  0
VERTEX
  8
LAYER-1
 10
4.785819
 20
0.162221
 30
0.000000
  0
VERTEX
  8
LAYER-1
 10
4.790160
 20
0.160486
 30
0.000000
  0
VERTEX
  8
LAYER-1
 10
4.794499
 20
0.160486
 30
0.000000
  0
VERTEX
  8
LAYER-1
 10
4.798839
 20
0.163957
 30
0.000000
  0
VERTEX
  8
LAYER-1
 10
4.798839
 20
0.168299
 30
0.000000
  0
VERTEX
  8
LAYER-1
 10
4.797972
 20
0.172639
 30
0.000000
  0
VERTEX
  8
LAYER-1
 10
4.793632
 20
0.175243
 30
0.000000
  0
SEQEND
  8
LAYER-1
  0
POLYLINE
  8
LAYER-1
 66
  1
 70
  1
 62
  0
 10
4.407346
 20
0.122726
 30
0.000000
  0
VERTEX
  8
LAYER-1
 10
4.407346
 20
0.122726
 30
0.000000
  0
VERTEX
  8
LAYER-1
 10
4.400401
 20
0.148767
 30
0.000000
  0
VERTEX
  8
LAYER-1
 10
4.375228
 20
0.134880
 30
0.000000
  0
SEQEND
  8
LAYER-1
  0
POLYLINE
  8
LAYER-1
 66
  1
 70
  1
 62
  0
 10
4.255436
 20
0.163523
 30
0.000000
  0
VERTEX
  8
LAYER-1
 10
4.255436
 20
0.163523
 30
0.000000
  0
VERTEX
  8
LAYER-1
 10
4.268457
 20
0.186094
 30
0.000000
  0
VERTEX
  8
LAYER-1
 10
4.238075
 20
0.165261
 30
0.000000
  0
SEQEND
  8
LAYER-1
  0
POLYLINE
  8
LAYER-1
 66
  1
 70
  1
 62
  0
 10
4.338770
 20
0.123597
 30
0.000000
  0
VERTEX
  8
LAYER-1
 10
4.338770
 20
0.123597
 30
0.000000
  0
VERTEX
  8
LAYER-1
 10
4.355263
 20
0.148771
 30
0.000000
  0
VERTEX
  8
LAYER-1
 10
4.340506
 20
0.156583
 30
0.000000
  0
SEQEND
  8
LAYER-1
  0
POLYLINE
  8
LAYER-1
 66
  1
 70
  0
 62
  0
 10
4.513250
 20
0.125334
 30
0.000000
  0
VERTEX
  8
LAYER-1
 10
4.513250
 20
0.125334
 30
0.000000
  0
VERTEX
  8
LAYER-1
 10
4.517590
 20
0.125334
 30
0.000000
  0
VERTEX
  8
LAYER-1
 10
4.521062
 20
0.129675
 30
0.000000
  0
VERTEX
  8
LAYER-1
 10
4.521930
 20
0.134883
 30
0.000000
  0
VERTEX
  8
LAYER-1
 10
4.520195
 20
0.139223
 30
0.000000
  0
VERTEX
  8
LAYER-1
 10
4.515854
 20
0.140959
 30
0.000000
  0
VERTEX
  8
LAYER-1
 10
4.511514
 20
0.140959
 30
0.000000
  0
VERTEX
  8
LAYER-1
 10
4.507173
 20
0.137488
 30
0.000000
  0
VERTEX
  8
LAYER-1
 10
4.507173
 20
0.133146
 30
0.000000
  0
VERTEX
  8
LAYER-1
 10
4.508041
 20
0.128806
 30
0.000000
  0
VERTEX
  8
LAYER-1
 10
4.512382
 20
0.126201
 30
0.000000
  0
SEQEND
  8
LAYER-1
  0
POLYLINE
  8
LAYER-1
 66
  1
 70
  1
 62
  0
 10
4.464637
 20
0.140089
 30
0.000000
  0
VERTEX
  8
LAYER-1
 10
4.464637
 20
0.140089
 30
0.000000
  0
VERTEX
  8
LAYER-1
 10
4.477658
 20
0.162660
 30
0.000000
  0
VERTEX
  8
LAYER-1
 10
4.447276
 20
0.141827
 30
0.000000
  0
SEQEND
  8
LAYER-1
  0
POLYLINE
  8
LAYER-1
 66
  1
 70
  1
 62
  0
 10
4.353693
 20
0.176014
 30
0.000000
  0
VERTEX
  8
LAYER-1
 10
4.353693
 20
0.176014
 30
0.000000
  0
VERTEX
  8
LAYER-1
 10
4.366380
 20
0.195378
 30
0.000000
  0
VERTEX
  8
LAYER-1
 10
4.355030
 20
0.201389
 30
0.000000
  0
SEQEND
  8
LAYER-1
  0
POLYLINE
  8
LAYER-1
 66
  1
 70
  0
 62
  0
 10
4.309341
 20
0.207485
 30
0.000000
  0
VERTEX
  8
LAYER-1
 10
4.309341
 20
0.207485
 30
0.000000
  0
VERTEX
  8
LAYER-1
 10
4.313681
 20
0.207485
 30
0.000000
  0
VERTEX
  8
LAYER-1
 10
4.317154
 20
0.211825
 30
0.000000
  0
VERTEX
  8
LAYER-1
 10
4.318022
 20
0.217033
 30
0.000000
  0
VERTEX
  8
LAYER-1
 10
4.316286
 20
0.221374
 30
0.000000
  0
VERTEX
  8
LAYER-1
 10
4.311945
 20
0.223110
 30
0.000000
  0
VERTEX
  8
LAYER-1
 10
4.307604
 20
0.223110
 30
0.000000
  0
VERTEX
  8
LAYER-1
 10
4.303265
 20
0.219638
 30
0.000000
  0
VERTEX
  8
LAYER-1
 10
4.303265
 20
0.215297
 30
0.000000
  0
VERTEX
  8
LAYER-1
 10
4.304132
 20
0.210956
 30
0.000000
  0
VERTEX
  8
LAYER-1
 10
4.308473
 20
0.208352
 30
0.000000
  0
SEQEND
  8
LAYER-1
  0
POLYLINE
  8
LAYER-1
 66
  1
 70
  0
 62
  0
 10
4.286686
 20
0.129674
 30
0.000000
  0
VERTEX
  8
LAYER-1
 10
4.286686
 20
0.129674
 30
0.000000
  0
VERTEX
  8
LAYER-1
 10
4.291027
 20
0.129674
 30
0.000000
  0
VERTEX
  8
LAYER-1
 10
4.294498
 20
0.134015
 30
0.000000
  0
VERTEX
  8
LAYER-1
 10
4.295366
 20
0.139222
 30
0.000000
  0
VERTEX
  8
LAYER-1
 10
4.293630
 20
0.143563
 30
0.000000
  0
VERTEX
  8
LAYER-1
 10
4.289290
 20
0.145299
 30
0.000000
  0
VERTEX
  8
LAYER-1
 10
4.284950
 20
0.145299
 30
0.000000
  0
VERTEX
  8
LAYER-1
 10
4.280609
 20
0.141827
 30
0.000000
  0
VERTEX
  8
LAYER-1
 10
4.280609
 20
0.137487
 30
0.000000
  0
VERTEX
  8
LAYER-1
 10
4.281477
 20
0.133146
 30
0.000000
  0
VERTEX
  8
LAYER-1
 10
4.285818
 20
0.130541
 30
0.000000
  0
SEQEND
  8
LAYER-1
  0
POLYLINE
  8
LAYER-1
 66
  1
 70
  0
 62
  0
 10
4.450749
 20
0.206929
 30
0.000000
  0
VERTEX
  8
LAYER-1
 10
4.450749
 20
0.206929
 30
0.000000
  0
VERTEX
  8
LAYER-1
 10
4.455090
 20
0.206929
 30
0.000000
  0
VERTEX
  8
LAYER-1
 10
4.458561
 20
0.211270
 30
0.000000
  0
VERTEX
  8
LAYER-1
 10
4.459429
 20
0.216477
 30
0.000000
  0
VERTEX
  8
LAYER-1
 10
4.457693
 20
0.220818
 30
0.000000
  0
VERTEX
  8
LAYER-1
 10
4.453353
 20
0.222554
 30
0.000000
  0
VERTEX
  8
LAYER-1
 10
4.449013
 20
0.222554
 30
0.000000
  0
VERTEX
  8
LAYER-1
 10
4.444672
 20
0.219082
 30
0.000000
  0
VERTEX
  8
LAYER-1
 10
4.444672
 20
0.214741
 30
0.000000
  0
VERTEX
  8
LAYER-1
 10
4.445540
 20
0.210401
 30
0.000000
  0
VERTEX
  8
LAYER-1
 10
4.449881
 20
0.207796
 30
0.000000
  0
SEQEND
  8
LAYER-1
  0
POLYLINE
  8
LAYER-1
 66
  1
 70
  1
 62
  0
 10
4.902567
 20
0.163526
 30
0.000000
  0
VERTEX
  8
LAYER-1
 10
4.902567
 20
0.163526
 30
0.000000
  0
VERTEX
  8
LAYER-1
 10
4.928608
 20
0.170470
 30
0.000000
  0
VERTEX
  8
LAYER-1
 10
4.914720
 20
0.195643
 30
0.000000
  0
SEQEND
  8
LAYER-1
  0
POLYLINE
  8
LAYER-1
 66
  1
 70
  1
 62
  0
 10
4.584862
 20
0.216477
 30
0.000000
  0
VERTEX
  8
LAYER-1
 10
4.584862
 20
0.216477
 30
0.000000
  0
VERTEX
  8
LAYER-1
 10
4.607432
 20
0.203456
 30
0.000000
  0
VERTEX
  8
LAYER-1
 10
4.586599
 20
0.233838
 30
0.000000
  0
SEQEND
  8
LAYER-1
  0
POLYLINE
  8
LAYER-1
 66
  1
 70
  1
 62
  0
 10
5.521491
 20
0.121856
 30
0.000000
  0
VERTEX
  8
LAYER-1
 10
5.521491
 20
0.121856
 30
0.000000
  0
VERTEX
  8
LAYER-1
 10
5.546666
 20
0.105363
 30
0.000000
  0
VERTEX
  8
LAYER-1
 10
5.554478
 20
0.120120
 30
0.000000
  0
SEQEND
  8
LAYER-1
  0
POLYLINE
  8
LAYER-1
 66
  1
 70
  0
 62
  0
 10
5.342672
 20
0.130538
 30
0.000000
  0
VERTEX
  8
LAYER-1
 10
5.342672
 20
0.130538
 30
0.000000
  0
VERTEX
  8
LAYER-1
 10
5.342672
 20
0.126199
 30
0.000000
  0
VERTEX
  8
LAYER-1
 10
5.347013
 20
0.122726
 30
0.000000
  0
VERTEX
  8
LAYER-1
 10
5.352220
 20
0.121858
 30
0.000000
  0
VERTEX
  8
LAYER-1
 10
5.356561
 20
0.123594
 30
0.000000
  0
VERTEX
  8
LAYER-1
 10
5.358297
 20
0.127934
 30
0.000000
  0
VERTEX
  8
LAYER-1
 10
5.358297
 20
0.132275
 30
0.000000
  0
VERTEX
  8
LAYER-1
 10
5.354825
 20
0.136614
 30
0.000000
  0
VERTEX
  8
LAYER-1
 10
5.350485
 20
0.136614
 30
0.000000
  0
VERTEX
  8
LAYER-1
 10
5.346144
 20
0.135746
 30
0.000000
  0
VERTEX
  8
LAYER-1
 10
5.343540
 20
0.131407
 30
0.000000
  0
SEQEND
  8
LAYER-1
  0
POLYLINE
  8
LAYER-1
 66
  1
 70
  1
 62
  0
 10
4.972880
 20
0.150503
 30
0.000000
  0
VERTEX
  8
LAYER-1
 10
4.972880
 20
0.150503
 30
0.000000
  0
VERTEX
  8
LAYER-1
 10
4.995450
 20
0.137483
 30
0.000000
  0
VERTEX
  8
LAYER-1
 10
4.974617
 20
0.167864
 30
0.000000
  0
SEQEND
  8
LAYER-1
  0
POLYLINE
  8
LAYER-1
 66
  1
 70
  1
 62
  0
 10
4.935888
 20
0.221518
 30
0.000000
  0
VERTEX
  8
LAYER-1
 10
4.935888
 20
0.221518
 30
0.000000
  0
VERTEX
  8
LAYER-1
 10
4.955253
 20
0.208831
 30
0.000000
  0
VERTEX
  8
LAYER-1
 10
4.961263
 20
0.220183
 30
0.000000
  0
SEQEND
  8
LAYER-1
  0
POLYLINE
  8
LAYER-1
 66
  1
 70
  0
 62
  0
 10
4.580523
 20
0.156582
 30
0.000000
  0
VERTEX
  8
LAYER-1
 10
4.580523
 20
0.156582
 30
0.000000
  0
VERTEX
  8
LAYER-1
 10
4.580523
 20
0.152243
 30
0.000000
  0
VERTEX
  8
LAYER-1
 10
4.584863
 20
0.148770
 30
0.000000
  0
VERTEX
  8
LAYER-1
 10
4.590071
 20
0.147902
 30
0.000000
  0
VERTEX
  8
LAYER-1
 10
4.594411
 20
0.149638
 30
0.000000
  0
VERTEX
  8
LAYER-1
 10
4.596147
 20
0.153978
 30
0.000000
  0
VERTEX
  8
LAYER-1
 10
4.596147
 20
0.158318
 30
0.000000
  0
VERTEX
  8
LAYER-1
 10
4.592676
 20
0.162659
 30
0.000000
  0
VERTEX
  8
LAYER-1
 10
4.588335
 20
0.162659
 30
0.000000
  0
VERTEX
  8
LAYER-1
 10
4.583994
 20
0.161791
 30
0.000000
  0
VERTEX
  8
LAYER-1
 10
4.581390
 20
0.157450
 30
0.000000
  0
SEQEND
  8
LAYER-1
  0
POLYLINE
  8
LAYER-1
 66
  1
 70
  0
 62
  0
 10
4.986769
 20
0.118387
 30
0.000000
  0
VERTEX
  8
LAYER-1
 10
4.986769
 20
0.118387
 30
0.000000
  0
VERTEX
  8
LAYER-1
 10
4.986769
 20
0.114046
 30
0.000000
  0
VERTEX
  8
LAYER-1
 10
4.991109
 20
0.110575
 30
0.000000
  0
VERTEX
  8
LAYER-1
 10
4.996317
 20
0.109706
 30
0.000000
  0
VERTEX
  8
LAYER-1
 10
5.000657
 20
0.111443
 30
0.000000
  0
VERTEX
  8
LAYER-1
 10
5.002394
 20
0.115782
 30
0.000000
  0
VERTEX
  8
LAYER-1
 10
5.002394
 20
0.120122
 30
0.000000
  0
VERTEX
  8
LAYER-1
 10
4.998922
 20
0.124463
 30
0.000000
  0
VERTEX
  8
LAYER-1
 10
4.994581
 20
0.124463
 30
0.000000
  0
VERTEX
  8
LAYER-1
 10
4.990240
 20
0.123594
 30
0.000000
  0
VERTEX
  8
LAYER-1
 10
4.987636
 20
0.119255
 30
0.000000
  0
SEQEND
  8
LAYER-1
  0
POLYLINE
  8
LAYER-1
 66
  1
 70
  0
 62
  0
 10
5.055345
 20
0.153977
 30
0.000000
  0
VERTEX
  8
LAYER-1
 10
5.055345
 20
0.153977
 30
0.000000
  0
VERTEX
  8
LAYER-1
 10
5.055345
 20
0.149637
 30
0.000000
  0
VERTEX
  8
LAYER-1
 10
5.059686
 20
0.146165
 30
0.000000
  0
VERTEX
  8
LAYER-1
 10
5.064894
 20
0.145296
 30
0.000000
  0
VERTEX
  8
LAYER-1
 10
5.069234
 20
0.147033
 30
0.000000
  0
VERTEX
  8
LAYER-1
 10
5.070970
 20
0.151372
 30
0.000000
  0
VERTEX
  8
LAYER-1
 10
5.070970
 20
0.155713
 30
0.000000
  0
VERTEX
  8
LAYER-1
 10
5.067498
 20
0.160054
 30
0.000000
  0
VERTEX
  8
LAYER-1
 10
5.063157
 20
0.160054
 30
0.000000
  0
VERTEX
  8
LAYER-1
 10
5.058817
 20
0.159185
 30
0.000000
  0
VERTEX
  8
LAYER-1
 10
5.056213
 20
0.154845
 30
0.000000
  0
SEQEND
  8
LAYER-1
  0
POLYLINE
  8
LAYER-1
 66
  1
 70
  1
 62
  0
 10
5.094756
 20
0.175245
 30
0.000000
  0
VERTEX
  8
LAYER-1
 10
5.094756
 20
0.175245
 30
0.000000
  0
VERTEX
  8
LAYER-1
 10
5.101700
 20
0.149204
 30
0.000000
  0
VERTEX
  8
LAYER-1
 10
5.126874
 20
0.163091
 30
0.000000
  0
SEQEND
  8
LAYER-1
  0
POLYLINE
  8
LAYER-1
 66
  1
 70
  1
 62
  0
 10
5.256301
 20
0.203890
 30
0.000000
  0
VERTEX
  8
LAYER-1
 10
5.256301
 20
0.203890
 30
0.000000
  0
VERTEX
  8
LAYER-1
 10
5.243280
 20
0.181321
 30
0.000000
  0
VERTEX
  8
LAYER-1
 10
5.273662
 20
0.202153
 30
0.000000
  0
SEQEND
  8
LAYER-1
  0
POLYLINE
  8
LAYER-1
 66
  1
 70
  1
 62
  0
 10
5.648661
 20
0.174373
 30
0.000000
  0
VERTEX
  8
LAYER-1
 10
5.648661
 20
0.174373
 30
0.000000
  0
VERTEX
  8
LAYER-1
 10
5.632169
 20
0.149200
 30
0.000000
  0
VERTEX
  8
LAYER-1
 10
5.646926
 20
0.141387
 30
0.000000
  0
SEQEND
  8
LAYER-1
  0
POLYLINE
  8
LAYER-1
 66
  1
 70
  0
 62
  0
 10
5.044495
 20
0.206494
 30
0.000000
  0
VERTEX
  8
LAYER-1
 10
5.044495
 20
0.206494
 30
0.000000
  0
VERTEX
  8
LAYER-1
 10
5.040154
 20
0.206494
 30
0.000000
  0
VERTEX
  8
LAYER-1
 10
5.036683
 20
0.202153
 30
0.000000
  0
VERTEX
  8
LAYER-1
 10
5.035814
 20
0.196945
 30
0.000000
  0
VERTEX
  8
LAYER-1
 10
5.037551
 20
0.192605
 30
0.000000
  0
VERTEX
  8
LAYER-1
 10
5.041891
 20
0.190869
 30
0.000000
  0
VERTEX
  8
LAYER-1
 10
5.046231
 20
0.190869
 30
0.000000
  0
VERTEX
  8
LAYER-1
 10
5.050572
 20
0.194340
 30
0.000000
  0
VERTEX
  8
LAYER-1
 10
5.050572
 20
0.198681
 30
0.000000
  0
VERTEX
  8
LAYER-1
 10
5.049704
 20
0.203022
 30
0.000000
  0
VERTEX
  8
LAYER-1
 10
5.045363
 20
0.205627
 30
0.000000
  0
SEQEND
  8
LAYER-1
  0
POLYLINE
  8
LAYER-1
 66
  1
 70
  1
 62
  0
 10
5.107864
 20
0.130106
 30
0.000000
  0
VERTEX
  8
LAYER-1
 10
5.107864
 20
0.130106
 30
0.000000
  0
VERTEX
  8
LAYER-1
 10
5.094844
 20
0.107535
 30
0.000000
  0
VERTEX
  8
LAYER-1
 10
5.125225
 20
0.128368
 30
0.000000
  0
SEQEND
  8
LAYER-1
  0
POLYLINE
  8
LAYER-1
 66
  1
 70
  1
 62
  0
 10
5.176607
 20
0.107868
 30
0.000000
  0
VERTEX
  8
LAYER-1
 10
5.176607
 20
0.107868
 30
0.000000
  0
VERTEX
  8
LAYER-1
 10
5.189295
 20
0.127231
 30
0.000000
  0
VERTEX
  8
LAYER-1
 10
5.177943
 20
0.133243
 30
0.000000
  0
SEQEND
  8
LAYER-1
  0
POLYLINE
  8
LAYER-1
 66
  1
 70
  0
 62
  0
 10
5.196405
 20
0.208230
 30
0.000000
  0
VERTEX
  8
LAYER-1
 10
5.196405
 20
0.208230
 30
0.000000
  0
VERTEX
  8
LAYER-1
 10
5.192065
 20
0.208230
 30
0.000000
  0
VERTEX
  8
LAYER-1
 10
5.188592
 20
0.203889
 30
0.000000
  0
VERTEX
  8
LAYER-1
 10
5.187725
 20
0.198681
 30
0.000000
  0
VERTEX
  8
LAYER-1
 10
5.189460
 20
0.194340
 30
0.000000
  0
VERTEX
  8
LAYER-1
 10
5.193801
 20
0.192605
 30
0.000000
  0
VERTEX
  8
LAYER-1
 10
5.198142
 20
0.192605
 30
0.000000
  0
VERTEX
  8
LAYER-1
 10
5.202482
 20
0.196076
 30
0.000000
  0
VERTEX
  8
LAYER-1
 10
5.202482
 20
0.200417
 30
0.000000
  0
VERTEX
  8
LAYER-1
 10
5.201614
 20
0.204758
 30
0.000000
  0
VERTEX
  8
LAYER-1
 10
5.197273
 20
0.207363
 30
0.000000
  0
SEQEND
  8
LAYER-1
  0
POLYLINE
  8
LAYER-1
 66
  1
 70
  0
 62
  0
 10
5.700745
 20
0.168296
 30
0.000000
  0
VERTEX
  8
LAYER-1
 10
5.700745
 20
0.168296
 30
0.000000
  0
VERTEX
  8
LAYER-1
 10
5.696404
 20
0.168296
 30
0.000000
  0
VERTEX
  8
LAYER-1
 10
5.692932
 20
0.163956
 30
0.000000
  0
VERTEX
  8
LAYER-1
 10
5.692064
 20
0.158748
 30
0.000000
  0
VERTEX
  8
LAYER-1
 10
5.693800
 20
0.154407
 30
0.000000
  0
VERTEX
  8
LAYER-1
 10
5.698141
 20
0.152671
 30
0.000000
  0
VERTEX
  8
LAYER-1
 10
5.702481
 20
0.152671
 30
0.000000
  0
VERTEX
  8
LAYER-1
 10
5.706821
 20
0.156143
 30
0.000000
  0
VERTEX
  8
LAYER-1
 10
5.706821
 20
0.160483
 30
0.000000
  0
VERTEX
  8
LAYER-1
 10
5.705953
 20
0.164825
 30
0.000000
  0
VERTEX
  8
LAYER-1
 10
5.701613
 20
0.167430
 30
0.000000
  0
SEQEND
  8
LAYER-1
  0
POLYLINE
  8
LAYER-1
 66
  1
 70
  0
 62
  0
 10
5.609600
 20
0.136178
 30
0.000000
  0
VERTEX
  8
LAYER-1
 10
5.609600
 20
0.136178
 30
0.000000
  0
VERTEX
  8
LAYER-1
 10
5.605259
 20
0.136178
 30
0.000000
  0
VERTEX
  8
LAYER-1
 10
5.601788
 20
0.131838
 30
0.000000
  0
VERTEX
  8
LAYER-1
 10
5.600920
 20
0.126630
 30
0.000000
  0
VERTEX
  8
LAYER-1
 10
5.602655
 20
0.122289
 30
0.000000
  0
VERTEX
  8
LAYER-1
 10
5.606996
 20
0.120553
 30
0.000000
  0
VERTEX
  8
LAYER-1
 10
5.611336
 20
0.120553
 30
0.000000
  0
VERTEX
  8
LAYER-1
 10
5.615676
 20
0.124025
 30
0.000000
  0
VERTEX
  8
LAYER-1
 10
5.615676
 20
0.128365
 30
0.000000
  0
VERTEX
  8
LAYER-1
 10
5.614808
 20
0.132707
 30
0.000000
  0
VERTEX
  8
LAYER-1
 10
5.610468
 20
0.135312
 30
0.000000
  0
SEQEND
  8
LAYER-1
  0
POLYLINE
  8
LAYER-1
 66
  1
 70
  1
 62
  0
 10
5.294495
 20
0.190436
 30
0.000000
  0
VERTEX
  8
LAYER-1
 10
5.294495
 20
0.190436
 30
0.000000
  0
VERTEX
  8
LAYER-1
 10
5.320536
 20
0.197381
 30
0.000000
  0
VERTEX
  8
LAYER-1
 10
5.306649
 20
0.222554
 30
0.000000
  0
SEQEND
  8
LAYER-1
  0
POLYLINE
  8
LAYER-1
 66
  1
 70
  0
 62
  0
 10
5.263245
 20
0.140957
 30
0.000000
  0
VERTEX
  8
LAYER-1
 10
5.263245
 20
0.140957
 30
0.000000
  0
VERTEX
  8
LAYER-1
 10
5.263245
 20
0.136618
 30
0.000000
  0
VERTEX
  8
LAYER-1
 10
5.267586
 20
0.133145
 30
0.000000
  0
VERTEX
  8
LAYER-1
 10
5.272794
 20
0.132278
 30
0.000000
  0
VERTEX
  8
LAYER-1
 10
5.277135
 20
0.134014
 30
0.000000
  0
VERTEX
  8
LAYER-1
 10
5.278870
 20
0.138353
 30
0.000000
  0
VERTEX
  8
LAYER-1
 10
5.278870
 20
0.142694
 30
0.000000
  0
VERTEX
  8
LAYER-1
 10
5.275399
 20
0.147034
 30
0.000000
  0
VERTEX
  8
LAYER-1
 10
5.271058
 20
0.147034
 30
0.000000
  0
VERTEX
  8
LAYER-1
 10
5.266717
 20
0.146166
 30
0.000000
  0
VERTEX
  8
LAYER-1
 10
5.264113
 20
0.141826
 30
0.000000
  0
SEQEND
  8
LAYER-1
  0
POLYLINE
  8
LAYER-1
 66
  1
 70
  1
 62
  0
 10
5.358298
 20
0.154412
 30
0.000000
  0
VERTEX
  8
LAYER-1
 10
5.358298
 20
0.154412
 30
0.000000
  0
VERTEX
  8
LAYER-1
 10
5.371318
 20
0.176982
 30
0.000000
  0
VERTEX
  8
LAYER-1
 10
5.340937
 20
0.156150
 30
0.000000
  0
SEQEND
  8
LAYER-1
  0
POLYLINE
  8
LAYER-1
 66
  1
 70
  0
 62
  0
 10
5.413419
 20
0.188700
 30
0.000000
  0
VERTEX
  8
LAYER-1
 10
5.413419
 20
0.188700
 30
0.000000
  0
VERTEX
  8
LAYER-1
 10
5.413419
 20
0.184360
 30
0.000000
  0
VERTEX
  8
LAYER-1
 10
5.417760
 20
0.180889
 30
0.000000
  0
VERTEX
  8
LAYER-1
 10
5.422967
 20
0.180020
 30
0.000000
  0
VERTEX
  8
LAYER-1
 10
5.427308
 20
0.181757
 30
0.000000
  0
VERTEX
  8
LAYER-1
 10
5.429044
 20
0.186096
 30
0.000000
  0
VERTEX
  8
LAYER-1
 10
5.429044
 20
0.190436
 30
0.000000
  0
VERTEX
  8
LAYER-1
 10
5.425572
 20
0.194777
 30
0.000000
  0
VERTEX
  8
LAYER-1
 10
5.421232
 20
0.194777
 30
0.000000
  0
VERTEX
  8
LAYER-1
 10
5.416891
 20
0.193908
 30
0.000000
  0
VERTEX
  8
LAYER-1
 10
5.414286
 20
0.189568
 30
0.000000
  0
SEQEND
  8
LAYER-1
  0
POLYLINE
  8
LAYER-1
 66
  1
 70
  1
 62
  0
 10
6.159342
 20
0.205104
 30
0.000000
  0
VERTEX
  8
LAYER-1
 10
6.159342
 20
0.205104
 30
0.000000
  0
VERTEX
  8
LAYER-1
 10
6.152397
 20
0.231146
 30
0.000000
  0
VERTEX
  8
LAYER-1
 10
6.127224
 20
0.217258
 30
0.000000
  0
SEQEND
  8
LAYER-1
  0
POLYLINE
  8
LAYER-1
 66
  1
 70
  0
 62
  0
 10
6.199881
 20
0.078890
 30
0.000000
  0
VERTEX
  8
LAYER-1
 10
6.199881
 20
0.078890
 30
0.000000
  0
VERTEX
  8
LAYER-1
 10
6.204221
 20
0.078890
 30
0.000000
  0
VERTEX
  8
LAYER-1
 10
6.207694
 20
0.083231
 30
0.000000
  0
VERTEX
  8
LAYER-1
 10
6.208561
 20
0.088438
 30
0.000000
  0
VERTEX
  8
LAYER-1
 10
6.206825
 20
0.092779
 30
0.000000
  0
VERTEX
  8
LAYER-1
 10
6.202485
 20
0.094515
 30
0.000000
  0
VERTEX
  8
LAYER-1
 10
6.198144
 20
0.094515
 30
0.000000
  0
VERTEX
  8
LAYER-1
 10
6.193804
 20
0.091043
 30
0.000000
  0
VERTEX
  8
LAYER-1
 10
6.193804
 20
0.086702
 30
0.000000
  0
VERTEX
  8
LAYER-1
 10
6.194672
 20
0.082362
 30
0.000000
  0
VERTEX
  8
LAYER-1
 10
6.199012
 20
0.079758
 30
0.000000
  0
SEQEND
  8
LAYER-1
  0
POLYLINE
  8
LAYER-1
 66
  1
 70
  1
 62
  0
 10
5.496318
 20
0.111877
 30
0.000000
  0
VERTEX
  8
LAYER-1
 10
5.496318
 20
0.111877
 30
0.000000
  0
VERTEX
  8
LAYER-1
 10
5.509338
 20
0.134446
 30
0.000000
  0
VERTEX
  8
LAYER-1
 10
5.478957
 20
0.113614
 30
0.000000
  0
SEQEND
  8
LAYER-1
  0
POLYLINE
  8
LAYER-1
 66
  1
 70
  0
 62
  0
 10
5.540070
 20
0.190209
 30
0.000000
  0
VERTEX
  8
LAYER-1
 10
5.540070
 20
0.190209
 30
0.000000
  0
VERTEX
  8
LAYER-1
 10
5.544411
 20
0.190209
 30
0.000000
  0
VERTEX
  8
LAYER-1
 10
5.547883
 20
0.194550
 30
0.000000
  0
VERTEX
  8
LAYER-1
 10
5.548751
 20
0.199758
 30
0.000000
  0
VERTEX
  8
LAYER-1
 10
5.547014
 20
0.204098
 30
0.000000
  0
VERTEX
  8
LAYER-1
 10
5.542675
 20
0.205834
 30
0.000000
  0
VERTEX
  8
LAYER-1
 10
5.538334
 20
0.205834
 30
0.000000
  0
VERTEX
  8
LAYER-1
 10
5.533993
 20
0.202362
 30
0.000000
  0
VERTEX
  8
LAYER-1
 10
5.533993
 20
0.198022
 30
0.000000
  0
VERTEX
  8
LAYER-1
 10
5.534862
 20
0.193681
 30
0.000000
  0
VERTEX
  8
LAYER-1
 10
5.539202
 20
0.191077
 30
0.000000
  0
SEQEND
  8
LAYER-1
  0
POLYLINE
  8
LAYER-1
 66
  1
 70
  1
 62
  0
 10
6.079656
 20
0.120993
 30
0.000000
  0
VERTEX
  8
LAYER-1
 10
6.079656
 20
0.120993
 30
0.000000
  0
VERTEX
  8
LAYER-1
 10
6.053614
 20
0.114047
 30
0.000000
  0
VERTEX
  8
LAYER-1
 10
6.067502
 20
0.088874
 30
0.000000
  0
SEQEND
  8
LAYER-1
  0
POLYLINE
  8
LAYER-1
 66
  1
 70
  0
 62
  0
 10
5.444669
 20
0.135751
 30
0.000000
  0
VERTEX
  8
LAYER-1
 10
5.444669
 20
0.135751
 30
0.000000
  0
VERTEX
  8
LAYER-1
 10
5.444669
 20
0.140089
 30
0.000000
  0
VERTEX
  8
LAYER-1
 10
5.440328
 20
0.143563
 30
0.000000
  0
VERTEX
  8
LAYER-1
 10
5.435120
 20
0.144430
 30
0.000000
  0
VERTEX
  8
LAYER-1
 10
5.430780
 20
0.142694
 30
0.000000
  0
VERTEX
  8
LAYER-1
 10
5.429044
 20
0.138353
 30
0.000000
  0
VERTEX
  8
LAYER-1
 10
5.429044
 20
0.134013
 30
0.000000
  0
VERTEX
  8
LAYER-1
 10
5.432516
 20
0.129674
 30
0.000000
  0
VERTEX
  8
LAYER-1
 10
5.436857
 20
0.129674
 30
0.000000
  0
VERTEX
  8
LAYER-1
 10
5.441197
 20
0.130541
 30
0.000000
  0
VERTEX
  8
LAYER-1
 10
5.443801
 20
0.134882
 30
0.000000
  0
SEQEND
  8
LAYER-1
  0
POLYLINE
  8
LAYER-1
 66
  1
 70
  1
 62
  0
 10
6.028440
 20
0.110576
 30
0.000000
  0
VERTEX
  8
LAYER-1
 10
6.028440
 20
0.110576
 30
0.000000
  0
VERTEX
  8
LAYER-1
 10
6.000662
 20
0.127068
 30
0.000000
  0
VERTEX
  8
LAYER-1
 10
6.021495
 20
0.096687
 30
0.000000
  0
SEQEND
  8
LAYER-1
  0
POLYLINE
  8
LAYER-1
 66
  1
 70
  0
 62
  0
 10
5.738939
 20
0.192168
 30
0.000000
  0
VERTEX
  8
LAYER-1
 10
5.738939
 20
0.192168
 30
0.000000
  0
VERTEX
  8
LAYER-1
 10
5.738939
 20
0.196509
 30
0.000000
  0
VERTEX
  8
LAYER-1
 10
5.734598
 20
0.199981
 30
0.000000
  0
VERTEX
  8
LAYER-1
 10
5.729391
 20
0.200850
 30
0.000000
  0
VERTEX
  8
LAYER-1
 10
5.725050
 20
0.199112
 30
0.000000
  0
VERTEX
  8
LAYER-1
 10
5.723314
 20
0.194773
 30
0.000000
  0
VERTEX
  8
LAYER-1
 10
5.723314
 20
0.190432
 30
0.000000
  0
VERTEX
  8
LAYER-1
 10
5.726786
 20
0.186093
 30
0.000000
  0
VERTEX
  8
LAYER-1
 10
5.731127
 20
0.186093
 30
0.000000
  0
VERTEX
  8
LAYER-1
 10
5.735467
 20
0.186961
 30
0.000000
  0
VERTEX
  8
LAYER-1
 10
5.738071
 20
0.191299
 30
0.000000
  0
SEQEND
  8
LAYER-1
  0
POLYLINE
  8
LAYER-1
 66
  1
 70
  1
 62
  0
 10
6.309603
 20
0.098684
 30
0.000000
  0
VERTEX
  8
LAYER-1
 10
6.309603
 20
0.098684
 30
0.000000
  0
VERTEX
  8
LAYER-1
 10
6.302658
 20
0.124724
 30
0.000000
  0
VERTEX
  8
LAYER-1
 10
6.277484
 20
0.110836
 30
0.000000
  0
SEQEND
  8
LAYER-1
  0
POLYLINE
  8
LAYER-1
 66
  1
 70
  0
 62
  0
 10
6.399447
 20
0.198942
 30
0.000000
  0
VERTEX
  8
LAYER-1
 10
6.399447
 20
0.198942
 30
0.000000
  0
VERTEX
  8
LAYER-1
 10
6.403788
 20
0.198942
 30
0.000000
  0
VERTEX
  8
LAYER-1
 10
6.407260
 20
0.203284
 30
0.000000
  0
VERTEX
  8
LAYER-1
 10
6.408127
 20
0.208491
 30
0.000000
  0
VERTEX
  8
LAYER-1
 10
6.406391
 20
0.212831
 30
0.000000
  0
VERTEX
  8
LAYER-1
 10
6.402052
 20
0.214567
 30
0.000000
  0
VERTEX
  8
LAYER-1
 10
6.397711
 20
0.214567
 30
0.000000
  0
VERTEX
  8
LAYER-1
 10
6.393371
 20
0.211096
 30
0.000000
  0
VERTEX
  8
LAYER-1
 10
6.393371
 20
0.206755
 30
0.000000
  0
VERTEX
  8
LAYER-1
 10
6.394240
 20
0.202415
 30
0.000000
  0
VERTEX
  8
LAYER-1
 10
6.398578
 20
0.199810
 30
0.000000
  0
SEQEND
  8
LAYER-1
  0
POLYLINE
  8
LAYER-1
 66
  1
 70
  1
 62
  0
 10
6.384689
 20
0.234099
 30
0.000000
  0
VERTEX
  8
LAYER-1
 10
6.384689
 20
0.234099
 30
0.000000
  0
VERTEX
  8
LAYER-1
 10
6.358647
 20
0.227154
 30
0.000000
  0
VERTEX
  8
LAYER-1
 10
6.372536
 20
0.201981
 30
0.000000
  0
SEQEND
  8
LAYER-1
  0
POLYLINE
  8
LAYER-1
 66
  1
 70
  1
 62
  0
 10
5.633471
 20
0.092783
 30
0.000000
  0
VERTEX
  8
LAYER-1
 10
5.633471
 20
0.092783
 30
0.000000
  0
VERTEX
  8
LAYER-1
 10
5.646491
 20
0.115352
 30
0.000000
  0
VERTEX
  8
LAYER-1
 10
5.616110
 20
0.094520
 30
0.000000
  0
SEQEND
  8
LAYER-1
  0
POLYLINE
  8
LAYER-1
 66
  1
 70
  0
 62
  0
 10
5.629998
 20
0.199551
 30
0.000000
  0
VERTEX
  8
LAYER-1
 10
5.629998
 20
0.199551
 30
0.000000
  0
VERTEX
  8
LAYER-1
 10
5.634339
 20
0.199551
 30
0.000000
  0
VERTEX
  8
LAYER-1
 10
5.637811
 20
0.203891
 30
0.000000
  0
VERTEX
  8
LAYER-1
 10
5.638680
 20
0.209100
 30
0.000000
  0
VERTEX
  8
LAYER-1
 10
5.636944
 20
0.213440
 30
0.000000
  0
VERTEX
  8
LAYER-1
 10
5.632603
 20
0.215176
 30
0.000000
  0
VERTEX
  8
LAYER-1
 10
5.628262
 20
0.215176
 30
0.000000
  0
VERTEX
  8
LAYER-1
 10
5.623922
 20
0.211704
 30
0.000000
  0
VERTEX
  8
LAYER-1
 10
5.623922
 20
0.207364
 30
0.000000
  0
VERTEX
  8
LAYER-1
 10
5.624791
 20
0.203022
 30
0.000000
  0
VERTEX
  8
LAYER-1
 10
5.629131
 20
0.200419
 30
0.000000
  0
SEQEND
  8
LAYER-1
  0
POLYLINE
  8
LAYER-1
 66
  1
 70
  1
 62
  0
 10
5.582689
 20
0.178283
 30
0.000000
  0
VERTEX
  8
LAYER-1
 10
5.582689
 20
0.178283
 30
0.000000
  0
VERTEX
  8
LAYER-1
 10
5.607864
 20
0.161790
 30
0.000000
  0
VERTEX
  8
LAYER-1
 10
5.615676
 20
0.176547
 30
0.000000
  0
SEQEND
  8
LAYER-1
  0
POLYLINE
  8
LAYER-1
 66
  1
 70
  1
 62
  0
 10
5.569336
 20
0.150671
 30
0.000000
  0
VERTEX
  8
LAYER-1
 10
5.569336
 20
0.150671
 30
0.000000
  0
VERTEX
  8
LAYER-1
 10
5.549972
 20
0.163359
 30
0.000000
  0
VERTEX
  8
LAYER-1
 10
5.543961
 20
0.152007
 30
0.000000
  0
SEQEND
  8
LAYER-1
  0
POLYLINE
  8
LAYER-1
 66
  1
 70
  1
 62
  0
 10
1.346580
 20
0.209532
 30
0.000000
  0
VERTEX
  8
LAYER-1
 10
1.346580
 20
0.209532
 30
0.000000
  0
VERTEX
  8
LAYER-1
 10
1.333559
 20
0.186963
 30
0.000000
  0
VERTEX
  8
LAYER-1
 10
1.363941
 20
0.207795
 30
0.000000
  0
SEQEND
  8
LAYER-1
  0
POLYLINE
  8
LAYER-1
 66
  1
 70
  1
 62
  0
 10
5.896060
 20
0.136619
 30
0.000000
  0
VERTEX
  8
LAYER-1
 10
5.896060
 20
0.136619
 30
0.000000
  0
VERTEX
  8
LAYER-1
 10
5.918630
 20
0.123597
 30
0.000000
  0
VERTEX
  8
LAYER-1
 10
5.897797
 20
0.153979
 30
0.000000
  0
SEQEND
  8
LAYER-1
  0
POLYLINE
  8
LAYER-1
 66
  1
 70
  0
 62
  0
 10
5.824011
 20
0.183490
 30
0.000000
  0
VERTEX
  8
LAYER-1
 10
5.824011
 20
0.183490
 30
0.000000
  0
VERTEX
  8
LAYER-1
 10
5.824011
 20
0.179150
 30
0.000000
  0
VERTEX
  8
LAYER-1
 10
5.828352
 20
0.175678
 30
0.000000
  0
VERTEX
  8
LAYER-1
 10
5.833560
 20
0.174810
 30
0.000000
  0
VERTEX
  8
LAYER-1
 10
5.837901
 20
0.176546
 30
0.000000
  0
VERTEX
  8
LAYER-1
 10
5.839636
 20
0.180887
 30
0.000000
  0
VERTEX
  8
LAYER-1
 10
5.839636
 20
0.185226
 30
0.000000
  0
VERTEX
  8
LAYER-1
 10
5.836165
 20
0.189566
 30
0.000000
  0
VERTEX
  8
LAYER-1
 10
5.831824
 20
0.189566
 30
0.000000
  0
VERTEX
  8
LAYER-1
 10
5.827483
 20
0.188699
 30
0.000000
  0
VERTEX
  8
LAYER-1
 10
5.824880
 20
0.184358
 30
0.000000
  0
SEQEND
  8
LAYER-1
  0
POLYLINE
  8
LAYER-1
 66
  1
 70
  1
 62
  0
 10
5.773664
 20
0.194776
 30
0.000000
  0
VERTEX
  8
LAYER-1
 10
5.773664
 20
0.194776
 30
0.000000
  0
VERTEX
  8
LAYER-1
 10
5.796233
 20
0.181756
 30
0.000000
  0
VERTEX
  8
LAYER-1
 10
5.775401
 20
0.212137
 30
0.000000
  0
SEQEND
  8
LAYER-1
  0
POLYLINE
  8
LAYER-1
 66
  1
 70
  0
 62
  0
 10
6.035817
 20
0.136619
 30
0.000000
  0
VERTEX
  8
LAYER-1
 10
6.035817
 20
0.136619
 30
0.000000
  0
VERTEX
  8
LAYER-1
 10
6.035817
 20
0.132278
 30
0.000000
  0
VERTEX
  8
LAYER-1
 10
6.040158
 20
0.128806
 30
0.000000
  0
VERTEX
  8
LAYER-1
 10
6.045366
 20
0.127938
 30
0.000000
  0
VERTEX
  8
LAYER-1
 10
6.049706
 20
0.129674
 30
0.000000
  0
VERTEX
  8
LAYER-1
 10
6.051442
 20
0.134014
 30
0.000000
  0
VERTEX
  8
LAYER-1
 10
6.051442
 20
0.138354
 30
0.000000
  0
VERTEX
  8
LAYER-1
 10
6.047970
 20
0.142695
 30
0.000000
  0
VERTEX
  8
LAYER-1
 10
6.043630
 20
0.142695
 30
0.000000
  0
VERTEX
  8
LAYER-1
 10
6.039289
 20
0.141826
 30
0.000000
  0
VERTEX
  8
LAYER-1
 10
6.036685
 20
0.137487
 30
0.000000
  0
SEQEND
  8
LAYER-1
  0
POLYLINE
  8
LAYER-1
 66
  1
 70
  0
 62
  0
 10
5.870019
 20
0.191305
 30
0.000000
  0
VERTEX
  8
LAYER-1
 10
5.870019
 20
0.191305
 30
0.000000
  0
VERTEX
  8
LAYER-1
 10
5.870019
 20
0.186964
 30
0.000000
  0
VERTEX
  8
LAYER-1
 10
5.874360
 20
0.183494
 30
0.000000
  0
VERTEX
  8
LAYER-1
 10
5.879567
 20
0.182626
 30
0.000000
  0
VERTEX
  8
LAYER-1
 10
5.883908
 20
0.184362
 30
0.000000
  0
VERTEX
  8
LAYER-1
 10
5.885644
 20
0.188700
 30
0.000000
  0
VERTEX
  8
LAYER-1
 10
5.885644
 20
0.193041
 30
0.000000
  0
VERTEX
  8
LAYER-1
 10
5.882172
 20
0.197382
 30
0.000000
  0
VERTEX
  8
LAYER-1
 10
5.877831
 20
0.197382
 30
0.000000
  0
VERTEX
  8
LAYER-1
 10
5.873491
 20
0.196513
 30
0.000000
  0
VERTEX
  8
LAYER-1
 10
5.870886
 20
0.192173
 30
0.000000
  0
SEQEND
  8
LAYER-1
  0
POLYLINE
  8
LAYER-1
 66
  1
 70
  1
 62
  0
 10
5.794498
 20
0.126635
 30
0.000000
  0
VERTEX
  8
LAYER-1
 10
5.794498
 20
0.126635
 30
0.000000
  0
VERTEX
  8
LAYER-1
 10
5.781477
 20
0.104065
 30
0.000000
  0
VERTEX
  8
LAYER-1
 10
5.811860
 20
0.124897
 30
0.000000
  0
SEQEND
  8
LAYER-1
  0
POLYLINE
  8
LAYER-1
 66
  1
 70
  0
 62
  0
 10
5.720798
 20
0.118770
 30
0.000000
  0
VERTEX
  8
LAYER-1
 10
5.720798
 20
0.118770
 30
0.000000
  0
VERTEX
  8
LAYER-1
 10
5.716458
 20
0.118770
 30
0.000000
  0
VERTEX
  8
LAYER-1
 10
5.712985
 20
0.114430
 30
0.000000
  0
VERTEX
  8
LAYER-1
 10
5.712118
 20
0.109222
 30
0.000000
  0
VERTEX
  8
LAYER-1
 10
5.713853
 20
0.104881
 30
0.000000
  0
VERTEX
  8
LAYER-1
 10
5.718194
 20
0.103145
 30
0.000000
  0
VERTEX
  8
LAYER-1
 10
5.722535
 20
0.103145
 30
0.000000
  0
VERTEX
  8
LAYER-1
 10
5.726874
 20
0.106617
 30
0.000000
  0
VERTEX
  8
LAYER-1
 10
5.726874
 20
0.110958
 30
0.000000
  0
VERTEX
  8
LAYER-1
 10
5.726006
 20
0.115299
 30
0.000000
  0
VERTEX
  8
LAYER-1
 10
5.721666
 20
0.117903
 30
0.000000
  0
SEQEND
  8
LAYER-1
  0
POLYLINE
  8
LAYER-1
 66
  1
 70
  0
 62
  0
 10
5.794498
 20
0.157015
 30
0.000000
  0
VERTEX
  8
LAYER-1
 10
5.794498
 20
0.157015
 30
0.000000
  0
VERTEX
  8
LAYER-1
 10
5.790158
 20
0.157015
 30
0.000000
  0
VERTEX
  8
LAYER-1
 10
5.786686
 20
0.152675
 30
0.000000
  0
VERTEX
  8
LAYER-1
 10
5.785818
 20
0.147468
 30
0.000000
  0
VERTEX
  8
LAYER-1
 10
5.787554
 20
0.143127
 30
0.000000
  0
VERTEX
  8
LAYER-1
 10
5.791895
 20
0.141390
 30
0.000000
  0
VERTEX
  8
LAYER-1
 10
5.796235
 20
0.141390
 30
0.000000
  0
VERTEX
  8
LAYER-1
 10
5.800575
 20
0.144863
 30
0.000000
  0
VERTEX
  8
LAYER-1
 10
5.800575
 20
0.149203
 30
0.000000
  0
VERTEX
  8
LAYER-1
 10
5.799707
 20
0.153544
 30
0.000000
  0
VERTEX
  8
LAYER-1
 10
5.795366
 20
0.156149
 30
0.000000
  0
SEQEND
  8
LAYER-1
  0
POLYLINE
  8
LAYER-1
 66
  1
 70
  1
 62
  0
 10
6.101790
 20
0.173509
 30
0.000000
  0
VERTEX
  8
LAYER-1
 10
6.101790
 20
0.173509
 30
0.000000
  0
VERTEX
  8
LAYER-1
 10
6.108735
 20
0.147469
 30
0.000000
  0
VERTEX
  8
LAYER-1
 10
6.133908
 20
0.161357
 30
0.000000
  0
SEQEND
  8
LAYER-1
  0
POLYLINE
  8
LAYER-1
 66
  1
 70
  1
 62
  0
 10
6.264116
 20
0.202155
 30
0.000000
  0
VERTEX
  8
LAYER-1
 10
6.264116
 20
0.202155
 30
0.000000
  0
VERTEX
  8
LAYER-1
 10
6.251095
 20
0.179587
 30
0.000000
  0
VERTEX
  8
LAYER-1
 10
6.281477
 20
0.200418
 30
0.000000
  0
SEQEND
  8
LAYER-1
  0
POLYLINE
  8
LAYER-1
 66
  1
 70
  0
 62
  0
 10
6.052311
 20
0.204759
 30
0.000000
  0
VERTEX
  8
LAYER-1
 10
6.052311
 20
0.204759
 30
0.000000
  0
VERTEX
  8
LAYER-1
 10
6.047970
 20
0.204759
 30
0.000000
  0
VERTEX
  8
LAYER-1
 10
6.044498
 20
0.200418
 30
0.000000
  0
VERTEX
  8
LAYER-1
 10
6.043630
 20
0.195210
 30
0.000000
  0
VERTEX
  8
LAYER-1
 10
6.045366
 20
0.190870
 30
0.000000
  0
VERTEX
  8
LAYER-1
 10
6.049706
 20
0.189134
 30
0.000000
  0
VERTEX
  8
LAYER-1
 10
6.054047
 20
0.189134
 30
0.000000
  0
VERTEX
  8
LAYER-1
 10
6.058388
 20
0.192606
 30
0.000000
  0
VERTEX
  8
LAYER-1
 10
6.058388
 20
0.196946
 30
0.000000
  0
VERTEX
  8
LAYER-1
 10
6.057519
 20
0.201287
 30
0.000000
  0
VERTEX
  8
LAYER-1
 10
6.053179
 20
0.203890
 30
0.000000
  0
SEQEND
  8
LAYER-1
  0
POLYLINE
  8
LAYER-1
 66
  1
 70
  1
 62
  0
 10
6.162555
 20
0.137051
 30
0.000000
  0
VERTEX
  8
LAYER-1
 10
6.162555
 20
0.137051
 30
0.000000
  0
VERTEX
  8
LAYER-1
 10
6.149535
 20
0.114482
 30
0.000000
  0
VERTEX
  8
LAYER-1
 10
6.179916
 20
0.135314
 30
0.000000
  0
SEQEND
  8
LAYER-1
  0
POLYLINE
  8
LAYER-1
 66
  1
 70
  0
 62
  0
 10
6.204220
 20
0.206495
 30
0.000000
  0
VERTEX
  8
LAYER-1
 10
6.204220
 20
0.206495
 30
0.000000
  0
VERTEX
  8
LAYER-1
 10
6.199879
 20
0.206495
 30
0.000000
  0
VERTEX
  8
LAYER-1
 10
6.196407
 20
0.202154
 30
0.000000
  0
VERTEX
  8
LAYER-1
 10
6.195539
 20
0.196946
 30
0.000000
  0
VERTEX
  8
LAYER-1
 10
6.197275
 20
0.192606
 30
0.000000
  0
VERTEX
  8
LAYER-1
 10
6.201616
 20
0.190870
 30
0.000000
  0
VERTEX
  8
LAYER-1
 10
6.205956
 20
0.190870
 30
0.000000
  0
VERTEX
  8
LAYER-1
 10
6.210297
 20
0.194341
 30
0.000000
  0
VERTEX
  8
LAYER-1
 10
6.210297
 20
0.198682
 30
0.000000
  0
VERTEX
  8
LAYER-1
 10
6.209429
 20
0.203022
 30
0.000000
  0
VERTEX
  8
LAYER-1
 10
6.205088
 20
0.205627
 30
0.000000
  0
SEQEND
  8
LAYER-1
  0
POLYLINE
  8
LAYER-1
 66
  1
 70
  1
 62
  0
 10
6.543629
 20
0.197814
 30
0.000000
  0
VERTEX
  8
LAYER-1
 10
6.543629
 20
0.197814
 30
0.000000
  0
VERTEX
  8
LAYER-1
 10
6.550574
 20
0.171775
 30
0.000000
  0
VERTEX
  8
LAYER-1
 10
6.575747
 20
0.185662
 30
0.000000
  0
SEQEND
  8
LAYER-1
  0
POLYLINE
  8
LAYER-1
 66
  1
 70
  1
 62
  0
 10
6.705956
 20
0.226462
 30
0.000000
  0
VERTEX
  8
LAYER-1
 10
6.705956
 20
0.226462
 30
0.000000
  0
VERTEX
  8
LAYER-1
 10
6.692935
 20
0.203890
 30
0.000000
  0
VERTEX
  8
LAYER-1
 10
6.723317
 20
0.224724
 30
0.000000
  0
SEQEND
  8
LAYER-1
  0
POLYLINE
  8
LAYER-1
 66
  1
 70
  1
 62
  0
 10
5.934255
 20
0.162226
 30
0.000000
  0
VERTEX
  8
LAYER-1
 10
5.934255
 20
0.162226
 30
0.000000
  0
VERTEX
  8
LAYER-1
 10
5.959429
 20
0.145732
 30
0.000000
  0
VERTEX
  8
LAYER-1
 10
5.967241
 20
0.160489
 30
0.000000
  0
SEQEND
  8
LAYER-1
  0
POLYLINE
  8
LAYER-1
 66
  1
 70
  0
 62
  0
 10
6.504566
 20
0.218649
 30
0.000000
  0
VERTEX
  8
LAYER-1
 10
6.504566
 20
0.218649
 30
0.000000
  0
VERTEX
  8
LAYER-1
 10
6.500225
 20
0.218649
 30
0.000000
  0
VERTEX
  8
LAYER-1
 10
6.496754
 20
0.214308
 30
0.000000
  0
VERTEX
  8
LAYER-1
 10
6.495886
 20
0.209101
 30
0.000000
  0
VERTEX
  8
LAYER-1
 10
6.497622
 20
0.204759
 30
0.000000
  0
VERTEX
  8
LAYER-1
 10
6.501962
 20
0.203024
 30
0.000000
  0
VERTEX
  8
LAYER-1
 10
6.506302
 20
0.203024
 30
0.000000
  0
VERTEX
  8
LAYER-1
 10
6.510643
 20
0.206495
 30
0.000000
  0
VERTEX
  8
LAYER-1
 10
6.510643
 20
0.210837
 30
0.000000
  0
VERTEX
  8
LAYER-1
 10
6.509775
 20
0.215177
 30
0.000000
  0
VERTEX
  8
LAYER-1
 10
6.505434
 20
0.217782
 30
0.000000
  0
SEQEND
  8
LAYER-1
  0
POLYLINE
  8
LAYER-1
 66
  1
 70
  1
 62
  0
 10
6.520192
 20
0.130107
 30
0.000000
  0
VERTEX
  8
LAYER-1
 10
6.520192
 20
0.130107
 30
0.000000
  0
VERTEX
  8
LAYER-1
 10
6.507171
 20
0.107537
 30
0.000000
  0
VERTEX
  8
LAYER-1
 10
6.537554
 20
0.128370
 30
0.000000
  0
SEQEND
  8
LAYER-1
  0
POLYLINE
  8
LAYER-1
 66
  1
 70
  1
 62
  0
 10
6.614644
 20
0.144525
 30
0.000000
  0
VERTEX
  8
LAYER-1
 10
6.614644
 20
0.144525
 30
0.000000
  0
VERTEX
  8
LAYER-1
 10
6.601957
 20
0.125161
 30
0.000000
  0
VERTEX
  8
LAYER-1
 10
6.613307
 20
0.119150
 30
0.000000
  0
SEQEND
  8
LAYER-1
  0
POLYLINE
  8
LAYER-1
 66
  1
 70
  0
 62
  0
 10
6.646060
 20
0.222989
 30
0.000000
  0
VERTEX
  8
LAYER-1
 10
6.646060
 20
0.222989
 30
0.000000
  0
VERTEX
  8
LAYER-1
 10
6.641720
 20
0.222989
 30
0.000000
  0
VERTEX
  8
LAYER-1
 10
6.638247
 20
0.218647
 30
0.000000
  0
VERTEX
  8
LAYER-1
 10
6.637379
 20
0.213440
 30
0.000000
  0
VERTEX
  8
LAYER-1
 10
6.639115
 20
0.209100
 30
0.000000
  0
VERTEX
  8
LAYER-1
 10
6.643456
 20
0.207364
 30
0.000000
  0
VERTEX
  8
LAYER-1
 10
6.647797
 20
0.207364
 30
0.000000
  0
VERTEX
  8
LAYER-1
 10
6.652136
 20
0.210835
 30
0.000000
  0
VERTEX
  8
LAYER-1
 10
6.652136
 20
0.215176
 30
0.000000
  0
VERTEX
  8
LAYER-1
 10
6.651268
 20
0.219516
 30
0.000000
  0
VERTEX
  8
LAYER-1
 10
6.646928
 20
0.222121
 30
0.000000
  0
SEQEND
  8
LAYER-1
  0
POLYLINE
  8
LAYER-1
 66
  1
 70
  0
 62
  0
 10
5.922971
 20
0.215176
 30
0.000000
  0
VERTEX
  8
LAYER-1
 10
5.922971
 20
0.215176
 30
0.000000
  0
VERTEX
  8
LAYER-1
 10
5.922971
 20
0.210835
 30
0.000000
  0
VERTEX
  8
LAYER-1
 10
5.927312
 20
0.207364
 30
0.000000
  0
VERTEX
  8
LAYER-1
 10
5.932520
 20
0.206495
 30
0.000000
  0
VERTEX
  8
LAYER-1
 10
5.936860
 20
0.208231
 30
0.000000
  0
VERTEX
  8
LAYER-1
 10
5.938596
 20
0.212571
 30
0.000000
  0
VERTEX
  8
LAYER-1
 10
5.938596
 20
0.216912
 30
0.000000
  0
VERTEX
  8
LAYER-1
 10
5.935124
 20
0.221252
 30
0.000000
  0
VERTEX
  8
LAYER-1
 10
5.930784
 20
0.221252
 30
0.000000
  0
VERTEX
  8
LAYER-1
 10
5.926443
 20
0.220384
 30
0.000000
  0
VERTEX
  8
LAYER-1
 10
5.923838
 20
0.216043
 30
0.000000
  0
SEQEND
  8
LAYER-1
  0
POLYLINE
  8
LAYER-1
 66
  1
 70
  0
 62
  0
 10
6.486336
 20
0.130974
 30
0.000000
  0
VERTEX
  8
LAYER-1
 10
6.486336
 20
0.130974
 30
0.000000
  0
VERTEX
  8
LAYER-1
 10
6.481995
 20
0.130974
 30
0.000000
  0
VERTEX
  8
LAYER-1
 10
6.478524
 20
0.126633
 30
0.000000
  0
VERTEX
  8
LAYER-1
 10
6.477656
 20
0.121425
 30
0.000000
  0
VERTEX
  8
LAYER-1
 10
6.479392
 20
0.117084
 30
0.000000
  0
VERTEX
  8
LAYER-1
 10
6.483732
 20
0.115349
 30
0.000000
  0
VERTEX
  8
LAYER-1
 10
6.488072
 20
0.115349
 30
0.000000
  0
VERTEX
  8
LAYER-1
 10
6.492413
 20
0.118820
 30
0.000000
  0
VERTEX
  8
LAYER-1
 10
6.492413
 20
0.123161
 30
0.000000
  0
VERTEX
  8
LAYER-1
 10
6.491545
 20
0.127502
 30
0.000000
  0
VERTEX
  8
LAYER-1
 10
6.487204
 20
0.130107
 30
0.000000
  0
SEQEND
  8
LAYER-1
  0
POLYLINE
  8
LAYER-1
 66
  1
 70
  0
 62
  0
 10
6.384776
 20
0.168735
 30
0.000000
  0
VERTEX
  8
LAYER-1
 10
6.384776
 20
0.168735
 30
0.000000
  0
VERTEX
  8
LAYER-1
 10
6.384776
 20
0.173076
 30
0.000000
  0
VERTEX
  8
LAYER-1
 10
6.380435
 20
0.176548
 30
0.000000
  0
VERTEX
  8
LAYER-1
 10
6.375227
 20
0.177416
 30
0.000000
  0
VERTEX
  8
LAYER-1
 10
6.370886
 20
0.175680
 30
0.000000
  0
VERTEX
  8
LAYER-1
 10
6.369151
 20
0.171339
 30
0.000000
  0
VERTEX
  8
LAYER-1
 10
6.369151
 20
0.167000
 30
0.000000
  0
VERTEX
  8
LAYER-1
 10
6.372623
 20
0.162660
 30
0.000000
  0
VERTEX
  8
LAYER-1
 10
6.376963
 20
0.162660
 30
0.000000
  0
VERTEX
  8
LAYER-1
 10
6.381304
 20
0.163527
 30
0.000000
  0
VERTEX
  8
LAYER-1
 10
6.383907
 20
0.167868
 30
0.000000
  0
SEQEND
  8
LAYER-1
  0
POLYLINE
  8
LAYER-1
 66
  1
 70
  1
 62
  0
 10
6.317067
 20
0.155714
 30
0.000000
  0
VERTEX
  8
LAYER-1
 10
6.317067
 20
0.155714
 30
0.000000
  0
VERTEX
  8
LAYER-1
 10
6.294498
 20
0.168734
 30
0.000000
  0
VERTEX
  8
LAYER-1
 10
6.315331
 20
0.138352
 30
0.000000
  0
SEQEND
  8
LAYER-1
  0
POLYLINE
  8
LAYER-1
 66
  1
 70
  0
 62
  0
 10
6.234603
 20
0.120993
 30
0.000000
  0
VERTEX
  8
LAYER-1
 10
6.234603
 20
0.120993
 30
0.000000
  0
VERTEX
  8
LAYER-1
 10
6.234603
 20
0.125333
 30
0.000000
  0
VERTEX
  8
LAYER-1
 10
6.230262
 20
0.128805
 30
0.000000
  0
VERTEX
  8
LAYER-1
 10
6.225054
 20
0.129673
 30
0.000000
  0
VERTEX
  8
LAYER-1
 10
6.220714
 20
0.127937
 30
0.000000
  0
VERTEX
  8
LAYER-1
 10
6.218978
 20
0.123597
 30
0.000000
  0
VERTEX
  8
LAYER-1
 10
6.218978
 20
0.119257
 30
0.000000
  0
VERTEX
  8
LAYER-1
 10
6.222450
 20
0.114916
 30
0.000000
  0
VERTEX
  8
LAYER-1
 10
6.226791
 20
0.114916
 30
0.000000
  0
VERTEX
  8
LAYER-1
 10
6.231131
 20
0.115785
 30
0.000000
  0
VERTEX
  8
LAYER-1
 10
6.233734
 20
0.120125
 30
0.000000
  0
SEQEND
  8
LAYER-1
  0
POLYLINE
  8
LAYER-1
 66
  1
 70
  1
 62
  0
 10
6.424880
 20
0.111271
 30
0.000000
  0
VERTEX
  8
LAYER-1
 10
6.424880
 20
0.111271
 30
0.000000
  0
VERTEX
  8
LAYER-1
 10
6.417936
 20
0.137311
 30
0.000000
  0
VERTEX
  8
LAYER-1
 10
6.392762
 20
0.123424
 30
0.000000
  0
SEQEND
  8
LAYER-1
  0
POLYLINE
  8
LAYER-1
 66
  1
 70
  1
 62
  0
 10
6.446407
 20
0.165697
 30
0.000000
  0
VERTEX
  8
LAYER-1
 10
6.446407
 20
0.165697
 30
0.000000
  0
VERTEX
  8
LAYER-1
 10
6.459428
 20
0.188266
 30
0.000000
  0
VERTEX
  8
LAYER-1
 10
6.429046
 20
0.167435
 30
0.000000
  0
SEQEND
  8
LAYER-1
  0
POLYLINE
  8
LAYER-1
 66
  1
 70
  1
 62
  0
 10
5.874360
 20
0.109274
 30
0.000000
  0
VERTEX
  8
LAYER-1
 10
5.874360
 20
0.109274
 30
0.000000
  0
VERTEX
  8
LAYER-1
 10
5.851789
 20
0.122296
 30
0.000000
  0
VERTEX
  8
LAYER-1
 10
5.872622
 20
0.091913
 30
0.000000
  0
SEQEND
  8
LAYER-1
  0
POLYLINE
  8
LAYER-1
 66
  1
 70
  1
 62
  0
 10
6.652137
 20
0.133581
 30
0.000000
  0
VERTEX
  8
LAYER-1
 10
6.652137
 20
0.133581
 30
0.000000
  0
VERTEX
  8
LAYER-1
 10
6.668630
 20
0.158753
 30
0.000000
  0
VERTEX
  8
LAYER-1
 10
6.653873
 20
0.166566
 30
0.000000
  0
SEQEND
  8
LAYER-1
  0
POLYLINE
  8
LAYER-1
 66
  1
 70
  0
 62
  0
 10
6.683038
 20
0.060176
 30
0.000000
  0
VERTEX
  8
LAYER-1
 10
6.683038
 20
0.060176
 30
0.000000
  0
VERTEX
  8
LAYER-1
 10
6.687378
 20
0.060176
 30
0.000000
  0
VERTEX
  8
LAYER-1
 10
6.690850
 20
0.064518
 30
0.000000
  0
VERTEX
  8
LAYER-1
 10
6.691717
 20
0.069725
 30
0.000000
  0
VERTEX
  8
LAYER-1
 10
6.689982
 20
0.074065
 30
0.000000
  0
VERTEX
  8
LAYER-1
 10
6.685641
 20
0.075801
 30
0.000000
  0
VERTEX
  8
LAYER-1
 10
6.681302
 20
0.075801
 30
0.000000
  0
VERTEX
  8
LAYER-1
 10
6.676960
 20
0.072330
 30
0.000000
  0
VERTEX
  8
LAYER-1
 10
6.676960
 20
0.067989
 30
0.000000
  0
VERTEX
  8
LAYER-1
 10
6.677828
 20
0.063649
 30
0.000000
  0
VERTEX
  8
LAYER-1
 10
6.682170
 20
0.061044
 30
0.000000
  0
SEQEND
  8
LAYER-1
  0
POLYLINE
  8
LAYER-1
 66
  1
 70
  0
 62
  0
 10
6.659601
 20
0.085356
 30
0.000000
  0
VERTEX
  8
LAYER-1
 10
6.659601
 20
0.085356
 30
0.000000
  0
VERTEX
  8
LAYER-1
 10
6.663941
 20
0.085356
 30
0.000000
  0
VERTEX
  8
LAYER-1
 10
6.667413
 20
0.089696
 30
0.000000
  0
VERTEX
  8
LAYER-1
 10
6.668281
 20
0.094904
 30
0.000000
  0
VERTEX
  8
LAYER-1
 10
6.666545
 20
0.099245
 30
0.000000
  0
VERTEX
  8
LAYER-1
 10
6.662205
 20
0.100981
 30
0.000000
  0
VERTEX
  8
LAYER-1
 10
6.657865
 20
0.100981
 30
0.000000
  0
VERTEX
  8
LAYER-1
 10
6.653524
 20
0.097509
 30
0.000000
  0
VERTEX
  8
LAYER-1
 10
6.653524
 20
0.093168
 30
0.000000
  0
VERTEX
  8
LAYER-1
 10
6.654392
 20
0.088827
 30
0.000000
  0
VERTEX
  8
LAYER-1
 10
6.658733
 20
0.086222
 30
0.000000
  0
SEQEND
  8
LAYER-1
  0
POLYLINE
  8
LAYER-1
 66
  1
 70
  1
 62
  0
 10
6.733819
 20
0.101412
 30
0.000000
  0
VERTEX
  8
LAYER-1
 10
6.733819
 20
0.101412
 30
0.000000
  0
VERTEX
  8
LAYER-1
 10
6.708645
 20
0.117904
 30
0.000000
  0
VERTEX
  8
LAYER-1
 10
6.700833
 20
0.103147
 30
0.000000
  0
SEQEND
  8
LAYER-1
  0
POLYLINE
  8
LAYER-1
 66
  1
 70
  0
 62
  0
 10
6.744236
 20
0.140476
 30
0.000000
  0
VERTEX
  8
LAYER-1
 10
6.744236
 20
0.140476
 30
0.000000
  0
VERTEX
  8
LAYER-1
 10
6.744236
 20
0.144816
 30
0.000000
  0
VERTEX
  8
LAYER-1
 10
6.739895
 20
0.148288
 30
0.000000
  0
VERTEX
  8
LAYER-1
 10
6.734688
 20
0.149156
 30
0.000000
  0
VERTEX
  8
LAYER-1
 10
6.730347
 20
0.147420
 30
0.000000
  0
VERTEX
  8
LAYER-1
 10
6.728611
 20
0.143080
 30
0.000000
  0
VERTEX
  8
LAYER-1
 10
6.728611
 20
0.138740
 30
0.000000
  0
VERTEX
  8
LAYER-1
 10
6.732083
 20
0.134399
 30
0.000000
  0
VERTEX
  8
LAYER-1
 10
6.736423
 20
0.134399
 30
0.000000
  0
VERTEX
  8
LAYER-1
 10
6.740764
 20
0.135267
 30
0.000000
  0
VERTEX
  8
LAYER-1
 10
6.743369
 20
0.139608
 30
0.000000
  0
SEQEND
  8
LAYER-1
  0
POLYLINE
  8
LAYER-1
 66
  1
 70
  1
 62
  0
 10
6.690759
 20
0.146328
 30
0.000000
  0
VERTEX
  8
LAYER-1
 10
6.690759
 20
0.146328
 30
0.000000
  0
VERTEX
  8
LAYER-1
 10
6.703445
 20
0.165692
 30
0.000000
  0
VERTEX
  8
LAYER-1
 10
6.692095
 20
0.171703
 30
0.000000
  0
SEQEND
  8
LAYER-1
  0
POLYLINE
  8
LAYER-1
 66
  1
 70
  0
 62
  0
 10
6.014116
 20
0.176114
 30
0.000000
  0
VERTEX
  8
LAYER-1
 10
6.014116
 20
0.176114
 30
0.000000
  0
VERTEX
  8
LAYER-1
 10
6.014116
 20
0.180453
 30
0.000000
  0
VERTEX
  8
LAYER-1
 10
6.009775
 20
0.183927
 30
0.000000
  0
VERTEX
  8
LAYER-1
 10
6.004567
 20
0.184794
 30
0.000000
  0
VERTEX
  8
LAYER-1
 10
6.000226
 20
0.183058
 30
0.000000
  0
VERTEX
  8
LAYER-1
 10
5.998491
 20
0.178718
 30
0.000000
  0
VERTEX
  8
LAYER-1
 10
5.998491
 20
0.174377
 30
0.000000
  0
VERTEX
  8
LAYER-1
 10
6.001962
 20
0.170038
 30
0.000000
  0
VERTEX
  8
LAYER-1
 10
6.006303
 20
0.170038
 30
0.000000
  0
VERTEX
  8
LAYER-1
 10
6.010644
 20
0.170905
 30
0.000000
  0
VERTEX
  8
LAYER-1
 10
6.013248
 20
0.175245
 30
0.000000
  0
SEQEND
  8
LAYER-1
  0
POLYLINE
  8
LAYER-1
 66
  1
 70
  0
 62
  0
 10
6.600054
 20
0.139657
 30
0.000000
  0
VERTEX
  8
LAYER-1
 10
6.600054
 20
0.139657
 30
0.000000
  0
VERTEX
  8
LAYER-1
 10
6.604394
 20
0.139657
 30
0.000000
  0
VERTEX
  8
LAYER-1
 10
6.607866
 20
0.143997
 30
0.000000
  0
VERTEX
  8
LAYER-1
 10
6.608734
 20
0.149206
 30
0.000000
  0
VERTEX
  8
LAYER-1
 10
6.606998
 20
0.153546
 30
0.000000
  0
VERTEX
  8
LAYER-1
 10
6.602657
 20
0.155282
 30
0.000000
  0
VERTEX
  8
LAYER-1
 10
6.598317
 20
0.155282
 30
0.000000
  0
VERTEX
  8
LAYER-1
 10
6.593977
 20
0.151810
 30
0.000000
  0
VERTEX
  8
LAYER-1
 10
6.593977
 20
0.147469
 30
0.000000
  0
VERTEX
  8
LAYER-1
 10
6.594845
 20
0.143128
 30
0.000000
  0
VERTEX
  8
LAYER-1
 10
6.599186
 20
0.140524
 30
0.000000
  0
SEQEND
  8
LAYER-1
  0
POLYLINE
  8
LAYER-1
 66
  1
 70
  1
 62
  0
 10
0.857690
 20
0.143339
 30
0.000000
  0
VERTEX
  8
LAYER-1
 10
0.857690
 20
0.143339
 30
0.000000
  0
VERTEX
  8
LAYER-1
 10
0.835119
 20
0.156359
 30
0.000000
  0
VERTEX
  8
LAYER-1
 10
0.855952
 20
0.125977
 30
0.000000
  0
SEQEND
  8
LAYER-1
  0
POLYLINE
  8
LAYER-1
 66
  1
 70
  0
 62
  0
 10
0.846405
 20
0.076497
 30
0.000000
  0
VERTEX
  8
LAYER-1
 10
0.846405
 20
0.076497
 30
0.000000
  0
VERTEX
  8
LAYER-1
 10
0.846405
 20
0.080836
 30
0.000000
  0
VERTEX
  8
LAYER-1
 10
0.842065
 20
0.084310
 30
0.000000
  0
VERTEX
  8
LAYER-1
 10
0.836857
 20
0.085177
 30
0.000000
  0
VERTEX
  8
LAYER-1
 10
0.832516
 20
0.083441
 30
0.000000
  0
VERTEX
  8
LAYER-1
 10
0.830780
 20
0.079101
 30
0.000000
  0
VERTEX
  8
LAYER-1
 10
0.830780
 20
0.074760
 30
0.000000
  0
VERTEX
  8
LAYER-1
 10
0.834252
 20
0.070421
 30
0.000000
  0
VERTEX
  8
LAYER-1
 10
0.838593
 20
0.070421
 30
0.000000
  0
VERTEX
  8
LAYER-1
 10
0.842934
 20
0.071288
 30
0.000000
  0
VERTEX
  8
LAYER-1
 10
0.845538
 20
0.075628
 30
0.000000
  0
SEQEND
  8
LAYER-1
  0
POLYLINE
  8
LAYER-1
 66
  1
 70
  1
 62
  0
 10
1.124445
 20
0.065297
 30
0.000000
  0
VERTEX
  8
LAYER-1
 10
1.124445
 20
0.065297
 30
0.000000
  0
VERTEX
  8
LAYER-1
 10
1.140938
 20
0.090471
 30
0.000000
  0
VERTEX
  8
LAYER-1
 10
1.126181
 20
0.098284
 30
0.000000
  0
SEQEND
  8
LAYER-1
  0
POLYLINE
  8
LAYER-1
 66
  1
 70
  1
 62
  0
 10
1.172354
 20
0.080391
 30
0.000000
  0
VERTEX
  8
LAYER-1
 10
1.172354
 20
0.080391
 30
0.000000
  0
VERTEX
  8
LAYER-1
 10
1.185042
 20
0.099756
 30
0.000000
  0
VERTEX
  8
LAYER-1
 10
1.173690
 20
0.105766
 30
0.000000
  0
SEQEND
  8
LAYER-1
  0
POLYLINE
  8
LAYER-1
 66
  1
 70
  0
 62
  0
 10
1.236424
 20
0.056619
 30
0.000000
  0
VERTEX
  8
LAYER-1
 10
1.236424
 20
0.056619
 30
0.000000
  0
VERTEX
  8
LAYER-1
 10
1.240765
 20
0.056619
 30
0.000000
  0
VERTEX
  8
LAYER-1
 10
1.244236
 20
0.060960
 30
0.000000
  0
VERTEX
  8
LAYER-1
 10
1.245104
 20
0.066167
 30
0.000000
  0
VERTEX
  8
LAYER-1
 10
1.243368
 20
0.070508
 30
0.000000
  0
VERTEX
  8
LAYER-1
 10
1.239028
 20
0.072244
 30
0.000000
  0
VERTEX
  8
LAYER-1
 10
1.234688
 20
0.072244
 30
0.000000
  0
VERTEX
  8
LAYER-1
 10
1.230347
 20
0.068772
 30
0.000000
  0
VERTEX
  8
LAYER-1
 10
1.230347
 20
0.064432
 30
0.000000
  0
VERTEX
  8
LAYER-1
 10
1.231215
 20
0.060091
 30
0.000000
  0
VERTEX
  8
LAYER-1
 10
1.235556
 20
0.057487
 30
0.000000
  0
SEQEND
  8
LAYER-1
  0
POLYLINE
  8
LAYER-1
 66
  1
 70
  1
 62
  0
 10
1.270278
 20
0.119552
 30
0.000000
  0
VERTEX
  8
LAYER-1
 10
1.270278
 20
0.119552
 30
0.000000
  0
VERTEX
  8
LAYER-1
 10
1.244236
 20
0.112607
 30
0.000000
  0
VERTEX
  8
LAYER-1
 10
1.258124
 20
0.087434
 30
0.000000
  0
SEQEND
  8
LAYER-1
  0
POLYLINE
  8
LAYER-1
 66
  1
 70
  0
 62
  0
 10
2.638160
 20
0.087259
 30
0.000000
  0
VERTEX
  8
LAYER-1
 10
2.638160
 20
0.087259
 30
0.000000
  0
VERTEX
  8
LAYER-1
 10
2.638160
 20
0.091599
 30
0.000000
  0
VERTEX
  8
LAYER-1
 10
2.633819
 20
0.095072
 30
0.000000
  0
VERTEX
  8
LAYER-1
 10
2.628611
 20
0.095940
 30
0.000000
  0
VERTEX
  8
LAYER-1
 10
2.624271
 20
0.094204
 30
0.000000
  0
VERTEX
  8
LAYER-1
 10
2.622535
 20
0.089863
 30
0.000000
  0
VERTEX
  8
LAYER-1
 10
2.622535
 20
0.085523
 30
0.000000
  0
VERTEX
  8
LAYER-1
 10
2.626006
 20
0.081182
 30
0.000000
  0
VERTEX
  8
LAYER-1
 10
2.630347
 20
0.081182
 30
0.000000
  0
VERTEX
  8
LAYER-1
 10
2.634688
 20
0.082051
 30
0.000000
  0
VERTEX
  8
LAYER-1
 10
2.637292
 20
0.086391
 30
0.000000
  0
SEQEND
  8
LAYER-1
  0
POLYLINE
  8
LAYER-1
 66
  1
 70
  1
 62
  0
 10
2.572187
 20
0.050368
 30
0.000000
  0
VERTEX
  8
LAYER-1
 10
2.572187
 20
0.050368
 30
0.000000
  0
VERTEX
  8
LAYER-1
 10
2.565242
 20
0.076409
 30
0.000000
  0
VERTEX
  8
LAYER-1
 10
2.540069
 20
0.062521
 30
0.000000
  0
SEQEND
  8
LAYER-1
  0
POLYLINE
  8
LAYER-1
 66
  1
 70
  1
 62
  0
 10
2.584339
 20
0.086826
 30
0.000000
  0
VERTEX
  8
LAYER-1
 10
2.584339
 20
0.086826
 30
0.000000
  0
VERTEX
  8
LAYER-1
 10
2.597360
 20
0.109396
 30
0.000000
  0
VERTEX
  8
LAYER-1
 10
2.566978
 20
0.088563
 30
0.000000
  0
SEQEND
  8
LAYER-1
  0
POLYLINE
  8
LAYER-1
 66
  1
 70
  0
 62
  0
 10
2.420538
 20
0.097676
 30
0.000000
  0
VERTEX
  8
LAYER-1
 10
2.420538
 20
0.097676
 30
0.000000
  0
VERTEX
  8
LAYER-1
 10
2.416197
 20
0.097676
 30
0.000000
  0
VERTEX
  8
LAYER-1
 10
2.412726
 20
0.093335
 30
0.000000
  0
VERTEX
  8
LAYER-1
 10
2.411858
 20
0.088128
 30
0.000000
  0
VERTEX
  8
LAYER-1
 10
2.413594
 20
0.083787
 30
0.000000
  0
VERTEX
  8
LAYER-1
 10
2.417934
 20
0.082051
 30
0.000000
  0
VERTEX
  8
LAYER-1
 10
2.422274
 20
0.082051
 30
0.000000
  0
VERTEX
  8
LAYER-1
 10
2.426615
 20
0.085523
 30
0.000000
  0
VERTEX
  8
LAYER-1
 10
2.426615
 20
0.089863
 30
0.000000
  0
VERTEX
  8
LAYER-1
 10
2.425747
 20
0.094204
 30
0.000000
  0
VERTEX
  8
LAYER-1
 10
2.421406
 20
0.096809
 30
0.000000
  0
SEQEND
  8
LAYER-1
  0
POLYLINE
  8
LAYER-1
 66
  1
 70
  1
 62
  0
 10
2.500399
 20
0.060349
 30
0.000000
  0
VERTEX
  8
LAYER-1
 10
2.500399
 20
0.060349
 30
0.000000
  0
VERTEX
  8
LAYER-1
 10
2.477829
 20
0.073372
 30
0.000000
  0
VERTEX
  8
LAYER-1
 10
2.498661
 20
0.042988
 30
0.000000
  0
SEQEND
  8
LAYER-1
  0
POLYLINE
  8
LAYER-1
 66
  1
 70
  1
 62
  0
 10
3.095370
 20
0.061200
 30
0.000000
  0
VERTEX
  8
LAYER-1
 10
3.095370
 20
0.061200
 30
0.000000
  0
VERTEX
  8
LAYER-1
 10
3.108392
 20
0.083771
 30
0.000000
  0
VERTEX
  8
LAYER-1
 10
3.078009
 20
0.062938
 30
0.000000
  0
SEQEND
  8
LAYER-1
  0
POLYLINE
  8
LAYER-1
 66
  1
 70
  1
 62
  0
 10
3.000921
 20
0.067613
 30
0.000000
  0
VERTEX
  8
LAYER-1
 10
3.000921
 20
0.067613
 30
0.000000
  0
VERTEX
  8
LAYER-1
 10
3.013607
 20
0.086977
 30
0.000000
  0
VERTEX
  8
LAYER-1
 10
3.002257
 20
0.092989
 30
0.000000
  0
SEQEND
  8
LAYER-1
  0
POLYLINE
  8
LAYER-1
 66
  1
 70
  0
 62
  0
 10
3.129226
 20
0.060333
 30
0.000000
  0
VERTEX
  8
LAYER-1
 10
3.129226
 20
0.060333
 30
0.000000
  0
VERTEX
  8
LAYER-1
 10
3.133567
 20
0.060333
 30
0.000000
  0
VERTEX
  8
LAYER-1
 10
3.137039
 20
0.064674
 30
0.000000
  0
VERTEX
  8
LAYER-1
 10
3.137907
 20
0.069882
 30
0.000000
  0
VERTEX
  8
LAYER-1
 10
3.136171
 20
0.074222
 30
0.000000
  0
VERTEX
  8
LAYER-1
 10
3.131830
 20
0.075958
 30
0.000000
  0
VERTEX
  8
LAYER-1
 10
3.127490
 20
0.075958
 30
0.000000
  0
VERTEX
  8
LAYER-1
 10
3.123149
 20
0.072486
 30
0.000000
  0
VERTEX
  8
LAYER-1
 10
3.123149
 20
0.068146
 30
0.000000
  0
VERTEX
  8
LAYER-1
 10
3.124018
 20
0.063805
 30
0.000000
  0
VERTEX
  8
LAYER-1
 10
3.128358
 20
0.061200
 30
0.000000
  0
SEQEND
  8
LAYER-1
  0
POLYLINE
  8
LAYER-1
 66
  1
 70
  0
 62
  0
 10
3.015509
 20
0.051650
 30
0.000000
  0
VERTEX
  8
LAYER-1
 10
3.015509
 20
0.051650
 30
0.000000
  0
VERTEX
  8
LAYER-1
 10
3.011169
 20
0.051650
 30
0.000000
  0
VERTEX
  8
LAYER-1
 10
3.007697
 20
0.047309
 30
0.000000
  0
VERTEX
  8
LAYER-1
 10
3.006829
 20
0.042102
 30
0.000000
  0
VERTEX
  8
LAYER-1
 10
3.008565
 20
0.037760
 30
0.000000
  0
VERTEX
  8
LAYER-1
 10
3.012906
 20
0.036025
 30
0.000000
  0
VERTEX
  8
LAYER-1
 10
3.017245
 20
0.036025
 30
0.000000
  0
VERTEX
  8
LAYER-1
 10
3.021586
 20
0.039497
 30
0.000000
  0
VERTEX
  8
LAYER-1
 10
3.021586
 20
0.043838
 30
0.000000
  0
VERTEX
  8
LAYER-1
 10
3.020718
 20
0.048178
 30
0.000000
  0
VERTEX
  8
LAYER-1
 10
3.016378
 20
0.050783
 30
0.000000
  0
SEQEND
  8
LAYER-1
  0
POLYLINE
  8
LAYER-1
 66
  1
 70
  1
 62
  0
 10
2.856563
 20
0.064951
 30
0.000000
  0
VERTEX
  8
LAYER-1
 10
2.856563
 20
0.064951
 30
0.000000
  0
VERTEX
  8
LAYER-1
 10
2.869584
 20
0.087521
 30
0.000000
  0
VERTEX
  8
LAYER-1
 10
2.839202
 20
0.066689
 30
0.000000
  0
SEQEND
  8
LAYER-1
  0
POLYLINE
  8
LAYER-1
 66
  1
 70
  0
 62
  0
 10
2.890418
 20
0.064084
 30
0.000000
  0
VERTEX
  8
LAYER-1
 10
2.890418
 20
0.064084
 30
0.000000
  0
VERTEX
  8
LAYER-1
 10
2.894759
 20
0.064084
 30
0.000000
  0
VERTEX
  8
LAYER-1
 10
2.898231
 20
0.068425
 30
0.000000
  0
VERTEX
  8
LAYER-1
 10
2.899099
 20
0.073632
 30
0.000000
  0
VERTEX
  8
LAYER-1
 10
2.897363
 20
0.077972
 30
0.000000
  0
VERTEX
  8
LAYER-1
 10
2.893022
 20
0.079709
 30
0.000000
  0
VERTEX
  8
LAYER-1
 10
2.888682
 20
0.079709
 30
0.000000
  0
VERTEX
  8
LAYER-1
 10
2.884342
 20
0.076237
 30
0.000000
  0
VERTEX
  8
LAYER-1
 10
2.884342
 20
0.071896
 30
0.000000
  0
VERTEX
  8
LAYER-1
 10
2.885210
 20
0.067556
 30
0.000000
  0
VERTEX
  8
LAYER-1
 10
2.889550
 20
0.064951
 30
0.000000
  0
SEQEND
  8
LAYER-1
  0
POLYLINE
  8
LAYER-1
 66
  1
 70
  1
 62
  0
 10
3.488680
 20
0.100021
 30
0.000000
  0
VERTEX
  8
LAYER-1
 10
3.488680
 20
0.100021
 30
0.000000
  0
VERTEX
  8
LAYER-1
 10
3.511250
 20
0.087001
 30
0.000000
  0
VERTEX
  8
LAYER-1
 10
3.490417
 20
0.117382
 30
0.000000
  0
SEQEND
  8
LAYER-1
  0
POLYLINE
  8
LAYER-1
 66
  1
 70
  0
 62
  0
 10
3.487812
 20
0.066166
 30
0.000000
  0
VERTEX
  8
LAYER-1
 10
3.487812
 20
0.066166
 30
0.000000
  0
VERTEX
  8
LAYER-1
 10
3.487812
 20
0.061825
 30
0.000000
  0
VERTEX
  8
LAYER-1
 10
3.492153
 20
0.058353
 30
0.000000
  0
VERTEX
  8
LAYER-1
 10
3.497361
 20
0.057485
 30
0.000000
  0
VERTEX
  8
LAYER-1
 10
3.501701
 20
0.059221
 30
0.000000
  0
VERTEX
  8
LAYER-1
 10
3.503437
 20
0.063562
 30
0.000000
  0
VERTEX
  8
LAYER-1
 10
3.503437
 20
0.067902
 30
0.000000
  0
VERTEX
  8
LAYER-1
 10
3.499966
 20
0.072242
 30
0.000000
  0
VERTEX
  8
LAYER-1
 10
3.495625
 20
0.072242
 30
0.000000
  0
VERTEX
  8
LAYER-1
 10
3.491284
 20
0.071375
 30
0.000000
  0
VERTEX
  8
LAYER-1
 10
3.488680
 20
0.067034
 30
0.000000
  0
SEQEND
  8
LAYER-1
  0
POLYLINE
  8
LAYER-1
 66
  1
 70
  1
 62
  0
 10
4.038159
 20
0.132051
 30
0.000000
  0
VERTEX
  8
LAYER-1
 10
4.038159
 20
0.132051
 30
0.000000
  0
VERTEX
  8
LAYER-1
 10
4.045103
 20
0.106010
 30
0.000000
  0
VERTEX
  8
LAYER-1
 10
4.070277
 20
0.119898
 30
0.000000
  0
SEQEND
  8
LAYER-1
  0
POLYLINE
  8
LAYER-1
 66
  1
 70
  1
 62
  0
 10
4.009946
 20
0.095157
 30
0.000000
  0
VERTEX
  8
LAYER-1
 10
4.009946
 20
0.095157
 30
0.000000
  0
VERTEX
  8
LAYER-1
 10
4.032516
 20
0.082136
 30
0.000000
  0
VERTEX
  8
LAYER-1
 10
4.011683
 20
0.112517
 30
0.000000
  0
SEQEND
  8
LAYER-1
  0
POLYLINE
  8
LAYER-1
 66
  1
 70
  1
 62
  0
 10
4.126600
 20
0.087177
 30
0.000000
  0
VERTEX
  8
LAYER-1
 10
4.126600
 20
0.087177
 30
0.000000
  0
VERTEX
  8
LAYER-1
 10
4.145966
 20
0.074489
 30
0.000000
  0
VERTEX
  8
LAYER-1
 10
4.151976
 20
0.085841
 30
0.000000
  0
SEQEND
  8
LAYER-1
  0
POLYLINE
  8
LAYER-1
 66
  1
 70
  0
 62
  0
 10
4.071146
 20
0.092985
 30
0.000000
  0
VERTEX
  8
LAYER-1
 10
4.071146
 20
0.092985
 30
0.000000
  0
VERTEX
  8
LAYER-1
 10
4.066805
 20
0.092985
 30
0.000000
  0
VERTEX
  8
LAYER-1
 10
4.063333
 20
0.088644
 30
0.000000
  0
VERTEX
  8
LAYER-1
 10
4.062465
 20
0.083436
 30
0.000000
  0
VERTEX
  8
LAYER-1
 10
4.064201
 20
0.079096
 30
0.000000
  0
VERTEX
  8
LAYER-1
 10
4.068541
 20
0.077360
 30
0.000000
  0
VERTEX
  8
LAYER-1
 10
4.072881
 20
0.077360
 30
0.000000
  0
VERTEX
  8
LAYER-1
 10
4.077222
 20
0.080832
 30
0.000000
  0
VERTEX
  8
LAYER-1
 10
4.077222
 20
0.085172
 30
0.000000
  0
VERTEX
  8
LAYER-1
 10
4.076353
 20
0.089513
 30
0.000000
  0
VERTEX
  8
LAYER-1
 10
4.072014
 20
0.092116
 30
0.000000
  0
SEQEND
  8
LAYER-1
  0
POLYLINE
  8
LAYER-1
 66
  1
 70
  0
 62
  0
 10
3.955694
 20
0.070416
 30
0.000000
  0
VERTEX
  8
LAYER-1
 10
3.955694
 20
0.070416
 30
0.000000
  0
VERTEX
  8
LAYER-1
 10
3.960035
 20
0.070416
 30
0.000000
  0
VERTEX
  8
LAYER-1
 10
3.963506
 20
0.074757
 30
0.000000
  0
VERTEX
  8
LAYER-1
 10
3.964375
 20
0.079965
 30
0.000000
  0
VERTEX
  8
LAYER-1
 10
3.962640
 20
0.084305
 30
0.000000
  0
VERTEX
  8
LAYER-1
 10
3.958299
 20
0.086041
 30
0.000000
  0
VERTEX
  8
LAYER-1
 10
3.953958
 20
0.086041
 30
0.000000
  0
VERTEX
  8
LAYER-1
 10
3.949618
 20
0.082570
 30
0.000000
  0
VERTEX
  8
LAYER-1
 10
3.949618
 20
0.078228
 30
0.000000
  0
VERTEX
  8
LAYER-1
 10
3.950487
 20
0.073888
 30
0.000000
  0
VERTEX
  8
LAYER-1
 10
3.954827
 20
0.071283
 30
0.000000
  0
SEQEND
  8
LAYER-1
  0
POLYLINE
  8
LAYER-1
 66
  1
 70
  1
 62
  0
 10
4.442341
 20
0.040729
 30
0.000000
  0
VERTEX
  8
LAYER-1
 10
4.442341
 20
0.040729
 30
0.000000
  0
VERTEX
  8
LAYER-1
 10
4.435397
 20
0.066770
 30
0.000000
  0
VERTEX
  8
LAYER-1
 10
4.410224
 20
0.052882
 30
0.000000
  0
SEQEND
  8
LAYER-1
  0
POLYLINE
  8
LAYER-1
 66
  1
 70
  1
 62
  0
 10
4.470554
 20
0.077623
 30
0.000000
  0
VERTEX
  8
LAYER-1
 10
4.470554
 20
0.077623
 30
0.000000
  0
VERTEX
  8
LAYER-1
 10
4.447984
 20
0.090643
 30
0.000000
  0
VERTEX
  8
LAYER-1
 10
4.468817
 20
0.060262
 30
0.000000
  0
SEQEND
  8
LAYER-1
  0
POLYLINE
  8
LAYER-1
 66
  1
 70
  1
 62
  0
 10
4.353900
 20
0.085603
 30
0.000000
  0
VERTEX
  8
LAYER-1
 10
4.353900
 20
0.085603
 30
0.000000
  0
VERTEX
  8
LAYER-1
 10
4.334535
 20
0.098290
 30
0.000000
  0
VERTEX
  8
LAYER-1
 10
4.328525
 20
0.086939
 30
0.000000
  0
SEQEND
  8
LAYER-1
  0
POLYLINE
  8
LAYER-1
 66
  1
 70
  0
 62
  0
 10
4.409355
 20
0.079795
 30
0.000000
  0
VERTEX
  8
LAYER-1
 10
4.409355
 20
0.079795
 30
0.000000
  0
VERTEX
  8
LAYER-1
 10
4.413695
 20
0.079795
 30
0.000000
  0
VERTEX
  8
LAYER-1
 10
4.417167
 20
0.084136
 30
0.000000
  0
VERTEX
  8
LAYER-1
 10
4.418035
 20
0.089344
 30
0.000000
  0
VERTEX
  8
LAYER-1
 10
4.416299
 20
0.093685
 30
0.000000
  0
VERTEX
  8
LAYER-1
 10
4.411959
 20
0.095420
 30
0.000000
  0
VERTEX
  8
LAYER-1
 10
4.407619
 20
0.095420
 30
0.000000
  0
VERTEX
  8
LAYER-1
 10
4.403278
 20
0.091949
 30
0.000000
  0
VERTEX
  8
LAYER-1
 10
4.403278
 20
0.087607
 30
0.000000
  0
VERTEX
  8
LAYER-1
 10
4.404147
 20
0.083267
 30
0.000000
  0
VERTEX
  8
LAYER-1
 10
4.408487
 20
0.080663
 30
0.000000
  0
SEQEND
  8
LAYER-1
  0
POLYLINE
  8
LAYER-1
 66
  1
 70
  0
 62
  0
 10
4.524806
 20
0.102364
 30
0.000000
  0
VERTEX
  8
LAYER-1
 10
4.524806
 20
0.102364
 30
0.000000
  0
VERTEX
  8
LAYER-1
 10
4.520465
 20
0.102364
 30
0.000000
  0
VERTEX
  8
LAYER-1
 10
4.516994
 20
0.098023
 30
0.000000
  0
VERTEX
  8
LAYER-1
 10
4.516125
 20
0.092816
 30
0.000000
  0
VERTEX
  8
LAYER-1
 10
4.517861
 20
0.088475
 30
0.000000
  0
VERTEX
  8
LAYER-1
 10
4.522202
 20
0.086739
 30
0.000000
  0
VERTEX
  8
LAYER-1
 10
4.526542
 20
0.086739
 30
0.000000
  0
VERTEX
  8
LAYER-1
 10
4.530883
 20
0.090211
 30
0.000000
  0
VERTEX
  8
LAYER-1
 10
4.530883
 20
0.094551
 30
0.000000
  0
VERTEX
  8
LAYER-1
 10
4.530014
 20
0.098892
 30
0.000000
  0
VERTEX
  8
LAYER-1
 10
4.525673
 20
0.101497
 30
0.000000
  0
SEQEND
  8
LAYER-1
  0
POLYLINE
  8
LAYER-1
 66
  1
 70
  1
 62
  0
 10
4.694684
 20
0.024323
 30
0.000000
  0
VERTEX
  8
LAYER-1
 10
4.694684
 20
0.024323
 30
0.000000
  0
VERTEX
  8
LAYER-1
 10
4.687740
 20
0.050364
 30
0.000000
  0
VERTEX
  8
LAYER-1
 10
4.662567
 20
0.036475
 30
0.000000
  0
SEQEND
  8
LAYER-1
  0
POLYLINE
  8
LAYER-1
 66
  1
 70
  1
 62
  0
 10
4.722897
 20
0.061217
 30
0.000000
  0
VERTEX
  8
LAYER-1
 10
4.722897
 20
0.061217
 30
0.000000
  0
VERTEX
  8
LAYER-1
 10
4.700328
 20
0.074237
 30
0.000000
  0
VERTEX
  8
LAYER-1
 10
4.721160
 20
0.043855
 30
0.000000
  0
SEQEND
  8
LAYER-1
  0
POLYLINE
  8
LAYER-1
 66
  1
 70
  1
 62
  0
 10
4.606244
 20
0.069196
 30
0.000000
  0
VERTEX
  8
LAYER-1
 10
4.606244
 20
0.069196
 30
0.000000
  0
VERTEX
  8
LAYER-1
 10
4.586878
 20
0.081884
 30
0.000000
  0
VERTEX
  8
LAYER-1
 10
4.580868
 20
0.070532
 30
0.000000
  0
SEQEND
  8
LAYER-1
  0
POLYLINE
  8
LAYER-1
 66
  1
 70
  0
 62
  0
 10
4.661698
 20
0.063388
 30
0.000000
  0
VERTEX
  8
LAYER-1
 10
4.661698
 20
0.063388
 30
0.000000
  0
VERTEX
  8
LAYER-1
 10
4.666039
 20
0.063388
 30
0.000000
  0
VERTEX
  8
LAYER-1
 10
4.669510
 20
0.067730
 30
0.000000
  0
VERTEX
  8
LAYER-1
 10
4.670378
 20
0.072937
 30
0.000000
  0
VERTEX
  8
LAYER-1
 10
4.668643
 20
0.077278
 30
0.000000
  0
VERTEX
  8
LAYER-1
 10
4.664303
 20
0.079013
 30
0.000000
  0
VERTEX
  8
LAYER-1
 10
4.659962
 20
0.079013
 30
0.000000
  0
VERTEX
  8
LAYER-1
 10
4.655621
 20
0.075542
 30
0.000000
  0
VERTEX
  8
LAYER-1
 10
4.655621
 20
0.071201
 30
0.000000
  0
VERTEX
  8
LAYER-1
 10
4.656490
 20
0.066861
 30
0.000000
  0
VERTEX
  8
LAYER-1
 10
4.660830
 20
0.064256
 30
0.000000
  0
SEQEND
  8
LAYER-1
  0
POLYLINE
  8
LAYER-1
 66
  1
 70
  0
 62
  0
 10
4.777149
 20
0.085957
 30
0.000000
  0
VERTEX
  8
LAYER-1
 10
4.777149
 20
0.085957
 30
0.000000
  0
VERTEX
  8
LAYER-1
 10
4.772808
 20
0.085957
 30
0.000000
  0
VERTEX
  8
LAYER-1
 10
4.769337
 20
0.081617
 30
0.000000
  0
VERTEX
  8
LAYER-1
 10
4.768468
 20
0.076409
 30
0.000000
  0
VERTEX
  8
LAYER-1
 10
4.770203
 20
0.072068
 30
0.000000
  0
VERTEX
  8
LAYER-1
 10
4.774544
 20
0.070332
 30
0.000000
  0
VERTEX
  8
LAYER-1
 10
4.778885
 20
0.070332
 30
0.000000
  0
VERTEX
  8
LAYER-1
 10
4.783226
 20
0.073804
 30
0.000000
  0
VERTEX
  8
LAYER-1
 10
4.783226
 20
0.078144
 30
0.000000
  0
VERTEX
  8
LAYER-1
 10
4.782357
 20
0.082486
 30
0.000000
  0
VERTEX
  8
LAYER-1
 10
4.778016
 20
0.085091
 30
0.000000
  0
SEQEND
  8
LAYER-1
  0
POLYLINE
  8
LAYER-1
 66
  1
 70
  1
 62
  0
 10
4.915244
 20
0.123372
 30
0.000000
  0
VERTEX
  8
LAYER-1
 10
4.915244
 20
0.123372
 30
0.000000
  0
VERTEX
  8
LAYER-1
 10
4.922188
 20
0.097330
 30
0.000000
  0
VERTEX
  8
LAYER-1
 10
4.947362
 20
0.111218
 30
0.000000
  0
SEQEND
  8
LAYER-1
  0
POLYLINE
  8
LAYER-1
 66
  1
 70
  1
 62
  0
 10
4.887031
 20
0.086477
 30
0.000000
  0
VERTEX
  8
LAYER-1
 10
4.887031
 20
0.086477
 30
0.000000
  0
VERTEX
  8
LAYER-1
 10
4.909601
 20
0.073458
 30
0.000000
  0
VERTEX
  8
LAYER-1
 10
4.888768
 20
0.103839
 30
0.000000
  0
SEQEND
  8
LAYER-1
  0
POLYLINE
  8
LAYER-1
 66
  1
 70
  0
 62
  0
 10
4.832779
 20
0.061736
 30
0.000000
  0
VERTEX
  8
LAYER-1
 10
4.832779
 20
0.061736
 30
0.000000
  0
VERTEX
  8
LAYER-1
 10
4.837120
 20
0.061736
 30
0.000000
  0
VERTEX
  8
LAYER-1
 10
4.840591
 20
0.066077
 30
0.000000
  0
VERTEX
  8
LAYER-1
 10
4.841460
 20
0.071285
 30
0.000000
  0
VERTEX
  8
LAYER-1
 10
4.839725
 20
0.075626
 30
0.000000
  0
VERTEX
  8
LAYER-1
 10
4.835384
 20
0.077361
 30
0.000000
  0
VERTEX
  8
LAYER-1
 10
4.831043
 20
0.077361
 30
0.000000
  0
VERTEX
  8
LAYER-1
 10
4.826702
 20
0.073890
 30
0.000000
  0
VERTEX
  8
LAYER-1
 10
4.826702
 20
0.069549
 30
0.000000
  0
VERTEX
  8
LAYER-1
 10
4.827571
 20
0.065208
 30
0.000000
  0
VERTEX
  8
LAYER-1
 10
4.831912
 20
0.062603
 30
0.000000
  0
SEQEND
  8
LAYER-1
  0
POLYLINE
  8
LAYER-1
 66
  1
 70
  1
 62
  0
 10
5.468366
 20
0.235488
 30
0.000000
  0
VERTEX
  8
LAYER-1
 10
5.468366
 20
0.235488
 30
0.000000
  0
VERTEX
  8
LAYER-1
 10
5.475311
 20
0.209447
 30
0.000000
  0
VERTEX
  8
LAYER-1
 10
5.500484
 20
0.223334
 30
0.000000
  0
SEQEND
  8
LAYER-1
  0
POLYLINE
  8
LAYER-1
 66
  1
 70
  1
 62
  0
 10
5.481475
 20
0.190348
 30
0.000000
  0
VERTEX
  8
LAYER-1
 10
5.481475
 20
0.190348
 30
0.000000
  0
VERTEX
  8
LAYER-1
 10
5.468454
 20
0.167779
 30
0.000000
  0
VERTEX
  8
LAYER-1
 10
5.498836
 20
0.188611
 30
0.000000
  0
SEQEND
  8
LAYER-1
  0
POLYLINE
  8
LAYER-1
 66
  1
 70
  1
 62
  0
 10
5.172969
 20
0.158873
 30
0.000000
  0
VERTEX
  8
LAYER-1
 10
5.172969
 20
0.158873
 30
0.000000
  0
VERTEX
  8
LAYER-1
 10
5.166026
 20
0.184913
 30
0.000000
  0
VERTEX
  8
LAYER-1
 10
5.140852
 20
0.171026
 30
0.000000
  0
SEQEND
  8
LAYER-1
  0
POLYLINE
  8
LAYER-1
 66
  1
 70
  1
 62
  0
 10
5.159861
 20
0.204011
 30
0.000000
  0
VERTEX
  8
LAYER-1
 10
5.159861
 20
0.204011
 30
0.000000
  0
VERTEX
  8
LAYER-1
 10
5.172883
 20
0.226581
 30
0.000000
  0
VERTEX
  8
LAYER-1
 10
5.142500
 20
0.205749
 30
0.000000
  0
SEQEND
  8
LAYER-1
  0
POLYLINE
  8
LAYER-1
 66
  1
 70
  1
 62
  0
 10
5.677742
 20
0.061044
 30
0.000000
  0
VERTEX
  8
LAYER-1
 10
5.677742
 20
0.061044
 30
0.000000
  0
VERTEX
  8
LAYER-1
 10
5.703782
 20
0.067989
 30
0.000000
  0
VERTEX
  8
LAYER-1
 10
5.689895
 20
0.093163
 30
0.000000
  0
SEQEND
  8
LAYER-1
  0
POLYLINE
  8
LAYER-1
 66
  1
 70
  1
 62
  0
 10
5.722881
 20
0.074152
 30
0.000000
  0
VERTEX
  8
LAYER-1
 10
5.722881
 20
0.074152
 30
0.000000
  0
VERTEX
  8
LAYER-1
 10
5.745451
 20
0.061132
 30
0.000000
  0
VERTEX
  8
LAYER-1
 10
5.724619
 20
0.091513
 30
0.000000
  0
SEQEND
  8
LAYER-1
  0
ARC
  8
LAYER-1
 62
  0
 10
5.476746
 20
8.922281
 30
0.000000
 40
0.254425
 50
270.000000
 51
90.000000
  0
POLYLINE
  8
LAYER-1
 66
  1
 70
  0
 62
  0
 10
5.476746
 20
9.176707
 30
0.000000
  0
VERTEX
  8
LAYER-1
 10
5.476746
 20
9.176707
 30
0.000000
  0
VERTEX
  8
LAYER-1
 10
1.811825
 20
9.176707
 30
0.000000
  0
SEQEND
  8
LAYER-1
  0
POLYLINE
  8
LAYER-1
 66
  1
 70
  0
 62
  0
 10
1.811825
 20
9.176707
 30
0.000000
  0
VERTEX
  8
LAYER-1
 10
1.811825
 20
9.176707
 30
0.000000
  0
VERTEX
  8
LAYER-1
 10
1.811825
 20
8.667857
 30
0.000000
  0
SEQEND
  8
LAYER-1
  0
POLYLINE
  8
LAYER-1
 66
  1
 70
  0
 62
  0
 10
5.476746
 20
8.667857
 30
0.000000
  0
VERTEX
  8
LAYER-1
 10
5.476746
 20
8.667857
 30
0.000000
  0
VERTEX
  8
LAYER-1
 10
1.811825
 20
8.667857
 30
0.000000
  0
SEQEND
  8
LAYER-1
  0
TEXT
  8
LAYER-1
 62
  0
 10
3.615411
 20
9.461170
 30
0.000000
 40
0.333333
  1
MobilFlex
 72
  5
 11
5.768189
 21
9.461170
 31
0.000000
  0
POLYLINE
  8
LAYER-1
 66
  1
 70
  1
 62
  0
  0
VERTEX
  8
LAYER-1
 10
1.813328
 20
9.981144
 30
0.000000
  0
VERTEX
  8
LAYER-1
 10
2.051175
 20
9.981144
 30
0.000000
  0
VERTEX
  8
LAYER-1
 10
2.051175
 20
9.464199
 30
0.000000
  0
VERTEX
  8
LAYER-1
 10
1.813328
 20
9.464199
 30
0.000000
  0
SEQEND
  8
LAYER-1
  0
POLYLINE
  8
LAYER-1
 66
  1
 70
  1
 62
  0
  0
VERTEX
  8
LAYER-1
 10
2.125828
 20
9.981144
 30
0.000000
  0
VERTEX
  8
LAYER-1
 10
2.363675
 20
9.981144
 30
0.000000
  0
VERTEX
  8
LAYER-1
 10
2.363675
 20
9.464199
 30
0.000000
  0
VERTEX
  8
LAYER-1
 10
2.125828
 20
9.464199
 30
0.000000
  0
SEQEND
  8
LAYER-1
  0
POLYLINE
  8
LAYER-1
 66
  1
 70
  1
 62
  0
  0
VERTEX
  8
LAYER-1
 10
2.426175
 20
9.981144
 30
0.000000
  0
VERTEX
  8
LAYER-1
 10
2.664023
 20
9.981144
 30
0.000000
  0
VERTEX
  8
LAYER-1
 10
2.664023
 20
9.464199
 30
0.000000
  0
VERTEX
  8
LAYER-1
 10
2.426175
 20
9.464199
 30
0.000000
  0
SEQEND
  8
LAYER-1
  0
POLYLINE
  8
LAYER-1
 66
  1
 70
  1
 62
  0
  0
VERTEX
  8
LAYER-1
 10
2.729995
 20
9.981144
 30
0.000000
  0
VERTEX
  8
LAYER-1
 10
2.967842
 20
9.981144
 30
0.000000
  0
VERTEX
  8
LAYER-1
 10
2.967842
 20
9.464199
 30
0.000000
  0
VERTEX
  8
LAYER-1
 10
2.729995
 20
9.464199
 30
0.000000
  0
SEQEND
  8
LAYER-1
  0
POLYLINE
  8
LAYER-1
 66
  1
 70
  1
 62
  0
  0
VERTEX
  8
LAYER-1
 10
3.046835
 20
9.977229
 30
0.000000
  0
VERTEX
  8
LAYER-1
 10
3.422269
 20
9.977229
 30
0.000000
  0
VERTEX
  8
LAYER-1
 10
3.422269
 20
9.839208
 30
0.000000
  0
VERTEX
  8
LAYER-1
 10
3.046835
 20
9.839208
 30
0.000000
  0
SEQEND
  8
LAYER-1
  0
POLYLINE
  8
LAYER-1
 66
  1
 70
  1
 62
  0
  0
VERTEX
  8
LAYER-1
 10
3.046401
 20
9.749798
 30
0.000000
  0
VERTEX
  8
LAYER-1
 10
3.354561
 20
9.749798
 30
0.000000
  0
VERTEX
  8
LAYER-1
 10
3.354561
 20
9.615684
 30
0.000000
  0
VERTEX
  8
LAYER-1
 10
3.046401
 20
9.615684
 30
0.000000
  0
SEQEND
  8
LAYER-1
  0
POLYLINE
  8
LAYER-1
 66
  1
 70
  1
 62
  0
  0
VERTEX
  8
LAYER-1
 10
1.813328
 20
9.379573
 30
0.000000
  0
VERTEX
  8
LAYER-1
 10
5.731731
 20
9.379573
 30
0.000000
  0
VERTEX
  8
LAYER-1
 10
5.731731
 20
9.336170
 30
0.000000
  0
VERTEX
  8
LAYER-1
 10
1.813328
 20
9.336170
 30
0.000000
  0
SEQEND
  8
LAYER-1
  0
POLYLINE
  8
LAYER-1
 66
  1
 70
  0
 62
  0
 10
5.777370
 20
7.423724
 30
0.000000
  0
VERTEX
  8
LAYER-1
 10
5.777370
 20
7.423724
 30
0.000000
  0
VERTEX
  8
LAYER-1
 10
1.758507
 20
7.423860
 30
0.000000
  0
VERTEX
  8
LAYER-1
 10
1.758507
 20
0.356647
 30
0.000000
  0
VERTEX
  8
LAYER-1
 10
5.777370
 20
0.356647
 30
0.000000
  0
VERTEX
  8
LAYER-1
 10
5.777370
 20
7.423860
 30
0.000000
  0
SEQEND
  8
LAYER-1
  0
POLYLINE
  8
LAYER-1
 66
  1
 70
  1
 62
  0
  0
VERTEX
  8
LAYER-1
 10
3.793519
 20
7.490284
 30
0.000000
  0
VERTEX
  8
LAYER-1
 10
3.818614
 20
7.490284
 30
0.000000
  0
VERTEX
  8
LAYER-1
 10
3.818614
 20
7.423965
 30
0.000000
  0
VERTEX
  8
LAYER-1
 10
3.793519
 20
7.423965
 30
0.000000
  0
SEQEND
  8
LAYER-1
  0
POLYLINE
  8
LAYER-1
 66
  1
 70
  1
 62
  0
  0
VERTEX
  8
LAYER-1
 10
1.831183
 20
0.670400
 30
0.000000
  0
VERTEX
  8
LAYER-1
 10
2.155815
 20
0.670400
 30
0.000000
  0
VERTEX
  8
LAYER-1
 10
2.155815
 20
0.356974
 30
0.000000
  0
VERTEX
  8
LAYER-1
 10
1.831183
 20
0.356974
 30
0.000000
  0
SEQEND
  8
LAYER-1
  0
POLYLINE
  8
LAYER-1
 66
  1
 70
  1
 62
  0
  0
VERTEX
  8
LAYER-1
 10
2.241245
 20
0.670400
 30
0.000000
  0
VERTEX
  8
LAYER-1
 10
2.565877
 20
0.670400
 30
0.000000
  0
VERTEX
  8
LAYER-1
 10
2.565877
 20
0.356974
 30
0.000000
  0
VERTEX
  8
LAYER-1
 10
2.241245
 20
0.356974
 30
0.000000
  0
SEQEND
  8
LAYER-1
  0
POLYLINE
  8
LAYER-1
 66
  1
 70
  1
 62
  0
  0
VERTEX
  8
LAYER-1
 10
2.651307
 20
0.670400
 30
0.000000
  0
VERTEX
  8
LAYER-1
 10
2.975936
 20
0.670400
 30
0.000000
  0
VERTEX
  8
LAYER-1
 10
2.975936
 20
0.356974
 30
0.000000
  0
VERTEX
  8
LAYER-1
 10
2.651307
 20
0.356974
 30
0.000000
  0
SEQEND
  8
LAYER-1
  0
POLYLINE
  8
LAYER-1
 66
  1
 70
  1
 62
  0
  0
VERTEX
  8
LAYER-1
 10
3.061367
 20
0.670400
 30
0.000000
  0
VERTEX
  8
LAYER-1
 10
3.385998
 20
0.670400
 30
0.000000
  0
VERTEX
  8
LAYER-1
 10
3.385998
 20
0.356974
 30
0.000000
  0
VERTEX
  8
LAYER-1
 10
3.061367
 20
0.356974
 30
0.000000
  0
SEQEND
  8
LAYER-1
  0
POLYLINE
  8
LAYER-1
 66
  1
 70
  1
 62
  0
  0
VERTEX
  8
LAYER-1
 10
5.380062
 20
0.670400
 30
0.000000
  0
VERTEX
  8
LAYER-1
 10
5.704693
 20
0.670400
 30
0.000000
  0
VERTEX
  8
LAYER-1
 10
5.704693
 20
0.356974
 30
0.000000
  0
VERTEX
  8
LAYER-1
 10
5.380062
 20
0.356974
 30
0.000000
  0
SEQEND
  8
LAYER-1
  0
POLYLINE
  8
LAYER-1
 66
  1
 70
  1
 62
  0
  0
VERTEX
  8
LAYER-1
 10
4.969999
 20
0.670400
 30
0.000000
  0
VERTEX
  8
LAYER-1
 10
5.294631
 20
0.670400
 30
0.000000
  0
VERTEX
  8
LAYER-1
 10
5.294631
 20
0.356974
 30
0.000000
  0
VERTEX
  8
LAYER-1
 10
4.969999
 20
0.356974
 30
0.000000
  0
SEQEND
  8
LAYER-1
  0
POLYLINE
  8
LAYER-1
 66
  1
 70
  1
 62
  0
  0
VERTEX
  8
LAYER-1
 10
4.559937
 20
0.670400
 30
0.000000
  0
VERTEX
  8
LAYER-1
 10
4.884569
 20
0.670400
 30
0.000000
  0
VERTEX
  8
LAYER-1
 10
4.884569
 20
0.356974
 30
0.000000
  0
VERTEX
  8
LAYER-1
 10
4.559937
 20
0.356974
 30
0.000000
  0
SEQEND
  8
LAYER-1
  0
POLYLINE
  8
LAYER-1
 66
  1
 70
  1
 62
  0
  0
VERTEX
  8
LAYER-1
 10
4.149875
 20
0.670400
 30
0.000000
  0
VERTEX
  8
LAYER-1
 10
4.474506
 20
0.670400
 30
0.000000
  0
VERTEX
  8
LAYER-1
 10
4.474506
 20
0.356974
 30
0.000000
  0
VERTEX
  8
LAYER-1
 10
4.149875
 20
0.356974
 30
0.000000
  0
SEQEND
  8
LAYER-1
  0
POLYLINE
  8
LAYER-1
 66
  1
 70
  1
 62
  0
  0
VERTEX
  8
LAYER-1
 10
1.831183
 20
7.423871
 30
0.000000
  0
VERTEX
  8
LAYER-1
 10
2.155815
 20
7.423871
 30
0.000000
  0
VERTEX
  8
LAYER-1
 10
2.155815
 20
7.153872
 30
0.000000
  0
VERTEX
  8
LAYER-1
 10
1.831183
 20
7.153872
 30
0.000000
  0
SEQEND
  8
LAYER-1
  0
POLYLINE
  8
LAYER-1
 66
  1
 70
  1
 62
  0
  0
VERTEX
  8
LAYER-1
 10
2.241245
 20
7.423871
 30
0.000000
  0
VERTEX
  8
LAYER-1
 10
2.565877
 20
7.423871
 30
0.000000
  0
VERTEX
  8
LAYER-1
 10
2.565877
 20
7.153872
 30
0.000000
  0
VERTEX
  8
LAYER-1
 10
2.241245
 20
7.153872
 30
0.000000
  0
SEQEND
  8
LAYER-1
  0
POLYLINE
  8
LAYER-1
 66
  1
 70
  1
 62
  0
  0
VERTEX
  8
LAYER-1
 10
2.651307
 20
7.423871
 30
0.000000
  0
VERTEX
  8
LAYER-1
 10
2.975936
 20
7.423871
 30
0.000000
  0
VERTEX
  8
LAYER-1
 10
2.975936
 20
7.153872
 30
0.000000
  0
VERTEX
  8
LAYER-1
 10
2.651307
 20
7.153872
 30
0.000000
  0
SEQEND
  8
LAYER-1
  0
POLYLINE
  8
LAYER-1
 66
  1
 70
  1
 62
  0
  0
VERTEX
  8
LAYER-1
 10
3.061367
 20
7.423871
 30
0.000000
  0
VERTEX
  8
LAYER-1
 10
3.385998
 20
7.423871
 30
0.000000
  0
VERTEX
  8
LAYER-1
 10
3.385998
 20
7.153872
 30
0.000000
  0
VERTEX
  8
LAYER-1
 10
3.061367
 20
7.153872
 30
0.000000
  0
SEQEND
  8
LAYER-1
  0
POLYLINE
  8
LAYER-1
 66
  1
 70
  0
 62
  0
 10
2.798198
 20
7.423946
 30
0.000000
  0
VERTEX
  8
LAYER-1
 10
2.798198
 20
7.423946
 30
0.000000
  0
VERTEX
  8
LAYER-1
 10
2.798198
 20
7.154416
 30
0.000000
  0
SEQEND
  8
LAYER-1
  0
POLYLINE
  8
LAYER-1
 66
  1
 70
  0
 62
  0
 10
2.835278
 20
7.423946
 30
0.000000
  0
VERTEX
  8
LAYER-1
 10
2.835278
 20
7.423946
 30
0.000000
  0
VERTEX
  8
LAYER-1
 10
2.835278
 20
7.154416
 30
0.000000
  0
SEQEND
  8
LAYER-1
  0
POLYLINE
  8
LAYER-1
 66
  1
 70
  0
 62
  0
 10
1.976532
 20
7.423946
 30
0.000000
  0
VERTEX
  8
LAYER-1
 10
1.976532
 20
7.423946
 30
0.000000
  0
VERTEX
  8
LAYER-1
 10
1.976532
 20
7.154416
 30
0.000000
  0
SEQEND
  8
LAYER-1
  0
POLYLINE
  8
LAYER-1
 66
  1
 70
  0
 62
  0
 10
2.015094
 20
7.423946
 30
0.000000
  0
VERTEX
  8
LAYER-1
 10
2.015094
 20
7.423946
 30
0.000000
  0
VERTEX
  8
LAYER-1
 10
2.015094
 20
7.154416
 30
0.000000
  0
SEQEND
  8
LAYER-1
  0
POLYLINE
  8
LAYER-1
 66
  1
 70
  1
 62
  0
  0
VERTEX
  8
LAYER-1
 10
2.172309
 20
7.429806
 30
0.000000
  0
VERTEX
  8
LAYER-1
 10
2.227185
 20
7.429806
 30
0.000000
  0
VERTEX
  8
LAYER-1
 10
2.227185
 20
7.423946
 30
0.000000
  0
VERTEX
  8
LAYER-1
 10
2.172309
 20
7.423946
 30
0.000000
  0
SEQEND
  8
LAYER-1
  0
POLYLINE
  8
LAYER-1
 66
  1
 70
  0
 62
  0
 10
2.181207
 20
7.356563
 30
0.000000
  0
VERTEX
  8
LAYER-1
 10
2.181207
 20
7.356563
 30
0.000000
  0
VERTEX
  8
LAYER-1
 10
2.216803
 20
7.356563
 30
0.000000
  0
SEQEND
  8
LAYER-1
  0
POLYLINE
  8
LAYER-1
 66
  1
 70
  0
 62
  0
 10
2.181207
 20
7.227658
 30
0.000000
  0
VERTEX
  8
LAYER-1
 10
2.181207
 20
7.227658
 30
0.000000
  0
VERTEX
  8
LAYER-1
 10
2.216803
 20
7.227658
 30
0.000000
  0
SEQEND
  8
LAYER-1
  0
POLYLINE
  8
LAYER-1
 66
  1
 70
  1
 62
  0
  0
VERTEX
  8
LAYER-1
 10
2.989523
 20
7.429806
 30
0.000000
  0
VERTEX
  8
LAYER-1
 10
3.044398
 20
7.429806
 30
0.000000
  0
VERTEX
  8
LAYER-1
 10
3.044398
 20
7.423946
 30
0.000000
  0
VERTEX
  8
LAYER-1
 10
2.989523
 20
7.423946
 30
0.000000
  0
SEQEND
  8
LAYER-1
  0
POLYLINE
  8
LAYER-1
 66
  1
 70
  0
 62
  0
 10
2.999906
 20
7.356563
 30
0.000000
  0
VERTEX
  8
LAYER-1
 10
2.999906
 20
7.356563
 30
0.000000
  0
VERTEX
  8
LAYER-1
 10
3.035500
 20
7.356563
 30
0.000000
  0
SEQEND
  8
LAYER-1
  0
POLYLINE
  8
LAYER-1
 66
  1
 70
  0
 62
  0
 10
2.999906
 20
7.227657
 30
0.000000
  0
VERTEX
  8
LAYER-1
 10
2.999906
 20
7.227657
 30
0.000000
  0
VERTEX
  8
LAYER-1
 10
3.035500
 20
7.227657
 30
0.000000
  0
SEQEND
  8
LAYER-1
  0
POLYLINE
  8
LAYER-1
 66
  1
 70
  0
 62
  0
 10
1.831183
 20
7.423871
 30
0.000000
  0
VERTEX
  8
LAYER-1
 10
1.831183
 20
7.423871
 30
0.000000
  0
VERTEX
  8
LAYER-1
 10
1.831183
 20
0.357080
 30
0.000000
  0
SEQEND
  8
LAYER-1
  0
POLYLINE
  8
LAYER-1
 66
  1
 70
  0
 62
  0
 10
2.155815
 20
7.423871
 30
0.000000
  0
VERTEX
  8
LAYER-1
 10
2.155815
 20
7.423871
 30
0.000000
  0
VERTEX
  8
LAYER-1
 10
2.155815
 20
0.357080
 30
0.000000
  0
SEQEND
  8
LAYER-1
  0
POLYLINE
  8
LAYER-1
 66
  1
 70
  0
 62
  0
 10
2.241245
 20
7.423871
 30
0.000000
  0
VERTEX
  8
LAYER-1
 10
2.241245
 20
7.423871
 30
0.000000
  0
VERTEX
  8
LAYER-1
 10
2.241245
 20
0.357080
 30
0.000000
  0
SEQEND
  8
LAYER-1
  0
POLYLINE
  8
LAYER-1
 66
  1
 70
  0
 62
  0
 10
2.181207
 20
7.423871
 30
0.000000
  0
VERTEX
  8
LAYER-1
 10
2.181207
 20
7.423871
 30
0.000000
  0
VERTEX
  8
LAYER-1
 10
2.181207
 20
0.357080
 30
0.000000
  0
SEQEND
  8
LAYER-1
  0
POLYLINE
  8
LAYER-1
 66
  1
 70
  0
 62
  0
 10
2.216803
 20
7.423871
 30
0.000000
  0
VERTEX
  8
LAYER-1
 10
2.216803
 20
7.423871
 30
0.000000
  0
VERTEX
  8
LAYER-1
 10
2.216803
 20
0.357080
 30
0.000000
  0
SEQEND
  8
LAYER-1
  0
POLYLINE
  8
LAYER-1
 66
  1
 70
  1
 62
  0
  0
VERTEX
  8
LAYER-1
 10
2.170824
 20
0.357156
 30
0.000000
  0
VERTEX
  8
LAYER-1
 10
2.225700
 20
0.357156
 30
0.000000
  0
VERTEX
  8
LAYER-1
 10
2.225700
 20
0.351296
 30
0.000000
  0
VERTEX
  8
LAYER-1
 10
2.170824
 20
0.351296
 30
0.000000
  0
SEQEND
  8
LAYER-1
  0
POLYLINE
  8
LAYER-1
 66
  1
 70
  0
 62
  0
 10
2.216803
 20
0.430398
 30
0.000000
  0
VERTEX
  8
LAYER-1
 10
2.216803
 20
0.430398
 30
0.000000
  0
VERTEX
  8
LAYER-1
 10
2.181207
 20
0.430398
 30
0.000000
  0
SEQEND
  8
LAYER-1
  0
POLYLINE
  8
LAYER-1
 66
  1
 70
  0
 62
  0
 10
2.216803
 20
0.559304
 30
0.000000
  0
VERTEX
  8
LAYER-1
 10
2.216803
 20
0.559304
 30
0.000000
  0
VERTEX
  8
LAYER-1
 10
2.181207
 20
0.559304
 30
0.000000
  0
SEQEND
  8
LAYER-1
  0
POLYLINE
  8
LAYER-1
 66
  1
 70
  0
 62
  0
 10
2.181207
 20
0.634288
 30
0.000000
  0
VERTEX
  8
LAYER-1
 10
2.181207
 20
0.634288
 30
0.000000
  0
VERTEX
  8
LAYER-1
 10
2.216803
 20
0.634288
 30
0.000000
  0
SEQEND
  8
LAYER-1
  0
POLYLINE
  8
LAYER-1
 66
  1
 70
  0
 62
  0
 10
2.181207
 20
1.480968
 30
0.000000
  0
VERTEX
  8
LAYER-1
 10
2.181207
 20
1.480968
 30
0.000000
  0
VERTEX
  8
LAYER-1
 10
2.216803
 20
1.480968
 30
0.000000
  0
SEQEND
  8
LAYER-1
  0
POLYLINE
  8
LAYER-1
 66
  1
 70
  0
 62
  0
 10
2.181207
 20
2.318857
 30
0.000000
  0
VERTEX
  8
LAYER-1
 10
2.181207
 20
2.318857
 30
0.000000
  0
VERTEX
  8
LAYER-1
 10
2.216803
 20
2.318857
 30
0.000000
  0
SEQEND
  8
LAYER-1
  0
POLYLINE
  8
LAYER-1
 66
  1
 70
  0
 62
  0
 10
2.181207
 20
3.168460
 30
0.000000
  0
VERTEX
  8
LAYER-1
 10
2.181207
 20
3.168460
 30
0.000000
  0
VERTEX
  8
LAYER-1
 10
2.216803
 20
3.168460
 30
0.000000
  0
SEQEND
  8
LAYER-1
  0
POLYLINE
  8
LAYER-1
 66
  1
 70
  0
 62
  0
 10
2.216803
 20
4.010746
 30
0.000000
  0
VERTEX
  8
LAYER-1
 10
2.216803
 20
4.010746
 30
0.000000
  0
VERTEX
  8
LAYER-1
 10
2.181207
 20
4.010746
 30
0.000000
  0
SEQEND
  8
LAYER-1
  0
POLYLINE
  8
LAYER-1
 66
  1
 70
  1
 62
  0
  0
VERTEX
  8
LAYER-1
 10
1.831183
 20
3.949100
 30
0.000000
  0
VERTEX
  8
LAYER-1
 10
2.155993
 20
3.949100
 30
0.000000
  0
VERTEX
  8
LAYER-1
 10
2.155993
 20
3.872929
 30
0.000000
  0
VERTEX
  8
LAYER-1
 10
1.831183
 20
3.872929
 30
0.000000
  0
SEQEND
  8
LAYER-1
  0
POLYLINE
  8
LAYER-1
 66
  1
 70
  1
 62
  0
  0
VERTEX
  8
LAYER-1
 10
2.241245
 20
3.949100
 30
0.000000
  0
VERTEX
  8
LAYER-1
 10
2.566055
 20
3.949100
 30
0.000000
  0
VERTEX
  8
LAYER-1
 10
2.566055
 20
3.872929
 30
0.000000
  0
VERTEX
  8
LAYER-1
 10
2.241245
 20
3.872929
 30
0.000000
  0
SEQEND
  8
LAYER-1
  0
POLYLINE
  8
LAYER-1
 66
  1
 70
  1
 62
  0
  0
VERTEX
  8
LAYER-1
 10
2.651307
 20
3.949100
 30
0.000000
  0
VERTEX
  8
LAYER-1
 10
2.976113
 20
3.949100
 30
0.000000
  0
VERTEX
  8
LAYER-1
 10
2.976113
 20
3.872929
 30
0.000000
  0
VERTEX
  8
LAYER-1
 10
2.651307
 20
3.872929
 30
0.000000
  0
SEQEND
  8
LAYER-1
  0
POLYLINE
  8
LAYER-1
 66
  1
 70
  1
 62
  0
  0
VERTEX
  8
LAYER-1
 10
3.061367
 20
3.949100
 30
0.000000
  0
VERTEX
  8
LAYER-1
 10
3.386175
 20
3.949100
 30
0.000000
  0
VERTEX
  8
LAYER-1
 10
3.386175
 20
3.872929
 30
0.000000
  0
VERTEX
  8
LAYER-1
 10
3.061367
 20
3.872929
 30
0.000000
  0
SEQEND
  8
LAYER-1
  0
POLYLINE
  8
LAYER-1
 66
  1
 70
  1
 62
  0
  0
VERTEX
  8
LAYER-1
 10
5.379884
 20
3.949100
 30
0.000000
  0
VERTEX
  8
LAYER-1
 10
5.704693
 20
3.949100
 30
0.000000
  0
VERTEX
  8
LAYER-1
 10
5.704693
 20
3.872929
 30
0.000000
  0
VERTEX
  8
LAYER-1
 10
5.379884
 20
3.872929
 30
0.000000
  0
SEQEND
  8
LAYER-1
  0
POLYLINE
  8
LAYER-1
 66
  1
 70
  1
 62
  0
  0
VERTEX
  8
LAYER-1
 10
4.969822
 20
3.949100
 30
0.000000
  0
VERTEX
  8
LAYER-1
 10
5.294631
 20
3.949100
 30
0.000000
  0
VERTEX
  8
LAYER-1
 10
5.294631
 20
3.872929
 30
0.000000
  0
VERTEX
  8
LAYER-1
 10
4.969822
 20
3.872929
 30
0.000000
  0
SEQEND
  8
LAYER-1
  0
POLYLINE
  8
LAYER-1
 66
  1
 70
  1
 62
  0
  0
VERTEX
  8
LAYER-1
 10
4.559760
 20
3.949100
 30
0.000000
  0
VERTEX
  8
LAYER-1
 10
4.884569
 20
3.949100
 30
0.000000
  0
VERTEX
  8
LAYER-1
 10
4.884569
 20
3.872929
 30
0.000000
  0
VERTEX
  8
LAYER-1
 10
4.559760
 20
3.872929
 30
0.000000
  0
SEQEND
  8
LAYER-1
  0
POLYLINE
  8
LAYER-1
 66
  1
 70
  1
 62
  0
  0
VERTEX
  8
LAYER-1
 10
4.149698
 20
3.949100
 30
0.000000
  0
VERTEX
  8
LAYER-1
 10
4.474506
 20
3.949100
 30
0.000000
  0
VERTEX
  8
LAYER-1
 10
4.474506
 20
3.872929
 30
0.000000
  0
VERTEX
  8
LAYER-1
 10
4.149698
 20
3.872929
 30
0.000000
  0
SEQEND
  8
LAYER-1
  0
POLYLINE
  8
LAYER-1
 66
  1
 70
  1
 62
  0
  0
VERTEX
  8
LAYER-1
 10
1.831123
 20
7.136246
 30
0.000000
  0
VERTEX
  8
LAYER-1
 10
2.155809
 20
7.136246
 30
0.000000
  0
VERTEX
  8
LAYER-1
 10
2.155809
 20
3.968114
 30
0.000000
  0
VERTEX
  8
LAYER-1
 10
1.831123
 20
3.968114
 30
0.000000
  0
SEQEND
  8
LAYER-1
  0
POLYLINE
  8
LAYER-1
 66
  1
 70
  1
 62
  0
  0
VERTEX
  8
LAYER-1
 10
2.241280
 20
7.136246
 30
0.000000
  0
VERTEX
  8
LAYER-1
 10
2.565872
 20
7.136246
 30
0.000000
  0
VERTEX
  8
LAYER-1
 10
2.565872
 20
3.967680
 30
0.000000
  0
VERTEX
  8
LAYER-1
 10
2.241280
 20
3.967680
 30
0.000000
  0
SEQEND
  8
LAYER-1
  0
POLYLINE
  8
LAYER-1
 66
  1
 70
  1
 62
  0
  0
VERTEX
  8
LAYER-1
 10
2.651436
 20
7.136246
 30
0.000000
  0
VERTEX
  8
LAYER-1
 10
2.975930
 20
7.136246
 30
0.000000
  0
VERTEX
  8
LAYER-1
 10
2.975930
 20
3.968114
 30
0.000000
  0
VERTEX
  8
LAYER-1
 10
2.651436
 20
3.968114
 30
0.000000
  0
SEQEND
  8
LAYER-1
  0
POLYLINE
  8
LAYER-1
 66
  1
 70
  1
 62
  0
  0
VERTEX
  8
LAYER-1
 10
3.061158
 20
7.136246
 30
0.000000
  0
VERTEX
  8
LAYER-1
 10
3.385992
 20
7.136246
 30
0.000000
  0
VERTEX
  8
LAYER-1
 10
3.385992
 20
3.968114
 30
0.000000
  0
VERTEX
  8
LAYER-1
 10
3.061158
 20
3.968114
 30
0.000000
  0
SEQEND
  8
LAYER-1
  0
POLYLINE
  8
LAYER-1
 66
  1
 70
  1
 62
  0
  0
VERTEX
  8
LAYER-1
 10
5.380067
 20
7.136245
 30
0.000000
  0
VERTEX
  8
LAYER-1
 10
5.704259
 20
7.136245
 30
0.000000
  0
VERTEX
  8
LAYER-1
 10
5.704259
 20
3.967936
 30
0.000000
  0
VERTEX
  8
LAYER-1
 10
5.380067
 20
3.967936
 30
0.000000
  0
SEQEND
  8
LAYER-1
  0
POLYLINE
  8
LAYER-1
 66
  1
 70
  1
 62
  0
  0
VERTEX
  8
LAYER-1
 10
4.970005
 20
7.136245
 30
0.000000
  0
VERTEX
  8
LAYER-1
 10
5.294196
 20
7.136245
 30
0.000000
  0
VERTEX
  8
LAYER-1
 10
5.294196
 20
3.967936
 30
0.000000
  0
VERTEX
  8
LAYER-1
 10
4.970005
 20
3.967936
 30
0.000000
  0
SEQEND
  8
LAYER-1
  0
POLYLINE
  8
LAYER-1
 66
  1
 70
  1
 62
  0
  0
VERTEX
  8
LAYER-1
 10
4.559942
 20
7.136245
 30
0.000000
  0
VERTEX
  8
LAYER-1
 10
4.884134
 20
7.136245
 30
0.000000
  0
VERTEX
  8
LAYER-1
 10
4.884134
 20
3.967936
 30
0.000000
  0
VERTEX
  8
LAYER-1
 10
4.559942
 20
3.967936
 30
0.000000
  0
SEQEND
  8
LAYER-1
  0
POLYLINE
  8
LAYER-1
 66
  1
 70
  1
 62
  0
  0
VERTEX
  8
LAYER-1
 10
4.149881
 20
7.136245
 30
0.000000
  0
VERTEX
  8
LAYER-1
 10
4.474072
 20
7.136245
 30
0.000000
  0
VERTEX
  8
LAYER-1
 10
4.474072
 20
3.967936
 30
0.000000
  0
VERTEX
  8
LAYER-1
 10
4.149881
 20
3.967936
 30
0.000000
  0
SEQEND
  8
LAYER-1
  0
POLYLINE
  8
LAYER-1
 66
  1
 70
  1
 62
  0
  0
VERTEX
  8
LAYER-1
 10
1.831183
 20
3.854994
 30
0.000000
  0
VERTEX
  8
LAYER-1
 10
2.155809
 20
3.854994
 30
0.000000
  0
VERTEX
  8
LAYER-1
 10
2.155809
 20
0.687970
 30
0.000000
  0
VERTEX
  8
LAYER-1
 10
1.831183
 20
0.687970
 30
0.000000
  0
SEQEND
  8
LAYER-1
  0
POLYLINE
  8
LAYER-1
 66
  1
 70
  1
 62
  0
  0
VERTEX
  8
LAYER-1
 10
2.241183
 20
3.854994
 30
0.000000
  0
VERTEX
  8
LAYER-1
 10
2.565809
 20
3.854994
 30
0.000000
  0
VERTEX
  8
LAYER-1
 10
2.565809
 20
0.687970
 30
0.000000
  0
VERTEX
  8
LAYER-1
 10
2.241183
 20
0.687970
 30
0.000000
  0
SEQEND
  8
LAYER-1
  0
POLYLINE
  8
LAYER-1
 66
  1
 70
  1
 62
  0
  0
VERTEX
  8
LAYER-1
 10
2.651183
 20
3.854994
 30
0.000000
  0
VERTEX
  8
LAYER-1
 10
2.975810
 20
3.854994
 30
0.000000
  0
VERTEX
  8
LAYER-1
 10
2.975810
 20
0.688405
 30
0.000000
  0
VERTEX
  8
LAYER-1
 10
2.651183
 20
0.688405
 30
0.000000
  0
SEQEND
  8
LAYER-1
  0
POLYLINE
  8
LAYER-1
 66
  1
 70
  1
 62
  0
  0
VERTEX
  8
LAYER-1
 10
3.061183
 20
3.854994
 30
0.000000
  0
VERTEX
  8
LAYER-1
 10
3.385810
 20
3.854994
 30
0.000000
  0
VERTEX
  8
LAYER-1
 10
3.385810
 20
0.687970
 30
0.000000
  0
VERTEX
  8
LAYER-1
 10
3.061183
 20
0.687970
 30
0.000000
  0
SEQEND
  8
LAYER-1
  0
LINE
  8
LAYER-1
 62
  0
 10
1.904080
 20
4.307436
 30
0.000000
 11
2.040170
 21
4.545171
 31
0.000000
  0
LINE
  8
LAYER-1
 62
  0
 10
1.960715
 20
4.275016
 30
0.000000
 11
2.096805
 21
4.512750
 31
0.000000
  0
LINE
  8
LAYER-1
 62
  0
 10
2.314142
 20
4.307436
 30
0.000000
 11
2.450232
 21
4.545171
 31
0.000000
  0
LINE
  8
LAYER-1
 62
  0
 10
2.370777
 20
4.275016
 30
0.000000
 11
2.506868
 21
4.512750
 31
0.000000
  0
LINE
  8
LAYER-1
 62
  0
 10
2.724206
 20
4.307436
 30
0.000000
 11
2.860291
 21
4.545171
 31
0.000000
  0
LINE
  8
LAYER-1
 62
  0
 10
2.780841
 20
4.275016
 30
0.000000
 11
2.916927
 21
4.512751
 31
0.000000
  0
LINE
  8
LAYER-1
 62
  0
 10
3.134265
 20
4.307436
 30
0.000000
 11
3.270352
 21
4.545171
 31
0.000000
  0
LINE
  8
LAYER-1
 62
  0
 10
3.190901
 20
4.275016
 30
0.000000
 11
3.326988
 21
4.512751
 31
0.000000
  0
LINE
  8
LAYER-1
 62
  0
 10
1.902235
 20
3.277610
 30
0.000000
 11
2.038326
 21
3.515347
 31
0.000000
  0
LINE
  8
LAYER-1
 62
  0
 10
1.958871
 20
3.245189
 30
0.000000
 11
2.094961
 21
3.482926
 31
0.000000
  0
LINE
  8
LAYER-1
 62
  0
 10
2.312298
 20
3.277610
 30
0.000000
 11
2.448387
 21
3.515347
 31
0.000000
  0
LINE
  8
LAYER-1
 62
  0
 10
2.368933
 20
3.245189
 30
0.000000
 11
2.505023
 21
3.482926
 31
0.000000
  0
LINE
  8
LAYER-1
 62
  0
 10
2.722360
 20
3.277610
 30
0.000000
 11
2.858447
 21
3.515346
 31
0.000000
  0
LINE
  8
LAYER-1
 62
  0
 10
2.778996
 20
3.245190
 30
0.000000
 11
2.915083
 21
3.482926
 31
0.000000
  0
LINE
  8
LAYER-1
 62
  0
 10
3.132419
 20
3.277610
 30
0.000000
 11
3.268508
 21
3.515347
 31
0.000000
  0
LINE
  8
LAYER-1
 62
  0
 10
3.189055
 20
3.245189
 30
0.000000
 11
3.325144
 21
3.482926
 31
0.000000
  0
LINE
  8
LAYER-1
 62
  0
 10
1.903720
 20
6.694551
 30
0.000000
 11
2.039808
 21
6.932286
 31
0.000000
  0
LINE
  8
LAYER-1
 62
  0
 10
1.960356
 20
6.662131
 30
0.000000
 11
2.096444
 21
6.899865
 31
0.000000
  0
LINE
  8
LAYER-1
 62
  0
 10
2.313782
 20
6.694551
 30
0.000000
 11
2.449871
 21
6.932286
 31
0.000000
  0
LINE
  8
LAYER-1
 62
  0
 10
2.370418
 20
6.662131
 30
0.000000
 11
2.506506
 21
6.899865
 31
0.000000
  0
LINE
  8
LAYER-1
 62
  0
 10
2.723844
 20
6.694551
 30
0.000000
 11
2.859930
 21
6.932286
 31
0.000000
  0
LINE
  8
LAYER-1
 62
  0
 10
2.780480
 20
6.662131
 30
0.000000
 11
2.916566
 21
6.899866
 31
0.000000
  0
LINE
  8
LAYER-1
 62
  0
 10
3.133904
 20
6.694551
 30
0.000000
 11
3.269991
 21
6.932286
 31
0.000000
  0
LINE
  8
LAYER-1
 62
  0
 10
3.190539
 20
6.662131
 30
0.000000
 11
3.326626
 21
6.899865
 31
0.000000
  0
LINE
  8
LAYER-1
 62
  0
 10
1.901876
 20
1.053762
 30
0.000000
 11
2.037964
 21
1.291496
 31
0.000000
  0
LINE
  8
LAYER-1
 62
  0
 10
1.958511
 20
1.021341
 30
0.000000
 11
2.094599
 21
1.259076
 31
0.000000
  0
LINE
  8
LAYER-1
 62
  0
 10
2.311938
 20
1.053762
 30
0.000000
 11
2.448026
 21
1.291496
 31
0.000000
  0
LINE
  8
LAYER-1
 62
  0
 10
2.368573
 20
1.021341
 30
0.000000
 11
2.504662
 21
1.259076
 31
0.000000
  0
LINE
  8
LAYER-1
 62
  0
 10
2.722000
 20
1.053762
 30
0.000000
 11
2.858087
 21
1.291496
 31
0.000000
  0
LINE
  8
LAYER-1
 62
  0
 10
2.778636
 20
1.021341
 30
0.000000
 11
2.914723
 21
1.259076
 31
0.000000
  0
LINE
  8
LAYER-1
 62
  0
 10
3.132060
 20
1.053762
 30
0.000000
 11
3.268149
 21
1.291496
 31
0.000000
  0
LINE
  8
LAYER-1
 62
  0
 10
3.188695
 20
1.021341
 30
0.000000
 11
3.324784
 21
1.259076
 31
0.000000
  0
POLYLINE
  8
LAYER-1
 66
  1
 70
  0
 62
  0
 10
2.565877
 20
7.423871
 30
0.000000
  0
VERTEX
  8
LAYER-1
 10
2.565877
 20
7.423871
 30
0.000000
  0
VERTEX
  8
LAYER-1
 10
2.565877
 20
0.357080
 30
0.000000
  0
SEQEND
  8
LAYER-1
  0
POLYLINE
  8
LAYER-1
 66
  1
 70
  0
 62
  0
 10
2.651307
 20
7.423871
 30
0.000000
  0
VERTEX
  8
LAYER-1
 10
2.651307
 20
7.423871
 30
0.000000
  0
VERTEX
  8
LAYER-1
 10
2.651307
 20
0.357080
 30
0.000000
  0
SEQEND
  8
LAYER-1
  0
POLYLINE
  8
LAYER-1
 66
  1
 70
  0
 62
  0
 10
2.975936
 20
7.423871
 30
0.000000
  0
VERTEX
  8
LAYER-1
 10
2.975936
 20
7.423871
 30
0.000000
  0
VERTEX
  8
LAYER-1
 10
2.975936
 20
0.357080
 30
0.000000
  0
SEQEND
  8
LAYER-1
  0
POLYLINE
  8
LAYER-1
 66
  1
 70
  0
 62
  0
 10
3.061367
 20
7.423871
 30
0.000000
  0
VERTEX
  8
LAYER-1
 10
3.061367
 20
7.423871
 30
0.000000
  0
VERTEX
  8
LAYER-1
 10
3.061367
 20
0.357080
 30
0.000000
  0
SEQEND
  8
LAYER-1
  0
POLYLINE
  8
LAYER-1
 66
  1
 70
  0
 62
  0
 10
3.385998
 20
7.423871
 30
0.000000
  0
VERTEX
  8
LAYER-1
 10
3.385998
 20
7.423871
 30
0.000000
  0
VERTEX
  8
LAYER-1
 10
3.385998
 20
0.357080
 30
0.000000
  0
SEQEND
  8
LAYER-1
  0
POLYLINE
  8
LAYER-1
 66
  1
 70
  0
 62
  0
 10
3.468579
 20
7.423871
 30
0.000000
  0
VERTEX
  8
LAYER-1
 10
3.468579
 20
7.423871
 30
0.000000
  0
VERTEX
  8
LAYER-1
 10
3.468579
 20
0.357080
 30
0.000000
  0
SEQEND
  8
LAYER-1
  0
POLYLINE
  8
LAYER-1
 66
  1
 70
  0
 62
  0
 10
1.795588
 20
7.423871
 30
0.000000
  0
VERTEX
  8
LAYER-1
 10
1.795588
 20
7.423871
 30
0.000000
  0
VERTEX
  8
LAYER-1
 10
1.795588
 20
0.357080
 30
0.000000
  0
SEQEND
  8
LAYER-1
  0
POLYLINE
  8
LAYER-1
 66
  1
 70
  0
 62
  0
 10
2.608355
 20
7.423871
 30
0.000000
  0
VERTEX
  8
LAYER-1
 10
2.608355
 20
7.423871
 30
0.000000
  0
VERTEX
  8
LAYER-1
 10
2.608355
 20
0.357080
 30
0.000000
  0
SEQEND
  8
LAYER-1
  0
POLYLINE
  8
LAYER-1
 66
  1
 70
  0
 62
  0
 10
2.999906
 20
7.423871
 30
0.000000
  0
VERTEX
  8
LAYER-1
 10
2.999906
 20
7.423871
 30
0.000000
  0
VERTEX
  8
LAYER-1
 10
2.999906
 20
0.357080
 30
0.000000
  0
SEQEND
  8
LAYER-1
  0
POLYLINE
  8
LAYER-1
 66
  1
 70
  0
 62
  0
 10
3.035500
 20
7.423871
 30
0.000000
  0
VERTEX
  8
LAYER-1
 10
3.035500
 20
7.423871
 30
0.000000
  0
VERTEX
  8
LAYER-1
 10
3.035500
 20
0.357080
 30
0.000000
  0
SEQEND
  8
LAYER-1
  0
POLYLINE
  8
LAYER-1
 66
  1
 70
  0
 62
  0
 10
3.427052
 20
7.423871
 30
0.000000
  0
VERTEX
  8
LAYER-1
 10
3.427052
 20
7.423871
 30
0.000000
  0
VERTEX
  8
LAYER-1
 10
3.427052
 20
0.357080
 30
0.000000
  0
SEQEND
  8
LAYER-1
  0
POLYLINE
  8
LAYER-1
 66
  1
 70
  1
 62
  0
  0
VERTEX
  8
LAYER-1
 10
2.988038
 20
0.357156
 30
0.000000
  0
VERTEX
  8
LAYER-1
 10
3.042915
 20
0.357156
 30
0.000000
  0
VERTEX
  8
LAYER-1
 10
3.042915
 20
0.351296
 30
0.000000
  0
VERTEX
  8
LAYER-1
 10
2.988038
 20
0.351296
 30
0.000000
  0
SEQEND
  8
LAYER-1
  0
POLYLINE
  8
LAYER-1
 66
  1
 70
  0
 62
  0
 10
3.035500
 20
0.430398
 30
0.000000
  0
VERTEX
  8
LAYER-1
 10
3.035500
 20
0.430398
 30
0.000000
  0
VERTEX
  8
LAYER-1
 10
2.999906
 20
0.430398
 30
0.000000
  0
SEQEND
  8
LAYER-1
  0
POLYLINE
  8
LAYER-1
 66
  1
 70
  0
 62
  0
 10
3.035500
 20
0.559304
 30
0.000000
  0
VERTEX
  8
LAYER-1
 10
3.035500
 20
0.559304
 30
0.000000
  0
VERTEX
  8
LAYER-1
 10
2.999906
 20
0.559304
 30
0.000000
  0
SEQEND
  8
LAYER-1
  0
POLYLINE
  8
LAYER-1
 66
  1
 70
  0
 62
  0
 10
2.999906
 20
0.634288
 30
0.000000
  0
VERTEX
  8
LAYER-1
 10
2.999906
 20
0.634288
 30
0.000000
  0
VERTEX
  8
LAYER-1
 10
3.035500
 20
0.634288
 30
0.000000
  0
SEQEND
  8
LAYER-1
  0
POLYLINE
  8
LAYER-1
 66
  1
 70
  0
 62
  0
 10
2.999906
 20
1.480968
 30
0.000000
  0
VERTEX
  8
LAYER-1
 10
2.999906
 20
1.480968
 30
0.000000
  0
VERTEX
  8
LAYER-1
 10
3.035500
 20
1.480968
 30
0.000000
  0
SEQEND
  8
LAYER-1
  0
POLYLINE
  8
LAYER-1
 66
  1
 70
  0
 62
  0
 10
2.999906
 20
2.318857
 30
0.000000
  0
VERTEX
  8
LAYER-1
 10
2.999906
 20
2.318857
 30
0.000000
  0
VERTEX
  8
LAYER-1
 10
3.035500
 20
2.318857
 30
0.000000
  0
SEQEND
  8
LAYER-1
  0
POLYLINE
  8
LAYER-1
 66
  1
 70
  0
 62
  0
 10
2.999906
 20
3.168460
 30
0.000000
  0
VERTEX
  8
LAYER-1
 10
2.999906
 20
3.168460
 30
0.000000
  0
VERTEX
  8
LAYER-1
 10
3.035500
 20
3.168460
 30
0.000000
  0
SEQEND
  8
LAYER-1
  0
POLYLINE
  8
LAYER-1
 66
  1
 70
  0
 62
  0
 10
3.035500
 20
4.010746
 30
0.000000
  0
VERTEX
  8
LAYER-1
 10
3.035500
 20
4.010746
 30
0.000000
  0
VERTEX
  8
LAYER-1
 10
2.999906
 20
4.010746
 30
0.000000
  0
SEQEND
  8
LAYER-1
  0
POLYLINE
  8
LAYER-1
 66
  1
 70
  0
 62
  0
 10
2.181858
 20
4.861746
 30
0.000000
  0
VERTEX
  8
LAYER-1
 10
2.181858
 20
4.861746
 30
0.000000
  0
VERTEX
  8
LAYER-1
 10
2.217455
 20
4.861746
 30
0.000000
  0
SEQEND
  8
LAYER-1
  0
POLYLINE
  8
LAYER-1
 66
  1
 70
  0
 62
  0
 10
2.181858
 20
5.705495
 30
0.000000
  0
VERTEX
  8
LAYER-1
 10
2.181858
 20
5.705495
 30
0.000000
  0
VERTEX
  8
LAYER-1
 10
2.217455
 20
5.705495
 30
0.000000
  0
SEQEND
  8
LAYER-1
  0
POLYLINE
  8
LAYER-1
 66
  1
 70
  0
 62
  0
 10
2.181858
 20
6.550714
 30
0.000000
  0
VERTEX
  8
LAYER-1
 10
2.181858
 20
6.550714
 30
0.000000
  0
VERTEX
  8
LAYER-1
 10
2.217455
 20
6.550714
 30
0.000000
  0
SEQEND
  8
LAYER-1
  0
POLYLINE
  8
LAYER-1
 66
  1
 70
  0
 62
  0
 10
2.999729
 20
6.550714
 30
0.000000
  0
VERTEX
  8
LAYER-1
 10
2.999729
 20
6.550714
 30
0.000000
  0
VERTEX
  8
LAYER-1
 10
3.035323
 20
6.550714
 30
0.000000
  0
SEQEND
  8
LAYER-1
  0
POLYLINE
  8
LAYER-1
 66
  1
 70
  0
 62
  0
 10
3.647862
 20
6.550638
 30
0.000000
  0
VERTEX
  8
LAYER-1
 10
3.647862
 20
6.550638
 30
0.000000
  0
VERTEX
  8
LAYER-1
 10
3.683457
 20
6.550638
 30
0.000000
  0
SEQEND
  8
LAYER-1
  0
POLYLINE
  8
LAYER-1
 66
  1
 70
  0
 62
  0
 10
5.354019
 20
6.550714
 30
0.000000
  0
VERTEX
  8
LAYER-1
 10
5.354019
 20
6.550714
 30
0.000000
  0
VERTEX
  8
LAYER-1
 10
5.318424
 20
6.550714
 30
0.000000
  0
SEQEND
  8
LAYER-1
  0
POLYLINE
  8
LAYER-1
 66
  1
 70
  0
 62
  0
 10
4.536144
 20
6.550714
 30
0.000000
  0
VERTEX
  8
LAYER-1
 10
4.536144
 20
6.550714
 30
0.000000
  0
VERTEX
  8
LAYER-1
 10
4.500553
 20
6.550714
 30
0.000000
  0
SEQEND
  8
LAYER-1
  0
POLYLINE
  8
LAYER-1
 66
  1
 70
  0
 62
  0
 10
3.888006
 20
6.550638
 30
0.000000
  0
VERTEX
  8
LAYER-1
 10
3.888006
 20
6.550638
 30
0.000000
  0
VERTEX
  8
LAYER-1
 10
3.852414
 20
6.550638
 30
0.000000
  0
SEQEND
  8
LAYER-1
  0
POLYLINE
  8
LAYER-1
 66
  1
 70
  0
 62
  0
 10
2.999729
 20
4.861746
 30
0.000000
  0
VERTEX
  8
LAYER-1
 10
2.999729
 20
4.861746
 30
0.000000
  0
VERTEX
  8
LAYER-1
 10
3.035323
 20
4.861746
 30
0.000000
  0
SEQEND
  8
LAYER-1
  0
POLYLINE
  8
LAYER-1
 66
  1
 70
  0
 62
  0
 10
2.999729
 20
5.705495
 30
0.000000
  0
VERTEX
  8
LAYER-1
 10
2.999729
 20
5.705495
 30
0.000000
  0
VERTEX
  8
LAYER-1
 10
3.035323
 20
5.705495
 30
0.000000
  0
SEQEND
  8
LAYER-1
  0
POLYLINE
  8
LAYER-1
 66
  1
 70
  1
 62
  0
  0
VERTEX
  8
LAYER-1
 10
3.637657
 20
7.429730
 30
0.000000
  0
VERTEX
  8
LAYER-1
 10
3.692534
 20
7.429730
 30
0.000000
  0
VERTEX
  8
LAYER-1
 10
3.692534
 20
7.423870
 30
0.000000
  0
VERTEX
  8
LAYER-1
 10
3.637657
 20
7.423870
 30
0.000000
  0
SEQEND
  8
LAYER-1
  0
POLYLINE
  8
LAYER-1
 66
  1
 70
  0
 62
  0
 10
3.648040
 20
7.356487
 30
0.000000
  0
VERTEX
  8
LAYER-1
 10
3.648040
 20
7.356487
 30
0.000000
  0
VERTEX
  8
LAYER-1
 10
3.683634
 20
7.356487
 30
0.000000
  0
SEQEND
  8
LAYER-1
  0
POLYLINE
  8
LAYER-1
 66
  1
 70
  0
 62
  0
 10
3.648040
 20
7.227580
 30
0.000000
  0
VERTEX
  8
LAYER-1
 10
3.648040
 20
7.227580
 30
0.000000
  0
VERTEX
  8
LAYER-1
 10
3.683634
 20
7.227580
 30
0.000000
  0
SEQEND
  8
LAYER-1
  0
POLYLINE
  8
LAYER-1
 66
  1
 70
  0
 62
  0
 10
3.648040
 20
7.423795
 30
0.000000
  0
VERTEX
  8
LAYER-1
 10
3.648040
 20
7.423795
 30
0.000000
  0
VERTEX
  8
LAYER-1
 10
3.648040
 20
0.357080
 30
0.000000
  0
SEQEND
  8
LAYER-1
  0
POLYLINE
  8
LAYER-1
 66
  1
 70
  0
 62
  0
 10
3.683634
 20
0.430321
 30
0.000000
  0
VERTEX
  8
LAYER-1
 10
3.683634
 20
0.430321
 30
0.000000
  0
VERTEX
  8
LAYER-1
 10
3.648040
 20
0.430321
 30
0.000000
  0
SEQEND
  8
LAYER-1
  0
POLYLINE
  8
LAYER-1
 66
  1
 70
  0
 62
  0
 10
3.683634
 20
0.559227
 30
0.000000
  0
VERTEX
  8
LAYER-1
 10
3.683634
 20
0.559227
 30
0.000000
  0
VERTEX
  8
LAYER-1
 10
3.648040
 20
0.559227
 30
0.000000
  0
SEQEND
  8
LAYER-1
  0
POLYLINE
  8
LAYER-1
 66
  1
 70
  0
 62
  0
 10
3.648040
 20
0.634210
 30
0.000000
  0
VERTEX
  8
LAYER-1
 10
3.648040
 20
0.634210
 30
0.000000
  0
VERTEX
  8
LAYER-1
 10
3.683636
 20
0.634210
 30
0.000000
  0
SEQEND
  8
LAYER-1
  0
POLYLINE
  8
LAYER-1
 66
  1
 70
  0
 62
  0
 10
3.648040
 20
1.480892
 30
0.000000
  0
VERTEX
  8
LAYER-1
 10
3.648040
 20
1.480892
 30
0.000000
  0
VERTEX
  8
LAYER-1
 10
3.683636
 20
1.480892
 30
0.000000
  0
SEQEND
  8
LAYER-1
  0
POLYLINE
  8
LAYER-1
 66
  1
 70
  0
 62
  0
 10
3.648040
 20
2.318780
 30
0.000000
  0
VERTEX
  8
LAYER-1
 10
3.648040
 20
2.318780
 30
0.000000
  0
VERTEX
  8
LAYER-1
 10
3.683636
 20
2.318780
 30
0.000000
  0
SEQEND
  8
LAYER-1
  0
POLYLINE
  8
LAYER-1
 66
  1
 70
  0
 62
  0
 10
3.648040
 20
3.168384
 30
0.000000
  0
VERTEX
  8
LAYER-1
 10
3.648040
 20
3.168384
 30
0.000000
  0
VERTEX
  8
LAYER-1
 10
3.683636
 20
3.168384
 30
0.000000
  0
SEQEND
  8
LAYER-1
  0
POLYLINE
  8
LAYER-1
 66
  1
 70
  0
 62
  0
 10
3.683636
 20
4.010669
 30
0.000000
  0
VERTEX
  8
LAYER-1
 10
3.683636
 20
4.010669
 30
0.000000
  0
VERTEX
  8
LAYER-1
 10
3.648040
 20
4.010669
 30
0.000000
  0
SEQEND
  8
LAYER-1
  0
POLYLINE
  8
LAYER-1
 66
  1
 70
  0
 62
  0
 10
3.647862
 20
4.861670
 30
0.000000
  0
VERTEX
  8
LAYER-1
 10
3.647862
 20
4.861670
 30
0.000000
  0
VERTEX
  8
LAYER-1
 10
3.683457
 20
4.861670
 30
0.000000
  0
SEQEND
  8
LAYER-1
  0
POLYLINE
  8
LAYER-1
 66
  1
 70
  0
 62
  0
 10
3.647862
 20
5.705419
 30
0.000000
  0
VERTEX
  8
LAYER-1
 10
3.647862
 20
5.705419
 30
0.000000
  0
VERTEX
  8
LAYER-1
 10
3.683457
 20
5.705419
 30
0.000000
  0
SEQEND
  8
LAYER-1
  0
POLYLINE
  8
LAYER-1
 66
  1
 70
  1
 62
  0
  0
VERTEX
  8
LAYER-1
 10
3.636176
 20
0.357080
 30
0.000000
  0
VERTEX
  8
LAYER-1
 10
3.691051
 20
0.357080
 30
0.000000
  0
VERTEX
  8
LAYER-1
 10
3.691051
 20
0.351221
 30
0.000000
  0
VERTEX
  8
LAYER-1
 10
3.636176
 20
0.351221
 30
0.000000
  0
SEQEND
  8
LAYER-1
  0
POLYLINE
  8
LAYER-1
 66
  1
 70
  1
 62
  0
  0
VERTEX
  8
LAYER-1
 10
3.682567
 20
7.423871
 30
0.000000
  0
VERTEX
  8
LAYER-1
 10
3.852240
 20
7.423871
 30
0.000000
  0
VERTEX
  8
LAYER-1
 10
3.852240
 20
0.356888
 30
0.000000
  0
VERTEX
  8
LAYER-1
 10
3.682567
 20
0.356888
 30
0.000000
  0
SEQEND
  8
LAYER-1
  0
POLYLINE
  8
LAYER-1
 66
  1
 70
  1
 62
  0
  0
VERTEX
  8
LAYER-1
 10
5.380062
 20
7.423871
 30
0.000000
  0
VERTEX
  8
LAYER-1
 10
5.704693
 20
7.423871
 30
0.000000
  0
VERTEX
  8
LAYER-1
 10
5.704693
 20
7.153871
 30
0.000000
  0
VERTEX
  8
LAYER-1
 10
5.380062
 20
7.153871
 30
0.000000
  0
SEQEND
  8
LAYER-1
  0
POLYLINE
  8
LAYER-1
 66
  1
 70
  1
 62
  0
  0
VERTEX
  8
LAYER-1
 10
4.969999
 20
7.423871
 30
0.000000
  0
VERTEX
  8
LAYER-1
 10
5.294631
 20
7.423871
 30
0.000000
  0
VERTEX
  8
LAYER-1
 10
5.294631
 20
7.153871
 30
0.000000
  0
VERTEX
  8
LAYER-1
 10
4.969999
 20
7.153871
 30
0.000000
  0
SEQEND
  8
LAYER-1
  0
POLYLINE
  8
LAYER-1
 66
  1
 70
  1
 62
  0
  0
VERTEX
  8
LAYER-1
 10
4.559937
 20
7.423871
 30
0.000000
  0
VERTEX
  8
LAYER-1
 10
4.884569
 20
7.423871
 30
0.000000
  0
VERTEX
  8
LAYER-1
 10
4.884569
 20
7.153871
 30
0.000000
  0
VERTEX
  8
LAYER-1
 10
4.559937
 20
7.153871
 30
0.000000
  0
SEQEND
  8
LAYER-1
  0
POLYLINE
  8
LAYER-1
 66
  1
 70
  1
 62
  0
  0
VERTEX
  8
LAYER-1
 10
4.149875
 20
7.423871
 30
0.000000
  0
VERTEX
  8
LAYER-1
 10
4.474506
 20
7.423871
 30
0.000000
  0
VERTEX
  8
LAYER-1
 10
4.474506
 20
7.153871
 30
0.000000
  0
VERTEX
  8
LAYER-1
 10
4.149875
 20
7.153871
 30
0.000000
  0
SEQEND
  8
LAYER-1
  0
POLYLINE
  8
LAYER-1
 66
  1
 70
  0
 62
  0
 10
4.737678
 20
7.423945
 30
0.000000
  0
VERTEX
  8
LAYER-1
 10
4.737678
 20
7.423945
 30
0.000000
  0
VERTEX
  8
LAYER-1
 10
4.737678
 20
7.154415
 30
0.000000
  0
SEQEND
  8
LAYER-1
  0
POLYLINE
  8
LAYER-1
 66
  1
 70
  0
 62
  0
 10
4.700601
 20
7.423945
 30
0.000000
  0
VERTEX
  8
LAYER-1
 10
4.700601
 20
7.423945
 30
0.000000
  0
VERTEX
  8
LAYER-1
 10
4.700601
 20
7.154415
 30
0.000000
  0
SEQEND
  8
LAYER-1
  0
POLYLINE
  8
LAYER-1
 66
  1
 70
  0
 62
  0
 10
5.559345
 20
7.423945
 30
0.000000
  0
VERTEX
  8
LAYER-1
 10
5.559345
 20
7.423945
 30
0.000000
  0
VERTEX
  8
LAYER-1
 10
5.559345
 20
7.154415
 30
0.000000
  0
SEQEND
  8
LAYER-1
  0
POLYLINE
  8
LAYER-1
 66
  1
 70
  0
 62
  0
 10
5.520785
 20
7.423945
 30
0.000000
  0
VERTEX
  8
LAYER-1
 10
5.520785
 20
7.423945
 30
0.000000
  0
VERTEX
  8
LAYER-1
 10
5.520785
 20
7.154415
 30
0.000000
  0
SEQEND
  8
LAYER-1
  0
POLYLINE
  8
LAYER-1
 66
  1
 70
  1
 62
  0
  0
VERTEX
  8
LAYER-1
 10
5.308692
 20
7.429806
 30
0.000000
  0
VERTEX
  8
LAYER-1
 10
5.363567
 20
7.429806
 30
0.000000
  0
VERTEX
  8
LAYER-1
 10
5.363567
 20
7.423945
 30
0.000000
  0
VERTEX
  8
LAYER-1
 10
5.308692
 20
7.423945
 30
0.000000
  0
SEQEND
  8
LAYER-1
  0
POLYLINE
  8
LAYER-1
 66
  1
 70
  0
 62
  0
 10
5.354672
 20
7.356563
 30
0.000000
  0
VERTEX
  8
LAYER-1
 10
5.354672
 20
7.356563
 30
0.000000
  0
VERTEX
  8
LAYER-1
 10
5.319074
 20
7.356563
 30
0.000000
  0
SEQEND
  8
LAYER-1
  0
POLYLINE
  8
LAYER-1
 66
  1
 70
  0
 62
  0
 10
5.354672
 20
7.227658
 30
0.000000
  0
VERTEX
  8
LAYER-1
 10
5.354672
 20
7.227658
 30
0.000000
  0
VERTEX
  8
LAYER-1
 10
5.319074
 20
7.227658
 30
0.000000
  0
SEQEND
  8
LAYER-1
  0
POLYLINE
  8
LAYER-1
 66
  1
 70
  1
 62
  0
  0
VERTEX
  8
LAYER-1
 10
4.491474
 20
7.429806
 30
0.000000
  0
VERTEX
  8
LAYER-1
 10
4.546352
 20
7.429806
 30
0.000000
  0
VERTEX
  8
LAYER-1
 10
4.546352
 20
7.423945
 30
0.000000
  0
VERTEX
  8
LAYER-1
 10
4.491474
 20
7.423945
 30
0.000000
  0
SEQEND
  8
LAYER-1
  0
POLYLINE
  8
LAYER-1
 66
  1
 70
  0
 62
  0
 10
4.535967
 20
7.356563
 30
0.000000
  0
VERTEX
  8
LAYER-1
 10
4.535967
 20
7.356563
 30
0.000000
  0
VERTEX
  8
LAYER-1
 10
4.500376
 20
7.356563
 30
0.000000
  0
SEQEND
  8
LAYER-1
  0
POLYLINE
  8
LAYER-1
 66
  1
 70
  0
 62
  0
 10
4.535967
 20
7.227656
 30
0.000000
  0
VERTEX
  8
LAYER-1
 10
4.535967
 20
7.227656
 30
0.000000
  0
VERTEX
  8
LAYER-1
 10
4.500376
 20
7.227656
 30
0.000000
  0
SEQEND
  8
LAYER-1
  0
POLYLINE
  8
LAYER-1
 66
  1
 70
  0
 62
  0
 10
5.704693
 20
7.423871
 30
0.000000
  0
VERTEX
  8
LAYER-1
 10
5.704693
 20
7.423871
 30
0.000000
  0
VERTEX
  8
LAYER-1
 10
5.704693
 20
0.357080
 30
0.000000
  0
SEQEND
  8
LAYER-1
  0
POLYLINE
  8
LAYER-1
 66
  1
 70
  0
 62
  0
 10
5.380062
 20
7.423871
 30
0.000000
  0
VERTEX
  8
LAYER-1
 10
5.380062
 20
7.423871
 30
0.000000
  0
VERTEX
  8
LAYER-1
 10
5.380062
 20
0.357080
 30
0.000000
  0
SEQEND
  8
LAYER-1
  0
POLYLINE
  8
LAYER-1
 66
  1
 70
  0
 62
  0
 10
5.294631
 20
7.423871
 30
0.000000
  0
VERTEX
  8
LAYER-1
 10
5.294631
 20
7.423871
 30
0.000000
  0
VERTEX
  8
LAYER-1
 10
5.294631
 20
0.357080
 30
0.000000
  0
SEQEND
  8
LAYER-1
  0
POLYLINE
  8
LAYER-1
 66
  1
 70
  0
 62
  0
 10
5.354672
 20
7.423871
 30
0.000000
  0
VERTEX
  8
LAYER-1
 10
5.354672
 20
7.423871
 30
0.000000
  0
VERTEX
  8
LAYER-1
 10
5.354672
 20
0.357080
 30
0.000000
  0
SEQEND
  8
LAYER-1
  0
POLYLINE
  8
LAYER-1
 66
  1
 70
  0
 62
  0
 10
5.319074
 20
7.423871
 30
0.000000
  0
VERTEX
  8
LAYER-1
 10
5.319074
 20
7.423871
 30
0.000000
  0
VERTEX
  8
LAYER-1
 10
5.319074
 20
0.357080
 30
0.000000
  0
SEQEND
  8
LAYER-1
  0
POLYLINE
  8
LAYER-1
 66
  1
 70
  1
 62
  0
  0
VERTEX
  8
LAYER-1
 10
5.310176
 20
0.357156
 30
0.000000
  0
VERTEX
  8
LAYER-1
 10
5.365052
 20
0.357156
 30
0.000000
  0
VERTEX
  8
LAYER-1
 10
5.365052
 20
0.351296
 30
0.000000
  0
VERTEX
  8
LAYER-1
 10
5.310176
 20
0.351296
 30
0.000000
  0
SEQEND
  8
LAYER-1
  0
POLYLINE
  8
LAYER-1
 66
  1
 70
  0
 62
  0
 10
5.319074
 20
0.430398
 30
0.000000
  0
VERTEX
  8
LAYER-1
 10
5.319074
 20
0.430398
 30
0.000000
  0
VERTEX
  8
LAYER-1
 10
5.354672
 20
0.430398
 30
0.000000
  0
SEQEND
  8
LAYER-1
  0
POLYLINE
  8
LAYER-1
 66
  1
 70
  0
 62
  0
 10
5.319074
 20
0.559304
 30
0.000000
  0
VERTEX
  8
LAYER-1
 10
5.319074
 20
0.559304
 30
0.000000
  0
VERTEX
  8
LAYER-1
 10
5.354672
 20
0.559304
 30
0.000000
  0
SEQEND
  8
LAYER-1
  0
POLYLINE
  8
LAYER-1
 66
  1
 70
  0
 62
  0
 10
5.354672
 20
0.634288
 30
0.000000
  0
VERTEX
  8
LAYER-1
 10
5.354672
 20
0.634288
 30
0.000000
  0
VERTEX
  8
LAYER-1
 10
5.319074
 20
0.634288
 30
0.000000
  0
SEQEND
  8
LAYER-1
  0
POLYLINE
  8
LAYER-1
 66
  1
 70
  0
 62
  0
 10
5.354672
 20
1.480968
 30
0.000000
  0
VERTEX
  8
LAYER-1
 10
5.354672
 20
1.480968
 30
0.000000
  0
VERTEX
  8
LAYER-1
 10
5.319074
 20
1.480968
 30
0.000000
  0
SEQEND
  8
LAYER-1
  0
POLYLINE
  8
LAYER-1
 66
  1
 70
  0
 62
  0
 10
5.354672
 20
2.318857
 30
0.000000
  0
VERTEX
  8
LAYER-1
 10
5.354672
 20
2.318857
 30
0.000000
  0
VERTEX
  8
LAYER-1
 10
5.319074
 20
2.318857
 30
0.000000
  0
SEQEND
  8
LAYER-1
  0
POLYLINE
  8
LAYER-1
 66
  1
 70
  0
 62
  0
 10
5.354672
 20
3.168460
 30
0.000000
  0
VERTEX
  8
LAYER-1
 10
5.354672
 20
3.168460
 30
0.000000
  0
VERTEX
  8
LAYER-1
 10
5.319074
 20
3.168460
 30
0.000000
  0
SEQEND
  8
LAYER-1
  0
POLYLINE
  8
LAYER-1
 66
  1
 70
  0
 62
  0
 10
5.319074
 20
4.010746
 30
0.000000
  0
VERTEX
  8
LAYER-1
 10
5.319074
 20
4.010746
 30
0.000000
  0
VERTEX
  8
LAYER-1
 10
5.354672
 20
4.010746
 30
0.000000
  0
SEQEND
  8
LAYER-1
  0
POLYLINE
  8
LAYER-1
 66
  1
 70
  1
 62
  0
  0
VERTEX
  8
LAYER-1
 10
5.380002
 20
3.854994
 30
0.000000
  0
VERTEX
  8
LAYER-1
 10
5.704629
 20
3.854994
 30
0.000000
  0
VERTEX
  8
LAYER-1
 10
5.704629
 20
0.688405
 30
0.000000
  0
VERTEX
  8
LAYER-1
 10
5.380002
 20
0.688405
 30
0.000000
  0
SEQEND
  8
LAYER-1
  0
POLYLINE
  8
LAYER-1
 66
  1
 70
  1
 62
  0
  0
VERTEX
  8
LAYER-1
 10
4.970002
 20
3.854994
 30
0.000000
  0
VERTEX
  8
LAYER-1
 10
5.294629
 20
3.854994
 30
0.000000
  0
VERTEX
  8
LAYER-1
 10
5.294629
 20
0.688405
 30
0.000000
  0
VERTEX
  8
LAYER-1
 10
4.970002
 20
0.688405
 30
0.000000
  0
SEQEND
  8
LAYER-1
  0
POLYLINE
  8
LAYER-1
 66
  1
 70
  1
 62
  0
  0
VERTEX
  8
LAYER-1
 10
4.560002
 20
3.854994
 30
0.000000
  0
VERTEX
  8
LAYER-1
 10
4.884629
 20
3.854994
 30
0.000000
  0
VERTEX
  8
LAYER-1
 10
4.884629
 20
0.688405
 30
0.000000
  0
VERTEX
  8
LAYER-1
 10
4.560002
 20
0.688405
 30
0.000000
  0
SEQEND
  8
LAYER-1
  0
POLYLINE
  8
LAYER-1
 66
  1
 70
  1
 62
  0
  0
VERTEX
  8
LAYER-1
 10
4.150003
 20
3.854994
 30
0.000000
  0
VERTEX
  8
LAYER-1
 10
4.474628
 20
3.854994
 30
0.000000
  0
VERTEX
  8
LAYER-1
 10
4.474628
 20
0.688405
 30
0.000000
  0
VERTEX
  8
LAYER-1
 10
4.150003
 20
0.688405
 30
0.000000
  0
SEQEND
  8
LAYER-1
  0
LINE
  8
LAYER-1
 62
  0
 10
4.622463
 20
4.307436
 30
0.000000
 11
4.758552
 21
4.545171
 31
0.000000
  0
LINE
  8
LAYER-1
 62
  0
 10
4.679099
 20
4.275016
 30
0.000000
 11
4.815188
 21
4.512750
 31
0.000000
  0
LINE
  8
LAYER-1
 62
  0
 10
5.032525
 20
4.307436
 30
0.000000
 11
5.168614
 21
4.545171
 31
0.000000
  0
LINE
  8
LAYER-1
 62
  0
 10
5.089161
 20
4.275016
 30
0.000000
 11
5.225250
 21
4.512750
 31
0.000000
  0
LINE
  8
LAYER-1
 62
  0
 10
5.442591
 20
4.307436
 30
0.000000
 11
5.578677
 21
4.545171
 31
0.000000
  0
LINE
  8
LAYER-1
 62
  0
 10
5.499227
 20
4.275016
 30
0.000000
 11
5.635312
 21
4.512751
 31
0.000000
  0
LINE
  8
LAYER-1
 62
  0
 10
4.217562
 20
4.307436
 30
0.000000
 11
4.353653
 21
4.545171
 31
0.000000
  0
LINE
  8
LAYER-1
 62
  0
 10
4.274196
 20
4.275016
 30
0.000000
 11
4.410288
 21
4.512750
 31
0.000000
  0
LINE
  8
LAYER-1
 62
  0
 10
4.620621
 20
3.277610
 30
0.000000
 11
4.756710
 21
3.515346
 31
0.000000
  0
LINE
  8
LAYER-1
 62
  0
 10
4.677257
 20
3.245190
 30
0.000000
 11
4.813345
 21
3.482926
 31
0.000000
  0
LINE
  8
LAYER-1
 62
  0
 10
5.030683
 20
3.277610
 30
0.000000
 11
5.166772
 21
3.515346
 31
0.000000
  0
LINE
  8
LAYER-1
 62
  0
 10
5.087319
 20
3.245190
 30
0.000000
 11
5.223407
 21
3.482926
 31
0.000000
  0
LINE
  8
LAYER-1
 62
  0
 10
5.440745
 20
3.277610
 30
0.000000
 11
5.576834
 21
3.515347
 31
0.000000
  0
LINE
  8
LAYER-1
 62
  0
 10
5.497381
 20
3.245189
 30
0.000000
 11
5.633470
 21
3.482926
 31
0.000000
  0
LINE
  8
LAYER-1
 62
  0
 10
4.215719
 20
3.277612
 30
0.000000
 11
4.351807
 21
3.515347
 31
0.000000
  0
LINE
  8
LAYER-1
 62
  0
 10
4.272354
 20
3.245192
 30
0.000000
 11
4.408443
 21
3.482927
 31
0.000000
  0
LINE
  8
LAYER-1
 62
  0
 10
4.622105
 20
6.694551
 30
0.000000
 11
4.758190
 21
6.932285
 31
0.000000
  0
LINE
  8
LAYER-1
 62
  0
 10
4.678741
 20
6.662131
 30
0.000000
 11
4.814826
 21
6.899865
 31
0.000000
  0
LINE
  8
LAYER-1
 62
  0
 10
5.032168
 20
6.694551
 30
0.000000
 11
5.168253
 21
6.932285
 31
0.000000
  0
LINE
  8
LAYER-1
 62
  0
 10
5.088804
 20
6.662131
 30
0.000000
 11
5.224889
 21
6.899865
 31
0.000000
  0
LINE
  8
LAYER-1
 62
  0
 10
5.442229
 20
6.694551
 30
0.000000
 11
5.578315
 21
6.932285
 31
0.000000
  0
LINE
  8
LAYER-1
 62
  0
 10
5.498865
 20
6.662131
 30
0.000000
 11
5.634951
 21
6.899865
 31
0.000000
  0
LINE
  8
LAYER-1
 62
  0
 10
4.217203
 20
6.694551
 30
0.000000
 11
4.353292
 21
6.932285
 31
0.000000
  0
LINE
  8
LAYER-1
 62
  0
 10
4.273839
 20
6.662131
 30
0.000000
 11
4.409928
 21
6.899865
 31
0.000000
  0
LINE
  8
LAYER-1
 62
  0
 10
4.620260
 20
1.053762
 30
0.000000
 11
4.756348
 21
1.291496
 31
0.000000
  0
LINE
  8
LAYER-1
 62
  0
 10
4.676896
 20
1.021341
 30
0.000000
 11
4.812984
 21
1.259076
 31
0.000000
  0
LINE
  8
LAYER-1
 62
  0
 10
5.030321
 20
1.053762
 30
0.000000
 11
5.166410
 21
1.291496
 31
0.000000
  0
LINE
  8
LAYER-1
 62
  0
 10
5.086957
 20
1.021341
 30
0.000000
 11
5.223046
 21
1.259076
 31
0.000000
  0
LINE
  8
LAYER-1
 62
  0
 10
5.440385
 20
1.053762
 30
0.000000
 11
5.576476
 21
1.291496
 31
0.000000
  0
LINE
  8
LAYER-1
 62
  0
 10
5.497020
 20
1.021341
 30
0.000000
 11
5.633111
 21
1.259076
 31
0.000000
  0
LINE
  8
LAYER-1
 62
  0
 10
4.215360
 20
1.053762
 30
0.000000
 11
4.351446
 21
1.291496
 31
0.000000
  0
LINE
  8
LAYER-1
 62
  0
 10
4.271996
 20
1.021341
 30
0.000000
 11
4.408081
 21
1.259076
 31
0.000000
  0
POLYLINE
  8
LAYER-1
 66
  1
 70
  0
 62
  0
 10
4.969999
 20
7.423871
 30
0.000000
  0
VERTEX
  8
LAYER-1
 10
4.969999
 20
7.423871
 30
0.000000
  0
VERTEX
  8
LAYER-1
 10
4.969999
 20
0.357080
 30
0.000000
  0
SEQEND
  8
LAYER-1
  0
POLYLINE
  8
LAYER-1
 66
  1
 70
  0
 62
  0
 10
4.884569
 20
7.423871
 30
0.000000
  0
VERTEX
  8
LAYER-1
 10
4.884569
 20
7.423871
 30
0.000000
  0
VERTEX
  8
LAYER-1
 10
4.884569
 20
0.357080
 30
0.000000
  0
SEQEND
  8
LAYER-1
  0
POLYLINE
  8
LAYER-1
 66
  1
 70
  0
 62
  0
 10
4.559937
 20
7.423871
 30
0.000000
  0
VERTEX
  8
LAYER-1
 10
4.559937
 20
7.423871
 30
0.000000
  0
VERTEX
  8
LAYER-1
 10
4.559937
 20
0.357080
 30
0.000000
  0
SEQEND
  8
LAYER-1
  0
POLYLINE
  8
LAYER-1
 66
  1
 70
  0
 62
  0
 10
4.474506
 20
7.423871
 30
0.000000
  0
VERTEX
  8
LAYER-1
 10
4.474506
 20
7.423871
 30
0.000000
  0
VERTEX
  8
LAYER-1
 10
4.474506
 20
0.357080
 30
0.000000
  0
SEQEND
  8
LAYER-1
  0
POLYLINE
  8
LAYER-1
 66
  1
 70
  0
 62
  0
 10
4.149875
 20
7.423871
 30
0.000000
  0
VERTEX
  8
LAYER-1
 10
4.149875
 20
7.423871
 30
0.000000
  0
VERTEX
  8
LAYER-1
 10
4.149875
 20
0.357080
 30
0.000000
  0
SEQEND
  8
LAYER-1
  0
POLYLINE
  8
LAYER-1
 66
  1
 70
  0
 62
  0
 10
4.067292
 20
7.423871
 30
0.000000
  0
VERTEX
  8
LAYER-1
 10
4.067292
 20
7.423871
 30
0.000000
  0
VERTEX
  8
LAYER-1
 10
4.067292
 20
0.357080
 30
0.000000
  0
SEQEND
  8
LAYER-1
  0
POLYLINE
  8
LAYER-1
 66
  1
 70
  0
 62
  0
 10
5.740291
 20
7.423871
 30
0.000000
  0
VERTEX
  8
LAYER-1
 10
5.740291
 20
7.423871
 30
0.000000
  0
VERTEX
  8
LAYER-1
 10
5.740291
 20
0.357080
 30
0.000000
  0
SEQEND
  8
LAYER-1
  0
POLYLINE
  8
LAYER-1
 66
  1
 70
  0
 62
  0
 10
4.927524
 20
7.423871
 30
0.000000
  0
VERTEX
  8
LAYER-1
 10
4.927524
 20
7.423871
 30
0.000000
  0
VERTEX
  8
LAYER-1
 10
4.927524
 20
0.357080
 30
0.000000
  0
SEQEND
  8
LAYER-1
  0
POLYLINE
  8
LAYER-1
 66
  1
 70
  0
 62
  0
 10
4.535967
 20
7.423871
 30
0.000000
  0
VERTEX
  8
LAYER-1
 10
4.535967
 20
7.423871
 30
0.000000
  0
VERTEX
  8
LAYER-1
 10
4.535967
 20
0.357080
 30
0.000000
  0
SEQEND
  8
LAYER-1
  0
POLYLINE
  8
LAYER-1
 66
  1
 70
  0
 62
  0
 10
4.500376
 20
7.423871
 30
0.000000
  0
VERTEX
  8
LAYER-1
 10
4.500376
 20
7.423871
 30
0.000000
  0
VERTEX
  8
LAYER-1
 10
4.500376
 20
0.357080
 30
0.000000
  0
SEQEND
  8
LAYER-1
  0
POLYLINE
  8
LAYER-1
 66
  1
 70
  0
 62
  0
 10
4.108818
 20
7.423871
 30
0.000000
  0
VERTEX
  8
LAYER-1
 10
4.108818
 20
7.423871
 30
0.000000
  0
VERTEX
  8
LAYER-1
 10
4.108818
 20
0.357080
 30
0.000000
  0
SEQEND
  8
LAYER-1
  0
POLYLINE
  8
LAYER-1
 66
  1
 70
  1
 62
  0
  0
VERTEX
  8
LAYER-1
 10
4.492959
 20
0.357156
 30
0.000000
  0
VERTEX
  8
LAYER-1
 10
4.547837
 20
0.357156
 30
0.000000
  0
VERTEX
  8
LAYER-1
 10
4.547837
 20
0.351296
 30
0.000000
  0
VERTEX
  8
LAYER-1
 10
4.492959
 20
0.351296
 30
0.000000
  0
SEQEND
  8
LAYER-1
  0
POLYLINE
  8
LAYER-1
 66
  1
 70
  0
 62
  0
 10
4.500376
 20
0.430398
 30
0.000000
  0
VERTEX
  8
LAYER-1
 10
4.500376
 20
0.430398
 30
0.000000
  0
VERTEX
  8
LAYER-1
 10
4.535967
 20
0.430398
 30
0.000000
  0
SEQEND
  8
LAYER-1
  0
POLYLINE
  8
LAYER-1
 66
  1
 70
  0
 62
  0
 10
4.500376
 20
0.559304
 30
0.000000
  0
VERTEX
  8
LAYER-1
 10
4.500376
 20
0.559304
 30
0.000000
  0
VERTEX
  8
LAYER-1
 10
4.535967
 20
0.559304
 30
0.000000
  0
SEQEND
  8
LAYER-1
  0
POLYLINE
  8
LAYER-1
 66
  1
 70
  0
 62
  0
 10
4.535967
 20
0.634288
 30
0.000000
  0
VERTEX
  8
LAYER-1
 10
4.535967
 20
0.634288
 30
0.000000
  0
VERTEX
  8
LAYER-1
 10
4.500376
 20
0.634288
 30
0.000000
  0
SEQEND
  8
LAYER-1
  0
POLYLINE
  8
LAYER-1
 66
  1
 70
  0
 62
  0
 10
4.535967
 20
1.480968
 30
0.000000
  0
VERTEX
  8
LAYER-1
 10
4.535967
 20
1.480968
 30
0.000000
  0
VERTEX
  8
LAYER-1
 10
4.500376
 20
1.480968
 30
0.000000
  0
SEQEND
  8
LAYER-1
  0
POLYLINE
  8
LAYER-1
 66
  1
 70
  0
 62
  0
 10
4.535967
 20
2.318857
 30
0.000000
  0
VERTEX
  8
LAYER-1
 10
4.535967
 20
2.318857
 30
0.000000
  0
VERTEX
  8
LAYER-1
 10
4.500376
 20
2.318857
 30
0.000000
  0
SEQEND
  8
LAYER-1
  0
POLYLINE
  8
LAYER-1
 66
  1
 70
  0
 62
  0
 10
4.535967
 20
3.168460
 30
0.000000
  0
VERTEX
  8
LAYER-1
 10
4.535967
 20
3.168460
 30
0.000000
  0
VERTEX
  8
LAYER-1
 10
4.500376
 20
3.168460
 30
0.000000
  0
SEQEND
  8
LAYER-1
  0
POLYLINE
  8
LAYER-1
 66
  1
 70
  0
 62
  0
 10
4.500376
 20
4.010746
 30
0.000000
  0
VERTEX
  8
LAYER-1
 10
4.500376
 20
4.010746
 30
0.000000
  0
VERTEX
  8
LAYER-1
 10
4.535967
 20
4.010746
 30
0.000000
  0
SEQEND
  8
LAYER-1
  0
POLYLINE
  8
LAYER-1
 66
  1
 70
  0
 62
  0
 10
5.354019
 20
4.861746
 30
0.000000
  0
VERTEX
  8
LAYER-1
 10
5.354019
 20
4.861746
 30
0.000000
  0
VERTEX
  8
LAYER-1
 10
5.318424
 20
4.861746
 30
0.000000
  0
SEQEND
  8
LAYER-1
  0
POLYLINE
  8
LAYER-1
 66
  1
 70
  0
 62
  0
 10
5.354019
 20
5.705495
 30
0.000000
  0
VERTEX
  8
LAYER-1
 10
5.354019
 20
5.705495
 30
0.000000
  0
VERTEX
  8
LAYER-1
 10
5.318424
 20
5.705495
 30
0.000000
  0
SEQEND
  8
LAYER-1
  0
POLYLINE
  8
LAYER-1
 66
  1
 70
  0
 62
  0
 10
4.536144
 20
4.861746
 30
0.000000
  0
VERTEX
  8
LAYER-1
 10
4.536144
 20
4.861746
 30
0.000000
  0
VERTEX
  8
LAYER-1
 10
4.500553
 20
4.861746
 30
0.000000
  0
SEQEND
  8
LAYER-1
  0
POLYLINE
  8
LAYER-1
 66
  1
 70
  0
 62
  0
 10
4.536144
 20
5.705495
 30
0.000000
  0
VERTEX
  8
LAYER-1
 10
4.536144
 20
5.705495
 30
0.000000
  0
VERTEX
  8
LAYER-1
 10
4.500553
 20
5.705495
 30
0.000000
  0
SEQEND
  8
LAYER-1
  0
POLYLINE
  8
LAYER-1
 66
  1
 70
  1
 62
  0
  0
VERTEX
  8
LAYER-1
 10
3.843335
 20
7.429730
 30
0.000000
  0
VERTEX
  8
LAYER-1
 10
3.898213
 20
7.429730
 30
0.000000
  0
VERTEX
  8
LAYER-1
 10
3.898213
 20
7.423869
 30
0.000000
  0
VERTEX
  8
LAYER-1
 10
3.843335
 20
7.423869
 30
0.000000
  0
SEQEND
  8
LAYER-1
  0
POLYLINE
  8
LAYER-1
 66
  1
 70
  0
 62
  0
 10
3.887828
 20
7.356486
 30
0.000000
  0
VERTEX
  8
LAYER-1
 10
3.887828
 20
7.356486
 30
0.000000
  0
VERTEX
  8
LAYER-1
 10
3.852236
 20
7.356486
 30
0.000000
  0
SEQEND
  8
LAYER-1
  0
POLYLINE
  8
LAYER-1
 66
  1
 70
  0
 62
  0
 10
3.887828
 20
7.227580
 30
0.000000
  0
VERTEX
  8
LAYER-1
 10
3.887828
 20
7.227580
 30
0.000000
  0
VERTEX
  8
LAYER-1
 10
3.852236
 20
7.227580
 30
0.000000
  0
SEQEND
  8
LAYER-1
  0
POLYLINE
  8
LAYER-1
 66
  1
 70
  0
 62
  0
 10
3.887828
 20
7.423794
 30
0.000000
  0
VERTEX
  8
LAYER-1
 10
3.887828
 20
7.423794
 30
0.000000
  0
VERTEX
  8
LAYER-1
 10
3.887828
 20
0.357080
 30
0.000000
  0
SEQEND
  8
LAYER-1
  0
POLYLINE
  8
LAYER-1
 66
  1
 70
  0
 62
  0
 10
3.852236
 20
0.430321
 30
0.000000
  0
VERTEX
  8
LAYER-1
 10
3.852236
 20
0.430321
 30
0.000000
  0
VERTEX
  8
LAYER-1
 10
3.887828
 20
0.430321
 30
0.000000
  0
SEQEND
  8
LAYER-1
  0
POLYLINE
  8
LAYER-1
 66
  1
 70
  0
 62
  0
 10
3.852236
 20
0.559227
 30
0.000000
  0
VERTEX
  8
LAYER-1
 10
3.852236
 20
0.559227
 30
0.000000
  0
VERTEX
  8
LAYER-1
 10
3.887828
 20
0.559227
 30
0.000000
  0
SEQEND
  8
LAYER-1
  0
POLYLINE
  8
LAYER-1
 66
  1
 70
  0
 62
  0
 10
3.887828
 20
0.634210
 30
0.000000
  0
VERTEX
  8
LAYER-1
 10
3.887828
 20
0.634210
 30
0.000000
  0
VERTEX
  8
LAYER-1
 10
3.852233
 20
0.634210
 30
0.000000
  0
SEQEND
  8
LAYER-1
  0
POLYLINE
  8
LAYER-1
 66
  1
 70
  0
 62
  0
 10
3.887828
 20
1.480892
 30
0.000000
  0
VERTEX
  8
LAYER-1
 10
3.887828
 20
1.480892
 30
0.000000
  0
VERTEX
  8
LAYER-1
 10
3.852233
 20
1.480892
 30
0.000000
  0
SEQEND
  8
LAYER-1
  0
POLYLINE
  8
LAYER-1
 66
  1
 70
  0
 62
  0
 10
3.887828
 20
2.318780
 30
0.000000
  0
VERTEX
  8
LAYER-1
 10
3.887828
 20
2.318780
 30
0.000000
  0
VERTEX
  8
LAYER-1
 10
3.852233
 20
2.318780
 30
0.000000
  0
SEQEND
  8
LAYER-1
  0
POLYLINE
  8
LAYER-1
 66
  1
 70
  0
 62
  0
 10
3.887828
 20
3.168384
 30
0.000000
  0
VERTEX
  8
LAYER-1
 10
3.887828
 20
3.168384
 30
0.000000
  0
VERTEX
  8
LAYER-1
 10
3.852233
 20
3.168384
 30
0.000000
  0
SEQEND
  8
LAYER-1
  0
POLYLINE
  8
LAYER-1
 66
  1
 70
  0
 62
  0
 10
3.852233
 20
4.010669
 30
0.000000
  0
VERTEX
  8
LAYER-1
 10
3.852233
 20
4.010669
 30
0.000000
  0
VERTEX
  8
LAYER-1
 10
3.887828
 20
4.010669
 30
0.000000
  0
SEQEND
  8
LAYER-1
  0
POLYLINE
  8
LAYER-1
 66
  1
 70
  0
 62
  0
 10
3.888006
 20
4.861670
 30
0.000000
  0
VERTEX
  8
LAYER-1
 10
3.888006
 20
4.861670
 30
0.000000
  0
VERTEX
  8
LAYER-1
 10
3.852414
 20
4.861670
 30
0.000000
  0
SEQEND
  8
LAYER-1
  0
POLYLINE
  8
LAYER-1
 66
  1
 70
  0
 62
  0
 10
3.888006
 20
5.705419
 30
0.000000
  0
VERTEX
  8
LAYER-1
 10
3.888006
 20
5.705419
 30
0.000000
  0
VERTEX
  8
LAYER-1
 10
3.852414
 20
5.705419
 30
0.000000
  0
SEQEND
  8
LAYER-1
  0
POLYLINE
  8
LAYER-1
 66
  1
 70
  1
 62
  0
  0
VERTEX
  8
LAYER-1
 10
3.844819
 20
0.357080
 30
0.000000
  0
VERTEX
  8
LAYER-1
 10
3.899691
 20
0.357080
 30
0.000000
  0
VERTEX
  8
LAYER-1
 10
3.899691
 20
0.351221
 30
0.000000
  0
VERTEX
  8
LAYER-1
 10
3.844819
 20
0.351221
 30
0.000000
  0
SEQEND
  8
LAYER-1
  0
TEXT
  8
LAYER-1
 62
  7
 10
1.976523
 20
8.794503
 30
0.000000
 40
0.177083
  1
Elevazione modello Impact 1/16
 72
  5
 11
5.434856
 21
8.794503
 31
0.000000
  0
LINE
  8
LAYER-1
 62
  0
 10
6.768189
 20
7.489504
 30
0.000000
 11
0.771661
 21
7.489504
 31
0.000000
  0
LINE
  8
LAYER-1
 62
  0
 10
6.768189
 20
7.599503
 30
0.000000
 11
0.771661
 21
7.599503
 31
0.000000
  0
LINE
  8
LAYER-1
 62
  0
 10
1.331559
 20
7.491009
 30
0.000000
 11
1.331559
 21
7.600988
 31
0.000000
  0
LINE
  8
LAYER-1
 62
  0
 10
1.272190
 20
7.491009
 30
0.000000
 11
1.456559
 21
7.491009
 31
0.000000
  0
LINE
  8
LAYER-1
 62
  0
 10
1.272530
 20
7.600988
 30
0.000000
 11
1.456559
 21
7.600988
 31
0.000000
  0
LINE
  8
LAYER-1
 62
  0
 10
1.331559
 20
7.600988
 30
0.000000
 11
1.331559
 21
7.235474
 31
0.000000
  0
LINE
  8
LAYER-1
 62
  0
 10
1.302096
 20
7.520472
 30
0.000000
 11
1.361021
 21
7.461546
 31
0.000000
  0
LINE
  8
LAYER-1
 62
  0
 10
1.302096
 20
7.630451
 30
0.000000
 11
1.361021
 21
7.571525
 31
0.000000
  0
TEXT
  8
LAYER-1
 62
  0
 10
1.319698
 20
7.107058
 30
0.000000
 40
0.125000
  1
 
  0
TEXT
  8
LAYER-1
 62
  0
 10
1.073745
 20
6.863948
 30
0.000000
 40
0.125000
  1
1-
 72
  5
 11
1.295967
 21
6.863948
 31
0.000000
  0
TEXT
  8
LAYER-1
 62
  0
 10
1.295967
 20
6.863948
 30
0.000000
 40
0.104167
  1
9/16
 72
  5
 11
1.657078
 21
6.863948
 31
0.000000
  0
TEXT
  8
LAYER-1
 62
  0
 10
1.657078
 20
6.863948
 30
0.000000
 40
0.125000
  1
"
 72
  5
 11
1.782078
 21
6.863948
 31
0.000000
  0
TEXT
  8
LAYER-1
 62
  0
 10
1.073745
 20
6.669503
 30
0.000000
 40
0.125000
  1
40mm
 72
  5
 11
1.643189
 21
6.669503
 31
0.000000
  0
TEXT
  8
LAYER-1
 62
  0
 10
2.476523
 20
7.919503
 30
0.000000
 40
0.125000
  1
Montante
 72
  5
 11
3.240411
 21
7.919503
 31
0.000000
  0
TEXT
  8
LAYER-1
 62
  0
 10
2.476523
 20
7.725059
 30
0.000000
 40
0.125000
  1
intermedio #4
 72
  5
 11
3.601523
 21
7.725059
 31
0.000000
  0
POLYLINE
  8
LAYER-1
 66
  1
 70
  0
 62
  0
 10
3.519057
 20
7.756307
 30
0.000000
  0
VERTEX
  8
LAYER-1
 10
3.519057
 20
7.756307
 30
0.000000
  0
VERTEX
  8
LAYER-1
 10
3.760133
 20
7.441212
 30
0.000000
  0
SEQEND
  8
LAYER-1
  0
POLYLINE
  8
LAYER-1
 66
  1
 70
  1
 62
  0
  0
VERTEX
  8
LAYER-1
 10
3.772095
 20
7.425578
 30
0.000000
  0
VERTEX
  8
LAYER-1
 10
3.696805
 20
7.455413
 30
0.000000
  0
VERTEX
  8
LAYER-1
 10
3.729897
 20
7.480732
 30
0.000000
  0
VERTEX
  8
LAYER-1
 10
3.762989
 20
7.506050
 30
0.000000
  0
VERTEX
  8
LAYER-1
 10
3.772095
 20
7.425578
 30
0.000000
  0
SEQEND
  8
LAYER-1
  0
POLYLINE
  8
LAYER-1
 66
  1
 70
  0
 62
  0
 40
0.027778
 41
0.027778
 10
3.684575
 20
0.251111
 30
0.000000
  0
VERTEX
  8
LAYER-1
 10
3.684575
 20
0.251111
 30
0.000000
  0
VERTEX
  8
LAYER-1
 10
0.775134
 20
0.251111
 30
0.000000
  0
SEQEND
  8
LAYER-1
  0
POLYLINE
  8
LAYER-1
 66
  1
 70
  0
 62
  0
 40
0.027778
 41
0.027778
 10
3.778192
 20
0.251111
 30
0.000000
  0
VERTEX
  8
LAYER-1
 10
3.778192
 20
0.251111
 30
0.000000
  0
VERTEX
  8
LAYER-1
 10
6.740412
 20
0.251111
 30
0.000000
  0
SEQEND
  8
LAYER-1
  0
POLYLINE
  8
LAYER-1
 66
  1
 70
  1
 62
  0
  0
VERTEX
  8
LAYER-1
 10
0.031375
 20
3.551135
 30
0.000000
  0
VERTEX
  8
LAYER-1
 10
0.145716
 20
3.551135
 30
0.000000
  0
VERTEX
  8
LAYER-1
 10
0.145716
 20
3.447481
 30
0.000000
  0
VERTEX
  8
LAYER-1
 10
0.031375
 20
3.447481
 30
0.000000
  0
SEQEND
  8
LAYER-1
  0
POLYLINE
  8
LAYER-1
 66
  1
 70
  1
 62
  0
  0
VERTEX
  8
LAYER-1
 10
0.179704
 20
3.551135
 30
0.000000
  0
VERTEX
  8
LAYER-1
 10
0.294334
 20
3.551135
 30
0.000000
  0
VERTEX
  8
LAYER-1
 10
0.294334
 20
3.447481
 30
0.000000
  0
VERTEX
  8
LAYER-1
 10
0.179704
 20
3.447481
 30
0.000000
  0
SEQEND
  8
LAYER-1
  0
POLYLINE
  8
LAYER-1
 66
  1
 70
  1
 62
  0
  0
VERTEX
  8
LAYER-1
 10
0.328176
 20
3.551135
 30
0.000000
  0
VERTEX
  8
LAYER-1
 10
0.442515
 20
3.551135
 30
0.000000
  0
VERTEX
  8
LAYER-1
 10
0.442515
 20
3.447481
 30
0.000000
  0
VERTEX
  8
LAYER-1
 10
0.328176
 20
3.447481
 30
0.000000
  0
SEQEND
  8
LAYER-1
  0
POLYLINE
  8
LAYER-1
 66
  1
 70
  1
 62
  0
  0
VERTEX
  8
LAYER-1
 10
0.476503
 20
3.551135
 30
0.000000
  0
VERTEX
  8
LAYER-1
 10
0.590987
 20
3.551135
 30
0.000000
  0
VERTEX
  8
LAYER-1
 10
0.590987
 20
3.447481
 30
0.000000
  0
VERTEX
  8
LAYER-1
 10
0.476503
 20
3.447481
 30
0.000000
  0
SEQEND
  8
LAYER-1
  0
POLYLINE
  8
LAYER-1
 66
  1
 70
  1
 62
  0
  0
VERTEX
  8
LAYER-1
 10
0.624975
 20
3.551135
 30
0.000000
  0
VERTEX
  8
LAYER-1
 10
0.739314
 20
3.551135
 30
0.000000
  0
VERTEX
  8
LAYER-1
 10
0.739314
 20
3.447481
 30
0.000000
  0
VERTEX
  8
LAYER-1
 10
0.624975
 20
3.447481
 30
0.000000
  0
SEQEND
  8
LAYER-1
  0
POLYLINE
  8
LAYER-1
 66
  1
 70
  1
 62
  0
  0
VERTEX
  8
LAYER-1
 10
0.773447
 20
3.551135
 30
0.000000
  0
VERTEX
  8
LAYER-1
 10
0.887788
 20
3.551135
 30
0.000000
  0
VERTEX
  8
LAYER-1
 10
0.887788
 20
3.447481
 30
0.000000
  0
VERTEX
  8
LAYER-1
 10
0.773447
 20
3.447481
 30
0.000000
  0
SEQEND
  8
LAYER-1
  0
POLYLINE
  8
LAYER-1
 66
  1
 70
  1
 62
  0
  0
VERTEX
  8
LAYER-1
 10
0.921774
 20
3.551135
 30
0.000000
  0
VERTEX
  8
LAYER-1
 10
1.036261
 20
3.551135
 30
0.000000
  0
VERTEX
  8
LAYER-1
 10
1.036261
 20
3.447481
 30
0.000000
  0
VERTEX
  8
LAYER-1
 10
0.921774
 20
3.447481
 30
0.000000
  0
SEQEND
  8
LAYER-1
  0
POLYLINE
  8
LAYER-1
 66
  1
 70
  1
 62
  0
  0
VERTEX
  8
LAYER-1
 10
0.031297
 20
5.146317
 30
0.000000
  0
VERTEX
  8
LAYER-1
 10
0.145784
 20
5.146317
 30
0.000000
  0
VERTEX
  8
LAYER-1
 10
0.145784
 20
5.042663
 30
0.000000
  0
VERTEX
  8
LAYER-1
 10
0.031297
 20
5.042663
 30
0.000000
  0
SEQEND
  8
LAYER-1
  0
POLYLINE
  8
LAYER-1
 66
  1
 70
  1
 62
  0
  0
VERTEX
  8
LAYER-1
 10
0.179623
 20
5.146317
 30
0.000000
  0
VERTEX
  8
LAYER-1
 10
0.294257
 20
5.146317
 30
0.000000
  0
VERTEX
  8
LAYER-1
 10
0.294257
 20
5.042663
 30
0.000000
  0
VERTEX
  8
LAYER-1
 10
0.179623
 20
5.042663
 30
0.000000
  0
SEQEND
  8
LAYER-1
  0
POLYLINE
  8
LAYER-1
 66
  1
 70
  1
 62
  0
  0
VERTEX
  8
LAYER-1
 10
0.328096
 20
5.146317
 30
0.000000
  0
VERTEX
  8
LAYER-1
 10
0.442583
 20
5.146317
 30
0.000000
  0
VERTEX
  8
LAYER-1
 10
0.442583
 20
5.042663
 30
0.000000
  0
VERTEX
  8
LAYER-1
 10
0.328096
 20
5.042663
 30
0.000000
  0
SEQEND
  8
LAYER-1
  0
POLYLINE
  8
LAYER-1
 66
  1
 70
  1
 62
  0
  0
VERTEX
  8
LAYER-1
 10
0.476422
 20
5.146317
 30
0.000000
  0
VERTEX
  8
LAYER-1
 10
0.590910
 20
5.146317
 30
0.000000
  0
VERTEX
  8
LAYER-1
 10
0.590910
 20
5.042663
 30
0.000000
  0
VERTEX
  8
LAYER-1
 10
0.476422
 20
5.042663
 30
0.000000
  0
SEQEND
  8
LAYER-1
  0
POLYLINE
  8
LAYER-1
 66
  1
 70
  1
 62
  0
  0
VERTEX
  8
LAYER-1
 10
0.623452
 20
5.146317
 30
0.000000
  0
VERTEX
  8
LAYER-1
 10
0.739382
 20
5.146317
 30
0.000000
  0
VERTEX
  8
LAYER-1
 10
0.739382
 20
5.042663
 30
0.000000
  0
VERTEX
  8
LAYER-1
 10
0.623452
 20
5.042663
 30
0.000000
  0
SEQEND
  8
LAYER-1
  0
POLYLINE
  8
LAYER-1
 66
  1
 70
  1
 62
  0
  0
VERTEX
  8
LAYER-1
 10
0.773369
 20
5.146317
 30
0.000000
  0
VERTEX
  8
LAYER-1
 10
0.887854
 20
5.146317
 30
0.000000
  0
VERTEX
  8
LAYER-1
 10
0.887854
 20
5.042663
 30
0.000000
  0
VERTEX
  8
LAYER-1
 10
0.773369
 20
5.042663
 30
0.000000
  0
SEQEND
  8
LAYER-1
  0
POLYLINE
  8
LAYER-1
 66
  1
 70
  1
 62
  0
  0
VERTEX
  8
LAYER-1
 10
0.921047
 20
5.146317
 30
0.000000
  0
VERTEX
  8
LAYER-1
 10
1.036183
 20
5.146317
 30
0.000000
  0
VERTEX
  8
LAYER-1
 10
1.036183
 20
5.042663
 30
0.000000
  0
VERTEX
  8
LAYER-1
 10
0.921047
 20
5.042663
 30
0.000000
  0
SEQEND
  8
LAYER-1
  0
POLYLINE
  8
LAYER-1
 66
  1
 70
  1
 62
  0
  0
VERTEX
  8
LAYER-1
 10
0.294257
 20
5.146317
 30
0.000000
  0
VERTEX
  8
LAYER-1
 10
0.310707
 20
5.146317
 30
0.000000
  0
VERTEX
  8
LAYER-1
 10
0.310707
 20
3.447525
 30
0.000000
  0
VERTEX
  8
LAYER-1
 10
0.294257
 20
3.447525
 30
0.000000
  0
SEQEND
  8
LAYER-1
  0
POLYLINE
  8
LAYER-1
 66
  1
 70
  1
 62
  0
  0
VERTEX
  8
LAYER-1
 10
0.310707
 20
5.146317
 30
0.000000
  0
VERTEX
  8
LAYER-1
 10
0.328176
 20
5.146317
 30
0.000000
  0
VERTEX
  8
LAYER-1
 10
0.328176
 20
3.447481
 30
0.000000
  0
VERTEX
  8
LAYER-1
 10
0.310707
 20
3.447481
 30
0.000000
  0
SEQEND
  8
LAYER-1
  0
POLYLINE
  8
LAYER-1
 66
  1
 70
  1
 62
  0
  0
VERTEX
  8
LAYER-1
 10
0.442583
 20
5.146317
 30
0.000000
  0
VERTEX
  8
LAYER-1
 10
0.459116
 20
5.146317
 30
0.000000
  0
VERTEX
  8
LAYER-1
 10
0.459116
 20
3.447525
 30
0.000000
  0
VERTEX
  8
LAYER-1
 10
0.442583
 20
3.447525
 30
0.000000
  0
SEQEND
  8
LAYER-1
  0
POLYLINE
  8
LAYER-1
 66
  1
 70
  1
 62
  0
  0
VERTEX
  8
LAYER-1
 10
0.459116
 20
5.146317
 30
0.000000
  0
VERTEX
  8
LAYER-1
 10
0.476503
 20
5.146317
 30
0.000000
  0
VERTEX
  8
LAYER-1
 10
0.476503
 20
3.447481
 30
0.000000
  0
VERTEX
  8
LAYER-1
 10
0.459116
 20
3.447481
 30
0.000000
  0
SEQEND
  8
LAYER-1
  0
POLYLINE
  8
LAYER-1
 66
  1
 70
  1
 62
  0
  0
VERTEX
  8
LAYER-1
 10
0.590910
 20
5.146317
 30
0.000000
  0
VERTEX
  8
LAYER-1
 10
0.607526
 20
5.146317
 30
0.000000
  0
VERTEX
  8
LAYER-1
 10
0.607526
 20
3.447525
 30
0.000000
  0
VERTEX
  8
LAYER-1
 10
0.590910
 20
3.447525
 30
0.000000
  0
SEQEND
  8
LAYER-1
  0
POLYLINE
  8
LAYER-1
 66
  1
 70
  1
 62
  0
  0
VERTEX
  8
LAYER-1
 10
0.607526
 20
5.146317
 30
0.000000
  0
VERTEX
  8
LAYER-1
 10
0.624975
 20
5.146317
 30
0.000000
  0
VERTEX
  8
LAYER-1
 10
0.624975
 20
3.447481
 30
0.000000
  0
VERTEX
  8
LAYER-1
 10
0.607526
 20
3.447481
 30
0.000000
  0
SEQEND
  8
LAYER-1
  0
POLYLINE
  8
LAYER-1
 66
  1
 70
  1
 62
  0
  0
VERTEX
  8
LAYER-1
 10
0.739382
 20
5.146317
 30
0.000000
  0
VERTEX
  8
LAYER-1
 10
0.755934
 20
5.146317
 30
0.000000
  0
VERTEX
  8
LAYER-1
 10
0.755934
 20
3.447525
 30
0.000000
  0
VERTEX
  8
LAYER-1
 10
0.739382
 20
3.447525
 30
0.000000
  0
SEQEND
  8
LAYER-1
  0
POLYLINE
  8
LAYER-1
 66
  1
 70
  1
 62
  0
  0
VERTEX
  8
LAYER-1
 10
0.755934
 20
5.146317
 30
0.000000
  0
VERTEX
  8
LAYER-1
 10
0.773447
 20
5.146317
 30
0.000000
  0
VERTEX
  8
LAYER-1
 10
0.773447
 20
3.447481
 30
0.000000
  0
VERTEX
  8
LAYER-1
 10
0.755934
 20
3.447481
 30
0.000000
  0
SEQEND
  8
LAYER-1
  0
POLYLINE
  8
LAYER-1
 66
  1
 70
  1
 62
  0
  0
VERTEX
  8
LAYER-1
 10
0.887854
 20
5.146317
 30
0.000000
  0
VERTEX
  8
LAYER-1
 10
0.904344
 20
5.146317
 30
0.000000
  0
VERTEX
  8
LAYER-1
 10
0.904344
 20
3.447525
 30
0.000000
  0
VERTEX
  8
LAYER-1
 10
0.887854
 20
3.447525
 30
0.000000
  0
SEQEND
  8
LAYER-1
  0
POLYLINE
  8
LAYER-1
 66
  1
 70
  1
 62
  0
  0
VERTEX
  8
LAYER-1
 10
0.904344
 20
5.146317
 30
0.000000
  0
VERTEX
  8
LAYER-1
 10
0.921774
 20
5.146317
 30
0.000000
  0
VERTEX
  8
LAYER-1
 10
0.921774
 20
3.447481
 30
0.000000
  0
VERTEX
  8
LAYER-1
 10
0.904344
 20
3.447481
 30
0.000000
  0
SEQEND
  8
LAYER-1
  0
POLYLINE
  8
LAYER-1
 66
  1
 70
  1
 62
  0
  0
VERTEX
  8
LAYER-1
 10
0.145784
 20
5.146317
 30
0.000000
  0
VERTEX
  8
LAYER-1
 10
0.162300
 20
5.146317
 30
0.000000
  0
VERTEX
  8
LAYER-1
 10
0.162300
 20
3.447525
 30
0.000000
  0
VERTEX
  8
LAYER-1
 10
0.145784
 20
3.447525
 30
0.000000
  0
SEQEND
  8
LAYER-1
  0
POLYLINE
  8
LAYER-1
 66
  1
 70
  1
 62
  0
  0
VERTEX
  8
LAYER-1
 10
0.162300
 20
5.146317
 30
0.000000
  0
VERTEX
  8
LAYER-1
 10
0.179704
 20
5.146317
 30
0.000000
  0
VERTEX
  8
LAYER-1
 10
0.179704
 20
3.447481
 30
0.000000
  0
VERTEX
  8
LAYER-1
 10
0.162300
 20
3.447481
 30
0.000000
  0
SEQEND
  8
LAYER-1
  0
LINE
  8
LAYER-1
 62
  0
 10
0.049162
 20
4.391995
 30
0.000000
 11
0.111328
 21
4.524745
 31
0.000000
  0
LINE
  8
LAYER-1
 62
  0
 10
0.070970
 20
4.381783
 30
0.000000
 11
0.133135
 21
4.514532
 31
0.000000
  0
LINE
  8
LAYER-1
 62
  0
 10
0.049162
 20
4.841342
 30
0.000000
 11
0.111328
 21
4.974089
 31
0.000000
  0
LINE
  8
LAYER-1
 62
  0
 10
0.070970
 20
4.831130
 30
0.000000
 11
0.133135
 21
4.963877
 31
0.000000
  0
LINE
  8
LAYER-1
 62
  0
 10
0.197572
 20
4.391995
 30
0.000000
 11
0.259738
 21
4.524745
 31
0.000000
  0
LINE
  8
LAYER-1
 62
  0
 10
0.219380
 20
4.381783
 30
0.000000
 11
0.281545
 21
4.514532
 31
0.000000
  0
LINE
  8
LAYER-1
 62
  0
 10
0.197572
 20
4.841342
 30
0.000000
 11
0.259738
 21
4.974089
 31
0.000000
  0
LINE
  8
LAYER-1
 62
  0
 10
0.219380
 20
4.831130
 30
0.000000
 11
0.281545
 21
4.963877
 31
0.000000
  0
LINE
  8
LAYER-1
 62
  0
 10
0.345979
 20
4.391995
 30
0.000000
 11
0.408145
 21
4.524745
 31
0.000000
  0
LINE
  8
LAYER-1
 62
  0
 10
0.367786
 20
4.381783
 30
0.000000
 11
0.429953
 21
4.514532
 31
0.000000
  0
LINE
  8
LAYER-1
 62
  0
 10
0.345979
 20
4.841342
 30
0.000000
 11
0.408145
 21
4.974089
 31
0.000000
  0
LINE
  8
LAYER-1
 62
  0
 10
0.367786
 20
4.831130
 30
0.000000
 11
0.429953
 21
4.963877
 31
0.000000
  0
LINE
  8
LAYER-1
 62
  0
 10
0.494388
 20
4.391995
 30
0.000000
 11
0.556554
 21
4.524745
 31
0.000000
  0
LINE
  8
LAYER-1
 62
  0
 10
0.516196
 20
4.381783
 30
0.000000
 11
0.578361
 21
4.514532
 31
0.000000
  0
LINE
  8
LAYER-1
 62
  0
 10
0.494388
 20
4.841342
 30
0.000000
 11
0.556554
 21
4.974089
 31
0.000000
  0
LINE
  8
LAYER-1
 62
  0
 10
0.516196
 20
4.831130
 30
0.000000
 11
0.578361
 21
4.963877
 31
0.000000
  0
LINE
  8
LAYER-1
 62
  0
 10
0.642797
 20
4.391995
 30
0.000000
 11
0.704964
 21
4.524745
 31
0.000000
  0
LINE
  8
LAYER-1
 62
  0
 10
0.664605
 20
4.381783
 30
0.000000
 11
0.726771
 21
4.514532
 31
0.000000
  0
LINE
  8
LAYER-1
 62
  0
 10
0.642797
 20
4.841342
 30
0.000000
 11
0.704964
 21
4.974089
 31
0.000000
  0
LINE
  8
LAYER-1
 62
  0
 10
0.664605
 20
4.831130
 30
0.000000
 11
0.726771
 21
4.963877
 31
0.000000
  0
LINE
  8
LAYER-1
 62
  0
 10
0.791207
 20
4.391995
 30
0.000000
 11
0.853372
 21
4.524745
 31
0.000000
  0
LINE
  8
LAYER-1
 62
  0
 10
0.813014
 20
4.381783
 30
0.000000
 11
0.875180
 21
4.514532
 31
0.000000
  0
LINE
  8
LAYER-1
 62
  0
 10
0.791207
 20
4.841342
 30
0.000000
 11
0.853372
 21
4.974089
 31
0.000000
  0
LINE
  8
LAYER-1
 62
  0
 10
0.813014
 20
4.831130
 30
0.000000
 11
0.875180
 21
4.963877
 31
0.000000
  0
LINE
  8
LAYER-1
 62
  0
 10
0.939615
 20
4.391995
 30
0.000000
 11
1.001780
 21
4.524745
 31
0.000000
  0
LINE
  8
LAYER-1
 62
  0
 10
0.961422
 20
4.381783
 30
0.000000
 11
1.023587
 21
4.514532
 31
0.000000
  0
LINE
  8
LAYER-1
 62
  0
 10
0.939615
 20
4.841342
 30
0.000000
 11
1.001780
 21
4.974089
 31
0.000000
  0
LINE
  8
LAYER-1
 62
  0
 10
0.961422
 20
4.831130
 30
0.000000
 11
1.023587
 21
4.963877
 31
0.000000
  0
LINE
  8
LAYER-1
 62
  0
 10
0.049162
 20
4.066114
 30
0.000000
 11
0.111328
 21
4.198861
 31
0.000000
  0
LINE
  8
LAYER-1
 62
  0
 10
0.070970
 20
4.055901
 30
0.000000
 11
0.133135
 21
4.188649
 31
0.000000
  0
LINE
  8
LAYER-1
 62
  0
 10
0.046770
 20
3.631077
 30
0.000000
 11
0.108938
 21
3.763827
 31
0.000000
  0
LINE
  8
LAYER-1
 62
  0
 10
0.068577
 20
3.620864
 30
0.000000
 11
0.130745
 21
3.753614
 31
0.000000
  0
LINE
  8
LAYER-1
 62
  0
 10
0.197572
 20
4.066114
 30
0.000000
 11
0.259738
 21
4.198861
 31
0.000000
  0
LINE
  8
LAYER-1
 62
  0
 10
0.219380
 20
4.055901
 30
0.000000
 11
0.281545
 21
4.188649
 31
0.000000
  0
LINE
  8
LAYER-1
 62
  0
 10
0.195181
 20
3.631077
 30
0.000000
 11
0.257345
 21
3.763827
 31
0.000000
  0
LINE
  8
LAYER-1
 62
  0
 10
0.216988
 20
3.620864
 30
0.000000
 11
0.279153
 21
3.753614
 31
0.000000
  0
LINE
  8
LAYER-1
 62
  0
 10
0.345979
 20
4.066114
 30
0.000000
 11
0.408145
 21
4.198861
 31
0.000000
  0
LINE
  8
LAYER-1
 62
  0
 10
0.367786
 20
4.055901
 30
0.000000
 11
0.429953
 21
4.188649
 31
0.000000
  0
LINE
  8
LAYER-1
 62
  0
 10
0.343588
 20
3.631077
 30
0.000000
 11
0.405756
 21
3.763827
 31
0.000000
  0
LINE
  8
LAYER-1
 62
  0
 10
0.365396
 20
3.620864
 30
0.000000
 11
0.427563
 21
3.753614
 31
0.000000
  0
LINE
  8
LAYER-1
 62
  0
 10
0.494388
 20
4.066114
 30
0.000000
 11
0.556554
 21
4.198861
 31
0.000000
  0
LINE
  8
LAYER-1
 62
  0
 10
0.516196
 20
4.055901
 30
0.000000
 11
0.578361
 21
4.188649
 31
0.000000
  0
LINE
  8
LAYER-1
 62
  0
 10
0.491998
 20
3.631077
 30
0.000000
 11
0.554164
 21
3.763827
 31
0.000000
  0
LINE
  8
LAYER-1
 62
  0
 10
0.513805
 20
3.620864
 30
0.000000
 11
0.575971
 21
3.753614
 31
0.000000
  0
LINE
  8
LAYER-1
 62
  0
 10
0.642797
 20
4.066114
 30
0.000000
 11
0.704964
 21
4.198861
 31
0.000000
  0
LINE
  8
LAYER-1
 62
  0
 10
0.664605
 20
4.055901
 30
0.000000
 11
0.726771
 21
4.188649
 31
0.000000
  0
LINE
  8
LAYER-1
 62
  0
 10
0.640407
 20
3.631077
 30
0.000000
 11
0.702572
 21
3.763827
 31
0.000000
  0
LINE
  8
LAYER-1
 62
  0
 10
0.662214
 20
3.620864
 30
0.000000
 11
0.724380
 21
3.753614
 31
0.000000
  0
LINE
  8
LAYER-1
 62
  0
 10
0.791207
 20
4.066114
 30
0.000000
 11
0.853372
 21
4.198861
 31
0.000000
  0
LINE
  8
LAYER-1
 62
  0
 10
0.813014
 20
4.055901
 30
0.000000
 11
0.875180
 21
4.188649
 31
0.000000
  0
LINE
  8
LAYER-1
 62
  0
 10
0.788814
 20
3.631077
 30
0.000000
 11
0.850980
 21
3.763827
 31
0.000000
  0
LINE
  8
LAYER-1
 62
  0
 10
0.810622
 20
3.620864
 30
0.000000
 11
0.872787
 21
3.753614
 31
0.000000
  0
LINE
  8
LAYER-1
 62
  0
 10
0.939615
 20
4.066114
 30
0.000000
 11
1.001780
 21
4.198861
 31
0.000000
  0
LINE
  8
LAYER-1
 62
  0
 10
0.961422
 20
4.055901
 30
0.000000
 11
1.023587
 21
4.188649
 31
0.000000
  0
LINE
  8
LAYER-1
 62
  0
 10
0.937225
 20
3.631077
 30
0.000000
 11
0.999390
 21
3.763827
 31
0.000000
  0
LINE
  8
LAYER-1
 62
  0
 10
0.959032
 20
3.620864
 30
0.000000
 11
1.021198
 21
3.753614
 31
0.000000
  0
TEXT
  8
LAYER-1
 62
  0
 10
0.212634
 20
3.238948
 30
0.000000
 40
0.104167
  1
IMPACT
 72
  5
 11
0.809856
 21
3.238948
 31
0.000000
  0
TEXT
  8
LAYER-1
 62
  0
 10
0.809856
 20
3.238948
 30
0.000000
 40
0.104167
  1
 
 72
  5
 11
0.920967
 21
3.238948
 31
0.000000
  0
TEXT
  8
LAYER-1
 62
  0
 10
0.143189
 20
3.155614
 30
0.000000
 40
0.083333
  1
(Policarbonato)
 72
  5
 11
0.934856
 21
3.155614
 31
0.000000
  0
POLYLINE
  8
LAYER-1
 66
  1
 70
  1
 62
  0
  0
VERTEX
  8
LAYER-1
 10
0.013889
 20
5.146317
 30
0.000000
  0
VERTEX
  8
LAYER-1
 10
0.031375
 20
5.146317
 30
0.000000
  0
VERTEX
  8
LAYER-1
 10
0.031375
 20
3.447481
 30
0.000000
  0
VERTEX
  8
LAYER-1
 10
0.013889
 20
3.447481
 30
0.000000
  0
SEQEND
  8
LAYER-1
  0
POLYLINE
  8
LAYER-1
 66
  1
 70
  1
 62
  0
  0
VERTEX
  8
LAYER-1
 10
1.036183
 20
5.146317
 30
0.000000
  0
VERTEX
  8
LAYER-1
 10
1.053577
 20
5.146317
 30
0.000000
  0
VERTEX
  8
LAYER-1
 10
1.053577
 20
3.447525
 30
0.000000
  0
VERTEX
  8
LAYER-1
 10
1.036183
 20
3.447525
 30
0.000000
  0
SEQEND
  8
LAYER-1
  0
POLYLINE
  8
LAYER-1
 66
  1
 70
  1
 62
  0
  0
VERTEX
  8
LAYER-1
 10
0.031297
 20
4.308392
 30
0.000000
  0
VERTEX
  8
LAYER-1
 10
0.145564
 20
4.308392
 30
0.000000
  0
VERTEX
  8
LAYER-1
 10
0.145564
 20
4.283611
 30
0.000000
  0
VERTEX
  8
LAYER-1
 10
0.031297
 20
4.283611
 30
0.000000
  0
SEQEND
  8
LAYER-1
  0
POLYLINE
  8
LAYER-1
 66
  1
 70
  1
 62
  0
  0
VERTEX
  8
LAYER-1
 10
0.179705
 20
4.308392
 30
0.000000
  0
VERTEX
  8
LAYER-1
 10
0.294769
 20
4.308392
 30
0.000000
  0
VERTEX
  8
LAYER-1
 10
0.294769
 20
4.283611
 30
0.000000
  0
VERTEX
  8
LAYER-1
 10
0.179705
 20
4.283611
 30
0.000000
  0
SEQEND
  8
LAYER-1
  0
POLYLINE
  8
LAYER-1
 66
  1
 70
  1
 62
  0
  0
VERTEX
  8
LAYER-1
 10
0.328115
 20
4.308392
 30
0.000000
  0
VERTEX
  8
LAYER-1
 10
0.442383
 20
4.308392
 30
0.000000
  0
VERTEX
  8
LAYER-1
 10
0.442383
 20
4.283611
 30
0.000000
  0
VERTEX
  8
LAYER-1
 10
0.328115
 20
4.283611
 30
0.000000
  0
SEQEND
  8
LAYER-1
  0
POLYLINE
  8
LAYER-1
 66
  1
 70
  1
 62
  0
  0
VERTEX
  8
LAYER-1
 10
0.476523
 20
4.308392
 30
0.000000
  0
VERTEX
  8
LAYER-1
 10
0.590791
 20
4.308392
 30
0.000000
  0
VERTEX
  8
LAYER-1
 10
0.590791
 20
4.283611
 30
0.000000
  0
VERTEX
  8
LAYER-1
 10
0.476523
 20
4.283611
 30
0.000000
  0
SEQEND
  8
LAYER-1
  0
POLYLINE
  8
LAYER-1
 66
  1
 70
  1
 62
  0
  0
VERTEX
  8
LAYER-1
 10
0.624934
 20
4.308392
 30
0.000000
  0
VERTEX
  8
LAYER-1
 10
0.739201
 20
4.308392
 30
0.000000
  0
VERTEX
  8
LAYER-1
 10
0.739201
 20
4.283611
 30
0.000000
  0
VERTEX
  8
LAYER-1
 10
0.624934
 20
4.283611
 30
0.000000
  0
SEQEND
  8
LAYER-1
  0
POLYLINE
  8
LAYER-1
 66
  1
 70
  1
 62
  0
  0
VERTEX
  8
LAYER-1
 10
0.773341
 20
4.308392
 30
0.000000
  0
VERTEX
  8
LAYER-1
 10
0.888406
 20
4.308392
 30
0.000000
  0
VERTEX
  8
LAYER-1
 10
0.888406
 20
4.283611
 30
0.000000
  0
VERTEX
  8
LAYER-1
 10
0.773341
 20
4.283611
 30
0.000000
  0
SEQEND
  8
LAYER-1
  0
POLYLINE
  8
LAYER-1
 66
  1
 70
  1
 62
  0
  0
VERTEX
  8
LAYER-1
 10
0.921750
 20
4.308392
 30
0.000000
  0
VERTEX
  8
LAYER-1
 10
1.036017
 20
4.308392
 30
0.000000
  0
VERTEX
  8
LAYER-1
 10
1.036017
 20
4.283611
 30
0.000000
  0
VERTEX
  8
LAYER-1
 10
0.921750
 20
4.283611
 30
0.000000
  0
SEQEND
  8
LAYER-1
  0
POLYLINE
  8
LAYER-1
 66
  1
 70
  0
 62
  7
 10
0.031375
 20
5.146317
 30
0.000000
  0
VERTEX
  8
LAYER-1
 10
0.031375
 20
5.146317
 30
0.000000
  0
VERTEX
  8
LAYER-1
 10
0.031375
 20
5.042663
 30
0.000000
  0
SEQEND
  8
LAYER-1
  0
POLYLINE
  8
LAYER-1
 66
  1
 70
  0
 62
  7
 10
0.145784
 20
5.146317
 30
0.000000
  0
VERTEX
  8
LAYER-1
 10
0.145784
 20
5.146317
 30
0.000000
  0
VERTEX
  8
LAYER-1
 10
0.145784
 20
5.042663
 30
0.000000
  0
SEQEND
  8
LAYER-1
  0
POLYLINE
  8
LAYER-1
 66
  1
 70
  0
 62
  7
 10
0.179704
 20
5.146317
 30
0.000000
  0
VERTEX
  8
LAYER-1
 10
0.179704
 20
5.146317
 30
0.000000
  0
VERTEX
  8
LAYER-1
 10
0.179704
 20
5.042663
 30
0.000000
  0
SEQEND
  8
LAYER-1
  0
POLYLINE
  8
LAYER-1
 66
  1
 70
  0
 62
  7
 10
0.294257
 20
5.146317
 30
0.000000
  0
VERTEX
  8
LAYER-1
 10
0.294257
 20
5.146317
 30
0.000000
  0
VERTEX
  8
LAYER-1
 10
0.294257
 20
5.042663
 30
0.000000
  0
SEQEND
  8
LAYER-1
  0
POLYLINE
  8
LAYER-1
 66
  1
 70
  0
 62
  7
 10
0.328176
 20
5.146317
 30
0.000000
  0
VERTEX
  8
LAYER-1
 10
0.328176
 20
5.146317
 30
0.000000
  0
VERTEX
  8
LAYER-1
 10
0.328176
 20
5.042663
 30
0.000000
  0
SEQEND
  8
LAYER-1
  0
POLYLINE
  8
LAYER-1
 66
  1
 70
  0
 62
  7
 10
0.442583
 20
5.146317
 30
0.000000
  0
VERTEX
  8
LAYER-1
 10
0.442583
 20
5.146317
 30
0.000000
  0
VERTEX
  8
LAYER-1
 10
0.442583
 20
5.042663
 30
0.000000
  0
SEQEND
  8
LAYER-1
  0
POLYLINE
  8
LAYER-1
 66
  1
 70
  0
 62
  7
 10
0.476503
 20
5.146317
 30
0.000000
  0
VERTEX
  8
LAYER-1
 10
0.476503
 20
5.146317
 30
0.000000
  0
VERTEX
  8
LAYER-1
 10
0.476503
 20
5.042663
 30
0.000000
  0
SEQEND
  8
LAYER-1
  0
POLYLINE
  8
LAYER-1
 66
  1
 70
  0
 62
  7
 10
0.590910
 20
5.146317
 30
0.000000
  0
VERTEX
  8
LAYER-1
 10
0.590910
 20
5.146317
 30
0.000000
  0
VERTEX
  8
LAYER-1
 10
0.590910
 20
5.042663
 30
0.000000
  0
SEQEND
  8
LAYER-1
  0
POLYLINE
  8
LAYER-1
 66
  1
 70
  0
 62
  7
 10
0.624975
 20
5.146317
 30
0.000000
  0
VERTEX
  8
LAYER-1
 10
0.624975
 20
5.146317
 30
0.000000
  0
VERTEX
  8
LAYER-1
 10
0.624975
 20
5.042663
 30
0.000000
  0
SEQEND
  8
LAYER-1
  0
POLYLINE
  8
LAYER-1
 66
  1
 70
  0
 62
  7
 10
0.739382
 20
5.146317
 30
0.000000
  0
VERTEX
  8
LAYER-1
 10
0.739382
 20
5.146317
 30
0.000000
  0
VERTEX
  8
LAYER-1
 10
0.739382
 20
5.042663
 30
0.000000
  0
SEQEND
  8
LAYER-1
  0
POLYLINE
  8
LAYER-1
 66
  1
 70
  0
 62
  7
 10
0.773447
 20
5.146317
 30
0.000000
  0
VERTEX
  8
LAYER-1
 10
0.773447
 20
5.146317
 30
0.000000
  0
VERTEX
  8
LAYER-1
 10
0.773447
 20
5.042663
 30
0.000000
  0
SEQEND
  8
LAYER-1
  0
POLYLINE
  8
LAYER-1
 66
  1
 70
  0
 62
  7
 10
0.887854
 20
5.146317
 30
0.000000
  0
VERTEX
  8
LAYER-1
 10
0.887854
 20
5.146317
 30
0.000000
  0
VERTEX
  8
LAYER-1
 10
0.887854
 20
5.042663
 30
0.000000
  0
SEQEND
  8
LAYER-1
  0
POLYLINE
  8
LAYER-1
 66
  1
 70
  0
 62
  7
 10
0.921047
 20
5.146317
 30
0.000000
  0
VERTEX
  8
LAYER-1
 10
0.921047
 20
5.146317
 30
0.000000
  0
VERTEX
  8
LAYER-1
 10
0.921047
 20
5.042663
 30
0.000000
  0
SEQEND
  8
LAYER-1
  0
POLYLINE
  8
LAYER-1
 66
  1
 70
  0
 62
  7
 10
1.036183
 20
5.146317
 30
0.000000
  0
VERTEX
  8
LAYER-1
 10
1.036183
 20
5.146317
 30
0.000000
  0
VERTEX
  8
LAYER-1
 10
1.036183
 20
5.042663
 30
0.000000
  0
SEQEND
  8
LAYER-1
  0
POLYLINE
  8
LAYER-1
 66
  1
 70
  0
 62
  7
 10
0.031297
 20
4.308392
 30
0.000000
  0
VERTEX
  8
LAYER-1
 10
0.031297
 20
4.308392
 30
0.000000
  0
VERTEX
  8
LAYER-1
 10
0.031297
 20
4.283611
 30
0.000000
  0
SEQEND
  8
LAYER-1
  0
POLYLINE
  8
LAYER-1
 66
  1
 70
  0
 62
  7
 10
0.145564
 20
4.308392
 30
0.000000
  0
VERTEX
  8
LAYER-1
 10
0.145564
 20
4.308392
 30
0.000000
  0
VERTEX
  8
LAYER-1
 10
0.145564
 20
4.283611
 30
0.000000
  0
SEQEND
  8
LAYER-1
  0
POLYLINE
  8
LAYER-1
 66
  1
 70
  0
 62
  7
 10
0.179705
 20
4.308392
 30
0.000000
  0
VERTEX
  8
LAYER-1
 10
0.179705
 20
4.308392
 30
0.000000
  0
VERTEX
  8
LAYER-1
 10
0.179705
 20
4.283611
 30
0.000000
  0
SEQEND
  8
LAYER-1
  0
POLYLINE
  8
LAYER-1
 66
  1
 70
  0
 62
  7
 10
0.294769
 20
4.308392
 30
0.000000
  0
VERTEX
  8
LAYER-1
 10
0.294769
 20
4.308392
 30
0.000000
  0
VERTEX
  8
LAYER-1
 10
0.294769
 20
4.283611
 30
0.000000
  0
SEQEND
  8
LAYER-1
  0
POLYLINE
  8
LAYER-1
 66
  1
 70
  0
 62
  7
 10
0.328115
 20
4.308392
 30
0.000000
  0
VERTEX
  8
LAYER-1
 10
0.328115
 20
4.308392
 30
0.000000
  0
VERTEX
  8
LAYER-1
 10
0.328115
 20
4.283611
 30
0.000000
  0
SEQEND
  8
LAYER-1
  0
POLYLINE
  8
LAYER-1
 66
  1
 70
  0
 62
  7
 10
0.442383
 20
4.308392
 30
0.000000
  0
VERTEX
  8
LAYER-1
 10
0.442383
 20
4.308392
 30
0.000000
  0
VERTEX
  8
LAYER-1
 10
0.442383
 20
4.283611
 30
0.000000
  0
SEQEND
  8
LAYER-1
  0
POLYLINE
  8
LAYER-1
 66
  1
 70
  0
 62
  7
 10
0.476523
 20
4.308392
 30
0.000000
  0
VERTEX
  8
LAYER-1
 10
0.476523
 20
4.308392
 30
0.000000
  0
VERTEX
  8
LAYER-1
 10
0.476523
 20
4.283611
 30
0.000000
  0
SEQEND
  8
LAYER-1
  0
POLYLINE
  8
LAYER-1
 66
  1
 70
  0
 62
  7
 10
0.590791
 20
4.308392
 30
0.000000
  0
VERTEX
  8
LAYER-1
 10
0.590791
 20
4.308392
 30
0.000000
  0
VERTEX
  8
LAYER-1
 10
0.590791
 20
4.283611
 30
0.000000
  0
SEQEND
  8
LAYER-1
  0
POLYLINE
  8
LAYER-1
 66
  1
 70
  0
 62
  7
 10
0.624934
 20
4.308392
 30
0.000000
  0
VERTEX
  8
LAYER-1
 10
0.624934
 20
4.308392
 30
0.000000
  0
VERTEX
  8
LAYER-1
 10
0.624934
 20
4.283611
 30
0.000000
  0
SEQEND
  8
LAYER-1
  0
POLYLINE
  8
LAYER-1
 66
  1
 70
  0
 62
  7
 10
0.739201
 20
4.308392
 30
0.000000
  0
VERTEX
  8
LAYER-1
 10
0.739201
 20
4.308392
 30
0.000000
  0
VERTEX
  8
LAYER-1
 10
0.739201
 20
4.283611
 30
0.000000
  0
SEQEND
  8
LAYER-1
  0
POLYLINE
  8
LAYER-1
 66
  1
 70
  0
 62
  7
 10
0.773341
 20
4.308392
 30
0.000000
  0
VERTEX
  8
LAYER-1
 10
0.773341
 20
4.308392
 30
0.000000
  0
VERTEX
  8
LAYER-1
 10
0.773341
 20
4.283611
 30
0.000000
  0
SEQEND
  8
LAYER-1
  0
POLYLINE
  8
LAYER-1
 66
  1
 70
  0
 62
  7
 10
0.888406
 20
4.308392
 30
0.000000
  0
VERTEX
  8
LAYER-1
 10
0.888406
 20
4.308392
 30
0.000000
  0
VERTEX
  8
LAYER-1
 10
0.888406
 20
4.283611
 30
0.000000
  0
SEQEND
  8
LAYER-1
  0
POLYLINE
  8
LAYER-1
 66
  1
 70
  0
 62
  7
 10
0.921750
 20
4.308392
 30
0.000000
  0
VERTEX
  8
LAYER-1
 10
0.921750
 20
4.308392
 30
0.000000
  0
VERTEX
  8
LAYER-1
 10
0.921750
 20
4.283611
 30
0.000000
  0
SEQEND
  8
LAYER-1
  0
POLYLINE
  8
LAYER-1
 66
  1
 70
  0
 62
  7
 10
1.036017
 20
4.308392
 30
0.000000
  0
VERTEX
  8
LAYER-1
 10
1.036017
 20
4.308392
 30
0.000000
  0
VERTEX
  8
LAYER-1
 10
1.036017
 20
4.283611
 30
0.000000
  0
SEQEND
  8
LAYER-1
  0
POLYLINE
  8
LAYER-1
 66
  1
 70
  0
 62
  7
 10
0.031375
 20
3.551135
 30
0.000000
  0
VERTEX
  8
LAYER-1
 10
0.031375
 20
3.551135
 30
0.000000
  0
VERTEX
  8
LAYER-1
 10
0.031375
 20
3.447481
 30
0.000000
  0
SEQEND
  8
LAYER-1
  0
POLYLINE
  8
LAYER-1
 66
  1
 70
  0
 62
  7
 10
0.145716
 20
3.551135
 30
0.000000
  0
VERTEX
  8
LAYER-1
 10
0.145716
 20
3.551135
 30
0.000000
  0
VERTEX
  8
LAYER-1
 10
0.145716
 20
3.447525
 30
0.000000
  0
SEQEND
  8
LAYER-1
  0
POLYLINE
  8
LAYER-1
 66
  1
 70
  0
 62
  7
 10
0.179704
 20
3.551135
 30
0.000000
  0
VERTEX
  8
LAYER-1
 10
0.179704
 20
3.551135
 30
0.000000
  0
VERTEX
  8
LAYER-1
 10
0.179704
 20
3.447481
 30
0.000000
  0
SEQEND
  8
LAYER-1
  0
POLYLINE
  8
LAYER-1
 66
  1
 70
  0
 62
  7
 10
0.294334
 20
3.551135
 30
0.000000
  0
VERTEX
  8
LAYER-1
 10
0.294334
 20
3.551135
 30
0.000000
  0
VERTEX
  8
LAYER-1
 10
0.294334
 20
3.447525
 30
0.000000
  0
SEQEND
  8
LAYER-1
  0
POLYLINE
  8
LAYER-1
 66
  1
 70
  0
 62
  7
 10
0.328176
 20
3.551135
 30
0.000000
  0
VERTEX
  8
LAYER-1
 10
0.328176
 20
3.551135
 30
0.000000
  0
VERTEX
  8
LAYER-1
 10
0.328176
 20
3.447803
 30
0.000000
  0
SEQEND
  8
LAYER-1
  0
POLYLINE
  8
LAYER-1
 66
  1
 70
  0
 62
  7
 10
0.442515
 20
3.551135
 30
0.000000
  0
VERTEX
  8
LAYER-1
 10
0.442515
 20
3.551135
 30
0.000000
  0
VERTEX
  8
LAYER-1
 10
0.442515
 20
3.447525
 30
0.000000
  0
SEQEND
  8
LAYER-1
  0
POLYLINE
  8
LAYER-1
 66
  1
 70
  0
 62
  7
 10
0.476503
 20
3.551135
 30
0.000000
  0
VERTEX
  8
LAYER-1
 10
0.476503
 20
3.551135
 30
0.000000
  0
VERTEX
  8
LAYER-1
 10
0.476503
 20
3.447481
 30
0.000000
  0
SEQEND
  8
LAYER-1
  0
POLYLINE
  8
LAYER-1
 66
  1
 70
  0
 62
  7
 10
0.590987
 20
3.551135
 30
0.000000
  0
VERTEX
  8
LAYER-1
 10
0.590987
 20
3.551135
 30
0.000000
  0
VERTEX
  8
LAYER-1
 10
0.590987
 20
3.447525
 30
0.000000
  0
SEQEND
  8
LAYER-1
  0
POLYLINE
  8
LAYER-1
 66
  1
 70
  0
 62
  7
 10
0.624975
 20
3.551135
 30
0.000000
  0
VERTEX
  8
LAYER-1
 10
0.624975
 20
3.551135
 30
0.000000
  0
VERTEX
  8
LAYER-1
 10
0.624975
 20
3.447481
 30
0.000000
  0
SEQEND
  8
LAYER-1
  0
POLYLINE
  8
LAYER-1
 66
  1
 70
  0
 62
  7
 10
0.739314
 20
3.551135
 30
0.000000
  0
VERTEX
  8
LAYER-1
 10
0.739314
 20
3.551135
 30
0.000000
  0
VERTEX
  8
LAYER-1
 10
0.739314
 20
3.447803
 30
0.000000
  0
SEQEND
  8
LAYER-1
  0
POLYLINE
  8
LAYER-1
 66
  1
 70
  0
 62
  7
 10
0.773447
 20
3.551135
 30
0.000000
  0
VERTEX
  8
LAYER-1
 10
0.773447
 20
3.551135
 30
0.000000
  0
VERTEX
  8
LAYER-1
 10
0.773447
 20
3.447481
 30
0.000000
  0
SEQEND
  8
LAYER-1
  0
POLYLINE
  8
LAYER-1
 66
  1
 70
  0
 62
  7
 10
0.887788
 20
3.551135
 30
0.000000
  0
VERTEX
  8
LAYER-1
 10
0.887788
 20
3.551135
 30
0.000000
  0
VERTEX
  8
LAYER-1
 10
0.887788
 20
3.447525
 30
0.000000
  0
SEQEND
  8
LAYER-1
  0
POLYLINE
  8
LAYER-1
 66
  1
 70
  0
 62
  7
 10
0.921774
 20
3.551135
 30
0.000000
  0
VERTEX
  8
LAYER-1
 10
0.921774
 20
3.551135
 30
0.000000
  0
VERTEX
  8
LAYER-1
 10
0.921774
 20
3.447481
 30
0.000000
  0
SEQEND
  8
LAYER-1
  0
POLYLINE
  8
LAYER-1
 66
  1
 70
  0
 62
  7
 10
1.036261
 20
3.551135
 30
0.000000
  0
VERTEX
  8
LAYER-1
 10
1.036261
 20
3.551135
 30
0.000000
  0
VERTEX
  8
LAYER-1
 10
1.036261
 20
3.447525
 30
0.000000
  0
SEQEND
  8
LAYER-1
  0
POLYLINE
  8
LAYER-1
 66
  1
 70
  0
 62
  7
 10
0.162300
 20
5.146317
 30
0.000000
  0
VERTEX
  8
LAYER-1
 10
0.162300
 20
5.146317
 30
0.000000
  0
VERTEX
  8
LAYER-1
 10
0.162300
 20
3.447481
 30
0.000000
  0
SEQEND
  8
LAYER-1
  0
POLYLINE
  8
LAYER-1
 66
  1
 70
  0
 62
  7
 10
0.310707
 20
5.146317
 30
0.000000
  0
VERTEX
  8
LAYER-1
 10
0.310707
 20
5.146317
 30
0.000000
  0
VERTEX
  8
LAYER-1
 10
0.310707
 20
3.447481
 30
0.000000
  0
SEQEND
  8
LAYER-1
  0
POLYLINE
  8
LAYER-1
 66
  1
 70
  0
 62
  7
 10
0.459116
 20
5.146317
 30
0.000000
  0
VERTEX
  8
LAYER-1
 10
0.459116
 20
5.146317
 30
0.000000
  0
VERTEX
  8
LAYER-1
 10
0.459116
 20
3.447481
 30
0.000000
  0
SEQEND
  8
LAYER-1
  0
POLYLINE
  8
LAYER-1
 66
  1
 70
  0
 62
  7
 10
0.607526
 20
5.146317
 30
0.000000
  0
VERTEX
  8
LAYER-1
 10
0.607526
 20
5.146317
 30
0.000000
  0
VERTEX
  8
LAYER-1
 10
0.607526
 20
3.447481
 30
0.000000
  0
SEQEND
  8
LAYER-1
  0
POLYLINE
  8
LAYER-1
 66
  1
 70
  0
 62
  7
 10
0.755934
 20
5.146317
 30
0.000000
  0
VERTEX
  8
LAYER-1
 10
0.755934
 20
5.146317
 30
0.000000
  0
VERTEX
  8
LAYER-1
 10
0.755934
 20
3.447481
 30
0.000000
  0
SEQEND
  8
LAYER-1
  0
POLYLINE
  8
LAYER-1
 66
  1
 70
  0
 62
  7
 10
0.904344
 20
5.146317
 30
0.000000
  0
VERTEX
  8
LAYER-1
 10
0.904344
 20
5.146317
 30
0.000000
  0
VERTEX
  8
LAYER-1
 10
0.904344
 20
3.447481
 30
0.000000
  0
SEQEND
  8
LAYER-1
  0
POLYLINE
  8
LAYER-1
 66
  1
 70
  0
 62
  0
 10
0.031375
 20
5.042663
 30
0.000000
  0
VERTEX
  8
LAYER-1
 10
0.031375
 20
5.042663
 30
0.000000
  0
VERTEX
  8
LAYER-1
 10
0.145784
 20
5.042663
 30
0.000000
  0
SEQEND
  8
LAYER-1
  0
POLYLINE
  8
LAYER-1
 66
  1
 70
  0
 62
  0
 10
0.179704
 20
5.042663
 30
0.000000
  0
VERTEX
  8
LAYER-1
 10
0.179704
 20
5.042663
 30
0.000000
  0
VERTEX
  8
LAYER-1
 10
0.294257
 20
5.042663
 30
0.000000
  0
SEQEND
  8
LAYER-1
  0
POLYLINE
  8
LAYER-1
 66
  1
 70
  0
 62
  0
 10
0.328176
 20
5.042663
 30
0.000000
  0
VERTEX
  8
LAYER-1
 10
0.328176
 20
5.042663
 30
0.000000
  0
VERTEX
  8
LAYER-1
 10
0.442583
 20
5.042663
 30
0.000000
  0
SEQEND
  8
LAYER-1
  0
POLYLINE
  8
LAYER-1
 66
  1
 70
  0
 62
  0
 10
0.476503
 20
5.042663
 30
0.000000
  0
VERTEX
  8
LAYER-1
 10
0.476503
 20
5.042663
 30
0.000000
  0
VERTEX
  8
LAYER-1
 10
0.590910
 20
5.042663
 30
0.000000
  0
SEQEND
  8
LAYER-1
  0
POLYLINE
  8
LAYER-1
 66
  1
 70
  0
 62
  0
 10
0.624975
 20
5.042663
 30
0.000000
  0
VERTEX
  8
LAYER-1
 10
0.624975
 20
5.042663
 30
0.000000
  0
VERTEX
  8
LAYER-1
 10
0.739382
 20
5.042663
 30
0.000000
  0
SEQEND
  8
LAYER-1
  0
POLYLINE
  8
LAYER-1
 66
  1
 70
  0
 62
  0
 10
0.773447
 20
5.042663
 30
0.000000
  0
VERTEX
  8
LAYER-1
 10
0.773447
 20
5.042663
 30
0.000000
  0
VERTEX
  8
LAYER-1
 10
0.887854
 20
5.042663
 30
0.000000
  0
SEQEND
  8
LAYER-1
  0
POLYLINE
  8
LAYER-1
 66
  1
 70
  0
 62
  0
 10
0.921047
 20
5.042663
 30
0.000000
  0
VERTEX
  8
LAYER-1
 10
0.921047
 20
5.042663
 30
0.000000
  0
VERTEX
  8
LAYER-1
 10
1.036183
 20
5.042663
 30
0.000000
  0
SEQEND
  8
LAYER-1
  0
POLYLINE
  8
LAYER-1
 66
  1
 70
  0
 62
  0
 10
0.031375
 20
3.551135
 30
0.000000
  0
VERTEX
  8
LAYER-1
 10
0.031375
 20
3.551135
 30
0.000000
  0
VERTEX
  8
LAYER-1
 10
0.145716
 20
3.551135
 30
0.000000
  0
SEQEND
  8
LAYER-1
  0
POLYLINE
  8
LAYER-1
 66
  1
 70
  0
 62
  0
 10
0.179704
 20
3.551135
 30
0.000000
  0
VERTEX
  8
LAYER-1
 10
0.179704
 20
3.551135
 30
0.000000
  0
VERTEX
  8
LAYER-1
 10
0.294334
 20
3.551135
 30
0.000000
  0
SEQEND
  8
LAYER-1
  0
POLYLINE
  8
LAYER-1
 66
  1
 70
  0
 62
  0
 10
0.328176
 20
3.551135
 30
0.000000
  0
VERTEX
  8
LAYER-1
 10
0.328176
 20
3.551135
 30
0.000000
  0
VERTEX
  8
LAYER-1
 10
0.442515
 20
3.551135
 30
0.000000
  0
SEQEND
  8
LAYER-1
  0
POLYLINE
  8
LAYER-1
 66
  1
 70
  0
 62
  0
 10
0.476503
 20
3.551135
 30
0.000000
  0
VERTEX
  8
LAYER-1
 10
0.476503
 20
3.551135
 30
0.000000
  0
VERTEX
  8
LAYER-1
 10
0.590987
 20
3.551135
 30
0.000000
  0
SEQEND
  8
LAYER-1
  0
POLYLINE
  8
LAYER-1
 66
  1
 70
  0
 62
  0
 10
0.624975
 20
3.551135
 30
0.000000
  0
VERTEX
  8
LAYER-1
 10
0.624975
 20
3.551135
 30
0.000000
  0
VERTEX
  8
LAYER-1
 10
0.739314
 20
3.551135
 30
0.000000
  0
SEQEND
  8
LAYER-1
  0
POLYLINE
  8
LAYER-1
 66
  1
 70
  0
 62
  0
 10
0.773447
 20
3.551135
 30
0.000000
  0
VERTEX
  8
LAYER-1
 10
0.773447
 20
3.551135
 30
0.000000
  0
VERTEX
  8
LAYER-1
 10
0.887788
 20
3.551135
 30
0.000000
  0
SEQEND
  8
LAYER-1
  0
POLYLINE
  8
LAYER-1
 66
  1
 70
  0
 62
  0
 10
0.921774
 20
3.551135
 30
0.000000
  0
VERTEX
  8
LAYER-1
 10
0.921774
 20
3.551135
 30
0.000000
  0
VERTEX
  8
LAYER-1
 10
1.036261
 20
3.551135
 30
0.000000
  0
SEQEND
  8
LAYER-1
  0
POLYLINE
  8
LAYER-1
 66
  1
 70
  0
 62
  0
 10
0.013889
 20
3.447481
 30
0.000000
  0
VERTEX
  8
LAYER-1
 10
0.013889
 20
3.447481
 30
0.000000
  0
VERTEX
  8
LAYER-1
 10
1.053577
 20
3.447525
 30
0.000000
  0
SEQEND
  8
LAYER-1
  0
POLYLINE
  8
LAYER-1
 66
  1
 70
  0
 62
  0
 10
0.013889
 20
5.146317
 30
0.000000
  0
VERTEX
  8
LAYER-1
 10
0.013889
 20
5.146317
 30
0.000000
  0
VERTEX
  8
LAYER-1
 10
1.053577
 20
5.146317
 30
0.000000
  0
SEQEND
  8
LAYER-1
  0
POLYLINE
  8
LAYER-1
 66
  1
 70
  0
 62
  7
 10
0.230864
 20
5.144396
 30
0.000000
  0
VERTEX
  8
LAYER-1
 10
0.230864
 20
5.144396
 30
0.000000
  0
VERTEX
  8
LAYER-1
 10
0.230864
 20
5.041089
 30
0.000000
  0
SEQEND
  8
LAYER-1
  0
POLYLINE
  8
LAYER-1
 66
  1
 70
  0
 62
  7
 10
0.242783
 20
5.144396
 30
0.000000
  0
VERTEX
  8
LAYER-1
 10
0.242783
 20
5.144396
 30
0.000000
  0
VERTEX
  8
LAYER-1
 10
0.242783
 20
5.041089
 30
0.000000
  0
SEQEND
  8
LAYER-1
  0
POLYLINE
  8
LAYER-1
 66
  1
 70
  0
 62
  7
 10
0.528859
 20
5.145984
 30
0.000000
  0
VERTEX
  8
LAYER-1
 10
0.528859
 20
5.145984
 30
0.000000
  0
VERTEX
  8
LAYER-1
 10
0.528859
 20
5.042678
 30
0.000000
  0
SEQEND
  8
LAYER-1
  0
POLYLINE
  8
LAYER-1
 66
  1
 70
  0
 62
  7
 10
0.540778
 20
5.145984
 30
0.000000
  0
VERTEX
  8
LAYER-1
 10
0.540778
 20
5.145984
 30
0.000000
  0
VERTEX
  8
LAYER-1
 10
0.540778
 20
5.042678
 30
0.000000
  0
SEQEND
  8
LAYER-1
  0
POLYLINE
  8
LAYER-1
 66
  1
 70
  0
 62
  7
 10
0.826061
 20
5.143601
 30
0.000000
  0
VERTEX
  8
LAYER-1
 10
0.826061
 20
5.143601
 30
0.000000
  0
VERTEX
  8
LAYER-1
 10
0.826061
 20
5.040295
 30
0.000000
  0
SEQEND
  8
LAYER-1
  0
POLYLINE
  8
LAYER-1
 66
  1
 70
  0
 62
  7
 10
0.837980
 20
5.143601
 30
0.000000
  0
VERTEX
  8
LAYER-1
 10
0.837980
 20
5.143601
 30
0.000000
  0
VERTEX
  8
LAYER-1
 10
0.837980
 20
5.040295
 30
0.000000
  0
SEQEND
  8
LAYER-1
  0
POLYLINE
  8
LAYER-1
 66
  1
 70
  1
 62
  0
  0
VERTEX
  8
LAYER-1
 10
3.714956
 20
0.356888
 30
0.000000
  0
VERTEX
  8
LAYER-1
 10
3.748514
 20
0.356888
 30
0.000000
  0
VERTEX
  8
LAYER-1
 10
3.748514
 20
0.261383
 30
0.000000
  0
VERTEX
  8
LAYER-1
 10
3.714956
 20
0.261383
 30
0.000000
  0
SEQEND
  8
LAYER-1
  0
POLYLINE
  8
LAYER-1
 66
  1
 70
  0
 62
  0
 10
3.734997
 20
2.467844
 30
0.000000
  0
VERTEX
  8
LAYER-1
 10
3.734997
 20
2.467844
 30
0.000000
  0
VERTEX
  8
LAYER-1
 10
3.734998
 20
2.467844
 30
0.000000
  0
SEQEND
  8
LAYER-1
  0
POLYLINE
  8
LAYER-1
 66
  1
 70
  0
 62
  0
 10
3.742963
 20
2.459880
 30
0.000000
  0
VERTEX
  8
LAYER-1
 10
3.742963
 20
2.459880
 30
0.000000
  0
VERTEX
  8
LAYER-1
 10
3.742963
 20
2.210336
 30
0.000000
  0
SEQEND
  8
LAYER-1
  0
POLYLINE
  8
LAYER-1
 66
  1
 70
  0
 62
  0
 10
3.734998
 20
2.202372
 30
0.000000
  0
VERTEX
  8
LAYER-1
 10
3.734998
 20
2.202372
 30
0.000000
  0
VERTEX
  8
LAYER-1
 10
3.734997
 20
2.202372
 30
0.000000
  0
SEQEND
  8
LAYER-1
  0
POLYLINE
  8
LAYER-1
 66
  1
 70
  0
 62
  0
 10
3.727033
 20
2.210336
 30
0.000000
  0
VERTEX
  8
LAYER-1
 10
3.727033
 20
2.210336
 30
0.000000
  0
VERTEX
  8
LAYER-1
 10
3.727033
 20
2.459880
 30
0.000000
  0
SEQEND
  8
LAYER-1
  0
ARC
  8
LAYER-1
 62
  0
 10
3.734997
 20
2.459880
 30
0.000000
 40
0.007964
 50
270.000000
 51
0.000000
  0
ARC
  8
LAYER-1
 62
  0
 10
3.734997
 20
2.210336
 30
0.000000
 40
0.007964
 50
0.000000
 51
90.000000
  0
ARC
  8
LAYER-1
 62
  0
 10
3.734998
 20
2.210336
 30
0.000000
 40
0.007964
 50
90.000000
 51
180.000000
  0
ARC
  8
LAYER-1
 62
  0
 10
3.734998
 20
2.459880
 30
0.000000
 40
0.007964
 50
180.000000
 51
270.000000
  0
CIRCLE
  8
LAYER-1
 62
  0
 10
3.735330
 20
2.205025
 30
0.000000
 40
0.022565
  0
CIRCLE
  8
LAYER-1
 62
  0
 10
3.735330
 20
2.205025
 30
0.000000
 40
0.016522
  0
CIRCLE
  8
LAYER-1
 62
  0
 10
3.735330
 20
2.205025
 30
0.000000
 40
0.013746
  0
CIRCLE
  8
LAYER-1
 62
  0
 10
3.735330
 20
2.205025
 30
0.000000
 40
0.008860
  0
POLYLINE
  8
LAYER-1
 66
  1
 70
  0
 62
  0
 10
3.685053
 20
0.253722
 30
0.000000
  0
VERTEX
  8
LAYER-1
 10
3.685053
 20
0.253722
 30
0.000000
  0
VERTEX
  8
LAYER-1
 10
3.697831
 20
0.261287
 30
0.000000
  0
SEQEND
  8
LAYER-1
  0
POLYLINE
  8
LAYER-1
 66
  1
 70
  0
 62
  0
 10
3.685053
 20
0.253722
 30
0.000000
  0
VERTEX
  8
LAYER-1
 10
3.685053
 20
0.253722
 30
0.000000
  0
VERTEX
  8
LAYER-1
 10
3.685053
 20
0.252157
 30
0.000000
  0
SEQEND
  8
LAYER-1
  0
POLYLINE
  8
LAYER-1
 66
  1
 70
  1
 62
  0
  0
VERTEX
  8
LAYER-1
 10
3.703496
 20
0.252144
 30
0.000000
  0
VERTEX
  8
LAYER-1
 10
3.760083
 20
0.252144
 30
0.000000
  0
VERTEX
  8
LAYER-1
 10
3.760083
 20
0.064481
 30
0.000000
  0
VERTEX
  8
LAYER-1
 10
3.703496
 20
0.064481
 30
0.000000
  0
SEQEND
  8
LAYER-1
  0
POLYLINE
  8
LAYER-1
  6
LTYPE01
 66
  1
 70
  1
 62
  0
  0
VERTEX
  8
LAYER-1
  6
LTYPE01
 10
3.708190
 20
0.261269
 30
0.000000
  0
VERTEX
  8
LAYER-1
  6
LTYPE01
 10
3.755130
 20
0.261269
 30
0.000000
  0
VERTEX
  8
LAYER-1
  6
LTYPE01
 10
3.755130
 20
0.074041
 30
0.000000
  0
VERTEX
  8
LAYER-1
  6
LTYPE01
 10
3.708190
 20
0.074041
 30
0.000000
  0
SEQEND
  8
LAYER-1
  0
POLYLINE
  8
LAYER-1
 66
  1
 70
  0
 62
  0
 10
3.685053
 20
0.252157
 30
0.000000
  0
VERTEX
  8
LAYER-1
 10
3.685053
 20
0.252157
 30
0.000000
  0
VERTEX
  8
LAYER-1
 10
3.778670
 20
0.252157
 30
0.000000
  0
SEQEND
  8
LAYER-1
  0
POLYLINE
  8
LAYER-1
 66
  1
 70
  0
 62
  0
 10
3.778670
 20
0.252157
 30
0.000000
  0
VERTEX
  8
LAYER-1
 10
3.778670
 20
0.252157
 30
0.000000
  0
VERTEX
  8
LAYER-1
 10
3.778670
 20
0.253722
 30
0.000000
  0
SEQEND
  8
LAYER-1
  0
POLYLINE
  8
LAYER-1
 66
  1
 70
  0
 62
  0
 10
3.778670
 20
0.253722
 30
0.000000
  0
VERTEX
  8
LAYER-1
 10
3.778670
 20
0.253722
 30
0.000000
  0
VERTEX
  8
LAYER-1
 10
3.765631
 20
0.261287
 30
0.000000
  0
SEQEND
  8
LAYER-1
  0
POLYLINE
  8
LAYER-1
  6
LTYPE02
 66
  1
 70
  0
 62
  0
  6
LTYPE02
 10
3.709435
 20
0.160499
 30
0.000000
  0
VERTEX
  8
LAYER-1
  6
LTYPE02
 10
3.709435
 20
0.160499
 30
0.000000
  0
VERTEX
  8
LAYER-1
  6
LTYPE02
 10
3.709435
 20
0.126600
 30
0.000000
  0
SEQEND
  8
LAYER-1
  0
POLYLINE
  8
LAYER-1
  6
LTYPE02
 66
  1
 70
  0
 62
  0
  6
LTYPE02
 10
3.713343
 20
0.160499
 30
0.000000
  0
VERTEX
  8
LAYER-1
  6
LTYPE02
 10
3.713343
 20
0.160499
 30
0.000000
  0
VERTEX
  8
LAYER-1
  6
LTYPE02
 10
3.709435
 20
0.160499
 30
0.000000
  0
SEQEND
  8
LAYER-1
  0
POLYLINE
  8
LAYER-1
  6
LTYPE02
 66
  1
 70
  0
 62
  0
  6
LTYPE02
 10
3.713343
 20
0.160499
 30
0.000000
  0
VERTEX
  8
LAYER-1
  6
LTYPE02
 10
3.713343
 20
0.160499
 30
0.000000
  0
VERTEX
  8
LAYER-1
  6
LTYPE02
 10
3.713343
 20
0.164932
 30
0.000000
  0
SEQEND
  8
LAYER-1
  0
POLYLINE
  8
LAYER-1
  6
LTYPE02
 66
  1
 70
  0
 62
  0
  6
LTYPE02
 10
3.713343
 20
0.164932
 30
0.000000
  0
VERTEX
  8
LAYER-1
  6
LTYPE02
 10
3.713343
 20
0.164932
 30
0.000000
  0
VERTEX
  8
LAYER-1
  6
LTYPE02
 10
3.750603
 20
0.164932
 30
0.000000
  0
SEQEND
  8
LAYER-1
  0
POLYLINE
  8
LAYER-1
  6
LTYPE02
 66
  1
 70
  0
 62
  0
  6
LTYPE02
 10
3.709435
 20
0.126600
 30
0.000000
  0
VERTEX
  8
LAYER-1
  6
LTYPE02
 10
3.709435
 20
0.126600
 30
0.000000
  0
VERTEX
  8
LAYER-1
  6
LTYPE02
 10
3.753767
 20
0.126600
 30
0.000000
  0
SEQEND
  8
LAYER-1
  0
POLYLINE
  8
LAYER-1
  6
LTYPE02
 66
  1
 70
  0
 62
  0
  6
LTYPE02
 10
3.753767
 20
0.126600
 30
0.000000
  0
VERTEX
  8
LAYER-1
  6
LTYPE02
 10
3.753767
 20
0.126600
 30
0.000000
  0
VERTEX
  8
LAYER-1
  6
LTYPE02
 10
3.753767
 20
0.160499
 30
0.000000
  0
SEQEND
  8
LAYER-1
  0
POLYLINE
  8
LAYER-1
  6
LTYPE02
 66
  1
 70
  0
 62
  0
  6
LTYPE02
 10
3.750603
 20
0.160499
 30
0.000000
  0
VERTEX
  8
LAYER-1
  6
LTYPE02
 10
3.750603
 20
0.160499
 30
0.000000
  0
VERTEX
  8
LAYER-1
  6
LTYPE02
 10
3.753767
 20
0.160499
 30
0.000000
  0
SEQEND
  8
LAYER-1
  0
POLYLINE
  8
LAYER-1
  6
LTYPE02
 66
  1
 70
  0
 62
  0
  6
LTYPE02
 10
3.750603
 20
0.164932
 30
0.000000
  0
VERTEX
  8
LAYER-1
  6
LTYPE02
 10
3.750603
 20
0.164932
 30
0.000000
  0
VERTEX
  8
LAYER-1
  6
LTYPE02
 10
3.750603
 20
0.160499
 30
0.000000
  0
SEQEND
  8
LAYER-1
  0
POLYLINE
  8
LAYER-1
  6
LTYPE01
 66
  1
 70
  1
 62
  0
  0
VERTEX
  8
LAYER-1
  6
LTYPE01
 10
3.714572
 20
0.126454
 30
0.000000
  0
VERTEX
  8
LAYER-1
  6
LTYPE01
 10
3.748994
 20
0.126454
 30
0.000000
  0
VERTEX
  8
LAYER-1
  6
LTYPE01
 10
3.748994
 20
0.074300
 30
0.000000
  0
VERTEX
  8
LAYER-1
  6
LTYPE01
 10
3.714572
 20
0.074300
 30
0.000000
  0
SEQEND
  8
LAYER-1
  0
POLYLINE
  8
LAYER-1
  6
LTYPE02
 66
  1
 70
  0
 62
  0
  6
LTYPE02
 10
3.748994
 20
0.126454
 30
0.000000
  0
VERTEX
  8
LAYER-1
  6
LTYPE02
 10
3.748994
 20
0.126454
 30
0.000000
  0
VERTEX
  8
LAYER-1
  6
LTYPE02
 10
3.714572
 20
0.123586
 30
0.000000
  0
SEQEND
  8
LAYER-1
  0
POLYLINE
  8
LAYER-1
  6
LTYPE02
 66
  1
 70
  0
 62
  0
  6
LTYPE02
 10
3.748994
 20
0.124889
 30
0.000000
  0
VERTEX
  8
LAYER-1
  6
LTYPE02
 10
3.748994
 20
0.124889
 30
0.000000
  0
VERTEX
  8
LAYER-1
  6
LTYPE02
 10
3.714572
 20
0.121762
 30
0.000000
  0
SEQEND
  8
LAYER-1
  0
POLYLINE
  8
LAYER-1
  6
LTYPE02
 66
  1
 70
  0
 62
  0
  6
LTYPE02
 10
3.748994
 20
0.121500
 30
0.000000
  0
VERTEX
  8
LAYER-1
  6
LTYPE02
 10
3.748994
 20
0.121500
 30
0.000000
  0
VERTEX
  8
LAYER-1
  6
LTYPE02
 10
3.714572
 20
0.118630
 30
0.000000
  0
SEQEND
  8
LAYER-1
  0
POLYLINE
  8
LAYER-1
  6
LTYPE02
 66
  1
 70
  0
 62
  0
  6
LTYPE02
 10
3.748994
 20
0.119935
 30
0.000000
  0
VERTEX
  8
LAYER-1
  6
LTYPE02
 10
3.748994
 20
0.119935
 30
0.000000
  0
VERTEX
  8
LAYER-1
  6
LTYPE02
 10
3.714572
 20
0.116805
 30
0.000000
  0
SEQEND
  8
LAYER-1
  0
POLYLINE
  8
LAYER-1
  6
LTYPE02
 66
  1
 70
  0
 62
  0
  6
LTYPE02
 10
3.748994
 20
0.116352
 30
0.000000
  0
VERTEX
  8
LAYER-1
  6
LTYPE02
 10
3.748994
 20
0.116352
 30
0.000000
  0
VERTEX
  8
LAYER-1
  6
LTYPE02
 10
3.714572
 20
0.113482
 30
0.000000
  0
SEQEND
  8
LAYER-1
  0
POLYLINE
  8
LAYER-1
  6
LTYPE02
 66
  1
 70
  0
 62
  0
  6
LTYPE02
 10
3.748994
 20
0.114787
 30
0.000000
  0
VERTEX
  8
LAYER-1
  6
LTYPE02
 10
3.748994
 20
0.114787
 30
0.000000
  0
VERTEX
  8
LAYER-1
  6
LTYPE02
 10
3.714572
 20
0.111658
 30
0.000000
  0
SEQEND
  8
LAYER-1
  0
POLYLINE
  8
LAYER-1
  6
LTYPE02
 66
  1
 70
  0
 62
  0
  6
LTYPE02
 10
3.748930
 20
0.111852
 30
0.000000
  0
VERTEX
  8
LAYER-1
  6
LTYPE02
 10
3.748930
 20
0.111852
 30
0.000000
  0
VERTEX
  8
LAYER-1
  6
LTYPE02
 10
3.714507
 20
0.108983
 30
0.000000
  0
SEQEND
  8
LAYER-1
  0
POLYLINE
  8
LAYER-1
  6
LTYPE02
 66
  1
 70
  0
 62
  0
  6
LTYPE02
 10
3.748930
 20
0.110289
 30
0.000000
  0
VERTEX
  8
LAYER-1
  6
LTYPE02
 10
3.748930
 20
0.110289
 30
0.000000
  0
VERTEX
  8
LAYER-1
  6
LTYPE02
 10
3.714507
 20
0.107159
 30
0.000000
  0
SEQEND
  8
LAYER-1
  0
POLYLINE
  8
LAYER-1
  6
LTYPE02
 66
  1
 70
  0
 62
  0
  6
LTYPE02
 10
3.748930
 20
0.107029
 30
0.000000
  0
VERTEX
  8
LAYER-1
  6
LTYPE02
 10
3.748930
 20
0.107029
 30
0.000000
  0
VERTEX
  8
LAYER-1
  6
LTYPE02
 10
3.714507
 20
0.104160
 30
0.000000
  0
SEQEND
  8
LAYER-1
  0
POLYLINE
  8
LAYER-1
  6
LTYPE02
 66
  1
 70
  0
 62
  0
  6
LTYPE02
 10
3.748930
 20
0.105464
 30
0.000000
  0
VERTEX
  8
LAYER-1
  6
LTYPE02
 10
3.748930
 20
0.105464
 30
0.000000
  0
VERTEX
  8
LAYER-1
  6
LTYPE02
 10
3.714507
 20
0.102334
 30
0.000000
  0
SEQEND
  8
LAYER-1
  0
POLYLINE
  8
LAYER-1
  6
LTYPE02
 66
  1
 70
  0
 62
  0
  6
LTYPE02
 10
3.748930
 20
0.102073
 30
0.000000
  0
VERTEX
  8
LAYER-1
  6
LTYPE02
 10
3.748930
 20
0.102073
 30
0.000000
  0
VERTEX
  8
LAYER-1
  6
LTYPE02
 10
3.714507
 20
0.099204
 30
0.000000
  0
SEQEND
  8
LAYER-1
  0
POLYLINE
  8
LAYER-1
  6
LTYPE02
 66
  1
 70
  0
 62
  0
  6
LTYPE02
 10
3.748930
 20
0.100510
 30
0.000000
  0
VERTEX
  8
LAYER-1
  6
LTYPE02
 10
3.748930
 20
0.100510
 30
0.000000
  0
VERTEX
  8
LAYER-1
  6
LTYPE02
 10
3.714507
 20
0.097378
 30
0.000000
  0
SEQEND
  8
LAYER-1
  0
POLYLINE
  8
LAYER-1
  6
LTYPE02
 66
  1
 70
  0
 62
  0
  6
LTYPE02
 10
3.748930
 20
0.096923
 30
0.000000
  0
VERTEX
  8
LAYER-1
  6
LTYPE02
 10
3.748930
 20
0.096923
 30
0.000000
  0
VERTEX
  8
LAYER-1
  6
LTYPE02
 10
3.714507
 20
0.094054
 30
0.000000
  0
SEQEND
  8
LAYER-1
  0
POLYLINE
  8
LAYER-1
  6
LTYPE02
 66
  1
 70
  0
 62
  0
  6
LTYPE02
 10
3.748930
 20
0.095358
 30
0.000000
  0
VERTEX
  8
LAYER-1
  6
LTYPE02
 10
3.748930
 20
0.095358
 30
0.000000
  0
VERTEX
  8
LAYER-1
  6
LTYPE02
 10
3.714507
 20
0.092230
 30
0.000000
  0
SEQEND
  8
LAYER-1
  0
POLYLINE
  8
LAYER-1
  6
LTYPE02
 66
  1
 70
  0
 62
  0
  6
LTYPE02
 10
3.748864
 20
0.092424
 30
0.000000
  0
VERTEX
  8
LAYER-1
  6
LTYPE02
 10
3.748864
 20
0.092424
 30
0.000000
  0
VERTEX
  8
LAYER-1
  6
LTYPE02
 10
3.714443
 20
0.089556
 30
0.000000
  0
SEQEND
  8
LAYER-1
  0
POLYLINE
  8
LAYER-1
  6
LTYPE02
 66
  1
 70
  0
 62
  0
  6
LTYPE02
 10
3.748864
 20
0.090861
 30
0.000000
  0
VERTEX
  8
LAYER-1
  6
LTYPE02
 10
3.748864
 20
0.090861
 30
0.000000
  0
VERTEX
  8
LAYER-1
  6
LTYPE02
 10
3.714443
 20
0.087732
 30
0.000000
  0
SEQEND
  8
LAYER-1
  0
POLYLINE
  8
LAYER-1
  6
LTYPE02
 66
  1
 70
  0
 62
  0
  6
LTYPE02
 10
3.748994
 20
0.088057
 30
0.000000
  0
VERTEX
  8
LAYER-1
  6
LTYPE02
 10
3.748994
 20
0.088057
 30
0.000000
  0
VERTEX
  8
LAYER-1
  6
LTYPE02
 10
3.714572
 20
0.085188
 30
0.000000
  0
SEQEND
  8
LAYER-1
  0
POLYLINE
  8
LAYER-1
  6
LTYPE02
 66
  1
 70
  0
 62
  0
  6
LTYPE02
 10
3.748994
 20
0.086492
 30
0.000000
  0
VERTEX
  8
LAYER-1
  6
LTYPE02
 10
3.748994
 20
0.086492
 30
0.000000
  0
VERTEX
  8
LAYER-1
  6
LTYPE02
 10
3.714572
 20
0.083364
 30
0.000000
  0
SEQEND
  8
LAYER-1
  0
POLYLINE
  8
LAYER-1
  6
LTYPE02
 66
  1
 70
  0
 62
  0
  6
LTYPE02
 10
3.748994
 20
0.083103
 30
0.000000
  0
VERTEX
  8
LAYER-1
  6
LTYPE02
 10
3.748994
 20
0.083103
 30
0.000000
  0
VERTEX
  8
LAYER-1
  6
LTYPE02
 10
3.714572
 20
0.080234
 30
0.000000
  0
SEQEND
  8
LAYER-1
  0
POLYLINE
  8
LAYER-1
  6
LTYPE02
 66
  1
 70
  0
 62
  0
  6
LTYPE02
 10
3.748994
 20
0.081538
 30
0.000000
  0
VERTEX
  8
LAYER-1
  6
LTYPE02
 10
3.748994
 20
0.081538
 30
0.000000
  0
VERTEX
  8
LAYER-1
  6
LTYPE02
 10
3.714572
 20
0.078408
 30
0.000000
  0
SEQEND
  8
LAYER-1
  0
POLYLINE
  8
LAYER-1
  6
LTYPE02
 66
  1
 70
  0
 62
  0
  6
LTYPE02
 10
3.748994
 20
0.077953
 30
0.000000
  0
VERTEX
  8
LAYER-1
  6
LTYPE02
 10
3.748994
 20
0.077953
 30
0.000000
  0
VERTEX
  8
LAYER-1
  6
LTYPE02
 10
3.714572
 20
0.075083
 30
0.000000
  0
SEQEND
  8
LAYER-1
  0
POLYLINE
  8
LAYER-1
  6
LTYPE02
 66
  1
 70
  0
 62
  0
  6
LTYPE02
 10
3.748994
 20
0.076388
 30
0.000000
  0
VERTEX
  8
LAYER-1
  6
LTYPE02
 10
3.748994
 20
0.076388
 30
0.000000
  0
VERTEX
  8
LAYER-1
  6
LTYPE02
 10
3.725981
 20
0.074300
 30
0.000000
  0
SEQEND
  8
LAYER-1
  0
POLYLINE
  8
LAYER-1
  6
LTYPE02
 66
  1
 70
  0
 62
  0
  6
LTYPE02
 10
3.715564
 20
0.185665
 30
0.000000
  0
VERTEX
  8
LAYER-1
  6
LTYPE02
 10
3.715564
 20
0.185665
 30
0.000000
  0
VERTEX
  8
LAYER-1
  6
LTYPE02
 10
3.715564
 20
0.261287
 30
0.000000
  0
SEQEND
  8
LAYER-1
  0
POLYLINE
  8
LAYER-1
  6
LTYPE02
 66
  1
 70
  0
 62
  0
  6
LTYPE02
 10
3.747898
 20
0.185665
 30
0.000000
  0
VERTEX
  8
LAYER-1
  6
LTYPE02
 10
3.747898
 20
0.185665
 30
0.000000
  0
VERTEX
  8
LAYER-1
  6
LTYPE02
 10
3.747898
 20
0.261287
 30
0.000000
  0
SEQEND
  8
LAYER-1
  0
POLYLINE
  8
LAYER-1
  6
LTYPE01
 66
  1
 70
  0
 62
  0
  6
LTYPE01
 10
3.715563
 20
0.185665
 30
0.000000
  0
VERTEX
  8
LAYER-1
  6
LTYPE01
 10
3.715563
 20
0.185665
 30
0.000000
  0
VERTEX
  8
LAYER-1
  6
LTYPE01
 10
3.718330
 20
0.176201
 30
0.000000
  0
VERTEX
  8
LAYER-1
  6
LTYPE01
 10
3.729763
 20
0.171466
 30
0.000000
  0
VERTEX
  8
LAYER-1
  6
LTYPE01
 10
3.741195
 20
0.176201
 30
0.000000
  0
VERTEX
  8
LAYER-1
  6
LTYPE01
 10
3.747899
 20
0.185665
 30
0.000000
  0
SEQEND
  8
LAYER-1
  0
POLYLINE
  8
LAYER-1
 66
  1
 70
  0
 62
  0
 10
3.697831
 20
0.261287
 30
0.000000
  0
VERTEX
  8
LAYER-1
 10
3.697831
 20
0.261287
 30
0.000000
  0
VERTEX
  8
LAYER-1
 10
3.765631
 20
0.261287
 30
0.000000
  0
SEQEND
  8
LAYER-1
  0
POLYLINE
  8
LAYER-1
 66
  1
 70
  1
 62
  0
  0
VERTEX
  8
LAYER-1
 10
2.804647
 20
7.490250
 30
0.000000
  0
VERTEX
  8
LAYER-1
 10
2.829743
 20
7.490250
 30
0.000000
  0
VERTEX
  8
LAYER-1
 10
2.829743
 20
7.423932
 30
0.000000
  0
VERTEX
  8
LAYER-1
 10
2.804647
 20
7.423932
 30
0.000000
  0
SEQEND
  8
LAYER-1
  0
POLYLINE
  8
LAYER-1
 66
  1
 70
  1
 62
  0
  0
VERTEX
  8
LAYER-1
 10
1.983467
 20
7.490250
 30
0.000000
  0
VERTEX
  8
LAYER-1
 10
2.008562
 20
7.490250
 30
0.000000
  0
VERTEX
  8
LAYER-1
 10
2.008562
 20
7.423932
 30
0.000000
  0
VERTEX
  8
LAYER-1
 10
1.983467
 20
7.423932
 30
0.000000
  0
SEQEND
  8
LAYER-1
  0
POLYLINE
  8
LAYER-1
 66
  1
 70
  1
 62
  0
  0
VERTEX
  8
LAYER-1
 10
4.706557
 20
7.490250
 30
0.000000
  0
VERTEX
  8
LAYER-1
 10
4.731652
 20
7.490250
 30
0.000000
  0
VERTEX
  8
LAYER-1
 10
4.731652
 20
7.423932
 30
0.000000
  0
VERTEX
  8
LAYER-1
 10
4.706557
 20
7.423932
 30
0.000000
  0
SEQEND
  8
LAYER-1
  0
POLYLINE
  8
LAYER-1
 66
  1
 70
  1
 62
  0
  0
VERTEX
  8
LAYER-1
 10
5.527738
 20
7.490250
 30
0.000000
  0
VERTEX
  8
LAYER-1
 10
5.552833
 20
7.490250
 30
0.000000
  0
VERTEX
  8
LAYER-1
 10
5.552833
 20
7.423932
 30
0.000000
  0
VERTEX
  8
LAYER-1
 10
5.527738
 20
7.423932
 30
0.000000
  0
SEQEND
  8
LAYER-1
  0
POLYLINE
  8
LAYER-1
 66
  1
 70
  0
 62
  0
 10
2.181858
 20
7.153926
 30
0.000000
  0
VERTEX
  8
LAYER-1
 10
2.181858
 20
7.153926
 30
0.000000
  0
VERTEX
  8
LAYER-1
 10
2.217455
 20
7.153926
 30
0.000000
  0
SEQEND
  8
LAYER-1
  0
POLYLINE
  8
LAYER-1
 66
  1
 70
  0
 62
  0
 10
2.999729
 20
7.153926
 30
0.000000
  0
VERTEX
  8
LAYER-1
 10
2.999729
 20
7.153926
 30
0.000000
  0
VERTEX
  8
LAYER-1
 10
3.035323
 20
7.153926
 30
0.000000
  0
SEQEND
  8
LAYER-1
  0
POLYLINE
  8
LAYER-1
 66
  1
 70
  0
 62
  0
 10
3.647862
 20
7.153850
 30
0.000000
  0
VERTEX
  8
LAYER-1
 10
3.647862
 20
7.153850
 30
0.000000
  0
VERTEX
  8
LAYER-1
 10
3.683457
 20
7.153850
 30
0.000000
  0
SEQEND
  8
LAYER-1
  0
POLYLINE
  8
LAYER-1
 66
  1
 70
  0
 62
  0
 10
5.354019
 20
7.153926
 30
0.000000
  0
VERTEX
  8
LAYER-1
 10
5.354019
 20
7.153926
 30
0.000000
  0
VERTEX
  8
LAYER-1
 10
5.318424
 20
7.153926
 30
0.000000
  0
SEQEND
  8
LAYER-1
  0
POLYLINE
  8
LAYER-1
 66
  1
 70
  0
 62
  0
 10
4.536144
 20
7.153926
 30
0.000000
  0
VERTEX
  8
LAYER-1
 10
4.536144
 20
7.153926
 30
0.000000
  0
VERTEX
  8
LAYER-1
 10
4.500553
 20
7.153926
 30
0.000000
  0
SEQEND
  8
LAYER-1
  0
POLYLINE
  8
LAYER-1
 66
  1
 70
  0
 62
  0
 10
3.888006
 20
7.153849
 30
0.000000
  0
VERTEX
  8
LAYER-1
 10
3.888006
 20
7.153849
 30
0.000000
  0
VERTEX
  8
LAYER-1
 10
3.852414
 20
7.153849
 30
0.000000
  0
SEQEND
  8
LAYER-1
  0
TEXT
  8
LAYER-1
 62
  0
 10
1.087634
 20
7.086170
 30
0.000000
 40
0.125000
  1
Guida
 72
  5
 11
1.615411
 21
7.086170
 31
0.000000
  0
TEXT
  8
LAYER-1
 62
  0
 10
5.865411
 20
5.363948
 30
0.000000
 40
0.125000
  1
Policarbonato
 72
  5
 11
6.990411
 21
5.363948
 31
0.000000
  0
TEXT
  8
LAYER-1
 62
  0
 10
5.865411
 20
5.169503
 30
0.000000
 40
0.104167
  1
1/16
 72
  5
 11
6.226523
 21
5.169503
 31
0.000000
  0
TEXT
  8
LAYER-1
 62
  0
 10
6.226523
 20
5.169503
 30
0.000000
 40
0.125000
  1
" (1,6mm)
 72
  5
 11
7.045967
 21
5.169503
 31
0.000000
  0
POLYLINE
  8
LAYER-1
 66
  1
 70
  0
 62
  0
 10
5.826783
 20
5.484607
 30
0.000000
  0
VERTEX
  8
LAYER-1
 10
5.826783
 20
5.484607
 30
0.000000
  0
VERTEX
  8
LAYER-1
 10
5.585707
 20
5.799702
 30
0.000000
  0
SEQEND
  8
LAYER-1
  0
POLYLINE
  8
LAYER-1
 66
  1
 70
  1
 62
  0
  0
VERTEX
  8
LAYER-1
 10
5.573745
 20
5.815336
 30
0.000000
  0
VERTEX
  8
LAYER-1
 10
5.649035
 20
5.785501
 30
0.000000
  0
VERTEX
  8
LAYER-1
 10
5.615943
 20
5.760182
 30
0.000000
  0
VERTEX
  8
LAYER-1
 10
5.582851
 20
5.734864
 30
0.000000
  0
VERTEX
  8
LAYER-1
 10
5.573745
 20
5.815336
 30
0.000000
  0
SEQEND
  8
LAYER-1
  0
POLYLINE
  8
LAYER-1
 66
  1
 70
  0
 62
  0
 10
0.768283
 20
0.037543
 30
0.000000
  0
VERTEX
  8
LAYER-1
 10
0.768283
 20
0.037543
 30
0.000000
  0
VERTEX
  8
LAYER-1
 10
0.794766
 20
0.034087
 30
0.000000
  0
VERTEX
  8
LAYER-1
 10
0.814102
 20
0.034087
 30
0.000000
  0
VERTEX
  8
LAYER-1
 10
0.833438
 20
0.037560
 30
0.000000
  0
VERTEX
  8
LAYER-1
 10
0.852774
 20
0.037560
 30
0.000000
  0
VERTEX
  8
LAYER-1
 10
0.899181
 20
0.044503
 30
0.000000
  0
VERTEX
  8
LAYER-1
 10
0.933986
 20
0.054921
 30
0.000000
  0
VERTEX
  8
LAYER-1
 10
0.956223
 20
0.059261
 30
0.000000
  0
VERTEX
  8
LAYER-1
 10
0.977976
 20
0.060997
 30
0.000000
  0
VERTEX
  8
LAYER-1
 10
1.007463
 20
0.058393
 30
0.000000
  0
VERTEX
  8
LAYER-1
 10
1.038401
 20
0.054921
 30
0.000000
  0
VERTEX
  8
LAYER-1
 10
1.065472
 20
0.047976
 30
0.000000
  0
VERTEX
  8
LAYER-1
 10
1.084808
 20
0.044503
 30
0.000000
  0
VERTEX
  8
LAYER-1
 10
1.115746
 20
0.041032
 30
0.000000
  0
VERTEX
  8
LAYER-1
 10
1.135082
 20
0.037560
 30
0.000000
  0
VERTEX
  8
LAYER-1
 10
1.158285
 20
0.034087
 30
0.000000
  0
VERTEX
  8
LAYER-1
 10
1.185356
 20
0.034087
 30
0.000000
  0
VERTEX
  8
LAYER-1
 10
1.212426
 20
0.034087
 30
0.000000
  0
VERTEX
  8
LAYER-1
 10
1.235630
 20
0.034087
 30
0.000000
  0
VERTEX
  8
LAYER-1
 10
1.258833
 20
0.030615
 30
0.000000
  0
VERTEX
  8
LAYER-1
 10
1.297505
 20
0.030615
 30
0.000000
  0
VERTEX
  8
LAYER-1
 10
1.328443
 20
0.030615
 30
0.000000
  0
VERTEX
  8
LAYER-1
 10
1.347779
 20
0.027143
 30
0.000000
  0
VERTEX
  8
LAYER-1
 10
1.378718
 20
0.023671
 30
0.000000
  0
VERTEX
  8
LAYER-1
 10
1.409655
 20
0.020198
 30
0.000000
  0
VERTEX
  8
LAYER-1
 10
1.448327
 20
0.020198
 30
0.000000
  0
VERTEX
  8
LAYER-1
 10
1.479265
 20
0.020198
 30
0.000000
  0
VERTEX
  8
LAYER-1
 10
1.517937
 20
0.020198
 30
0.000000
  0
VERTEX
  8
LAYER-1
 10
1.548875
 20
0.027143
 30
0.000000
  0
VERTEX
  8
LAYER-1
 10
1.572079
 20
0.027143
 30
0.000000
  0
VERTEX
  8
LAYER-1
 10
1.591414
 20
0.030615
 30
0.000000
  0
VERTEX
  8
LAYER-1
 10
1.614618
 20
0.030615
 30
0.000000
  0
VERTEX
  8
LAYER-1
 10
1.633954
 20
0.030615
 30
0.000000
  0
VERTEX
  8
LAYER-1
 10
1.676494
 20
0.030615
 30
0.000000
  0
VERTEX
  8
LAYER-1
 10
1.722900
 20
0.023671
 30
0.000000
  0
VERTEX
  8
LAYER-1
 10
1.765440
 20
0.020198
 30
0.000000
  0
VERTEX
  8
LAYER-1
 10
1.827316
 20
0.013253
 30
0.000000
  0
VERTEX
  8
LAYER-1
 10
1.885324
 20
0.006310
 30
0.000000
  0
VERTEX
  8
LAYER-1
 10
1.935598
 20
0.006310
 30
0.000000
  0
VERTEX
  8
LAYER-1
 10
1.962669
 20
0.006310
 30
0.000000
  0
VERTEX
  8
LAYER-1
 10
1.997474
 20
0.006310
 30
0.000000
  0
VERTEX
  8
LAYER-1
 10
2.017777
 20
0.007178
 30
0.000000
  0
VERTEX
  8
LAYER-1
 10
2.054999
 20
0.009347
 30
0.000000
  0
VERTEX
  8
LAYER-1
 10
2.101889
 20
0.020198
 30
0.000000
  0
VERTEX
  8
LAYER-1
 10
2.144428
 20
0.034087
 30
0.000000
  0
VERTEX
  8
LAYER-1
 10
2.179233
 20
0.044503
 30
0.000000
  0
VERTEX
  8
LAYER-1
 10
2.206304
 20
0.054921
 30
0.000000
  0
VERTEX
  8
LAYER-1
 10
2.229507
 20
0.061865
 30
0.000000
  0
VERTEX
  8
LAYER-1
 10
2.252710
 20
0.061865
 30
0.000000
  0
VERTEX
  8
LAYER-1
 10
2.275914
 20
0.061865
 30
0.000000
  0
VERTEX
  8
LAYER-1
 10
2.299117
 20
0.061865
 30
0.000000
  0
VERTEX
  8
LAYER-1
 10
2.333923
 20
0.054921
 30
0.000000
  0
VERTEX
  8
LAYER-1
 10
2.364860
 20
0.047976
 30
0.000000
  0
VERTEX
  8
LAYER-1
 10
2.388064
 20
0.041032
 30
0.000000
  0
VERTEX
  8
LAYER-1
 10
2.407400
 20
0.037560
 30
0.000000
  0
VERTEX
  8
LAYER-1
 10
2.430603
 20
0.030615
 30
0.000000
  0
VERTEX
  8
LAYER-1
 10
2.449940
 20
0.023671
 30
0.000000
  0
VERTEX
  8
LAYER-1
 10
2.473142
 20
0.020198
 30
0.000000
  0
VERTEX
  8
LAYER-1
 10
2.492479
 20
0.020198
 30
0.000000
  0
VERTEX
  8
LAYER-1
 10
2.523417
 20
0.016726
 30
0.000000
  0
VERTEX
  8
LAYER-1
 10
2.550487
 20
0.016726
 30
0.000000
  0
VERTEX
  8
LAYER-1
 10
2.585292
 20
0.016726
 30
0.000000
  0
VERTEX
  8
LAYER-1
 10
2.612363
 20
0.020198
 30
0.000000
  0
VERTEX
  8
LAYER-1
 10
2.647168
 20
0.030615
 30
0.000000
  0
VERTEX
  8
LAYER-1
 10
2.666504
 20
0.030615
 30
0.000000
  0
VERTEX
  8
LAYER-1
 10
2.689707
 20
0.030615
 30
0.000000
  0
VERTEX
  8
LAYER-1
 10
2.709044
 20
0.030615
 30
0.000000
  0
VERTEX
  8
LAYER-1
 10
2.732247
 20
0.034087
 30
0.000000
  0
VERTEX
  8
LAYER-1
 10
2.755450
 20
0.037560
 30
0.000000
  0
VERTEX
  8
LAYER-1
 10
2.786388
 20
0.037560
 30
0.000000
  0
VERTEX
  8
LAYER-1
 10
2.817326
 20
0.037560
 30
0.000000
  0
VERTEX
  8
LAYER-1
 10
2.840529
 20
0.037560
 30
0.000000
  0
VERTEX
  8
LAYER-1
 10
2.863733
 20
0.037560
 30
0.000000
  0
VERTEX
  8
LAYER-1
 10
2.883069
 20
0.034087
 30
0.000000
  0
VERTEX
  8
LAYER-1
 10
2.902405
 20
0.030615
 30
0.000000
  0
VERTEX
  8
LAYER-1
 10
2.921741
 20
0.027143
 30
0.000000
  0
VERTEX
  8
LAYER-1
 10
2.941077
 20
0.023671
 30
0.000000
  0
VERTEX
  8
LAYER-1
 10
2.972015
 20
0.016726
 30
0.000000
  0
VERTEX
  8
LAYER-1
 10
2.995218
 20
0.013253
 30
0.000000
  0
VERTEX
  8
LAYER-1
 10
3.018421
 20
0.013253
 30
0.000000
  0
VERTEX
  8
LAYER-1
 10
3.037758
 20
0.013253
 30
0.000000
  0
VERTEX
  8
LAYER-1
 10
3.064828
 20
0.013253
 30
0.000000
  0
VERTEX
  8
LAYER-1
 10
3.095766
 20
0.016726
 30
0.000000
  0
VERTEX
  8
LAYER-1
 10
3.149907
 20
0.027143
 30
0.000000
  0
VERTEX
  8
LAYER-1
 10
3.196314
 20
0.037560
 30
0.000000
  0
VERTEX
  8
LAYER-1
 10
3.238854
 20
0.044503
 30
0.000000
  0
VERTEX
  8
LAYER-1
 10
3.269791
 20
0.047976
 30
0.000000
  0
VERTEX
  8
LAYER-1
 10
3.308464
 20
0.051448
 30
0.000000
  0
VERTEX
  8
LAYER-1
 10
3.339402
 20
0.054921
 30
0.000000
  0
VERTEX
  8
LAYER-1
 10
3.365022
 20
0.055789
 30
0.000000
  0
VERTEX
  8
LAYER-1
 10
3.382424
 20
0.053619
 30
0.000000
  0
VERTEX
  8
LAYER-1
 10
3.403694
 20
0.048844
 30
0.000000
  0
VERTEX
  8
LAYER-1
 10
3.424481
 20
0.037560
 30
0.000000
  0
VERTEX
  8
LAYER-1
 10
3.447684
 20
0.034087
 30
0.000000
  0
VERTEX
  8
LAYER-1
 10
3.467020
 20
0.034087
 30
0.000000
  0
VERTEX
  8
LAYER-1
 10
3.486357
 20
0.034087
 30
0.000000
  0
VERTEX
  8
LAYER-1
 10
3.505693
 20
0.034087
 30
0.000000
  0
VERTEX
  8
LAYER-1
 10
3.536630
 20
0.034087
 30
0.000000
  0
VERTEX
  8
LAYER-1
 10
3.559834
 20
0.034087
 30
0.000000
  0
VERTEX
  8
LAYER-1
 10
3.583037
 20
0.034087
 30
0.000000
  0
VERTEX
  8
LAYER-1
 10
3.602373
 20
0.034087
 30
0.000000
  0
VERTEX
  8
LAYER-1
 10
3.625577
 20
0.034087
 30
0.000000
  0
VERTEX
  8
LAYER-1
 10
3.648780
 20
0.034087
 30
0.000000
  0
VERTEX
  8
LAYER-1
 10
3.668117
 20
0.034087
 30
0.000000
  0
VERTEX
  8
LAYER-1
 10
3.695187
 20
0.034087
 30
0.000000
  0
VERTEX
  8
LAYER-1
 10
3.718389
 20
0.030615
 30
0.000000
  0
VERTEX
  8
LAYER-1
 10
3.740626
 20
0.022803
 30
0.000000
  0
VERTEX
  8
LAYER-1
 10
3.781233
 20
0.020198
 30
0.000000
  0
VERTEX
  8
LAYER-1
 10
3.818938
 20
0.023671
 30
0.000000
  0
VERTEX
  8
LAYER-1
 10
3.838274
 20
0.030615
 30
0.000000
  0
VERTEX
  8
LAYER-1
 10
3.861477
 20
0.037560
 30
0.000000
  0
VERTEX
  8
LAYER-1
 10
3.881297
 20
0.041466
 30
0.000000
  0
VERTEX
  8
LAYER-1
 10
3.904017
 20
0.047976
 30
0.000000
  0
VERTEX
  8
LAYER-1
 10
3.927220
 20
0.047976
 30
0.000000
  0
VERTEX
  8
LAYER-1
 10
3.950423
 20
0.044503
 30
0.000000
  0
VERTEX
  8
LAYER-1
 10
3.973627
 20
0.044503
 30
0.000000
  0
VERTEX
  8
LAYER-1
 10
3.996830
 20
0.044503
 30
0.000000
  0
VERTEX
  8
LAYER-1
 10
4.016167
 20
0.041032
 30
0.000000
  0
VERTEX
  8
LAYER-1
 10
4.043237
 20
0.041032
 30
0.000000
  0
VERTEX
  8
LAYER-1
 10
4.074175
 20
0.041032
 30
0.000000
  0
VERTEX
  8
LAYER-1
 10
4.105113
 20
0.047976
 30
0.000000
  0
VERTEX
  8
LAYER-1
 10
4.124449
 20
0.051448
 30
0.000000
  0
VERTEX
  8
LAYER-1
 10
4.151519
 20
0.051448
 30
0.000000
  0
VERTEX
  8
LAYER-1
 10
4.174723
 20
0.054921
 30
0.000000
  0
VERTEX
  8
LAYER-1
 10
4.205661
 20
0.058393
 30
0.000000
  0
VERTEX
  8
LAYER-1
 10
4.228864
 20
0.058393
 30
0.000000
  0
VERTEX
  8
LAYER-1
 10
4.259803
 20
0.054921
 30
0.000000
  0
VERTEX
  8
LAYER-1
 10
4.302342
 20
0.044503
 30
0.000000
  0
VERTEX
  8
LAYER-1
 10
4.333280
 20
0.034087
 30
0.000000
  0
VERTEX
  8
LAYER-1
 10
4.368084
 20
0.023671
 30
0.000000
  0
VERTEX
  8
LAYER-1
 10
4.411108
 20
0.016725
 30
0.000000
  0
VERTEX
  8
LAYER-1
 10
4.458481
 20
0.017593
 30
0.000000
  0
VERTEX
  8
LAYER-1
 10
4.513589
 20
0.020197
 30
0.000000
  0
VERTEX
  8
LAYER-1
 10
4.580781
 20
0.020197
 30
0.000000
  0
VERTEX
  8
LAYER-1
 10
4.626222
 20
0.008913
 30
0.000000
  0
VERTEX
  8
LAYER-1
 10
4.656193
 20
0.002836
 30
0.000000
  0
VERTEX
  8
LAYER-1
 10
4.679397
 20
0.001968
 30
0.000000
  0
VERTEX
  8
LAYER-1
 10
4.714202
 20
0.001969
 30
0.000000
  0
VERTEX
  8
LAYER-1
 10
4.739338
 20
0.006310
 30
0.000000
  0
VERTEX
  8
LAYER-1
 10
4.766409
 20
0.016726
 30
0.000000
  0
VERTEX
  8
LAYER-1
 10
4.801214
 20
0.023671
 30
0.000000
  0
VERTEX
  8
LAYER-1
 10
4.828284
 20
0.030615
 30
0.000000
  0
VERTEX
  8
LAYER-1
 10
4.851488
 20
0.034087
 30
0.000000
  0
VERTEX
  8
LAYER-1
 10
4.874691
 20
0.037560
 30
0.000000
  0
VERTEX
  8
LAYER-1
 10
4.901761
 20
0.041032
 30
0.000000
  0
VERTEX
  8
LAYER-1
 10
4.928832
 20
0.047976
 30
0.000000
  0
VERTEX
  8
LAYER-1
 10
4.948168
 20
0.051448
 30
0.000000
  0
VERTEX
  8
LAYER-1
 10
4.979106
 20
0.054921
 30
0.000000
  0
VERTEX
  8
LAYER-1
 10
5.002310
 20
0.061865
 30
0.000000
  0
VERTEX
  8
LAYER-1
 10
5.025996
 20
0.072716
 30
0.000000
  0
VERTEX
  8
LAYER-1
 10
5.048716
 20
0.079226
 30
0.000000
  0
VERTEX
  8
LAYER-1
 10
5.071919
 20
0.079226
 30
0.000000
  0
VERTEX
  8
LAYER-1
 10
5.098989
 20
0.079226
 30
0.000000
  0
VERTEX
  8
LAYER-1
 10
5.126060
 20
0.079226
 30
0.000000
  0
VERTEX
  8
LAYER-1
 10
5.164733
 20
0.075753
 30
0.000000
  0
VERTEX
  8
LAYER-1
 10
5.218874
 20
0.072282
 30
0.000000
  0
VERTEX
  8
LAYER-1
 10
5.261414
 20
0.072282
 30
0.000000
  0
VERTEX
  8
LAYER-1
 10
5.292351
 20
0.072282
 30
0.000000
  0
VERTEX
  8
LAYER-1
 10
5.315555
 20
0.072282
 30
0.000000
  0
VERTEX
  8
LAYER-1
 10
5.338758
 20
0.072282
 30
0.000000
  0
VERTEX
  8
LAYER-1
 10
5.369696
 20
0.075753
 30
0.000000
  0
VERTEX
  8
LAYER-1
 10
5.408369
 20
0.075753
 30
0.000000
  0
VERTEX
  8
LAYER-1
 10
5.439306
 20
0.075753
 30
0.000000
  0
VERTEX
  8
LAYER-1
 10
5.462510
 20
0.079226
 30
0.000000
  0
VERTEX
  8
LAYER-1
 10
5.493447
 20
0.079226
 30
0.000000
  0
VERTEX
  8
LAYER-1
 10
5.512783
 20
0.079226
 30
0.000000
  0
VERTEX
  8
LAYER-1
 10
5.543722
 20
0.070546
 30
0.000000
  0
VERTEX
  8
LAYER-1
 10
5.570792
 20
0.058393
 30
0.000000
  0
VERTEX
  8
LAYER-1
 10
5.605596
 20
0.044503
 30
0.000000
  0
VERTEX
  8
LAYER-1
 10
5.632667
 20
0.037560
 30
0.000000
  0
VERTEX
  8
LAYER-1
 10
5.663606
 20
0.030615
 30
0.000000
  0
VERTEX
  8
LAYER-1
 10
5.691159
 20
0.028445
 30
0.000000
  0
VERTEX
  8
LAYER-1
 10
5.717747
 20
0.027143
 30
0.000000
  0
VERTEX
  8
LAYER-1
 10
5.740951
 20
0.030615
 30
0.000000
  0
VERTEX
  8
LAYER-1
 10
5.764153
 20
0.037560
 30
0.000000
  0
VERTEX
  8
LAYER-1
 10
5.791224
 20
0.041032
 30
0.000000
  0
VERTEX
  8
LAYER-1
 10
5.814427
 20
0.044503
 30
0.000000
  0
VERTEX
  8
LAYER-1
 10
5.837631
 20
0.047976
 30
0.000000
  0
VERTEX
  8
LAYER-1
 10
5.856966
 20
0.051448
 30
0.000000
  0
VERTEX
  8
LAYER-1
 10
5.880170
 20
0.051448
 30
0.000000
  0
VERTEX
  8
LAYER-1
 10
5.907241
 20
0.051448
 30
0.000000
  0
VERTEX
  8
LAYER-1
 10
5.927060
 20
0.054053
 30
0.000000
  0
VERTEX
  8
LAYER-1
 10
5.953646
 20
0.058393
 30
0.000000
  0
VERTEX
  8
LAYER-1
 10
5.976850
 20
0.065337
 30
0.000000
  0
VERTEX
  8
LAYER-1
 10
6.007788
 20
0.065337
 30
0.000000
  0
VERTEX
  8
LAYER-1
 10
6.038727
 20
0.065337
 30
0.000000
  0
VERTEX
  8
LAYER-1
 10
6.058062
 20
0.065337
 30
0.000000
  0
VERTEX
  8
LAYER-1
 10
6.112203
 20
0.058393
 30
0.000000
  0
VERTEX
  8
LAYER-1
 10
6.143142
 20
0.051448
 30
0.000000
  0
VERTEX
  8
LAYER-1
 10
6.162477
 20
0.047976
 30
0.000000
  0
VERTEX
  8
LAYER-1
 10
6.197283
 20
0.047976
 30
0.000000
  0
VERTEX
  8
LAYER-1
 10
6.220969
 20
0.055355
 30
0.000000
  0
VERTEX
  8
LAYER-1
 10
6.242722
 20
0.056222
 30
0.000000
  0
VERTEX
  8
LAYER-1
 10
6.294447
 20
0.063167
 30
0.000000
  0
VERTEX
  8
LAYER-1
 10
6.342787
 20
0.073150
 30
0.000000
  0
VERTEX
  8
LAYER-1
 10
6.379042
 20
0.076622
 30
0.000000
  0
VERTEX
  8
LAYER-1
 10
6.411914
 20
0.077056
 30
0.000000
  0
VERTEX
  8
LAYER-1
 10
6.428832
 20
0.072282
 30
0.000000
  0
VERTEX
  8
LAYER-1
 10
6.447202
 20
0.068810
 30
0.000000
  0
VERTEX
  8
LAYER-1
 10
6.478141
 20
0.063601
 30
0.000000
  0
VERTEX
  8
LAYER-1
 10
6.518263
 20
0.071847
 30
0.000000
  0
VERTEX
  8
LAYER-1
 10
6.533732
 20
0.079226
 30
0.000000
  0
VERTEX
  8
LAYER-1
 10
6.556936
 20
0.079226
 30
0.000000
  0
VERTEX
  8
LAYER-1
 10
6.580137
 20
0.079226
 30
0.000000
  0
VERTEX
  8
LAYER-1
 10
6.607208
 20
0.072282
 30
0.000000
  0
VERTEX
  8
LAYER-1
 10
6.630412
 20
0.058393
 30
0.000000
  0
VERTEX
  8
LAYER-1
 10
6.657482
 20
0.047976
 30
0.000000
  0
VERTEX
  8
LAYER-1
 10
6.684553
 20
0.037560
 30
0.000000
  0
VERTEX
  8
LAYER-1
 10
6.707757
 20
0.037560
 30
0.000000
  0
VERTEX
  8
LAYER-1
 10
6.737781
 20
0.037543
 30
0.000000
  0
VERTEX
  8
LAYER-1
 10
6.761898
 20
0.047976
 30
0.000000
  0
SEQEND
  8
LAYER-1
  0
TEXT
  8
LAYER-1
 62
  0
 10
1.809856
 20
8.461170
 30
0.000000
 40
0.125000
  1
POLICARBONATO
 72
  5
 11
3.282078
 21
8.461170
 31
0.000000
  0
TEXT
  8
LAYER-1
 62
  0
 10
5.879300
 20
0.544503
 30
0.000000
 40
0.125000
  1
Vano
 72
  5
 11
6.337634
 21
0.544503
 31
0.000000
  0
TEXT
  8
LAYER-1
 62
  0
 10
5.879300
 20
0.350059
 30
0.000000
 40
0.125000
  1
antipolvere
 72
  5
 11
6.782078
 21
0.350059
 31
0.000000
  0
POLYLINE
  8
LAYER-1
 66
  1
 70
  0
 62
  0
 10
5.868356
 20
0.468114
 30
0.000000
  0
VERTEX
  8
LAYER-1
 10
5.868356
 20
0.468114
 30
0.000000
  0
VERTEX
  8
LAYER-1
 10
3.804490
 20
0.158535
 30
0.000000
  0
SEQEND
  8
LAYER-1
  0
POLYLINE
  8
LAYER-1
 66
  1
 70
  1
 62
  0
  0
VERTEX
  8
LAYER-1
 10
3.785022
 20
0.155614
 30
0.000000
  0
VERTEX
  8
LAYER-1
 10
3.847517
 20
0.207121
 30
0.000000
  0
VERTEX
  8
LAYER-1
 10
3.853698
 20
0.165916
 30
0.000000
  0
VERTEX
  8
LAYER-1
 10
3.859879
 20
0.124710
 30
0.000000
  0
VERTEX
  8
LAYER-1
 10
3.785022
 20
0.155614
 30
0.000000
  0
SEQEND
  8
LAYER-1
  0
POLYLINE
  8
LAYER-1
 66
  1
 70
  1
 62
  0
  0
VERTEX
  8
LAYER-1
 10
1.831183
 20
7.153872
 30
0.000000
  0
VERTEX
  8
LAYER-1
 10
2.155809
 20
7.153872
 30
0.000000
  0
VERTEX
  8
LAYER-1
 10
2.155809
 20
7.136246
 30
0.000000
  0
VERTEX
  8
LAYER-1
 10
1.831183
 20
7.136246
 30
0.000000
  0
SEQEND
  8
LAYER-1
  0
POLYLINE
  8
LAYER-1
 66
  1
 70
  1
 62
  0
  0
VERTEX
  8
LAYER-1
 10
2.241183
 20
7.153872
 30
0.000000
  0
VERTEX
  8
LAYER-1
 10
2.565809
 20
7.153872
 30
0.000000
  0
VERTEX
  8
LAYER-1
 10
2.565809
 20
7.136246
 30
0.000000
  0
VERTEX
  8
LAYER-1
 10
2.241183
 20
7.136246
 30
0.000000
  0
SEQEND
  8
LAYER-1
  0
POLYLINE
  8
LAYER-1
 66
  1
 70
  1
 62
  0
  0
VERTEX
  8
LAYER-1
 10
2.651183
 20
7.153872
 30
0.000000
  0
VERTEX
  8
LAYER-1
 10
2.975810
 20
7.153872
 30
0.000000
  0
VERTEX
  8
LAYER-1
 10
2.975810
 20
7.136246
 30
0.000000
  0
VERTEX
  8
LAYER-1
 10
2.651183
 20
7.136246
 30
0.000000
  0
SEQEND
  8
LAYER-1
  0
POLYLINE
  8
LAYER-1
 66
  1
 70
  1
 62
  0
  0
VERTEX
  8
LAYER-1
 10
3.061183
 20
7.153872
 30
0.000000
  0
VERTEX
  8
LAYER-1
 10
3.385810
 20
7.153872
 30
0.000000
  0
VERTEX
  8
LAYER-1
 10
3.385810
 20
7.136246
 30
0.000000
  0
VERTEX
  8
LAYER-1
 10
3.061183
 20
7.136246
 30
0.000000
  0
SEQEND
  8
LAYER-1
  0
POLYLINE
  8
LAYER-1
 66
  1
 70
  1
 62
  0
  0
VERTEX
  8
LAYER-1
 10
4.150003
 20
7.153872
 30
0.000000
  0
VERTEX
  8
LAYER-1
 10
4.474628
 20
7.153872
 30
0.000000
  0
VERTEX
  8
LAYER-1
 10
4.474628
 20
7.136246
 30
0.000000
  0
VERTEX
  8
LAYER-1
 10
4.150003
 20
7.136246
 30
0.000000
  0
SEQEND
  8
LAYER-1
  0
POLYLINE
  8
LAYER-1
 66
  1
 70
  1
 62
  0
  0
VERTEX
  8
LAYER-1
 10
4.560002
 20
7.153872
 30
0.000000
  0
VERTEX
  8
LAYER-1
 10
4.884629
 20
7.153872
 30
0.000000
  0
VERTEX
  8
LAYER-1
 10
4.884629
 20
7.136246
 30
0.000000
  0
VERTEX
  8
LAYER-1
 10
4.560002
 20
7.136246
 30
0.000000
  0
SEQEND
  8
LAYER-1
  0
POLYLINE
  8
LAYER-1
 66
  1
 70
  1
 62
  0
  0
VERTEX
  8
LAYER-1
 10
4.970002
 20
7.153872
 30
0.000000
  0
VERTEX
  8
LAYER-1
 10
5.294629
 20
7.153872
 30
0.000000
  0
VERTEX
  8
LAYER-1
 10
5.294629
 20
7.136246
 30
0.000000
  0
VERTEX
  8
LAYER-1
 10
4.970002
 20
7.136246
 30
0.000000
  0
SEQEND
  8
LAYER-1
  0
POLYLINE
  8
LAYER-1
 66
  1
 70
  1
 62
  0
  0
VERTEX
  8
LAYER-1
 10
5.380002
 20
7.153872
 30
0.000000
  0
VERTEX
  8
LAYER-1
 10
5.704629
 20
7.153872
 30
0.000000
  0
VERTEX
  8
LAYER-1
 10
5.704629
 20
7.136246
 30
0.000000
  0
VERTEX
  8
LAYER-1
 10
5.380002
 20
7.136246
 30
0.000000
  0
SEQEND
  8
LAYER-1
  0
POLYLINE
  8
LAYER-1
 66
  1
 70
  1
 62
  0
  0
VERTEX
  8
LAYER-1
 10
1.831183
 20
3.967672
 30
0.000000
  0
VERTEX
  8
LAYER-1
 10
2.155809
 20
3.967672
 30
0.000000
  0
VERTEX
  8
LAYER-1
 10
2.155809
 20
3.950045
 30
0.000000
  0
VERTEX
  8
LAYER-1
 10
1.831183
 20
3.950045
 30
0.000000
  0
SEQEND
  8
LAYER-1
  0
POLYLINE
  8
LAYER-1
 66
  1
 70
  1
 62
  0
  0
VERTEX
  8
LAYER-1
 10
2.241183
 20
3.967672
 30
0.000000
  0
VERTEX
  8
LAYER-1
 10
2.565809
 20
3.967672
 30
0.000000
  0
VERTEX
  8
LAYER-1
 10
2.565809
 20
3.950045
 30
0.000000
  0
VERTEX
  8
LAYER-1
 10
2.241183
 20
3.950045
 30
0.000000
  0
SEQEND
  8
LAYER-1
  0
POLYLINE
  8
LAYER-1
 66
  1
 70
  1
 62
  0
  0
VERTEX
  8
LAYER-1
 10
2.651183
 20
3.967672
 30
0.000000
  0
VERTEX
  8
LAYER-1
 10
2.975810
 20
3.967672
 30
0.000000
  0
VERTEX
  8
LAYER-1
 10
2.975810
 20
3.950045
 30
0.000000
  0
VERTEX
  8
LAYER-1
 10
2.651183
 20
3.950045
 30
0.000000
  0
SEQEND
  8
LAYER-1
  0
POLYLINE
  8
LAYER-1
 66
  1
 70
  1
 62
  0
  0
VERTEX
  8
LAYER-1
 10
3.061183
 20
3.967672
 30
0.000000
  0
VERTEX
  8
LAYER-1
 10
3.385810
 20
3.967672
 30
0.000000
  0
VERTEX
  8
LAYER-1
 10
3.385810
 20
3.950045
 30
0.000000
  0
VERTEX
  8
LAYER-1
 10
3.061183
 20
3.950045
 30
0.000000
  0
SEQEND
  8
LAYER-1
  0
POLYLINE
  8
LAYER-1
 66
  1
 70
  1
 62
  0
  0
VERTEX
  8
LAYER-1
 10
4.150003
 20
3.967672
 30
0.000000
  0
VERTEX
  8
LAYER-1
 10
4.474628
 20
3.967672
 30
0.000000
  0
VERTEX
  8
LAYER-1
 10
4.474628
 20
3.950045
 30
0.000000
  0
VERTEX
  8
LAYER-1
 10
4.150003
 20
3.950045
 30
0.000000
  0
SEQEND
  8
LAYER-1
  0
POLYLINE
  8
LAYER-1
 66
  1
 70
  1
 62
  0
  0
VERTEX
  8
LAYER-1
 10
4.560002
 20
3.967672
 30
0.000000
  0
VERTEX
  8
LAYER-1
 10
4.884629
 20
3.967672
 30
0.000000
  0
VERTEX
  8
LAYER-1
 10
4.884629
 20
3.950045
 30
0.000000
  0
VERTEX
  8
LAYER-1
 10
4.560002
 20
3.950045
 30
0.000000
  0
SEQEND
  8
LAYER-1
  0
POLYLINE
  8
LAYER-1
 66
  1
 70
  1
 62
  0
  0
VERTEX
  8
LAYER-1
 10
4.970002
 20
3.967672
 30
0.000000
  0
VERTEX
  8
LAYER-1
 10
5.294629
 20
3.967672
 30
0.000000
  0
VERTEX
  8
LAYER-1
 10
5.294629
 20
3.950045
 30
0.000000
  0
VERTEX
  8
LAYER-1
 10
4.970002
 20
3.950045
 30
0.000000
  0
SEQEND
  8
LAYER-1
  0
POLYLINE
  8
LAYER-1
 66
  1
 70
  1
 62
  0
  0
VERTEX
  8
LAYER-1
 10
5.380002
 20
3.967672
 30
0.000000
  0
VERTEX
  8
LAYER-1
 10
5.704629
 20
3.967672
 30
0.000000
  0
VERTEX
  8
LAYER-1
 10
5.704629
 20
3.950045
 30
0.000000
  0
VERTEX
  8
LAYER-1
 10
5.380002
 20
3.950045
 30
0.000000
  0
SEQEND
  8
LAYER-1
  0
POLYLINE
  8
LAYER-1
 66
  1
 70
  1
 62
  0
  0
VERTEX
  8
LAYER-1
 10
1.831183
 20
3.872620
 30
0.000000
  0
VERTEX
  8
LAYER-1
 10
2.155809
 20
3.872620
 30
0.000000
  0
VERTEX
  8
LAYER-1
 10
2.155809
 20
3.854994
 30
0.000000
  0
VERTEX
  8
LAYER-1
 10
1.831183
 20
3.854994
 30
0.000000
  0
SEQEND
  8
LAYER-1
  0
POLYLINE
  8
LAYER-1
 66
  1
 70
  1
 62
  0
  0
VERTEX
  8
LAYER-1
 10
2.241183
 20
3.872620
 30
0.000000
  0
VERTEX
  8
LAYER-1
 10
2.565809
 20
3.872620
 30
0.000000
  0
VERTEX
  8
LAYER-1
 10
2.565809
 20
3.854994
 30
0.000000
  0
VERTEX
  8
LAYER-1
 10
2.241183
 20
3.854994
 30
0.000000
  0
SEQEND
  8
LAYER-1
  0
POLYLINE
  8
LAYER-1
 66
  1
 70
  1
 62
  0
  0
VERTEX
  8
LAYER-1
 10
2.651183
 20
3.872620
 30
0.000000
  0
VERTEX
  8
LAYER-1
 10
2.975810
 20
3.872620
 30
0.000000
  0
VERTEX
  8
LAYER-1
 10
2.975810
 20
3.854994
 30
0.000000
  0
VERTEX
  8
LAYER-1
 10
2.651183
 20
3.854994
 30
0.000000
  0
SEQEND
  8
LAYER-1
  0
POLYLINE
  8
LAYER-1
 66
  1
 70
  1
 62
  0
  0
VERTEX
  8
LAYER-1
 10
3.061183
 20
3.872620
 30
0.000000
  0
VERTEX
  8
LAYER-1
 10
3.385810
 20
3.872620
 30
0.000000
  0
VERTEX
  8
LAYER-1
 10
3.385810
 20
3.854994
 30
0.000000
  0
VERTEX
  8
LAYER-1
 10
3.061183
 20
3.854994
 30
0.000000
  0
SEQEND
  8
LAYER-1
  0
POLYLINE
  8
LAYER-1
 66
  1
 70
  1
 62
  0
  0
VERTEX
  8
LAYER-1
 10
4.150003
 20
3.872620
 30
0.000000
  0
VERTEX
  8
LAYER-1
 10
4.474628
 20
3.872620
 30
0.000000
  0
VERTEX
  8
LAYER-1
 10
4.474628
 20
3.854994
 30
0.000000
  0
VERTEX
  8
LAYER-1
 10
4.150003
 20
3.854994
 30
0.000000
  0
SEQEND
  8
LAYER-1
  0
POLYLINE
  8
LAYER-1
 66
  1
 70
  1
 62
  0
  0
VERTEX
  8
LAYER-1
 10
4.560002
 20
3.872620
 30
0.000000
  0
VERTEX
  8
LAYER-1
 10
4.884629
 20
3.872620
 30
0.000000
  0
VERTEX
  8
LAYER-1
 10
4.884629
 20
3.854994
 30
0.000000
  0
VERTEX
  8
LAYER-1
 10
4.560002
 20
3.854994
 30
0.000000
  0
SEQEND
  8
LAYER-1
  0
POLYLINE
  8
LAYER-1
 66
  1
 70
  1
 62
  0
  0
VERTEX
  8
LAYER-1
 10
4.970002
 20
3.872620
 30
0.000000
  0
VERTEX
  8
LAYER-1
 10
5.294629
 20
3.872620
 30
0.000000
  0
VERTEX
  8
LAYER-1
 10
5.294629
 20
3.854994
 30
0.000000
  0
VERTEX
  8
LAYER-1
 10
4.970002
 20
3.854994
 30
0.000000
  0
SEQEND
  8
LAYER-1
  0
POLYLINE
  8
LAYER-1
 66
  1
 70
  1
 62
  0
  0
VERTEX
  8
LAYER-1
 10
5.380002
 20
3.872620
 30
0.000000
  0
VERTEX
  8
LAYER-1
 10
5.704629
 20
3.872620
 30
0.000000
  0
VERTEX
  8
LAYER-1
 10
5.704629
 20
3.854994
 30
0.000000
  0
VERTEX
  8
LAYER-1
 10
5.380002
 20
3.854994
 30
0.000000
  0
SEQEND
  8
LAYER-1
  0
POLYLINE
  8
LAYER-1
 66
  1
 70
  1
 62
  0
  0
VERTEX
  8
LAYER-1
 10
1.831183
 20
0.688598
 30
0.000000
  0
VERTEX
  8
LAYER-1
 10
2.155809
 20
0.688598
 30
0.000000
  0
VERTEX
  8
LAYER-1
 10
2.155809
 20
0.670970
 30
0.000000
  0
VERTEX
  8
LAYER-1
 10
1.831183
 20
0.670970
 30
0.000000
  0
SEQEND
  8
LAYER-1
  0
POLYLINE
  8
LAYER-1
 66
  1
 70
  1
 62
  0
  0
VERTEX
  8
LAYER-1
 10
2.241183
 20
0.688598
 30
0.000000
  0
VERTEX
  8
LAYER-1
 10
2.565809
 20
0.688598
 30
0.000000
  0
VERTEX
  8
LAYER-1
 10
2.565809
 20
0.670970
 30
0.000000
  0
VERTEX
  8
LAYER-1
 10
2.241183
 20
0.670970
 30
0.000000
  0
SEQEND
  8
LAYER-1
  0
POLYLINE
  8
LAYER-1
 66
  1
 70
  1
 62
  0
  0
VERTEX
  8
LAYER-1
 10
2.651183
 20
0.688598
 30
0.000000
  0
VERTEX
  8
LAYER-1
 10
2.975810
 20
0.688598
 30
0.000000
  0
VERTEX
  8
LAYER-1
 10
2.975810
 20
0.670970
 30
0.000000
  0
VERTEX
  8
LAYER-1
 10
2.651183
 20
0.670970
 30
0.000000
  0
SEQEND
  8
LAYER-1
  0
POLYLINE
  8
LAYER-1
 66
  1
 70
  1
 62
  0
  0
VERTEX
  8
LAYER-1
 10
3.061183
 20
0.688598
 30
0.000000
  0
VERTEX
  8
LAYER-1
 10
3.385810
 20
0.688598
 30
0.000000
  0
VERTEX
  8
LAYER-1
 10
3.385810
 20
0.670970
 30
0.000000
  0
VERTEX
  8
LAYER-1
 10
3.061183
 20
0.670970
 30
0.000000
  0
SEQEND
  8
LAYER-1
  0
POLYLINE
  8
LAYER-1
 66
  1
 70
  1
 62
  0
  0
VERTEX
  8
LAYER-1
 10
4.150003
 20
0.688598
 30
0.000000
  0
VERTEX
  8
LAYER-1
 10
4.474628
 20
0.688598
 30
0.000000
  0
VERTEX
  8
LAYER-1
 10
4.474628
 20
0.670970
 30
0.000000
  0
VERTEX
  8
LAYER-1
 10
4.150003
 20
0.670970
 30
0.000000
  0
SEQEND
  8
LAYER-1
  0
POLYLINE
  8
LAYER-1
 66
  1
 70
  1
 62
  0
  0
VERTEX
  8
LAYER-1
 10
4.560002
 20
0.688598
 30
0.000000
  0
VERTEX
  8
LAYER-1
 10
4.884629
 20
0.688598
 30
0.000000
  0
VERTEX
  8
LAYER-1
 10
4.884629
 20
0.670970
 30
0.000000
  0
VERTEX
  8
LAYER-1
 10
4.560002
 20
0.670970
 30
0.000000
  0
SEQEND
  8
LAYER-1
  0
POLYLINE
  8
LAYER-1
 66
  1
 70
  1
 62
  0
  0
VERTEX
  8
LAYER-1
 10
4.970002
 20
0.688598
 30
0.000000
  0
VERTEX
  8
LAYER-1
 10
5.294629
 20
0.688598
 30
0.000000
  0
VERTEX
  8
LAYER-1
 10
5.294629
 20
0.670970
 30
0.000000
  0
VERTEX
  8
LAYER-1
 10
4.970002
 20
0.670970
 30
0.000000
  0
SEQEND
  8
LAYER-1
  0
POLYLINE
  8
LAYER-1
 66
  1
 70
  1
 62
  0
  0
VERTEX
  8
LAYER-1
 10
5.380002
 20
0.688598
 30
0.000000
  0
VERTEX
  8
LAYER-1
 10
5.704629
 20
0.688598
 30
0.000000
  0
VERTEX
  8
LAYER-1
 10
5.704629
 20
0.670970
 30
0.000000
  0
VERTEX
  8
LAYER-1
 10
5.380002
 20
0.670970
 30
0.000000
  0
SEQEND
  8
LAYER-1
  0
LINE
  8
LAYER-1
 62
  0
 10
5.912287
 20
7.422975
 30
0.000000
 11
5.912287
 21
7.154937
 31
0.000000
  0
LINE
  8
LAYER-1
 62
  0
 10
5.829165
 20
7.422975
 30
0.000000
 11
6.037287
 21
7.422975
 31
0.000000
  0
LINE
  8
LAYER-1
 62
  0
 10
5.835029
 20
7.154937
 30
0.000000
 11
6.037287
 21
7.154937
 31
0.000000
  0
LINE
  8
LAYER-1
 62
  0
 10
5.941750
 20
7.393512
 30
0.000000
 11
5.882824
 21
7.452438
 31
0.000000
  0
LINE
  8
LAYER-1
 62
  0
 10
5.941750
 20
7.125474
 30
0.000000
 11
5.882824
 21
7.184399
 31
0.000000
  0
TEXT
  8
LAYER-1
 62
  0
 10
5.788330
 20
7.282573
 30
0.000000
 40
0.125000
  1
 
 50
90.000000
  0
TEXT
  8
LAYER-1
 62
  0
 10
6.226523
 20
7.308392
 30
0.000000
 40
0.125000
  1
4"
 72
  5
 11
6.448745
 21
7.308392
 31
0.000000
  0
TEXT
  8
LAYER-1
 62
  0
 10
6.004300
 20
7.113948
 30
0.000000
 40
0.125000
  1
102mm
 72
  5
 11
6.670967
 21
7.113948
 31
0.000000
  0
LINE
  8
LAYER-1
 62
  0
 10
4.519057
 20
7.686185
 30
0.000000
 11
4.928779
 21
7.686185
 31
0.000000
  0
LINE
  8
LAYER-1
 62
  0
 10
4.519057
 20
7.316394
 30
0.000000
 11
4.519057
 21
7.811185
 31
0.000000
  0
LINE
  8
LAYER-1
 62
  0
 10
4.928779
 20
7.314659
 30
0.000000
 11
4.928779
 21
7.811185
 31
0.000000
  0
LINE
  8
LAYER-1
 62
  0
 10
4.548520
 20
7.715647
 30
0.000000
 11
4.489595
 21
7.656722
 31
0.000000
  0
LINE
  8
LAYER-1
 62
  0
 10
4.958242
 20
7.715647
 30
0.000000
 11
4.899317
 21
7.656722
 31
0.000000
  0
TEXT
  8
LAYER-1
 62
  0
 10
4.717336
 20
7.807845
 30
0.000000
 40
0.125000
  1
 
  0
TEXT
  8
LAYER-1
 62
  0
 10
4.615411
 20
8.058392
 30
0.000000
 40
0.125000
  1
6"
 72
  5
 11
4.837634
 21
8.058392
 31
0.000000
  0
TEXT
  8
LAYER-1
 62
  0
 10
4.393189
 20
7.863948
 30
0.000000
 40
0.125000
  1
152mm
 72
  5
 11
5.059856
 21
7.863948
 31
0.000000
  0
ENDSEC
  0
EOF
