  0
SECTION
  2
HEADER
999
MacDraft 5.0\0
  9
$ACADVER
  1
AC1006
  9
$CLAYER
  8
LAYER-1
  9
$EXTMIN
 10
0.000000
 20
0.000000
  9
$EXTMAX
 10
6.771594
 20
9.982812
  9
$FASTZOOM
 70
0
  9
$FILLMODE
 70
1
  0
ENDSEC
  0
SECTION
  2
TABLES
  0
TABLE
  2
LTYPE
 70
16
  0
LTYPE
  2
CONTINUOUS
 70
64
  3
Solid Line
 72
65
 73
0
 40
0.000000
  0
LTYPE
  2
LTYPE01
 70
64
  3
CUSTOM
 72
65
 73
2
 40
0.111111
 49
0.083333
 49
-0.027778
  0
LTYPE
  2
LTYPE02
 70
64
  3
CUSTOM
 72
65
 73
2
 40
0.194444
 49
0.166667
 49
-0.027778
  0
LTYPE
  2
LTYPE03
 70
64
  3
CUSTOM
 72
65
 73
2
 40
0.375000
 49
0.333333
 49
-0.041667
  0
LTYPE
  2
LTYPE04
 70
64
  3
CUSTOM
 72
65
 73
2
 40
0.722222
 49
0.666667
 49
-0.055556
  0
LTYPE
  2
LTYPE05
 70
64
  3
CUSTOM
 72
65
 73
4
 40
0.152778
 49
0.083333
 49
-0.027778
 49
0.013889
 49
-0.027778
  0
LTYPE
  2
LTYPE06
 70
64
  3
CUSTOM
 72
65
 73
4
 40
0.236111
 49
0.166667
 49
-0.027778
 49
0.013889
 49
-0.027778
  0
LTYPE
  2
LTYPE07
 70
64
  3
CUSTOM
 72
65
 73
4
 40
0.444444
 49
0.333333
 49
-0.041667
 49
0.027778
 49
-0.041667
  0
LTYPE
  2
LTYPE08
 70
64
  3
CUSTOM
 72
65
 73
4
 40
0.805556
 49
0.666667
 49
-0.055556
 49
0.027778
 49
-0.055556
  0
LTYPE
  2
LTYPE09
 70
64
  3
CUSTOM
 72
65
 73
6
 40
0.194444
 49
0.083333
 49
-0.027778
 49
0.013889
 49
-0.027778
 49
0.013889
 49
-0.027778
  0
LTYPE
  2
LTYPE10
 70
64
  3
CUSTOM
 72
65
 73
6
 40
0.277778
 49
0.166667
 49
-0.027778
 49
0.013889
 49
-0.027778
 49
0.013889
 49
-0.027778
  0
LTYPE
  2
LTYPE11
 70
64
  3
CUSTOM
 72
65
 73
6
 40
0.500000
 49
0.333333
 49
-0.041667
 49
0.027778
 49
-0.027778
 49
0.027778
 49
-0.041667
  0
LTYPE
  2
LTYPE12
 70
64
  3
CUSTOM
 72
65
 73
6
 40
0.861111
 49
0.666667
 49
-0.055556
 49
0.027778
 49
-0.027778
 49
0.027778
 49
-0.055556
  0
LTYPE
  2
LTYPE13
 70
64
  3
CUSTOM
 72
65
 73
8
 40
0.319444
 49
0.166667
 49
-0.027778
 49
0.013889
 49
-0.027778
 49
0.013889
 49
-0.027778
 49
0.013889
 49
-0.027778
  0
LTYPE
  2
LTYPE14
 70
64
  3
CUSTOM
 72
65
 73
8
 40
0.555556
 49
0.333333
 49
-0.041667
 49
0.027778
 49
-0.027778
 49
0.027778
 49
-0.027778
 49
0.027778
 49
-0.041667
  0
LTYPE
  2
LTYPE15
 70
64
  3
CUSTOM
 72
65
 73
8
 40
0.944444
 49
0.666667
 49
-0.055556
 49
0.027778
 49
-0.041667
 49
0.027778
 49
-0.041667
 49
0.027778
 49
-0.055556
  0
ENDTAB
  0
TABLE
  2
LAYER
 70
1
  0
LAYER
  2
LAYER-1
 70
0
 62
7
  6
CONTINUOUS
  0
ENDTAB
  0
ENDSEC
  0
SECTION
  2
BLOCKS
  0
ENDSEC
  0
SECTION
  2
ENTITIES
  0
POLYLINE
  8
LAYER-1
 66
  1
 70
  0
 62
  0
 10
3.460978
 20
0.205982
 30
0.000000
  0
VERTEX
  8
LAYER-1
 10
3.460978
 20
0.205982
 30
0.000000
  0
VERTEX
  8
LAYER-1
 10
3.460978
 20
0.204792
 30
0.000000
  0
SEQEND
  8
LAYER-1
  0
POLYLINE
  8
LAYER-1
 66
  1
 70
  1
 62
  0
 10
1.289122
 20
0.110815
 30
0.000000
  0
VERTEX
  8
LAYER-1
 10
1.289122
 20
0.110815
 30
0.000000
  0
VERTEX
  8
LAYER-1
 10
1.296067
 20
0.084774
 30
0.000000
  0
VERTEX
  8
LAYER-1
 10
1.321241
 20
0.098662
 30
0.000000
  0
SEQEND
  8
LAYER-1
  0
POLYLINE
  8
LAYER-1
 66
  1
 70
  1
 62
  0
 10
1.479226
 20
0.215847
 30
0.000000
  0
VERTEX
  8
LAYER-1
 10
1.479226
 20
0.215847
 30
0.000000
  0
VERTEX
  8
LAYER-1
 10
1.466206
 20
0.193277
 30
0.000000
  0
VERTEX
  8
LAYER-1
 10
1.496588
 20
0.214110
 30
0.000000
  0
SEQEND
  8
LAYER-1
  0
POLYLINE
  8
LAYER-1
 66
  1
 70
  1
 62
  0
 10
1.125060
 20
0.151614
 30
0.000000
  0
VERTEX
  8
LAYER-1
 10
1.125060
 20
0.151614
 30
0.000000
  0
VERTEX
  8
LAYER-1
 10
1.108567
 20
0.126439
 30
0.000000
  0
VERTEX
  8
LAYER-1
 10
1.123323
 20
0.118627
 30
0.000000
  0
SEQEND
  8
LAYER-1
  0
POLYLINE
  8
LAYER-1
 66
  1
 70
  0
 62
  0
 10
1.291727
 20
0.152483
 30
0.000000
  0
VERTEX
  8
LAYER-1
 10
1.291727
 20
0.152483
 30
0.000000
  0
VERTEX
  8
LAYER-1
 10
1.287387
 20
0.152483
 30
0.000000
  0
VERTEX
  8
LAYER-1
 10
1.283914
 20
0.148142
 30
0.000000
  0
VERTEX
  8
LAYER-1
 10
1.283046
 20
0.142934
 30
0.000000
  0
VERTEX
  8
LAYER-1
 10
1.284782
 20
0.138594
 30
0.000000
  0
VERTEX
  8
LAYER-1
 10
1.289123
 20
0.136858
 30
0.000000
  0
VERTEX
  8
LAYER-1
 10
1.293463
 20
0.136858
 30
0.000000
  0
VERTEX
  8
LAYER-1
 10
1.297803
 20
0.140329
 30
0.000000
  0
VERTEX
  8
LAYER-1
 10
1.297803
 20
0.144670
 30
0.000000
  0
VERTEX
  8
LAYER-1
 10
1.296935
 20
0.149011
 30
0.000000
  0
VERTEX
  8
LAYER-1
 10
1.292595
 20
0.151615
 30
0.000000
  0
SEQEND
  8
LAYER-1
  0
POLYLINE
  8
LAYER-1
 66
  1
 70
  1
 62
  0
 10
0.929748
 20
0.190675
 30
0.000000
  0
VERTEX
  8
LAYER-1
 10
0.929748
 20
0.190675
 30
0.000000
  0
VERTEX
  8
LAYER-1
 10
0.916726
 20
0.168106
 30
0.000000
  0
VERTEX
  8
LAYER-1
 10
0.947109
 20
0.188938
 30
0.000000
  0
SEQEND
  8
LAYER-1
  0
POLYLINE
  8
LAYER-1
 66
  1
 70
  1
 62
  0
 10
1.061525
 20
0.190341
 30
0.000000
  0
VERTEX
  8
LAYER-1
 10
1.061525
 20
0.190341
 30
0.000000
  0
VERTEX
  8
LAYER-1
 10
1.048839
 20
0.170976
 30
0.000000
  0
VERTEX
  8
LAYER-1
 10
1.060190
 20
0.164966
 30
0.000000
  0
SEQEND
  8
LAYER-1
  0
POLYLINE
  8
LAYER-1
 66
  1
 70
  0
 62
  0
 10
1.419331
 20
0.171578
 30
0.000000
  0
VERTEX
  8
LAYER-1
 10
1.419331
 20
0.171578
 30
0.000000
  0
VERTEX
  8
LAYER-1
 10
1.414991
 20
0.171578
 30
0.000000
  0
VERTEX
  8
LAYER-1
 10
1.411519
 20
0.167238
 30
0.000000
  0
VERTEX
  8
LAYER-1
 10
1.410651
 20
0.162030
 30
0.000000
  0
VERTEX
  8
LAYER-1
 10
1.412387
 20
0.157689
 30
0.000000
  0
VERTEX
  8
LAYER-1
 10
1.416726
 20
0.155953
 30
0.000000
  0
VERTEX
  8
LAYER-1
 10
1.421067
 20
0.155953
 30
0.000000
  0
VERTEX
  8
LAYER-1
 10
1.425407
 20
0.159426
 30
0.000000
  0
VERTEX
  8
LAYER-1
 10
1.425407
 20
0.163766
 30
0.000000
  0
VERTEX
  8
LAYER-1
 10
1.424539
 20
0.168107
 30
0.000000
  0
VERTEX
  8
LAYER-1
 10
1.420199
 20
0.170710
 30
0.000000
  0
SEQEND
  8
LAYER-1
  0
POLYLINE
  8
LAYER-1
 66
  1
 70
  0
 62
  0
 10
1.177143
 20
0.145537
 30
0.000000
  0
VERTEX
  8
LAYER-1
 10
1.177143
 20
0.145537
 30
0.000000
  0
VERTEX
  8
LAYER-1
 10
1.172803
 20
0.145537
 30
0.000000
  0
VERTEX
  8
LAYER-1
 10
1.169331
 20
0.141196
 30
0.000000
  0
VERTEX
  8
LAYER-1
 10
1.168463
 20
0.135989
 30
0.000000
  0
VERTEX
  8
LAYER-1
 10
1.170198
 20
0.131648
 30
0.000000
  0
VERTEX
  8
LAYER-1
 10
1.174539
 20
0.129912
 30
0.000000
  0
VERTEX
  8
LAYER-1
 10
1.178880
 20
0.129912
 30
0.000000
  0
VERTEX
  8
LAYER-1
 10
1.183220
 20
0.133384
 30
0.000000
  0
VERTEX
  8
LAYER-1
 10
1.183220
 20
0.137725
 30
0.000000
  0
VERTEX
  8
LAYER-1
 10
1.182352
 20
0.142065
 30
0.000000
  0
VERTEX
  8
LAYER-1
 10
1.178011
 20
0.144669
 30
0.000000
  0
SEQEND
  8
LAYER-1
  0
POLYLINE
  8
LAYER-1
 66
  1
 70
  0
 62
  0
 10
1.013080
 20
0.137725
 30
0.000000
  0
VERTEX
  8
LAYER-1
 10
1.013080
 20
0.137725
 30
0.000000
  0
VERTEX
  8
LAYER-1
 10
1.008741
 20
0.137725
 30
0.000000
  0
VERTEX
  8
LAYER-1
 10
1.005268
 20
0.133384
 30
0.000000
  0
VERTEX
  8
LAYER-1
 10
1.004400
 20
0.128176
 30
0.000000
  0
VERTEX
  8
LAYER-1
 10
1.006136
 20
0.123835
 30
0.000000
  0
VERTEX
  8
LAYER-1
 10
1.010477
 20
0.122100
 30
0.000000
  0
VERTEX
  8
LAYER-1
 10
1.014816
 20
0.122100
 30
0.000000
  0
VERTEX
  8
LAYER-1
 10
1.019157
 20
0.125571
 30
0.000000
  0
VERTEX
  8
LAYER-1
 10
1.019157
 20
0.129912
 30
0.000000
  0
VERTEX
  8
LAYER-1
 10
1.018289
 20
0.134253
 30
0.000000
  0
VERTEX
  8
LAYER-1
 10
1.013948
 20
0.136857
 30
0.000000
  0
SEQEND
  8
LAYER-1
  0
POLYLINE
  8
LAYER-1
 66
  1
 70
  1
 62
  0
 10
1.641120
 20
0.162464
 30
0.000000
  0
VERTEX
  8
LAYER-1
 10
1.641120
 20
0.162464
 30
0.000000
  0
VERTEX
  8
LAYER-1
 10
1.615080
 20
0.155519
 30
0.000000
  0
VERTEX
  8
LAYER-1
 10
1.628967
 20
0.130346
 30
0.000000
  0
SEQEND
  8
LAYER-1
  0
POLYLINE
  8
LAYER-1
 66
  1
 70
  1
 62
  0
 10
1.702663
 20
0.102866
 30
0.000000
  0
VERTEX
  8
LAYER-1
 10
1.702663
 20
0.102866
 30
0.000000
  0
VERTEX
  8
LAYER-1
 10
1.725234
 20
0.089845
 30
0.000000
  0
VERTEX
  8
LAYER-1
 10
1.704401
 20
0.120227
 30
0.000000
  0
SEQEND
  8
LAYER-1
  0
POLYLINE
  8
LAYER-1
 66
  1
 70
  1
 62
  0
 10
1.234002
 20
0.170276
 30
0.000000
  0
VERTEX
  8
LAYER-1
 10
1.234002
 20
0.170276
 30
0.000000
  0
VERTEX
  8
LAYER-1
 10
1.208828
 20
0.186768
 30
0.000000
  0
VERTEX
  8
LAYER-1
 10
1.201016
 20
0.172012
 30
0.000000
  0
SEQEND
  8
LAYER-1
  0
POLYLINE
  8
LAYER-1
 66
  1
 70
  0
 62
  0
 10
1.652405
 20
0.198922
 30
0.000000
  0
VERTEX
  8
LAYER-1
 10
1.652405
 20
0.198922
 30
0.000000
  0
VERTEX
  8
LAYER-1
 10
1.652405
 20
0.203263
 30
0.000000
  0
VERTEX
  8
LAYER-1
 10
1.648065
 20
0.206735
 30
0.000000
  0
VERTEX
  8
LAYER-1
 10
1.642857
 20
0.207603
 30
0.000000
  0
VERTEX
  8
LAYER-1
 10
1.638516
 20
0.205866
 30
0.000000
  0
VERTEX
  8
LAYER-1
 10
1.636780
 20
0.201526
 30
0.000000
  0
VERTEX
  8
LAYER-1
 10
1.636780
 20
0.197186
 30
0.000000
  0
VERTEX
  8
LAYER-1
 10
1.640252
 20
0.192846
 30
0.000000
  0
VERTEX
  8
LAYER-1
 10
1.644593
 20
0.192846
 30
0.000000
  0
VERTEX
  8
LAYER-1
 10
1.648933
 20
0.193714
 30
0.000000
  0
VERTEX
  8
LAYER-1
 10
1.651538
 20
0.198054
 30
0.000000
  0
SEQEND
  8
LAYER-1
  0
POLYLINE
  8
LAYER-1
 66
  1
 70
  1
 62
  0
 10
1.604662
 20
0.174615
 30
0.000000
  0
VERTEX
  8
LAYER-1
 10
1.604662
 20
0.174615
 30
0.000000
  0
VERTEX
  8
LAYER-1
 10
1.582092
 20
0.187636
 30
0.000000
  0
VERTEX
  8
LAYER-1
 10
1.602925
 20
0.157255
 30
0.000000
  0
SEQEND
  8
LAYER-1
  0
POLYLINE
  8
LAYER-1
 66
  1
 70
  1
 62
  0
 10
1.252764
 20
0.186935
 30
0.000000
  0
VERTEX
  8
LAYER-1
 10
1.252764
 20
0.186935
 30
0.000000
  0
VERTEX
  8
LAYER-1
 10
1.233400
 20
0.199621
 30
0.000000
  0
VERTEX
  8
LAYER-1
 10
1.227389
 20
0.188271
 30
0.000000
  0
SEQEND
  8
LAYER-1
  0
POLYLINE
  8
LAYER-1
 66
  1
 70
  0
 62
  0
 10
1.718637
 20
0.063282
 30
0.000000
  0
VERTEX
  8
LAYER-1
 10
1.718637
 20
0.063282
 30
0.000000
  0
VERTEX
  8
LAYER-1
 10
1.718637
 20
0.058943
 30
0.000000
  0
VERTEX
  8
LAYER-1
 10
1.722978
 20
0.055470
 30
0.000000
  0
VERTEX
  8
LAYER-1
 10
1.728185
 20
0.054603
 30
0.000000
  0
VERTEX
  8
LAYER-1
 10
1.732526
 20
0.056338
 30
0.000000
  0
VERTEX
  8
LAYER-1
 10
1.734262
 20
0.060679
 30
0.000000
  0
VERTEX
  8
LAYER-1
 10
1.734262
 20
0.065019
 30
0.000000
  0
VERTEX
  8
LAYER-1
 10
1.730790
 20
0.069360
 30
0.000000
  0
VERTEX
  8
LAYER-1
 10
1.726450
 20
0.069360
 30
0.000000
  0
VERTEX
  8
LAYER-1
 10
1.722109
 20
0.068492
 30
0.000000
  0
VERTEX
  8
LAYER-1
 10
1.719504
 20
0.064150
 30
0.000000
  0
SEQEND
  8
LAYER-1
  0
POLYLINE
  8
LAYER-1
 66
  1
 70
  0
 62
  0
 10
1.227925
 20
0.118192
 30
0.000000
  0
VERTEX
  8
LAYER-1
 10
1.227925
 20
0.118192
 30
0.000000
  0
VERTEX
  8
LAYER-1
 10
1.227925
 20
0.122533
 30
0.000000
  0
VERTEX
  8
LAYER-1
 10
1.223584
 20
0.126005
 30
0.000000
  0
VERTEX
  8
LAYER-1
 10
1.218377
 20
0.126873
 30
0.000000
  0
VERTEX
  8
LAYER-1
 10
1.214036
 20
0.125137
 30
0.000000
  0
VERTEX
  8
LAYER-1
 10
1.212300
 20
0.120796
 30
0.000000
  0
VERTEX
  8
LAYER-1
 10
1.212300
 20
0.116457
 30
0.000000
  0
VERTEX
  8
LAYER-1
 10
1.215772
 20
0.112116
 30
0.000000
  0
VERTEX
  8
LAYER-1
 10
1.220113
 20
0.112116
 30
0.000000
  0
VERTEX
  8
LAYER-1
 10
1.224453
 20
0.112984
 30
0.000000
  0
VERTEX
  8
LAYER-1
 10
1.227058
 20
0.117325
 30
0.000000
  0
SEQEND
  8
LAYER-1
  0
POLYLINE
  8
LAYER-1
 66
  1
 70
  0
 62
  0
 10
1.530009
 20
0.152916
 30
0.000000
  0
VERTEX
  8
LAYER-1
 10
1.530009
 20
0.152916
 30
0.000000
  0
VERTEX
  8
LAYER-1
 10
1.530009
 20
0.157257
 30
0.000000
  0
VERTEX
  8
LAYER-1
 10
1.525668
 20
0.160728
 30
0.000000
  0
VERTEX
  8
LAYER-1
 10
1.520461
 20
0.161597
 30
0.000000
  0
VERTEX
  8
LAYER-1
 10
1.516120
 20
0.159860
 30
0.000000
  0
VERTEX
  8
LAYER-1
 10
1.514384
 20
0.155520
 30
0.000000
  0
VERTEX
  8
LAYER-1
 10
1.514384
 20
0.151180
 30
0.000000
  0
VERTEX
  8
LAYER-1
 10
1.517856
 20
0.146840
 30
0.000000
  0
VERTEX
  8
LAYER-1
 10
1.522196
 20
0.146840
 30
0.000000
  0
VERTEX
  8
LAYER-1
 10
1.526537
 20
0.147708
 30
0.000000
  0
VERTEX
  8
LAYER-1
 10
1.529142
 20
0.152048
 30
0.000000
  0
SEQEND
  8
LAYER-1
  0
POLYLINE
  8
LAYER-1
 66
  1
 70
  1
 62
  0
 10
1.749193
 20
0.145103
 30
0.000000
  0
VERTEX
  8
LAYER-1
 10
1.749193
 20
0.145103
 30
0.000000
  0
VERTEX
  8
LAYER-1
 10
1.756137
 20
0.119063
 30
0.000000
  0
VERTEX
  8
LAYER-1
 10
1.775234
 20
0.134686
 30
0.000000
  0
SEQEND
  8
LAYER-1
  0
POLYLINE
  8
LAYER-1
 66
  1
 70
  1
 62
  0
 10
1.933220
 20
0.166805
 30
0.000000
  0
VERTEX
  8
LAYER-1
 10
1.933220
 20
0.166805
 30
0.000000
  0
VERTEX
  8
LAYER-1
 10
1.920199
 20
0.144235
 30
0.000000
  0
VERTEX
  8
LAYER-1
 10
1.950581
 20
0.165069
 30
0.000000
  0
SEQEND
  8
LAYER-1
  0
POLYLINE
  8
LAYER-1
 66
  1
 70
  1
 62
  0
 10
1.983125
 20
0.065345
 30
0.000000
  0
VERTEX
  8
LAYER-1
 10
1.983125
 20
0.065345
 30
0.000000
  0
VERTEX
  8
LAYER-1
 10
1.966633
 20
0.040171
 30
0.000000
  0
VERTEX
  8
LAYER-1
 10
1.981389
 20
0.032359
 30
0.000000
  0
SEQEND
  8
LAYER-1
  0
POLYLINE
  8
LAYER-1
 66
  1
 70
  0
 62
  0
 10
1.721415
 20
0.169409
 30
0.000000
  0
VERTEX
  8
LAYER-1
 10
1.721415
 20
0.169409
 30
0.000000
  0
VERTEX
  8
LAYER-1
 10
1.717074
 20
0.169409
 30
0.000000
  0
VERTEX
  8
LAYER-1
 10
1.713602
 20
0.165069
 30
0.000000
  0
VERTEX
  8
LAYER-1
 10
1.712734
 20
0.159860
 30
0.000000
  0
VERTEX
  8
LAYER-1
 10
1.714470
 20
0.155520
 30
0.000000
  0
VERTEX
  8
LAYER-1
 10
1.718810
 20
0.153784
 30
0.000000
  0
VERTEX
  8
LAYER-1
 10
1.723151
 20
0.153784
 30
0.000000
  0
VERTEX
  8
LAYER-1
 10
1.727491
 20
0.157256
 30
0.000000
  0
VERTEX
  8
LAYER-1
 10
1.727491
 20
0.161597
 30
0.000000
  0
VERTEX
  8
LAYER-1
 10
1.726623
 20
0.165938
 30
0.000000
  0
VERTEX
  8
LAYER-1
 10
1.722283
 20
0.168541
 30
0.000000
  0
SEQEND
  8
LAYER-1
  0
POLYLINE
  8
LAYER-1
 66
  1
 70
  1
 62
  0
 10
1.758742
 20
0.101701
 30
0.000000
  0
VERTEX
  8
LAYER-1
 10
1.758742
 20
0.101701
 30
0.000000
  0
VERTEX
  8
LAYER-1
 10
1.745720
 20
0.079131
 30
0.000000
  0
VERTEX
  8
LAYER-1
 10
1.776102
 20
0.099964
 30
0.000000
  0
SEQEND
  8
LAYER-1
  0
POLYLINE
  8
LAYER-1
 66
  1
 70
  1
 62
  0
 10
2.014541
 20
0.047453
 30
0.000000
  0
VERTEX
  8
LAYER-1
 10
2.014541
 20
0.047453
 30
0.000000
  0
VERTEX
  8
LAYER-1
 10
2.027229
 20
0.066817
 30
0.000000
  0
VERTEX
  8
LAYER-1
 10
2.015877
 20
0.072829
 30
0.000000
  0
SEQEND
  8
LAYER-1
  0
POLYLINE
  8
LAYER-1
 66
  1
 70
  0
 62
  0
 10
1.913767
 20
0.047900
 30
0.000000
  0
VERTEX
  8
LAYER-1
 10
1.913767
 20
0.047900
 30
0.000000
  0
VERTEX
  8
LAYER-1
 10
1.918108
 20
0.047900
 30
0.000000
  0
VERTEX
  8
LAYER-1
 10
1.921580
 20
0.052241
 30
0.000000
  0
VERTEX
  8
LAYER-1
 10
1.922447
 20
0.057448
 30
0.000000
  0
VERTEX
  8
LAYER-1
 10
1.920712
 20
0.061789
 30
0.000000
  0
VERTEX
  8
LAYER-1
 10
1.916371
 20
0.063525
 30
0.000000
  0
VERTEX
  8
LAYER-1
 10
1.912031
 20
0.063525
 30
0.000000
  0
VERTEX
  8
LAYER-1
 10
1.907690
 20
0.060054
 30
0.000000
  0
VERTEX
  8
LAYER-1
 10
1.907690
 20
0.055712
 30
0.000000
  0
VERTEX
  8
LAYER-1
 10
1.908558
 20
0.051372
 30
0.000000
  0
VERTEX
  8
LAYER-1
 10
1.912899
 20
0.048767
 30
0.000000
  0
SEQEND
  8
LAYER-1
  0
POLYLINE
  8
LAYER-1
 66
  1
 70
  0
 62
  0
 10
1.603271
 20
0.083767
 30
0.000000
  0
VERTEX
  8
LAYER-1
 10
1.603271
 20
0.083767
 30
0.000000
  0
VERTEX
  8
LAYER-1
 10
1.607612
 20
0.083767
 30
0.000000
  0
VERTEX
  8
LAYER-1
 10
1.611084
 20
0.088108
 30
0.000000
  0
VERTEX
  8
LAYER-1
 10
1.611953
 20
0.093316
 30
0.000000
  0
VERTEX
  8
LAYER-1
 10
1.610217
 20
0.097657
 30
0.000000
  0
VERTEX
  8
LAYER-1
 10
1.605876
 20
0.099392
 30
0.000000
  0
VERTEX
  8
LAYER-1
 10
1.601536
 20
0.099392
 30
0.000000
  0
VERTEX
  8
LAYER-1
 10
1.597195
 20
0.095921
 30
0.000000
  0
VERTEX
  8
LAYER-1
 10
1.597195
 20
0.091580
 30
0.000000
  0
VERTEX
  8
LAYER-1
 10
1.598064
 20
0.087240
 30
0.000000
  0
VERTEX
  8
LAYER-1
 10
1.602404
 20
0.084635
 30
0.000000
  0
SEQEND
  8
LAYER-1
  0
POLYLINE
  8
LAYER-1
 66
  1
 70
  1
 62
  0
 10
2.098585
 20
0.149878
 30
0.000000
  0
VERTEX
  8
LAYER-1
 10
2.098585
 20
0.149878
 30
0.000000
  0
VERTEX
  8
LAYER-1
 10
2.072545
 20
0.142933
 30
0.000000
  0
VERTEX
  8
LAYER-1
 10
2.086432
 20
0.117760
 30
0.000000
  0
SEQEND
  8
LAYER-1
  0
POLYLINE
  8
LAYER-1
 66
  1
 70
  1
 62
  0
 10
1.837469
 20
0.110283
 30
0.000000
  0
VERTEX
  8
LAYER-1
 10
1.837469
 20
0.110283
 30
0.000000
  0
VERTEX
  8
LAYER-1
 10
1.814898
 20
0.123304
 30
0.000000
  0
VERTEX
  8
LAYER-1
 10
1.835731
 20
0.092922
 30
0.000000
  0
SEQEND
  8
LAYER-1
  0
POLYLINE
  8
LAYER-1
 66
  1
 70
  1
 62
  0
 10
1.867325
 20
0.032710
 30
0.000000
  0
VERTEX
  8
LAYER-1
 10
1.867325
 20
0.032710
 30
0.000000
  0
VERTEX
  8
LAYER-1
 10
1.892499
 20
0.016216
 30
0.000000
  0
VERTEX
  8
LAYER-1
 10
1.900311
 20
0.030974
 30
0.000000
  0
SEQEND
  8
LAYER-1
  0
POLYLINE
  8
LAYER-1
 66
  1
 70
  0
 62
  0
 10
2.129835
 20
0.199354
 30
0.000000
  0
VERTEX
  8
LAYER-1
 10
2.129835
 20
0.199354
 30
0.000000
  0
VERTEX
  8
LAYER-1
 10
2.129835
 20
0.203696
 30
0.000000
  0
VERTEX
  8
LAYER-1
 10
2.125495
 20
0.207167
 30
0.000000
  0
VERTEX
  8
LAYER-1
 10
2.120287
 20
0.208035
 30
0.000000
  0
VERTEX
  8
LAYER-1
 10
2.115946
 20
0.206300
 30
0.000000
  0
VERTEX
  8
LAYER-1
 10
2.114210
 20
0.201959
 30
0.000000
  0
VERTEX
  8
LAYER-1
 10
2.114210
 20
0.197619
 30
0.000000
  0
VERTEX
  8
LAYER-1
 10
2.117682
 20
0.193278
 30
0.000000
  0
VERTEX
  8
LAYER-1
 10
2.122023
 20
0.193278
 30
0.000000
  0
VERTEX
  8
LAYER-1
 10
2.126364
 20
0.194146
 30
0.000000
  0
VERTEX
  8
LAYER-1
 10
2.128968
 20
0.198487
 30
0.000000
  0
SEQEND
  8
LAYER-1
  0
POLYLINE
  8
LAYER-1
 66
  1
 70
  1
 62
  0
 10
2.062128
 20
0.162030
 30
0.000000
  0
VERTEX
  8
LAYER-1
 10
2.062128
 20
0.162030
 30
0.000000
  0
VERTEX
  8
LAYER-1
 10
2.039557
 20
0.175051
 30
0.000000
  0
VERTEX
  8
LAYER-1
 10
2.060390
 20
0.144669
 30
0.000000
  0
SEQEND
  8
LAYER-1
  0
POLYLINE
  8
LAYER-1
 66
  1
 70
  1
 62
  0
 10
0.830890
 20
0.198653
 30
0.000000
  0
VERTEX
  8
LAYER-1
 10
0.830890
 20
0.198653
 30
0.000000
  0
VERTEX
  8
LAYER-1
 10
0.811526
 20
0.211339
 30
0.000000
  0
VERTEX
  8
LAYER-1
 10
0.805515
 20
0.199989
 30
0.000000
  0
SEQEND
  8
LAYER-1
  0
POLYLINE
  8
LAYER-1
 66
  1
 70
  0
 62
  0
 10
1.841807
 20
0.170179
 30
0.000000
  0
VERTEX
  8
LAYER-1
 10
1.841807
 20
0.170179
 30
0.000000
  0
VERTEX
  8
LAYER-1
 10
1.841807
 20
0.174517
 30
0.000000
  0
VERTEX
  8
LAYER-1
 10
1.837467
 20
0.177990
 30
0.000000
  0
VERTEX
  8
LAYER-1
 10
1.832259
 20
0.178858
 30
0.000000
  0
VERTEX
  8
LAYER-1
 10
1.827918
 20
0.177122
 30
0.000000
  0
VERTEX
  8
LAYER-1
 10
1.826182
 20
0.172783
 30
0.000000
  0
VERTEX
  8
LAYER-1
 10
1.826182
 20
0.168442
 30
0.000000
  0
VERTEX
  8
LAYER-1
 10
1.829654
 20
0.164102
 30
0.000000
  0
VERTEX
  8
LAYER-1
 10
1.833995
 20
0.164102
 30
0.000000
  0
VERTEX
  8
LAYER-1
 10
1.838335
 20
0.164970
 30
0.000000
  0
VERTEX
  8
LAYER-1
 10
1.840940
 20
0.169311
 30
0.000000
  0
SEQEND
  8
LAYER-1
  0
POLYLINE
  8
LAYER-1
 66
  1
 70
  0
 62
  0
 10
0.807787
 20
0.131647
 30
0.000000
  0
VERTEX
  8
LAYER-1
 10
0.807787
 20
0.131647
 30
0.000000
  0
VERTEX
  8
LAYER-1
 10
0.807787
 20
0.135988
 30
0.000000
  0
VERTEX
  8
LAYER-1
 10
0.803446
 20
0.139459
 30
0.000000
  0
VERTEX
  8
LAYER-1
 10
0.798238
 20
0.140327
 30
0.000000
  0
VERTEX
  8
LAYER-1
 10
0.793898
 20
0.138591
 30
0.000000
  0
VERTEX
  8
LAYER-1
 10
0.792162
 20
0.134251
 30
0.000000
  0
VERTEX
  8
LAYER-1
 10
0.792162
 20
0.129911
 30
0.000000
  0
VERTEX
  8
LAYER-1
 10
0.795634
 20
0.125571
 30
0.000000
  0
VERTEX
  8
LAYER-1
 10
0.799974
 20
0.125571
 30
0.000000
  0
VERTEX
  8
LAYER-1
 10
0.804315
 20
0.126439
 30
0.000000
  0
VERTEX
  8
LAYER-1
 10
0.806920
 20
0.130779
 30
0.000000
  0
SEQEND
  8
LAYER-1
  0
POLYLINE
  8
LAYER-1
 66
  1
 70
  0
 62
  0
 10
1.930182
 20
0.199352
 30
0.000000
  0
VERTEX
  8
LAYER-1
 10
1.930182
 20
0.199352
 30
0.000000
  0
VERTEX
  8
LAYER-1
 10
1.930182
 20
0.203692
 30
0.000000
  0
VERTEX
  8
LAYER-1
 10
1.925841
 20
0.207164
 30
0.000000
  0
VERTEX
  8
LAYER-1
 10
1.920634
 20
0.208032
 30
0.000000
  0
VERTEX
  8
LAYER-1
 10
1.916293
 20
0.206296
 30
0.000000
  0
VERTEX
  8
LAYER-1
 10
1.914557
 20
0.201956
 30
0.000000
  0
VERTEX
  8
LAYER-1
 10
1.914557
 20
0.197616
 30
0.000000
  0
VERTEX
  8
LAYER-1
 10
1.918029
 20
0.193275
 30
0.000000
  0
VERTEX
  8
LAYER-1
 10
1.922370
 20
0.193275
 30
0.000000
  0
VERTEX
  8
LAYER-1
 10
1.926710
 20
0.194144
 30
0.000000
  0
VERTEX
  8
LAYER-1
 10
1.929315
 20
0.198484
 30
0.000000
  0
SEQEND
  8
LAYER-1
  0
POLYLINE
  8
LAYER-1
 66
  1
 70
  1
 62
  0
 10
1.489470
 20
0.063888
 30
0.000000
  0
VERTEX
  8
LAYER-1
 10
1.489470
 20
0.063888
 30
0.000000
  0
VERTEX
  8
LAYER-1
 10
1.463429
 20
0.056943
 30
0.000000
  0
VERTEX
  8
LAYER-1
 10
1.477317
 20
0.031770
 30
0.000000
  0
SEQEND
  8
LAYER-1
  0
POLYLINE
  8
LAYER-1
 66
  1
 70
  1
 62
  0
 10
2.335998
 20
0.127308
 30
0.000000
  0
VERTEX
  8
LAYER-1
 10
2.335998
 20
0.127308
 30
0.000000
  0
VERTEX
  8
LAYER-1
 10
2.358567
 20
0.114287
 30
0.000000
  0
VERTEX
  8
LAYER-1
 10
2.337734
 20
0.144669
 30
0.000000
  0
SEQEND
  8
LAYER-1
  0
POLYLINE
  8
LAYER-1
 66
  1
 70
  1
 62
  0
 10
0.945372
 20
0.144235
 30
0.000000
  0
VERTEX
  8
LAYER-1
 10
0.945372
 20
0.144235
 30
0.000000
  0
VERTEX
  8
LAYER-1
 10
0.970547
 20
0.127741
 30
0.000000
  0
VERTEX
  8
LAYER-1
 10
0.978359
 20
0.142498
 30
0.000000
  0
SEQEND
  8
LAYER-1
  0
POLYLINE
  8
LAYER-1
 66
  1
 70
  0
 62
  0
 10
2.263949
 20
0.174179
 30
0.000000
  0
VERTEX
  8
LAYER-1
 10
2.263949
 20
0.174179
 30
0.000000
  0
VERTEX
  8
LAYER-1
 10
2.263949
 20
0.169840
 30
0.000000
  0
VERTEX
  8
LAYER-1
 10
2.268290
 20
0.166367
 30
0.000000
  0
VERTEX
  8
LAYER-1
 10
2.273498
 20
0.165500
 30
0.000000
  0
VERTEX
  8
LAYER-1
 10
2.277838
 20
0.167235
 30
0.000000
  0
VERTEX
  8
LAYER-1
 10
2.279574
 20
0.171577
 30
0.000000
  0
VERTEX
  8
LAYER-1
 10
2.279574
 20
0.175915
 30
0.000000
  0
VERTEX
  8
LAYER-1
 10
2.276102
 20
0.180256
 30
0.000000
  0
VERTEX
  8
LAYER-1
 10
2.271762
 20
0.180256
 30
0.000000
  0
VERTEX
  8
LAYER-1
 10
2.267421
 20
0.179388
 30
0.000000
  0
VERTEX
  8
LAYER-1
 10
2.264817
 20
0.175047
 30
0.000000
  0
SEQEND
  8
LAYER-1
  0
POLYLINE
  8
LAYER-1
 66
  1
 70
  1
 62
  0
 10
2.213601
 20
0.185465
 30
0.000000
  0
VERTEX
  8
LAYER-1
 10
2.213601
 20
0.185465
 30
0.000000
  0
VERTEX
  8
LAYER-1
 10
2.236171
 20
0.172446
 30
0.000000
  0
VERTEX
  8
LAYER-1
 10
2.215338
 20
0.202827
 30
0.000000
  0
SEQEND
  8
LAYER-1
  0
POLYLINE
  8
LAYER-1
 66
  1
 70
  1
 62
  0
 10
0.943971
 20
0.091985
 30
0.000000
  0
VERTEX
  8
LAYER-1
 10
0.943971
 20
0.091985
 30
0.000000
  0
VERTEX
  8
LAYER-1
 10
0.963336
 20
0.079298
 30
0.000000
  0
VERTEX
  8
LAYER-1
 10
0.969346
 20
0.090649
 30
0.000000
  0
SEQEND
  8
LAYER-1
  0
POLYLINE
  8
LAYER-1
 66
  1
 70
  0
 62
  0
 10
1.670112
 20
0.044270
 30
0.000000
  0
VERTEX
  8
LAYER-1
 10
1.670112
 20
0.044270
 30
0.000000
  0
VERTEX
  8
LAYER-1
 10
1.670112
 20
0.048609
 30
0.000000
  0
VERTEX
  8
LAYER-1
 10
1.665771
 20
0.052082
 30
0.000000
  0
VERTEX
  8
LAYER-1
 10
1.660564
 20
0.052950
 30
0.000000
  0
VERTEX
  8
LAYER-1
 10
1.656223
 20
0.051214
 30
0.000000
  0
VERTEX
  8
LAYER-1
 10
1.654487
 20
0.046873
 30
0.000000
  0
VERTEX
  8
LAYER-1
 10
1.654487
 20
0.042533
 30
0.000000
  0
VERTEX
  8
LAYER-1
 10
1.657959
 20
0.038193
 30
0.000000
  0
VERTEX
  8
LAYER-1
 10
1.662300
 20
0.038193
 30
0.000000
  0
VERTEX
  8
LAYER-1
 10
1.666640
 20
0.039061
 30
0.000000
  0
VERTEX
  8
LAYER-1
 10
1.669244
 20
0.043402
 30
0.000000
  0
SEQEND
  8
LAYER-1
  0
POLYLINE
  8
LAYER-1
 66
  1
 70
  0
 62
  0
 10
2.475755
 20
0.127308
 30
0.000000
  0
VERTEX
  8
LAYER-1
 10
2.475755
 20
0.127308
 30
0.000000
  0
VERTEX
  8
LAYER-1
 10
2.475755
 20
0.122967
 30
0.000000
  0
VERTEX
  8
LAYER-1
 10
2.480095
 20
0.119496
 30
0.000000
  0
VERTEX
  8
LAYER-1
 10
2.485303
 20
0.118628
 30
0.000000
  0
VERTEX
  8
LAYER-1
 10
2.489644
 20
0.120364
 30
0.000000
  0
VERTEX
  8
LAYER-1
 10
2.491380
 20
0.124703
 30
0.000000
  0
VERTEX
  8
LAYER-1
 10
2.491380
 20
0.129044
 30
0.000000
  0
VERTEX
  8
LAYER-1
 10
2.487908
 20
0.133385
 30
0.000000
  0
VERTEX
  8
LAYER-1
 10
2.483567
 20
0.133385
 30
0.000000
  0
VERTEX
  8
LAYER-1
 10
2.479226
 20
0.132516
 30
0.000000
  0
VERTEX
  8
LAYER-1
 10
2.476623
 20
0.128176
 30
0.000000
  0
SEQEND
  8
LAYER-1
  0
POLYLINE
  8
LAYER-1
 66
  1
 70
  0
 62
  0
 10
2.309956
 20
0.181995
 30
0.000000
  0
VERTEX
  8
LAYER-1
 10
2.309956
 20
0.181995
 30
0.000000
  0
VERTEX
  8
LAYER-1
 10
2.309956
 20
0.177654
 30
0.000000
  0
VERTEX
  8
LAYER-1
 10
2.314297
 20
0.174182
 30
0.000000
  0
VERTEX
  8
LAYER-1
 10
2.319505
 20
0.173315
 30
0.000000
  0
VERTEX
  8
LAYER-1
 10
2.323845
 20
0.175051
 30
0.000000
  0
VERTEX
  8
LAYER-1
 10
2.325581
 20
0.179390
 30
0.000000
  0
VERTEX
  8
LAYER-1
 10
2.325581
 20
0.183731
 30
0.000000
  0
VERTEX
  8
LAYER-1
 10
2.322109
 20
0.188071
 30
0.000000
  0
VERTEX
  8
LAYER-1
 10
2.317769
 20
0.188071
 30
0.000000
  0
VERTEX
  8
LAYER-1
 10
2.313428
 20
0.187202
 30
0.000000
  0
VERTEX
  8
LAYER-1
 10
2.310823
 20
0.182863
 30
0.000000
  0
SEQEND
  8
LAYER-1
  0
POLYLINE
  8
LAYER-1
 66
  1
 70
  1
 62
  0
 10
2.072109
 20
0.099097
 30
0.000000
  0
VERTEX
  8
LAYER-1
 10
2.072109
 20
0.099097
 30
0.000000
  0
VERTEX
  8
LAYER-1
 10
2.079054
 20
0.073057
 30
0.000000
  0
VERTEX
  8
LAYER-1
 10
2.104227
 20
0.086944
 30
0.000000
  0
SEQEND
  8
LAYER-1
  0
POLYLINE
  8
LAYER-1
 66
  1
 70
  1
 62
  0
 10
2.176624
 20
0.086338
 30
0.000000
  0
VERTEX
  8
LAYER-1
 10
2.176624
 20
0.086338
 30
0.000000
  0
VERTEX
  8
LAYER-1
 10
2.163603
 20
0.063768
 30
0.000000
  0
VERTEX
  8
LAYER-1
 10
2.193985
 20
0.084601
 30
0.000000
  0
SEQEND
  8
LAYER-1
  0
POLYLINE
  8
LAYER-1
 66
  1
 70
  1
 62
  0
 10
1.892588
 20
0.116794
 30
0.000000
  0
VERTEX
  8
LAYER-1
 10
1.892588
 20
0.116794
 30
0.000000
  0
VERTEX
  8
LAYER-1
 10
1.876095
 20
0.091621
 30
0.000000
  0
VERTEX
  8
LAYER-1
 10
1.890852
 20
0.083808
 30
0.000000
  0
SEQEND
  8
LAYER-1
  0
POLYLINE
  8
LAYER-1
 66
  1
 70
  0
 62
  0
 10
2.022631
 20
0.130347
 30
0.000000
  0
VERTEX
  8
LAYER-1
 10
2.022631
 20
0.130347
 30
0.000000
  0
VERTEX
  8
LAYER-1
 10
2.018290
 20
0.130347
 30
0.000000
  0
VERTEX
  8
LAYER-1
 10
2.014818
 20
0.126006
 30
0.000000
  0
VERTEX
  8
LAYER-1
 10
2.013950
 20
0.120798
 30
0.000000
  0
VERTEX
  8
LAYER-1
 10
2.015686
 20
0.116458
 30
0.000000
  0
VERTEX
  8
LAYER-1
 10
2.020027
 20
0.114722
 30
0.000000
  0
VERTEX
  8
LAYER-1
 10
2.024367
 20
0.114722
 30
0.000000
  0
VERTEX
  8
LAYER-1
 10
2.028707
 20
0.118194
 30
0.000000
  0
VERTEX
  8
LAYER-1
 10
2.028707
 20
0.122534
 30
0.000000
  0
VERTEX
  8
LAYER-1
 10
2.027839
 20
0.126875
 30
0.000000
  0
VERTEX
  8
LAYER-1
 10
2.023499
 20
0.129479
 30
0.000000
  0
SEQEND
  8
LAYER-1
  0
POLYLINE
  8
LAYER-1
 66
  1
 70
  1
 62
  0
 10
0.880270
 20
0.206734
 30
0.000000
  0
VERTEX
  8
LAYER-1
 10
0.880270
 20
0.206734
 30
0.000000
  0
VERTEX
  8
LAYER-1
 10
0.867249
 20
0.184163
 30
0.000000
  0
VERTEX
  8
LAYER-1
 10
0.897631
 20
0.204996
 30
0.000000
  0
SEQEND
  8
LAYER-1
  0
POLYLINE
  8
LAYER-1
 66
  1
 70
  1
 62
  0
 10
1.877665
 20
0.149444
 30
0.000000
  0
VERTEX
  8
LAYER-1
 10
1.877665
 20
0.149444
 30
0.000000
  0
VERTEX
  8
LAYER-1
 10
1.864978
 20
0.130079
 30
0.000000
  0
VERTEX
  8
LAYER-1
 10
1.876329
 20
0.124068
 30
0.000000
  0
SEQEND
  8
LAYER-1
  0
POLYLINE
  8
LAYER-1
 66
  1
 70
  0
 62
  0
 10
2.174540
 20
0.132083
 30
0.000000
  0
VERTEX
  8
LAYER-1
 10
2.174540
 20
0.132083
 30
0.000000
  0
VERTEX
  8
LAYER-1
 10
2.170200
 20
0.132083
 30
0.000000
  0
VERTEX
  8
LAYER-1
 10
2.166727
 20
0.127741
 30
0.000000
  0
VERTEX
  8
LAYER-1
 10
2.165859
 20
0.122534
 30
0.000000
  0
VERTEX
  8
LAYER-1
 10
2.167595
 20
0.118194
 30
0.000000
  0
VERTEX
  8
LAYER-1
 10
2.171936
 20
0.116458
 30
0.000000
  0
VERTEX
  8
LAYER-1
 10
2.176277
 20
0.116458
 30
0.000000
  0
VERTEX
  8
LAYER-1
 10
2.180617
 20
0.119929
 30
0.000000
  0
VERTEX
  8
LAYER-1
 10
2.180617
 20
0.124270
 30
0.000000
  0
VERTEX
  8
LAYER-1
 10
2.179749
 20
0.128610
 30
0.000000
  0
VERTEX
  8
LAYER-1
 10
2.175408
 20
0.131215
 30
0.000000
  0
SEQEND
  8
LAYER-1
  0
POLYLINE
  8
LAYER-1
 66
  1
 70
  0
 62
  0
 10
2.234436
 20
0.137290
 30
0.000000
  0
VERTEX
  8
LAYER-1
 10
2.234436
 20
0.137290
 30
0.000000
  0
VERTEX
  8
LAYER-1
 10
2.230095
 20
0.137290
 30
0.000000
  0
VERTEX
  8
LAYER-1
 10
2.226624
 20
0.132950
 30
0.000000
  0
VERTEX
  8
LAYER-1
 10
2.225756
 20
0.127741
 30
0.000000
  0
VERTEX
  8
LAYER-1
 10
2.227492
 20
0.123401
 30
0.000000
  0
VERTEX
  8
LAYER-1
 10
2.231832
 20
0.121665
 30
0.000000
  0
VERTEX
  8
LAYER-1
 10
2.236172
 20
0.121665
 30
0.000000
  0
VERTEX
  8
LAYER-1
 10
2.240513
 20
0.125137
 30
0.000000
  0
VERTEX
  8
LAYER-1
 10
2.240513
 20
0.129478
 30
0.000000
  0
VERTEX
  8
LAYER-1
 10
2.239645
 20
0.133819
 30
0.000000
  0
VERTEX
  8
LAYER-1
 10
2.235304
 20
0.136423
 30
0.000000
  0
SEQEND
  8
LAYER-1
  0
POLYLINE
  8
LAYER-1
 66
  1
 70
  0
 62
  0
 10
0.890686
 20
0.124269
 30
0.000000
  0
VERTEX
  8
LAYER-1
 10
0.890686
 20
0.124269
 30
0.000000
  0
VERTEX
  8
LAYER-1
 10
0.886345
 20
0.124269
 30
0.000000
  0
VERTEX
  8
LAYER-1
 10
0.882874
 20
0.119928
 30
0.000000
  0
VERTEX
  8
LAYER-1
 10
0.882006
 20
0.114721
 30
0.000000
  0
VERTEX
  8
LAYER-1
 10
0.883742
 20
0.110380
 30
0.000000
  0
VERTEX
  8
LAYER-1
 10
0.888082
 20
0.108644
 30
0.000000
  0
VERTEX
  8
LAYER-1
 10
0.892422
 20
0.108644
 30
0.000000
  0
VERTEX
  8
LAYER-1
 10
0.896763
 20
0.112116
 30
0.000000
  0
VERTEX
  8
LAYER-1
 10
0.896763
 20
0.116457
 30
0.000000
  0
VERTEX
  8
LAYER-1
 10
0.895895
 20
0.120797
 30
0.000000
  0
VERTEX
  8
LAYER-1
 10
0.891554
 20
0.123402
 30
0.000000
  0
SEQEND
  8
LAYER-1
  0
POLYLINE
  8
LAYER-1
 66
  1
 70
  1
 62
  0
 10
2.541727
 20
0.164200
 30
0.000000
  0
VERTEX
  8
LAYER-1
 10
2.541727
 20
0.164200
 30
0.000000
  0
VERTEX
  8
LAYER-1
 10
2.548672
 20
0.138158
 30
0.000000
  0
VERTEX
  8
LAYER-1
 10
2.573845
 20
0.152046
 30
0.000000
  0
SEQEND
  8
LAYER-1
  0
POLYLINE
  8
LAYER-1
 66
  1
 70
  1
 62
  0
 10
2.704055
 20
0.192845
 30
0.000000
  0
VERTEX
  8
LAYER-1
 10
2.704055
 20
0.192845
 30
0.000000
  0
VERTEX
  8
LAYER-1
 10
2.691033
 20
0.170276
 30
0.000000
  0
VERTEX
  8
LAYER-1
 10
2.721415
 20
0.191108
 30
0.000000
  0
SEQEND
  8
LAYER-1
  0
POLYLINE
  8
LAYER-1
 66
  1
 70
  1
 62
  0
 10
1.380269
 20
0.143801
 30
0.000000
  0
VERTEX
  8
LAYER-1
 10
1.380269
 20
0.143801
 30
0.000000
  0
VERTEX
  8
LAYER-1
 10
1.363776
 20
0.118626
 30
0.000000
  0
VERTEX
  8
LAYER-1
 10
1.378533
 20
0.110814
 30
0.000000
  0
SEQEND
  8
LAYER-1
  0
POLYLINE
  8
LAYER-1
 66
  1
 70
  0
 62
  0
 10
2.492249
 20
0.195448
 30
0.000000
  0
VERTEX
  8
LAYER-1
 10
2.492249
 20
0.195448
 30
0.000000
  0
VERTEX
  8
LAYER-1
 10
2.487908
 20
0.195448
 30
0.000000
  0
VERTEX
  8
LAYER-1
 10
2.484436
 20
0.191108
 30
0.000000
  0
VERTEX
  8
LAYER-1
 10
2.483567
 20
0.185900
 30
0.000000
  0
VERTEX
  8
LAYER-1
 10
2.485304
 20
0.181559
 30
0.000000
  0
VERTEX
  8
LAYER-1
 10
2.489644
 20
0.179823
 30
0.000000
  0
VERTEX
  8
LAYER-1
 10
2.493984
 20
0.179823
 30
0.000000
  0
VERTEX
  8
LAYER-1
 10
2.498325
 20
0.183295
 30
0.000000
  0
VERTEX
  8
LAYER-1
 10
2.498325
 20
0.187636
 30
0.000000
  0
VERTEX
  8
LAYER-1
 10
2.497456
 20
0.191977
 30
0.000000
  0
VERTEX
  8
LAYER-1
 10
2.493117
 20
0.194581
 30
0.000000
  0
SEQEND
  8
LAYER-1
  0
POLYLINE
  8
LAYER-1
 66
  1
 70
  1
 62
  0
 10
2.529575
 20
0.127741
 30
0.000000
  0
VERTEX
  8
LAYER-1
 10
2.529575
 20
0.127741
 30
0.000000
  0
VERTEX
  8
LAYER-1
 10
2.516554
 20
0.105171
 30
0.000000
  0
VERTEX
  8
LAYER-1
 10
2.546936
 20
0.126004
 30
0.000000
  0
SEQEND
  8
LAYER-1
  0
POLYLINE
  8
LAYER-1
 66
  1
 70
  1
 62
  0
 10
1.088502
 20
0.218111
 30
0.000000
  0
VERTEX
  8
LAYER-1
 10
1.088502
 20
0.218111
 30
0.000000
  0
VERTEX
  8
LAYER-1
 10
1.107867
 20
0.205426
 30
0.000000
  0
VERTEX
  8
LAYER-1
 10
1.113877
 20
0.216775
 30
0.000000
  0
SEQEND
  8
LAYER-1
  0
POLYLINE
  8
LAYER-1
 66
  1
 70
  0
 62
  0
 10
2.644158
 20
0.197184
 30
0.000000
  0
VERTEX
  8
LAYER-1
 10
2.644158
 20
0.197184
 30
0.000000
  0
VERTEX
  8
LAYER-1
 10
2.639817
 20
0.197184
 30
0.000000
  0
VERTEX
  8
LAYER-1
 10
2.636345
 20
0.192844
 30
0.000000
  0
VERTEX
  8
LAYER-1
 10
2.635477
 20
0.187636
 30
0.000000
  0
VERTEX
  8
LAYER-1
 10
2.637213
 20
0.183295
 30
0.000000
  0
VERTEX
  8
LAYER-1
 10
2.641554
 20
0.181559
 30
0.000000
  0
VERTEX
  8
LAYER-1
 10
2.645894
 20
0.181559
 30
0.000000
  0
VERTEX
  8
LAYER-1
 10
2.650234
 20
0.185031
 30
0.000000
  0
VERTEX
  8
LAYER-1
 10
2.650234
 20
0.189372
 30
0.000000
  0
VERTEX
  8
LAYER-1
 10
2.649367
 20
0.193713
 30
0.000000
  0
VERTEX
  8
LAYER-1
 10
2.645026
 20
0.196316
 30
0.000000
  0
SEQEND
  8
LAYER-1
  0
POLYLINE
  8
LAYER-1
 66
  1
 70
  0
 62
  0
 10
1.432353
 20
0.137723
 30
0.000000
  0
VERTEX
  8
LAYER-1
 10
1.432353
 20
0.137723
 30
0.000000
  0
VERTEX
  8
LAYER-1
 10
1.428012
 20
0.137723
 30
0.000000
  0
VERTEX
  8
LAYER-1
 10
1.424540
 20
0.133383
 30
0.000000
  0
VERTEX
  8
LAYER-1
 10
1.423673
 20
0.128176
 30
0.000000
  0
VERTEX
  8
LAYER-1
 10
1.425408
 20
0.123834
 30
0.000000
  0
VERTEX
  8
LAYER-1
 10
1.429748
 20
0.122098
 30
0.000000
  0
VERTEX
  8
LAYER-1
 10
1.434089
 20
0.122098
 30
0.000000
  0
VERTEX
  8
LAYER-1
 10
1.438429
 20
0.125571
 30
0.000000
  0
VERTEX
  8
LAYER-1
 10
1.438429
 20
0.129911
 30
0.000000
  0
VERTEX
  8
LAYER-1
 10
1.437561
 20
0.134252
 30
0.000000
  0
VERTEX
  8
LAYER-1
 10
1.433221
 20
0.136856
 30
0.000000
  0
SEQEND
  8
LAYER-1
  0
POLYLINE
  8
LAYER-1
 66
  1
 70
  0
 62
  0
 10
1.015686
 20
0.114286
 30
0.000000
  0
VERTEX
  8
LAYER-1
 10
1.015686
 20
0.114286
 30
0.000000
  0
VERTEX
  8
LAYER-1
 10
1.011345
 20
0.114286
 30
0.000000
  0
VERTEX
  8
LAYER-1
 10
1.007873
 20
0.109946
 30
0.000000
  0
VERTEX
  8
LAYER-1
 10
1.007005
 20
0.104738
 30
0.000000
  0
VERTEX
  8
LAYER-1
 10
1.008741
 20
0.100397
 30
0.000000
  0
VERTEX
  8
LAYER-1
 10
1.013081
 20
0.098661
 30
0.000000
  0
VERTEX
  8
LAYER-1
 10
1.017422
 20
0.098661
 30
0.000000
  0
VERTEX
  8
LAYER-1
 10
1.021761
 20
0.102133
 30
0.000000
  0
VERTEX
  8
LAYER-1
 10
1.021761
 20
0.106473
 30
0.000000
  0
VERTEX
  8
LAYER-1
 10
1.020894
 20
0.110814
 30
0.000000
  0
VERTEX
  8
LAYER-1
 10
1.016554
 20
0.113419
 30
0.000000
  0
SEQEND
  8
LAYER-1
  0
POLYLINE
  8
LAYER-1
 66
  1
 70
  1
 62
  0
 10
2.983568
 20
0.188504
 30
0.000000
  0
VERTEX
  8
LAYER-1
 10
2.983568
 20
0.188504
 30
0.000000
  0
VERTEX
  8
LAYER-1
 10
2.990512
 20
0.162465
 30
0.000000
  0
VERTEX
  8
LAYER-1
 10
3.015686
 20
0.176351
 30
0.000000
  0
SEQEND
  8
LAYER-1
  0
POLYLINE
  8
LAYER-1
 66
  1
 70
  1
 62
  0
 10
3.145894
 20
0.217151
 30
0.000000
  0
VERTEX
  8
LAYER-1
 10
3.145894
 20
0.217151
 30
0.000000
  0
VERTEX
  8
LAYER-1
 10
3.132873
 20
0.194581
 30
0.000000
  0
VERTEX
  8
LAYER-1
 10
3.163255
 20
0.215413
 30
0.000000
  0
SEQEND
  8
LAYER-1
  0
POLYLINE
  8
LAYER-1
 66
  1
 70
  1
 62
  0
 10
2.374193
 20
0.152915
 30
0.000000
  0
VERTEX
  8
LAYER-1
 10
2.374193
 20
0.152915
 30
0.000000
  0
VERTEX
  8
LAYER-1
 10
2.399366
 20
0.136421
 30
0.000000
  0
VERTEX
  8
LAYER-1
 10
2.407179
 20
0.151179
 30
0.000000
  0
SEQEND
  8
LAYER-1
  0
POLYLINE
  8
LAYER-1
 66
  1
 70
  0
 62
  0
 10
2.944505
 20
0.209339
 30
0.000000
  0
VERTEX
  8
LAYER-1
 10
2.944505
 20
0.209339
 30
0.000000
  0
VERTEX
  8
LAYER-1
 10
2.940165
 20
0.209339
 30
0.000000
  0
VERTEX
  8
LAYER-1
 10
2.936693
 20
0.204998
 30
0.000000
  0
VERTEX
  8
LAYER-1
 10
2.935825
 20
0.199790
 30
0.000000
  0
VERTEX
  8
LAYER-1
 10
2.937561
 20
0.195450
 30
0.000000
  0
VERTEX
  8
LAYER-1
 10
2.941901
 20
0.193714
 30
0.000000
  0
VERTEX
  8
LAYER-1
 10
2.946241
 20
0.193714
 30
0.000000
  0
VERTEX
  8
LAYER-1
 10
2.950582
 20
0.197185
 30
0.000000
  0
VERTEX
  8
LAYER-1
 10
2.950582
 20
0.201526
 30
0.000000
  0
VERTEX
  8
LAYER-1
 10
2.949714
 20
0.205866
 30
0.000000
  0
VERTEX
  8
LAYER-1
 10
2.945373
 20
0.208472
 30
0.000000
  0
SEQEND
  8
LAYER-1
  0
POLYLINE
  8
LAYER-1
 66
  1
 70
  1
 62
  0
 10
2.960131
 20
0.120797
 30
0.000000
  0
VERTEX
  8
LAYER-1
 10
2.960131
 20
0.120797
 30
0.000000
  0
VERTEX
  8
LAYER-1
 10
2.947110
 20
0.098227
 30
0.000000
  0
VERTEX
  8
LAYER-1
 10
2.977492
 20
0.119059
 30
0.000000
  0
SEQEND
  8
LAYER-1
  0
POLYLINE
  8
LAYER-1
 66
  1
 70
  1
 62
  0
 10
3.054581
 20
0.114384
 30
0.000000
  0
VERTEX
  8
LAYER-1
 10
3.054581
 20
0.114384
 30
0.000000
  0
VERTEX
  8
LAYER-1
 10
3.041895
 20
0.095020
 30
0.000000
  0
VERTEX
  8
LAYER-1
 10
3.053245
 20
0.089009
 30
0.000000
  0
SEQEND
  8
LAYER-1
  0
POLYLINE
  8
LAYER-1
 66
  1
 70
  0
 62
  0
 10
3.085998
 20
0.213678
 30
0.000000
  0
VERTEX
  8
LAYER-1
 10
3.085998
 20
0.213678
 30
0.000000
  0
VERTEX
  8
LAYER-1
 10
3.081658
 20
0.213678
 30
0.000000
  0
VERTEX
  8
LAYER-1
 10
3.078186
 20
0.209338
 30
0.000000
  0
VERTEX
  8
LAYER-1
 10
3.077318
 20
0.204130
 30
0.000000
  0
VERTEX
  8
LAYER-1
 10
3.079054
 20
0.199789
 30
0.000000
  0
VERTEX
  8
LAYER-1
 10
3.083394
 20
0.198053
 30
0.000000
  0
VERTEX
  8
LAYER-1
 10
3.087735
 20
0.198053
 30
0.000000
  0
VERTEX
  8
LAYER-1
 10
3.092075
 20
0.201525
 30
0.000000
  0
VERTEX
  8
LAYER-1
 10
3.092075
 20
0.205866
 30
0.000000
  0
VERTEX
  8
LAYER-1
 10
3.091207
 20
0.210207
 30
0.000000
  0
VERTEX
  8
LAYER-1
 10
3.086866
 20
0.212811
 30
0.000000
  0
SEQEND
  8
LAYER-1
  0
POLYLINE
  8
LAYER-1
 66
  1
 70
  0
 62
  0
 10
2.362908
 20
0.205866
 30
0.000000
  0
VERTEX
  8
LAYER-1
 10
2.362908
 20
0.205866
 30
0.000000
  0
VERTEX
  8
LAYER-1
 10
2.362908
 20
0.201525
 30
0.000000
  0
VERTEX
  8
LAYER-1
 10
2.367249
 20
0.198053
 30
0.000000
  0
VERTEX
  8
LAYER-1
 10
2.372457
 20
0.197184
 30
0.000000
  0
VERTEX
  8
LAYER-1
 10
2.376798
 20
0.198920
 30
0.000000
  0
VERTEX
  8
LAYER-1
 10
2.378533
 20
0.203261
 30
0.000000
  0
VERTEX
  8
LAYER-1
 10
2.378533
 20
0.207602
 30
0.000000
  0
VERTEX
  8
LAYER-1
 10
2.375062
 20
0.211942
 30
0.000000
  0
VERTEX
  8
LAYER-1
 10
2.370721
 20
0.211942
 30
0.000000
  0
VERTEX
  8
LAYER-1
 10
2.366380
 20
0.211073
 30
0.000000
  0
VERTEX
  8
LAYER-1
 10
2.363775
 20
0.206733
 30
0.000000
  0
SEQEND
  8
LAYER-1
  0
POLYLINE
  8
LAYER-1
 66
  1
 70
  0
 62
  0
 10
2.926275
 20
0.121663
 30
0.000000
  0
VERTEX
  8
LAYER-1
 10
2.926275
 20
0.121663
 30
0.000000
  0
VERTEX
  8
LAYER-1
 10
2.921935
 20
0.121663
 30
0.000000
  0
VERTEX
  8
LAYER-1
 10
2.918463
 20
0.117322
 30
0.000000
  0
VERTEX
  8
LAYER-1
 10
2.917595
 20
0.112115
 30
0.000000
  0
VERTEX
  8
LAYER-1
 10
2.919331
 20
0.107774
 30
0.000000
  0
VERTEX
  8
LAYER-1
 10
2.923672
 20
0.106038
 30
0.000000
  0
VERTEX
  8
LAYER-1
 10
2.928011
 20
0.106038
 30
0.000000
  0
VERTEX
  8
LAYER-1
 10
2.932352
 20
0.109510
 30
0.000000
  0
VERTEX
  8
LAYER-1
 10
2.932352
 20
0.113851
 30
0.000000
  0
VERTEX
  8
LAYER-1
 10
2.931484
 20
0.118191
 30
0.000000
  0
VERTEX
  8
LAYER-1
 10
2.927143
 20
0.120796
 30
0.000000
  0
SEQEND
  8
LAYER-1
  0
POLYLINE
  8
LAYER-1
 66
  1
 70
  1
 62
  0
 10
2.793464
 20
0.109946
 30
0.000000
  0
VERTEX
  8
LAYER-1
 10
2.793464
 20
0.109946
 30
0.000000
  0
VERTEX
  8
LAYER-1
 10
2.767422
 20
0.103002
 30
0.000000
  0
VERTEX
  8
LAYER-1
 10
2.781311
 20
0.077828
 30
0.000000
  0
SEQEND
  8
LAYER-1
  0
POLYLINE
  8
LAYER-1
 66
  1
 70
  1
 62
  0
 10
1.416729
 20
0.084339
 30
0.000000
  0
VERTEX
  8
LAYER-1
 10
1.416729
 20
0.084339
 30
0.000000
  0
VERTEX
  8
LAYER-1
 10
1.391554
 20
0.100832
 30
0.000000
  0
VERTEX
  8
LAYER-1
 10
1.383741
 20
0.086075
 30
0.000000
  0
SEQEND
  8
LAYER-1
  0
POLYLINE
  8
LAYER-1
 66
  1
 70
  0
 62
  0
 10
2.824714
 20
0.159426
 30
0.000000
  0
VERTEX
  8
LAYER-1
 10
2.824714
 20
0.159426
 30
0.000000
  0
VERTEX
  8
LAYER-1
 10
2.824714
 20
0.163766
 30
0.000000
  0
VERTEX
  8
LAYER-1
 10
2.820374
 20
0.167238
 30
0.000000
  0
VERTEX
  8
LAYER-1
 10
2.815166
 20
0.168106
 30
0.000000
  0
VERTEX
  8
LAYER-1
 10
2.810825
 20
0.166370
 30
0.000000
  0
VERTEX
  8
LAYER-1
 10
2.809089
 20
0.162029
 30
0.000000
  0
VERTEX
  8
LAYER-1
 10
2.809089
 20
0.157689
 30
0.000000
  0
VERTEX
  8
LAYER-1
 10
2.812561
 20
0.153350
 30
0.000000
  0
VERTEX
  8
LAYER-1
 10
2.816902
 20
0.153350
 30
0.000000
  0
VERTEX
  8
LAYER-1
 10
2.821243
 20
0.154216
 30
0.000000
  0
VERTEX
  8
LAYER-1
 10
2.823845
 20
0.158557
 30
0.000000
  0
SEQEND
  8
LAYER-1
  0
POLYLINE
  8
LAYER-1
 66
  1
 70
  1
 62
  0
 10
2.757005
 20
0.122100
 30
0.000000
  0
VERTEX
  8
LAYER-1
 10
2.757005
 20
0.122100
 30
0.000000
  0
VERTEX
  8
LAYER-1
 10
2.734437
 20
0.135120
 30
0.000000
  0
VERTEX
  8
LAYER-1
 10
2.755269
 20
0.104738
 30
0.000000
  0
SEQEND
  8
LAYER-1
  0
POLYLINE
  8
LAYER-1
 66
  1
 70
  1
 62
  0
 10
1.494520
 20
0.103601
 30
0.000000
  0
VERTEX
  8
LAYER-1
 10
1.494520
 20
0.103601
 30
0.000000
  0
VERTEX
  8
LAYER-1
 10
1.475154
 20
0.116288
 30
0.000000
  0
VERTEX
  8
LAYER-1
 10
1.469144
 20
0.104936
 30
0.000000
  0
SEQEND
  8
LAYER-1
  0
POLYLINE
  8
LAYER-1
 66
  1
 70
  0
 62
  0
 10
1.554749
 20
0.092151
 30
0.000000
  0
VERTEX
  8
LAYER-1
 10
1.554749
 20
0.092151
 30
0.000000
  0
VERTEX
  8
LAYER-1
 10
1.554749
 20
0.096491
 30
0.000000
  0
VERTEX
  8
LAYER-1
 10
1.550408
 20
0.099964
 30
0.000000
  0
VERTEX
  8
LAYER-1
 10
1.545201
 20
0.100832
 30
0.000000
  0
VERTEX
  8
LAYER-1
 10
1.540860
 20
0.099096
 30
0.000000
  0
VERTEX
  8
LAYER-1
 10
1.539124
 20
0.094755
 30
0.000000
  0
VERTEX
  8
LAYER-1
 10
1.539124
 20
0.090414
 30
0.000000
  0
VERTEX
  8
LAYER-1
 10
1.542596
 20
0.086075
 30
0.000000
  0
VERTEX
  8
LAYER-1
 10
1.546936
 20
0.086075
 30
0.000000
  0
VERTEX
  8
LAYER-1
 10
1.551277
 20
0.086942
 30
0.000000
  0
VERTEX
  8
LAYER-1
 10
1.553880
 20
0.091283
 30
0.000000
  0
SEQEND
  8
LAYER-1
  0
POLYLINE
  8
LAYER-1
 66
  1
 70
  0
 62
  0
 10
2.674541
 20
0.111682
 30
0.000000
  0
VERTEX
  8
LAYER-1
 10
2.674541
 20
0.111682
 30
0.000000
  0
VERTEX
  8
LAYER-1
 10
2.674541
 20
0.116023
 30
0.000000
  0
VERTEX
  8
LAYER-1
 10
2.670200
 20
0.119495
 30
0.000000
  0
VERTEX
  8
LAYER-1
 10
2.664992
 20
0.120363
 30
0.000000
  0
VERTEX
  8
LAYER-1
 10
2.660652
 20
0.118627
 30
0.000000
  0
VERTEX
  8
LAYER-1
 10
2.658916
 20
0.114287
 30
0.000000
  0
VERTEX
  8
LAYER-1
 10
2.658916
 20
0.109946
 30
0.000000
  0
VERTEX
  8
LAYER-1
 10
2.662388
 20
0.105606
 30
0.000000
  0
VERTEX
  8
LAYER-1
 10
2.666728
 20
0.105606
 30
0.000000
  0
VERTEX
  8
LAYER-1
 10
2.671069
 20
0.106475
 30
0.000000
  0
VERTEX
  8
LAYER-1
 10
2.673672
 20
0.110814
 30
0.000000
  0
SEQEND
  8
LAYER-1
  0
POLYLINE
  8
LAYER-1
 66
  1
 70
  1
 62
  0
 10
2.867248
 20
0.112985
 30
0.000000
  0
VERTEX
  8
LAYER-1
 10
2.867248
 20
0.112985
 30
0.000000
  0
VERTEX
  8
LAYER-1
 10
2.860304
 20
0.139026
 30
0.000000
  0
VERTEX
  8
LAYER-1
 10
2.835130
 20
0.125139
 30
0.000000
  0
SEQEND
  8
LAYER-1
  0
POLYLINE
  8
LAYER-1
 66
  1
 70
  1
 62
  0
 10
2.314297
 20
0.099964
 30
0.000000
  0
VERTEX
  8
LAYER-1
 10
2.314297
 20
0.099964
 30
0.000000
  0
VERTEX
  8
LAYER-1
 10
2.291726
 20
0.112985
 30
0.000000
  0
VERTEX
  8
LAYER-1
 10
2.312559
 20
0.082603
 30
0.000000
  0
SEQEND
  8
LAYER-1
  0
POLYLINE
  8
LAYER-1
 66
  1
 70
  1
 62
  0
 10
3.092076
 20
0.124270
 30
0.000000
  0
VERTEX
  8
LAYER-1
 10
3.092076
 20
0.124270
 30
0.000000
  0
VERTEX
  8
LAYER-1
 10
3.108569
 20
0.149444
 30
0.000000
  0
VERTEX
  8
LAYER-1
 10
3.093812
 20
0.157256
 30
0.000000
  0
SEQEND
  8
LAYER-1
  0
POLYLINE
  8
LAYER-1
 66
  1
 70
  0
 62
  0
 10
3.227491
 20
0.092149
 30
0.000000
  0
VERTEX
  8
LAYER-1
 10
3.227491
 20
0.092149
 30
0.000000
  0
VERTEX
  8
LAYER-1
 10
3.231832
 20
0.092149
 30
0.000000
  0
VERTEX
  8
LAYER-1
 10
3.235303
 20
0.096490
 30
0.000000
  0
VERTEX
  8
LAYER-1
 10
3.236172
 20
0.101697
 30
0.000000
  0
VERTEX
  8
LAYER-1
 10
3.234436
 20
0.106038
 30
0.000000
  0
VERTEX
  8
LAYER-1
 10
3.230095
 20
0.107774
 30
0.000000
  0
VERTEX
  8
LAYER-1
 10
3.225755
 20
0.107774
 30
0.000000
  0
VERTEX
  8
LAYER-1
 10
3.221415
 20
0.104302
 30
0.000000
  0
VERTEX
  8
LAYER-1
 10
3.221415
 20
0.099961
 30
0.000000
  0
VERTEX
  8
LAYER-1
 10
3.222283
 20
0.095621
 30
0.000000
  0
VERTEX
  8
LAYER-1
 10
3.226623
 20
0.093016
 30
0.000000
  0
SEQEND
  8
LAYER-1
  0
POLYLINE
  8
LAYER-1
 66
  1
 70
  1
 62
  0
 10
2.879400
 20
0.149444
 30
0.000000
  0
VERTEX
  8
LAYER-1
 10
2.879400
 20
0.149444
 30
0.000000
  0
VERTEX
  8
LAYER-1
 10
2.892422
 20
0.172014
 30
0.000000
  0
VERTEX
  8
LAYER-1
 10
2.862040
 20
0.151182
 30
0.000000
  0
SEQEND
  8
LAYER-1
  0
POLYLINE
  8
LAYER-1
 66
  1
 70
  1
 62
  0
 10
3.133040
 20
0.100299
 30
0.000000
  0
VERTEX
  8
LAYER-1
 10
3.133040
 20
0.100299
 30
0.000000
  0
VERTEX
  8
LAYER-1
 10
3.145727
 20
0.119663
 30
0.000000
  0
VERTEX
  8
LAYER-1
 10
3.134376
 20
0.125674
 30
0.000000
  0
SEQEND
  8
LAYER-1
  0
POLYLINE
  8
LAYER-1
 66
  1
 70
  0
 62
  0
 10
2.454053
 20
0.159860
 30
0.000000
  0
VERTEX
  8
LAYER-1
 10
2.454053
 20
0.159860
 30
0.000000
  0
VERTEX
  8
LAYER-1
 10
2.454053
 20
0.164200
 30
0.000000
  0
VERTEX
  8
LAYER-1
 10
2.449712
 20
0.167673
 30
0.000000
  0
VERTEX
  8
LAYER-1
 10
2.444505
 20
0.168540
 30
0.000000
  0
VERTEX
  8
LAYER-1
 10
2.440164
 20
0.166804
 30
0.000000
  0
VERTEX
  8
LAYER-1
 10
2.438428
 20
0.162464
 30
0.000000
  0
VERTEX
  8
LAYER-1
 10
2.438428
 20
0.158123
 30
0.000000
  0
VERTEX
  8
LAYER-1
 10
2.441900
 20
0.153784
 30
0.000000
  0
VERTEX
  8
LAYER-1
 10
2.446240
 20
0.153784
 30
0.000000
  0
VERTEX
  8
LAYER-1
 10
2.450581
 20
0.154651
 30
0.000000
  0
VERTEX
  8
LAYER-1
 10
2.453186
 20
0.158991
 30
0.000000
  0
SEQEND
  8
LAYER-1
  0
POLYLINE
  8
LAYER-1
 66
  1
 70
  0
 62
  0
 10
3.039992
 20
0.130347
 30
0.000000
  0
VERTEX
  8
LAYER-1
 10
3.039992
 20
0.130347
 30
0.000000
  0
VERTEX
  8
LAYER-1
 10
3.044333
 20
0.130347
 30
0.000000
  0
VERTEX
  8
LAYER-1
 10
3.047805
 20
0.134688
 30
0.000000
  0
VERTEX
  8
LAYER-1
 10
3.048673
 20
0.139895
 30
0.000000
  0
VERTEX
  8
LAYER-1
 10
3.046937
 20
0.144235
 30
0.000000
  0
VERTEX
  8
LAYER-1
 10
3.042596
 20
0.145972
 30
0.000000
  0
VERTEX
  8
LAYER-1
 10
3.038256
 20
0.145972
 30
0.000000
  0
VERTEX
  8
LAYER-1
 10
3.033915
 20
0.142500
 30
0.000000
  0
VERTEX
  8
LAYER-1
 10
3.033915
 20
0.138159
 30
0.000000
  0
VERTEX
  8
LAYER-1
 10
3.034783
 20
0.133819
 30
0.000000
  0
VERTEX
  8
LAYER-1
 10
3.039124
 20
0.131214
 30
0.000000
  0
SEQEND
  8
LAYER-1
  0
POLYLINE
  8
LAYER-1
 66
  1
 70
  0
 62
  0
 10
3.204055
 20
0.138159
 30
0.000000
  0
VERTEX
  8
LAYER-1
 10
3.204055
 20
0.138159
 30
0.000000
  0
VERTEX
  8
LAYER-1
 10
3.208395
 20
0.138159
 30
0.000000
  0
VERTEX
  8
LAYER-1
 10
3.211867
 20
0.142500
 30
0.000000
  0
VERTEX
  8
LAYER-1
 10
3.212734
 20
0.147708
 30
0.000000
  0
VERTEX
  8
LAYER-1
 10
3.210999
 20
0.152048
 30
0.000000
  0
VERTEX
  8
LAYER-1
 10
3.206658
 20
0.153784
 30
0.000000
  0
VERTEX
  8
LAYER-1
 10
3.202319
 20
0.153784
 30
0.000000
  0
VERTEX
  8
LAYER-1
 10
3.197978
 20
0.150313
 30
0.000000
  0
VERTEX
  8
LAYER-1
 10
3.197978
 20
0.145972
 30
0.000000
  0
VERTEX
  8
LAYER-1
 10
3.198846
 20
0.141631
 30
0.000000
  0
VERTEX
  8
LAYER-1
 10
3.203187
 20
0.139026
 30
0.000000
  0
SEQEND
  8
LAYER-1
  0
POLYLINE
  8
LAYER-1
 66
  1
 70
  1
 62
  0
 10
3.611171
 20
0.136423
 30
0.000000
  0
VERTEX
  8
LAYER-1
 10
3.611171
 20
0.136423
 30
0.000000
  0
VERTEX
  8
LAYER-1
 10
3.618115
 20
0.110382
 30
0.000000
  0
VERTEX
  8
LAYER-1
 10
3.643289
 20
0.124270
 30
0.000000
  0
SEQEND
  8
LAYER-1
  0
POLYLINE
  8
LAYER-1
 66
  1
 70
  1
 62
  0
 10
3.777404
 20
0.090416
 30
0.000000
  0
VERTEX
  8
LAYER-1
 10
3.777404
 20
0.090416
 30
0.000000
  0
VERTEX
  8
LAYER-1
 10
3.764383
 20
0.067847
 30
0.000000
  0
VERTEX
  8
LAYER-1
 10
3.794765
 20
0.088679
 30
0.000000
  0
SEQEND
  8
LAYER-1
  0
POLYLINE
  8
LAYER-1
 66
  1
 70
  1
 62
  0
 10
3.662386
 20
0.180689
 30
0.000000
  0
VERTEX
  8
LAYER-1
 10
3.662386
 20
0.180689
 30
0.000000
  0
VERTEX
  8
LAYER-1
 10
3.645894
 20
0.155516
 30
0.000000
  0
VERTEX
  8
LAYER-1
 10
3.660650
 20
0.147703
 30
0.000000
  0
SEQEND
  8
LAYER-1
  0
POLYLINE
  8
LAYER-1
 66
  1
 70
  0
 62
  0
 10
3.577317
 20
0.167673
 30
0.000000
  0
VERTEX
  8
LAYER-1
 10
3.577317
 20
0.167673
 30
0.000000
  0
VERTEX
  8
LAYER-1
 10
3.572976
 20
0.167673
 30
0.000000
  0
VERTEX
  8
LAYER-1
 10
3.569504
 20
0.163333
 30
0.000000
  0
VERTEX
  8
LAYER-1
 10
3.568634
 20
0.158125
 30
0.000000
  0
VERTEX
  8
LAYER-1
 10
3.570372
 20
0.153784
 30
0.000000
  0
VERTEX
  8
LAYER-1
 10
3.574713
 20
0.152048
 30
0.000000
  0
VERTEX
  8
LAYER-1
 10
3.579052
 20
0.152048
 30
0.000000
  0
VERTEX
  8
LAYER-1
 10
3.583392
 20
0.155520
 30
0.000000
  0
VERTEX
  8
LAYER-1
 10
3.583392
 20
0.159860
 30
0.000000
  0
VERTEX
  8
LAYER-1
 10
3.582524
 20
0.164202
 30
0.000000
  0
VERTEX
  8
LAYER-1
 10
3.578184
 20
0.166805
 30
0.000000
  0
SEQEND
  8
LAYER-1
  0
POLYLINE
  8
LAYER-1
 66
  1
 70
  1
 62
  0
 10
3.560823
 20
0.107775
 30
0.000000
  0
VERTEX
  8
LAYER-1
 10
3.560823
 20
0.107775
 30
0.000000
  0
VERTEX
  8
LAYER-1
 10
3.547803
 20
0.085206
 30
0.000000
  0
VERTEX
  8
LAYER-1
 10
3.578184
 20
0.106038
 30
0.000000
  0
SEQEND
  8
LAYER-1
  0
POLYLINE
  8
LAYER-1
 66
  1
 70
  1
 62
  0
 10
3.616278
 20
0.206128
 30
0.000000
  0
VERTEX
  8
LAYER-1
 10
3.616278
 20
0.206128
 30
0.000000
  0
VERTEX
  8
LAYER-1
 10
3.635643
 20
0.193441
 30
0.000000
  0
VERTEX
  8
LAYER-1
 10
3.641654
 20
0.204792
 30
0.000000
  0
SEQEND
  8
LAYER-1
  0
POLYLINE
  8
LAYER-1
 66
  1
 70
  0
 62
  0
 10
3.500926
 20
0.157378
 30
0.000000
  0
VERTEX
  8
LAYER-1
 10
3.500926
 20
0.157378
 30
0.000000
  0
VERTEX
  8
LAYER-1
 10
3.496586
 20
0.157378
 30
0.000000
  0
VERTEX
  8
LAYER-1
 10
3.493114
 20
0.153037
 30
0.000000
  0
VERTEX
  8
LAYER-1
 10
3.492247
 20
0.147830
 30
0.000000
  0
VERTEX
  8
LAYER-1
 10
3.493983
 20
0.143489
 30
0.000000
  0
VERTEX
  8
LAYER-1
 10
3.498323
 20
0.141753
 30
0.000000
  0
VERTEX
  8
LAYER-1
 10
3.502663
 20
0.141753
 30
0.000000
  0
VERTEX
  8
LAYER-1
 10
3.507003
 20
0.145225
 30
0.000000
  0
VERTEX
  8
LAYER-1
 10
3.507003
 20
0.149566
 30
0.000000
  0
VERTEX
  8
LAYER-1
 10
3.506135
 20
0.153906
 30
0.000000
  0
VERTEX
  8
LAYER-1
 10
3.501795
 20
0.156510
 30
0.000000
  0
SEQEND
  8
LAYER-1
  0
POLYLINE
  8
LAYER-1
 66
  1
 70
  0
 62
  0
 10
3.877666
 20
0.129473
 30
0.000000
  0
VERTEX
  8
LAYER-1
 10
3.877666
 20
0.129473
 30
0.000000
  0
VERTEX
  8
LAYER-1
 10
3.873327
 20
0.129473
 30
0.000000
  0
VERTEX
  8
LAYER-1
 10
3.869854
 20
0.125133
 30
0.000000
  0
VERTEX
  8
LAYER-1
 10
3.868986
 20
0.119926
 30
0.000000
  0
VERTEX
  8
LAYER-1
 10
3.870722
 20
0.115584
 30
0.000000
  0
VERTEX
  8
LAYER-1
 10
3.875062
 20
0.113848
 30
0.000000
  0
VERTEX
  8
LAYER-1
 10
3.879402
 20
0.113848
 30
0.000000
  0
VERTEX
  8
LAYER-1
 10
3.883743
 20
0.117321
 30
0.000000
  0
VERTEX
  8
LAYER-1
 10
3.883743
 20
0.121661
 30
0.000000
  0
VERTEX
  8
LAYER-1
 10
3.882875
 20
0.126002
 30
0.000000
  0
VERTEX
  8
LAYER-1
 10
3.878534
 20
0.128606
 30
0.000000
  0
SEQEND
  8
LAYER-1
  0
POLYLINE
  8
LAYER-1
 66
  1
 70
  0
 62
  0
 10
3.609434
 20
0.100831
 30
0.000000
  0
VERTEX
  8
LAYER-1
 10
3.609434
 20
0.100831
 30
0.000000
  0
VERTEX
  8
LAYER-1
 10
3.605095
 20
0.100831
 30
0.000000
  0
VERTEX
  8
LAYER-1
 10
3.601622
 20
0.096490
 30
0.000000
  0
VERTEX
  8
LAYER-1
 10
3.600754
 20
0.091282
 30
0.000000
  0
VERTEX
  8
LAYER-1
 10
3.602490
 20
0.086941
 30
0.000000
  0
VERTEX
  8
LAYER-1
 10
3.606831
 20
0.085206
 30
0.000000
  0
VERTEX
  8
LAYER-1
 10
3.611170
 20
0.085206
 30
0.000000
  0
VERTEX
  8
LAYER-1
 10
3.615511
 20
0.088677
 30
0.000000
  0
VERTEX
  8
LAYER-1
 10
3.615511
 20
0.093018
 30
0.000000
  0
VERTEX
  8
LAYER-1
 10
3.614643
 20
0.097359
 30
0.000000
  0
VERTEX
  8
LAYER-1
 10
3.610302
 20
0.099963
 30
0.000000
  0
SEQEND
  8
LAYER-1
  0
POLYLINE
  8
LAYER-1
 66
  1
 70
  1
 62
  0
 10
3.407612
 20
0.160294
 30
0.000000
  0
VERTEX
  8
LAYER-1
 10
3.407612
 20
0.160294
 30
0.000000
  0
VERTEX
  8
LAYER-1
 10
3.381572
 20
0.153350
 30
0.000000
  0
VERTEX
  8
LAYER-1
 10
3.395459
 20
0.128176
 30
0.000000
  0
SEQEND
  8
LAYER-1
  0
POLYLINE
  8
LAYER-1
 66
  1
 70
  1
 62
  0
 10
3.314731
 20
0.109078
 30
0.000000
  0
VERTEX
  8
LAYER-1
 10
3.314731
 20
0.109078
 30
0.000000
  0
VERTEX
  8
LAYER-1
 10
3.292161
 20
0.122100
 30
0.000000
  0
VERTEX
  8
LAYER-1
 10
3.312994
 20
0.091717
 30
0.000000
  0
SEQEND
  8
LAYER-1
  0
POLYLINE
  8
LAYER-1
 66
  1
 70
  1
 62
  0
 10
3.278272
 20
0.154215
 30
0.000000
  0
VERTEX
  8
LAYER-1
 10
3.278272
 20
0.154215
 30
0.000000
  0
VERTEX
  8
LAYER-1
 10
3.253099
 20
0.170708
 30
0.000000
  0
VERTEX
  8
LAYER-1
 10
3.245287
 20
0.155951
 30
0.000000
  0
SEQEND
  8
LAYER-1
  0
POLYLINE
  8
LAYER-1
 66
  1
 70
  0
 62
  0
 10
3.438862
 20
0.209772
 30
0.000000
  0
VERTEX
  8
LAYER-1
 10
3.438862
 20
0.209772
 30
0.000000
  0
VERTEX
  8
LAYER-1
 10
3.438862
 20
0.214113
 30
0.000000
  0
VERTEX
  8
LAYER-1
 10
3.434521
 20
0.217584
 30
0.000000
  0
VERTEX
  8
LAYER-1
 10
3.429314
 20
0.218452
 30
0.000000
  0
VERTEX
  8
LAYER-1
 10
3.424973
 20
0.216716
 30
0.000000
  0
VERTEX
  8
LAYER-1
 10
3.423237
 20
0.212376
 30
0.000000
  0
VERTEX
  8
LAYER-1
 10
3.423237
 20
0.208036
 30
0.000000
  0
VERTEX
  8
LAYER-1
 10
3.426709
 20
0.203696
 30
0.000000
  0
VERTEX
  8
LAYER-1
 10
3.431050
 20
0.203696
 30
0.000000
  0
VERTEX
  8
LAYER-1
 10
3.435390
 20
0.204564
 30
0.000000
  0
VERTEX
  8
LAYER-1
 10
3.437995
 20
0.208904
 30
0.000000
  0
SEQEND
  8
LAYER-1
  0
POLYLINE
  8
LAYER-1
 66
  1
 70
  1
 62
  0
 10
3.371155
 20
0.172446
 30
0.000000
  0
VERTEX
  8
LAYER-1
 10
3.371155
 20
0.172446
 30
0.000000
  0
VERTEX
  8
LAYER-1
 10
3.348584
 20
0.185466
 30
0.000000
  0
VERTEX
  8
LAYER-1
 10
3.369417
 20
0.155085
 30
0.000000
  0
SEQEND
  8
LAYER-1
  0
POLYLINE
  8
LAYER-1
 66
  1
 70
  1
 62
  0
 10
3.322809
 20
0.179487
 30
0.000000
  0
VERTEX
  8
LAYER-1
 10
3.322809
 20
0.179487
 30
0.000000
  0
VERTEX
  8
LAYER-1
 10
3.310122
 20
0.160124
 30
0.000000
  0
VERTEX
  8
LAYER-1
 10
3.321473
 20
0.154113
 30
0.000000
  0
SEQEND
  8
LAYER-1
  0
POLYLINE
  8
LAYER-1
 66
  1
 70
  0
 62
  0
 10
3.440598
 20
0.082169
 30
0.000000
  0
VERTEX
  8
LAYER-1
 10
3.440598
 20
0.082169
 30
0.000000
  0
VERTEX
  8
LAYER-1
 10
3.440598
 20
0.086508
 30
0.000000
  0
VERTEX
  8
LAYER-1
 10
3.436257
 20
0.089981
 30
0.000000
  0
VERTEX
  8
LAYER-1
 10
3.431050
 20
0.090848
 30
0.000000
  0
VERTEX
  8
LAYER-1
 10
3.426709
 20
0.089113
 30
0.000000
  0
VERTEX
  8
LAYER-1
 10
3.424973
 20
0.084772
 30
0.000000
  0
VERTEX
  8
LAYER-1
 10
3.424973
 20
0.080432
 30
0.000000
  0
VERTEX
  8
LAYER-1
 10
3.428445
 20
0.076091
 30
0.000000
  0
VERTEX
  8
LAYER-1
 10
3.432786
 20
0.076091
 30
0.000000
  0
VERTEX
  8
LAYER-1
 10
3.437126
 20
0.076959
 30
0.000000
  0
VERTEX
  8
LAYER-1
 10
3.439731
 20
0.081301
 30
0.000000
  0
SEQEND
  8
LAYER-1
  0
POLYLINE
  8
LAYER-1
 66
  1
 70
  0
 62
  0
 10
3.359001
 20
0.083036
 30
0.000000
  0
VERTEX
  8
LAYER-1
 10
3.359001
 20
0.083036
 30
0.000000
  0
VERTEX
  8
LAYER-1
 10
3.359001
 20
0.087377
 30
0.000000
  0
VERTEX
  8
LAYER-1
 10
3.354660
 20
0.090848
 30
0.000000
  0
VERTEX
  8
LAYER-1
 10
3.349453
 20
0.091716
 30
0.000000
  0
VERTEX
  8
LAYER-1
 10
3.345112
 20
0.089981
 30
0.000000
  0
VERTEX
  8
LAYER-1
 10
3.343376
 20
0.085640
 30
0.000000
  0
VERTEX
  8
LAYER-1
 10
3.343376
 20
0.081301
 30
0.000000
  0
VERTEX
  8
LAYER-1
 10
3.346848
 20
0.076959
 30
0.000000
  0
VERTEX
  8
LAYER-1
 10
3.351189
 20
0.076959
 30
0.000000
  0
VERTEX
  8
LAYER-1
 10
3.355529
 20
0.077827
 30
0.000000
  0
VERTEX
  8
LAYER-1
 10
3.358134
 20
0.082169
 30
0.000000
  0
SEQEND
  8
LAYER-1
  0
POLYLINE
  8
LAYER-1
 66
  1
 70
  0
 62
  0
 10
3.288689
 20
0.193278
 30
0.000000
  0
VERTEX
  8
LAYER-1
 10
3.288689
 20
0.193278
 30
0.000000
  0
VERTEX
  8
LAYER-1
 10
3.288689
 20
0.197619
 30
0.000000
  0
VERTEX
  8
LAYER-1
 10
3.284349
 20
0.201090
 30
0.000000
  0
VERTEX
  8
LAYER-1
 10
3.279141
 20
0.201959
 30
0.000000
  0
VERTEX
  8
LAYER-1
 10
3.274800
 20
0.200222
 30
0.000000
  0
VERTEX
  8
LAYER-1
 10
3.273064
 20
0.195882
 30
0.000000
  0
VERTEX
  8
LAYER-1
 10
3.273064
 20
0.191542
 30
0.000000
  0
VERTEX
  8
LAYER-1
 10
3.276536
 20
0.187202
 30
0.000000
  0
VERTEX
  8
LAYER-1
 10
3.280877
 20
0.187202
 30
0.000000
  0
VERTEX
  8
LAYER-1
 10
3.285217
 20
0.188070
 30
0.000000
  0
VERTEX
  8
LAYER-1
 10
3.287822
 20
0.192410
 30
0.000000
  0
SEQEND
  8
LAYER-1
  0
POLYLINE
  8
LAYER-1
 66
  1
 70
  1
 62
  0
 10
4.071241
 20
0.182863
 30
0.000000
  0
VERTEX
  8
LAYER-1
 10
4.071241
 20
0.182863
 30
0.000000
  0
VERTEX
  8
LAYER-1
 10
4.078186
 20
0.156822
 30
0.000000
  0
VERTEX
  8
LAYER-1
 10
4.103359
 20
0.170710
 30
0.000000
  0
SEQEND
  8
LAYER-1
  0
POLYLINE
  8
LAYER-1
 66
  1
 70
  1
 62
  0
 10
4.233568
 20
0.211509
 30
0.000000
  0
VERTEX
  8
LAYER-1
 10
4.233568
 20
0.211509
 30
0.000000
  0
VERTEX
  8
LAYER-1
 10
4.220547
 20
0.188939
 30
0.000000
  0
VERTEX
  8
LAYER-1
 10
4.250929
 20
0.209772
 30
0.000000
  0
SEQEND
  8
LAYER-1
  0
POLYLINE
  8
LAYER-1
 66
  1
 70
  1
 62
  0
 10
4.212735
 20
0.126439
 30
0.000000
  0
VERTEX
  8
LAYER-1
 10
4.212735
 20
0.126439
 30
0.000000
  0
VERTEX
  8
LAYER-1
 10
4.196242
 20
0.101264
 30
0.000000
  0
VERTEX
  8
LAYER-1
 10
4.210999
 20
0.093452
 30
0.000000
  0
SEQEND
  8
LAYER-1
  0
POLYLINE
  8
LAYER-1
 66
  1
 70
  0
 62
  0
 10
4.021762
 20
0.214113
 30
0.000000
  0
VERTEX
  8
LAYER-1
 10
4.021762
 20
0.214113
 30
0.000000
  0
VERTEX
  8
LAYER-1
 10
4.017421
 20
0.214113
 30
0.000000
  0
VERTEX
  8
LAYER-1
 10
4.013950
 20
0.209772
 30
0.000000
  0
VERTEX
  8
LAYER-1
 10
4.013081
 20
0.204564
 30
0.000000
  0
VERTEX
  8
LAYER-1
 10
4.014818
 20
0.200223
 30
0.000000
  0
VERTEX
  8
LAYER-1
 10
4.019158
 20
0.198488
 30
0.000000
  0
VERTEX
  8
LAYER-1
 10
4.023498
 20
0.198488
 30
0.000000
  0
VERTEX
  8
LAYER-1
 10
4.027839
 20
0.201959
 30
0.000000
  0
VERTEX
  8
LAYER-1
 10
4.027839
 20
0.206301
 30
0.000000
  0
VERTEX
  8
LAYER-1
 10
4.026971
 20
0.210641
 30
0.000000
  0
VERTEX
  8
LAYER-1
 10
4.022630
 20
0.213245
 30
0.000000
  0
SEQEND
  8
LAYER-1
  0
POLYLINE
  8
LAYER-1
 66
  1
 70
  1
 62
  0
 10
4.043028
 20
0.145970
 30
0.000000
  0
VERTEX
  8
LAYER-1
 10
4.043028
 20
0.145970
 30
0.000000
  0
VERTEX
  8
LAYER-1
 10
4.065598
 20
0.132950
 30
0.000000
  0
VERTEX
  8
LAYER-1
 10
4.044765
 20
0.163331
 30
0.000000
  0
SEQEND
  8
LAYER-1
  0
POLYLINE
  8
LAYER-1
 66
  1
 70
  1
 62
  0
 10
4.159683
 20
0.137989
 30
0.000000
  0
VERTEX
  8
LAYER-1
 10
4.159683
 20
0.137989
 30
0.000000
  0
VERTEX
  8
LAYER-1
 10
4.179048
 20
0.125303
 30
0.000000
  0
VERTEX
  8
LAYER-1
 10
4.185058
 20
0.136653
 30
0.000000
  0
SEQEND
  8
LAYER-1
  0
POLYLINE
  8
LAYER-1
 66
  1
 70
  0
 62
  0
 10
4.173672
 20
0.215848
 30
0.000000
  0
VERTEX
  8
LAYER-1
 10
4.173672
 20
0.215848
 30
0.000000
  0
VERTEX
  8
LAYER-1
 10
4.169332
 20
0.215848
 30
0.000000
  0
VERTEX
  8
LAYER-1
 10
4.165859
 20
0.211508
 30
0.000000
  0
VERTEX
  8
LAYER-1
 10
4.164992
 20
0.206301
 30
0.000000
  0
VERTEX
  8
LAYER-1
 10
4.166727
 20
0.201959
 30
0.000000
  0
VERTEX
  8
LAYER-1
 10
4.171068
 20
0.200223
 30
0.000000
  0
VERTEX
  8
LAYER-1
 10
4.175409
 20
0.200223
 30
0.000000
  0
VERTEX
  8
LAYER-1
 10
4.179749
 20
0.203696
 30
0.000000
  0
VERTEX
  8
LAYER-1
 10
4.179749
 20
0.208036
 30
0.000000
  0
VERTEX
  8
LAYER-1
 10
4.178880
 20
0.212377
 30
0.000000
  0
VERTEX
  8
LAYER-1
 10
4.174540
 20
0.214981
 30
0.000000
  0
SEQEND
  8
LAYER-1
  0
POLYLINE
  8
LAYER-1
 66
  1
 70
  0
 62
  0
 10
4.257874
 20
0.089112
 30
0.000000
  0
VERTEX
  8
LAYER-1
 10
4.257874
 20
0.089112
 30
0.000000
  0
VERTEX
  8
LAYER-1
 10
4.253534
 20
0.089112
 30
0.000000
  0
VERTEX
  8
LAYER-1
 10
4.250062
 20
0.084771
 30
0.000000
  0
VERTEX
  8
LAYER-1
 10
4.249194
 20
0.079564
 30
0.000000
  0
VERTEX
  8
LAYER-1
 10
4.250930
 20
0.075222
 30
0.000000
  0
VERTEX
  8
LAYER-1
 10
4.255270
 20
0.073487
 30
0.000000
  0
VERTEX
  8
LAYER-1
 10
4.259610
 20
0.073487
 30
0.000000
  0
VERTEX
  8
LAYER-1
 10
4.263951
 20
0.076959
 30
0.000000
  0
VERTEX
  8
LAYER-1
 10
4.263951
 20
0.081300
 30
0.000000
  0
VERTEX
  8
LAYER-1
 10
4.263082
 20
0.085640
 30
0.000000
  0
VERTEX
  8
LAYER-1
 10
4.258742
 20
0.088244
 30
0.000000
  0
SEQEND
  8
LAYER-1
  0
POLYLINE
  8
LAYER-1
 66
  1
 70
  0
 62
  0
 10
4.104228
 20
0.143797
 30
0.000000
  0
VERTEX
  8
LAYER-1
 10
4.104228
 20
0.143797
 30
0.000000
  0
VERTEX
  8
LAYER-1
 10
4.099887
 20
0.143797
 30
0.000000
  0
VERTEX
  8
LAYER-1
 10
4.096415
 20
0.139457
 30
0.000000
  0
VERTEX
  8
LAYER-1
 10
4.095547
 20
0.134249
 30
0.000000
  0
VERTEX
  8
LAYER-1
 10
4.097283
 20
0.129908
 30
0.000000
  0
VERTEX
  8
LAYER-1
 10
4.101623
 20
0.128172
 30
0.000000
  0
VERTEX
  8
LAYER-1
 10
4.105964
 20
0.128172
 30
0.000000
  0
VERTEX
  8
LAYER-1
 10
4.110305
 20
0.131644
 30
0.000000
  0
VERTEX
  8
LAYER-1
 10
4.110305
 20
0.135985
 30
0.000000
  0
VERTEX
  8
LAYER-1
 10
4.109436
 20
0.140326
 30
0.000000
  0
VERTEX
  8
LAYER-1
 10
4.105096
 20
0.142929
 30
0.000000
  0
SEQEND
  8
LAYER-1
  0
POLYLINE
  8
LAYER-1
 66
  1
 70
  1
 62
  0
 10
3.939298
 20
0.152479
 30
0.000000
  0
VERTEX
  8
LAYER-1
 10
3.939298
 20
0.152479
 30
0.000000
  0
VERTEX
  8
LAYER-1
 10
3.932353
 20
0.178519
 30
0.000000
  0
VERTEX
  8
LAYER-1
 10
3.907180
 20
0.164632
 30
0.000000
  0
SEQEND
  8
LAYER-1
  0
POLYLINE
  8
LAYER-1
 66
  1
 70
  1
 62
  0
 10
3.528272
 20
0.184161
 30
0.000000
  0
VERTEX
  8
LAYER-1
 10
3.528272
 20
0.184161
 30
0.000000
  0
VERTEX
  8
LAYER-1
 10
3.541293
 20
0.206732
 30
0.000000
  0
VERTEX
  8
LAYER-1
 10
3.510912
 20
0.185900
 30
0.000000
  0
SEQEND
  8
LAYER-1
  0
POLYLINE
  8
LAYER-1
 66
  1
 70
  1
 62
  0
 10
3.825581
 20
0.177653
 30
0.000000
  0
VERTEX
  8
LAYER-1
 10
3.825581
 20
0.177653
 30
0.000000
  0
VERTEX
  8
LAYER-1
 10
3.842075
 20
0.202827
 30
0.000000
  0
VERTEX
  8
LAYER-1
 10
3.827317
 20
0.210639
 30
0.000000
  0
SEQEND
  8
LAYER-1
  0
POLYLINE
  8
LAYER-1
 66
  1
 70
  0
 62
  0
 10
3.988776
 20
0.121229
 30
0.000000
  0
VERTEX
  8
LAYER-1
 10
3.988776
 20
0.121229
 30
0.000000
  0
VERTEX
  8
LAYER-1
 10
3.993117
 20
0.121229
 30
0.000000
  0
VERTEX
  8
LAYER-1
 10
3.996589
 20
0.125570
 30
0.000000
  0
VERTEX
  8
LAYER-1
 10
3.997458
 20
0.130777
 30
0.000000
  0
VERTEX
  8
LAYER-1
 10
3.995722
 20
0.135117
 30
0.000000
  0
VERTEX
  8
LAYER-1
 10
3.991381
 20
0.136854
 30
0.000000
  0
VERTEX
  8
LAYER-1
 10
3.987040
 20
0.136854
 30
0.000000
  0
VERTEX
  8
LAYER-1
 10
3.982700
 20
0.133382
 30
0.000000
  0
VERTEX
  8
LAYER-1
 10
3.982700
 20
0.129041
 30
0.000000
  0
VERTEX
  8
LAYER-1
 10
3.983568
 20
0.124701
 30
0.000000
  0
VERTEX
  8
LAYER-1
 10
3.987909
 20
0.122096
 30
0.000000
  0
SEQEND
  8
LAYER-1
  0
POLYLINE
  8
LAYER-1
 66
  1
 70
  1
 62
  0
 10
3.942769
 20
0.117758
 30
0.000000
  0
VERTEX
  8
LAYER-1
 10
3.942769
 20
0.117758
 30
0.000000
  0
VERTEX
  8
LAYER-1
 10
3.955790
 20
0.140328
 30
0.000000
  0
VERTEX
  8
LAYER-1
 10
3.925408
 20
0.119496
 30
0.000000
  0
SEQEND
  8
LAYER-1
  0
POLYLINE
  8
LAYER-1
 66
  1
 70
  1
 62
  0
 10
3.888182
 20
0.159159
 30
0.000000
  0
VERTEX
  8
LAYER-1
 10
3.888182
 20
0.159159
 30
0.000000
  0
VERTEX
  8
LAYER-1
 10
3.868818
 20
0.171846
 30
0.000000
  0
VERTEX
  8
LAYER-1
 10
3.862807
 20
0.160495
 30
0.000000
  0
SEQEND
  8
LAYER-1
  0
POLYLINE
  8
LAYER-1
 66
  1
 70
  0
 62
  0
 10
3.865077
 20
0.055814
 30
0.000000
  0
VERTEX
  8
LAYER-1
 10
3.865077
 20
0.055814
 30
0.000000
  0
VERTEX
  8
LAYER-1
 10
3.869417
 20
0.055814
 30
0.000000
  0
VERTEX
  8
LAYER-1
 10
3.872889
 20
0.060155
 30
0.000000
  0
VERTEX
  8
LAYER-1
 10
3.873758
 20
0.065363
 30
0.000000
  0
VERTEX
  8
LAYER-1
 10
3.872022
 20
0.069704
 30
0.000000
  0
VERTEX
  8
LAYER-1
 10
3.867681
 20
0.071439
 30
0.000000
  0
VERTEX
  8
LAYER-1
 10
3.863341
 20
0.071439
 30
0.000000
  0
VERTEX
  8
LAYER-1
 10
3.859000
 20
0.067968
 30
0.000000
  0
VERTEX
  8
LAYER-1
 10
3.859000
 20
0.063627
 30
0.000000
  0
VERTEX
  8
LAYER-1
 10
3.859869
 20
0.059286
 30
0.000000
  0
VERTEX
  8
LAYER-1
 10
3.864209
 20
0.056681
 30
0.000000
  0
SEQEND
  8
LAYER-1
  0
POLYLINE
  8
LAYER-1
 66
  1
 70
  0
 62
  0
 10
3.775233
 20
0.198609
 30
0.000000
  0
VERTEX
  8
LAYER-1
 10
3.775233
 20
0.198609
 30
0.000000
  0
VERTEX
  8
LAYER-1
 10
3.779574
 20
0.198609
 30
0.000000
  0
VERTEX
  8
LAYER-1
 10
3.783046
 20
0.202950
 30
0.000000
  0
VERTEX
  8
LAYER-1
 10
3.783913
 20
0.208157
 30
0.000000
  0
VERTEX
  8
LAYER-1
 10
3.782177
 20
0.212498
 30
0.000000
  0
VERTEX
  8
LAYER-1
 10
3.777836
 20
0.214234
 30
0.000000
  0
VERTEX
  8
LAYER-1
 10
3.773497
 20
0.214234
 30
0.000000
  0
VERTEX
  8
LAYER-1
 10
3.769157
 20
0.210762
 30
0.000000
  0
VERTEX
  8
LAYER-1
 10
3.769157
 20
0.206422
 30
0.000000
  0
VERTEX
  8
LAYER-1
 10
3.770024
 20
0.202081
 30
0.000000
  0
VERTEX
  8
LAYER-1
 10
3.774364
 20
0.199476
 30
0.000000
  0
SEQEND
  8
LAYER-1
  0
POLYLINE
  8
LAYER-1
 66
  1
 70
  0
 62
  0
 10
3.937561
 20
0.191542
 30
0.000000
  0
VERTEX
  8
LAYER-1
 10
3.937561
 20
0.191542
 30
0.000000
  0
VERTEX
  8
LAYER-1
 10
3.941902
 20
0.191542
 30
0.000000
  0
VERTEX
  8
LAYER-1
 10
3.945374
 20
0.195883
 30
0.000000
  0
VERTEX
  8
LAYER-1
 10
3.946241
 20
0.201090
 30
0.000000
  0
VERTEX
  8
LAYER-1
 10
3.944505
 20
0.205432
 30
0.000000
  0
VERTEX
  8
LAYER-1
 10
3.940164
 20
0.207167
 30
0.000000
  0
VERTEX
  8
LAYER-1
 10
3.935825
 20
0.207167
 30
0.000000
  0
VERTEX
  8
LAYER-1
 10
3.931485
 20
0.203696
 30
0.000000
  0
VERTEX
  8
LAYER-1
 10
3.931485
 20
0.199354
 30
0.000000
  0
VERTEX
  8
LAYER-1
 10
3.932352
 20
0.195014
 30
0.000000
  0
VERTEX
  8
LAYER-1
 10
3.936693
 20
0.192409
 30
0.000000
  0
SEQEND
  8
LAYER-1
  0
POLYLINE
  8
LAYER-1
 66
  1
 70
  1
 62
  0
 10
4.693637
 20
0.160728
 30
0.000000
  0
VERTEX
  8
LAYER-1
 10
4.693637
 20
0.160728
 30
0.000000
  0
VERTEX
  8
LAYER-1
 10
4.700581
 20
0.134688
 30
0.000000
  0
VERTEX
  8
LAYER-1
 10
4.725755
 20
0.148576
 30
0.000000
  0
SEQEND
  8
LAYER-1
  0
POLYLINE
  8
LAYER-1
 66
  1
 70
  1
 62
  0
 10
4.820371
 20
0.196319
 30
0.000000
  0
VERTEX
  8
LAYER-1
 10
4.820371
 20
0.196319
 30
0.000000
  0
VERTEX
  8
LAYER-1
 10
4.807351
 20
0.173750
 30
0.000000
  0
VERTEX
  8
LAYER-1
 10
4.837733
 20
0.194582
 30
0.000000
  0
SEQEND
  8
LAYER-1
  0
POLYLINE
  8
LAYER-1
 66
  1
 70
  1
 62
  0
 10
4.495722
 20
0.185034
 30
0.000000
  0
VERTEX
  8
LAYER-1
 10
4.495722
 20
0.185034
 30
0.000000
  0
VERTEX
  8
LAYER-1
 10
4.479229
 20
0.159860
 30
0.000000
  0
VERTEX
  8
LAYER-1
 10
4.493986
 20
0.152048
 30
0.000000
  0
SEQEND
  8
LAYER-1
  0
POLYLINE
  8
LAYER-1
 66
  1
 70
  0
 62
  0
 10
4.605964
 20
0.177223
 30
0.000000
  0
VERTEX
  8
LAYER-1
 10
4.605964
 20
0.177223
 30
0.000000
  0
VERTEX
  8
LAYER-1
 10
4.601623
 20
0.177223
 30
0.000000
  0
VERTEX
  8
LAYER-1
 10
4.598151
 20
0.172884
 30
0.000000
  0
VERTEX
  8
LAYER-1
 10
4.597282
 20
0.167676
 30
0.000000
  0
VERTEX
  8
LAYER-1
 10
4.599018
 20
0.163335
 30
0.000000
  0
VERTEX
  8
LAYER-1
 10
4.603359
 20
0.161599
 30
0.000000
  0
VERTEX
  8
LAYER-1
 10
4.607700
 20
0.161599
 30
0.000000
  0
VERTEX
  8
LAYER-1
 10
4.612039
 20
0.165071
 30
0.000000
  0
VERTEX
  8
LAYER-1
 10
4.612039
 20
0.169412
 30
0.000000
  0
VERTEX
  8
LAYER-1
 10
4.611171
 20
0.173753
 30
0.000000
  0
VERTEX
  8
LAYER-1
 10
4.606831
 20
0.176355
 30
0.000000
  0
SEQEND
  8
LAYER-1
  0
POLYLINE
  8
LAYER-1
 66
  1
 70
  1
 62
  0
 10
4.635478
 20
0.131215
 30
0.000000
  0
VERTEX
  8
LAYER-1
 10
4.635478
 20
0.131215
 30
0.000000
  0
VERTEX
  8
LAYER-1
 10
4.622456
 20
0.108645
 30
0.000000
  0
VERTEX
  8
LAYER-1
 10
4.652839
 20
0.129478
 30
0.000000
  0
SEQEND
  8
LAYER-1
  0
POLYLINE
  8
LAYER-1
 66
  1
 70
  1
 62
  0
 10
4.842775
 20
0.131746
 30
0.000000
  0
VERTEX
  8
LAYER-1
 10
4.842775
 20
0.131746
 30
0.000000
  0
VERTEX
  8
LAYER-1
 10
4.830089
 20
0.112381
 30
0.000000
  0
VERTEX
  8
LAYER-1
 10
4.841440
 20
0.106371
 30
0.000000
  0
SEQEND
  8
LAYER-1
  0
POLYLINE
  8
LAYER-1
 66
  1
 70
  0
 62
  0
 10
4.750059
 20
0.200658
 30
0.000000
  0
VERTEX
  8
LAYER-1
 10
4.750059
 20
0.200658
 30
0.000000
  0
VERTEX
  8
LAYER-1
 10
4.745718
 20
0.200658
 30
0.000000
  0
VERTEX
  8
LAYER-1
 10
4.742246
 20
0.196317
 30
0.000000
  0
VERTEX
  8
LAYER-1
 10
4.741379
 20
0.191110
 30
0.000000
  0
VERTEX
  8
LAYER-1
 10
4.743114
 20
0.186769
 30
0.000000
  0
VERTEX
  8
LAYER-1
 10
4.747454
 20
0.185033
 30
0.000000
  0
VERTEX
  8
LAYER-1
 10
4.751795
 20
0.185033
 30
0.000000
  0
VERTEX
  8
LAYER-1
 10
4.756136
 20
0.188505
 30
0.000000
  0
VERTEX
  8
LAYER-1
 10
4.756136
 20
0.192846
 30
0.000000
  0
VERTEX
  8
LAYER-1
 10
4.755267
 20
0.197186
 30
0.000000
  0
VERTEX
  8
LAYER-1
 10
4.750927
 20
0.199790
 30
0.000000
  0
SEQEND
  8
LAYER-1
  0
POLYLINE
  8
LAYER-1
 66
  1
 70
  0
 62
  0
 10
4.537388
 20
0.191109
 30
0.000000
  0
VERTEX
  8
LAYER-1
 10
4.537388
 20
0.191109
 30
0.000000
  0
VERTEX
  8
LAYER-1
 10
4.533048
 20
0.191109
 30
0.000000
  0
VERTEX
  8
LAYER-1
 10
4.529575
 20
0.186768
 30
0.000000
  0
VERTEX
  8
LAYER-1
 10
4.528708
 20
0.181560
 30
0.000000
  0
VERTEX
  8
LAYER-1
 10
4.530444
 20
0.177220
 30
0.000000
  0
VERTEX
  8
LAYER-1
 10
4.534784
 20
0.175484
 30
0.000000
  0
VERTEX
  8
LAYER-1
 10
4.539125
 20
0.175484
 30
0.000000
  0
VERTEX
  8
LAYER-1
 10
4.543465
 20
0.178956
 30
0.000000
  0
VERTEX
  8
LAYER-1
 10
4.543465
 20
0.183296
 30
0.000000
  0
VERTEX
  8
LAYER-1
 10
4.542597
 20
0.187637
 30
0.000000
  0
VERTEX
  8
LAYER-1
 10
4.538257
 20
0.190241
 30
0.000000
  0
SEQEND
  8
LAYER-1
  0
POLYLINE
  8
LAYER-1
 66
  1
 70
  0
 62
  0
 10
4.784784
 20
0.163329
 30
0.000000
  0
VERTEX
  8
LAYER-1
 10
4.784784
 20
0.163329
 30
0.000000
  0
VERTEX
  8
LAYER-1
 10
4.780444
 20
0.163329
 30
0.000000
  0
VERTEX
  8
LAYER-1
 10
4.776971
 20
0.158989
 30
0.000000
  0
VERTEX
  8
LAYER-1
 10
4.776104
 20
0.153781
 30
0.000000
  0
VERTEX
  8
LAYER-1
 10
4.777840
 20
0.149440
 30
0.000000
  0
VERTEX
  8
LAYER-1
 10
4.782181
 20
0.147704
 30
0.000000
  0
VERTEX
  8
LAYER-1
 10
4.786521
 20
0.147704
 30
0.000000
  0
VERTEX
  8
LAYER-1
 10
4.790860
 20
0.151176
 30
0.000000
  0
VERTEX
  8
LAYER-1
 10
4.790860
 20
0.155517
 30
0.000000
  0
VERTEX
  8
LAYER-1
 10
4.789993
 20
0.159858
 30
0.000000
  0
VERTEX
  8
LAYER-1
 10
4.785653
 20
0.162461
 30
0.000000
  0
SEQEND
  8
LAYER-1
  0
POLYLINE
  8
LAYER-1
 66
  1
 70
  1
 62
  0
 10
4.399367
 20
0.109946
 30
0.000000
  0
VERTEX
  8
LAYER-1
 10
4.399367
 20
0.109946
 30
0.000000
  0
VERTEX
  8
LAYER-1
 10
4.392422
 20
0.135985
 30
0.000000
  0
VERTEX
  8
LAYER-1
 10
4.367249
 20
0.122098
 30
0.000000
  0
SEQEND
  8
LAYER-1
  0
POLYLINE
  8
LAYER-1
 66
  1
 70
  1
 62
  0
 10
4.247457
 20
0.150742
 30
0.000000
  0
VERTEX
  8
LAYER-1
 10
4.247457
 20
0.150742
 30
0.000000
  0
VERTEX
  8
LAYER-1
 10
4.260478
 20
0.173313
 30
0.000000
  0
VERTEX
  8
LAYER-1
 10
4.230096
 20
0.152479
 30
0.000000
  0
SEQEND
  8
LAYER-1
  0
POLYLINE
  8
LAYER-1
 66
  1
 70
  1
 62
  0
 10
4.330791
 20
0.110816
 30
0.000000
  0
VERTEX
  8
LAYER-1
 10
4.330791
 20
0.110816
 30
0.000000
  0
VERTEX
  8
LAYER-1
 10
4.347284
 20
0.135990
 30
0.000000
  0
VERTEX
  8
LAYER-1
 10
4.332527
 20
0.143802
 30
0.000000
  0
SEQEND
  8
LAYER-1
  0
POLYLINE
  8
LAYER-1
 66
  1
 70
  0
 62
  0
 10
4.505271
 20
0.112553
 30
0.000000
  0
VERTEX
  8
LAYER-1
 10
4.505271
 20
0.112553
 30
0.000000
  0
VERTEX
  8
LAYER-1
 10
4.509612
 20
0.112553
 30
0.000000
  0
VERTEX
  8
LAYER-1
 10
4.513084
 20
0.116894
 30
0.000000
  0
VERTEX
  8
LAYER-1
 10
4.513952
 20
0.122102
 30
0.000000
  0
VERTEX
  8
LAYER-1
 10
4.512216
 20
0.126442
 30
0.000000
  0
VERTEX
  8
LAYER-1
 10
4.507875
 20
0.128178
 30
0.000000
  0
VERTEX
  8
LAYER-1
 10
4.503535
 20
0.128178
 30
0.000000
  0
VERTEX
  8
LAYER-1
 10
4.499194
 20
0.124707
 30
0.000000
  0
VERTEX
  8
LAYER-1
 10
4.499194
 20
0.120366
 30
0.000000
  0
VERTEX
  8
LAYER-1
 10
4.500062
 20
0.116025
 30
0.000000
  0
VERTEX
  8
LAYER-1
 10
4.504403
 20
0.113420
 30
0.000000
  0
SEQEND
  8
LAYER-1
  0
POLYLINE
  8
LAYER-1
 66
  1
 70
  1
 62
  0
 10
4.456658
 20
0.127308
 30
0.000000
  0
VERTEX
  8
LAYER-1
 10
4.456658
 20
0.127308
 30
0.000000
  0
VERTEX
  8
LAYER-1
 10
4.469680
 20
0.149879
 30
0.000000
  0
VERTEX
  8
LAYER-1
 10
4.439297
 20
0.129046
 30
0.000000
  0
SEQEND
  8
LAYER-1
  0
POLYLINE
  8
LAYER-1
 66
  1
 70
  1
 62
  0
 10
4.345715
 20
0.163233
 30
0.000000
  0
VERTEX
  8
LAYER-1
 10
4.345715
 20
0.163233
 30
0.000000
  0
VERTEX
  8
LAYER-1
 10
4.358401
 20
0.182597
 30
0.000000
  0
VERTEX
  8
LAYER-1
 10
4.347051
 20
0.188608
 30
0.000000
  0
SEQEND
  8
LAYER-1
  0
POLYLINE
  8
LAYER-1
 66
  1
 70
  0
 62
  0
 10
4.301363
 20
0.194704
 30
0.000000
  0
VERTEX
  8
LAYER-1
 10
4.301363
 20
0.194704
 30
0.000000
  0
VERTEX
  8
LAYER-1
 10
4.305702
 20
0.194704
 30
0.000000
  0
VERTEX
  8
LAYER-1
 10
4.309175
 20
0.199044
 30
0.000000
  0
VERTEX
  8
LAYER-1
 10
4.310043
 20
0.204252
 30
0.000000
  0
VERTEX
  8
LAYER-1
 10
4.308307
 20
0.208593
 30
0.000000
  0
VERTEX
  8
LAYER-1
 10
4.303967
 20
0.210329
 30
0.000000
  0
VERTEX
  8
LAYER-1
 10
4.299626
 20
0.210329
 30
0.000000
  0
VERTEX
  8
LAYER-1
 10
4.295286
 20
0.206857
 30
0.000000
  0
VERTEX
  8
LAYER-1
 10
4.295286
 20
0.202516
 30
0.000000
  0
VERTEX
  8
LAYER-1
 10
4.296154
 20
0.198175
 30
0.000000
  0
VERTEX
  8
LAYER-1
 10
4.300495
 20
0.195570
 30
0.000000
  0
SEQEND
  8
LAYER-1
  0
POLYLINE
  8
LAYER-1
 66
  1
 70
  0
 62
  0
 10
4.278707
 20
0.116892
 30
0.000000
  0
VERTEX
  8
LAYER-1
 10
4.278707
 20
0.116892
 30
0.000000
  0
VERTEX
  8
LAYER-1
 10
4.283048
 20
0.116892
 30
0.000000
  0
VERTEX
  8
LAYER-1
 10
4.286520
 20
0.121234
 30
0.000000
  0
VERTEX
  8
LAYER-1
 10
4.287387
 20
0.126441
 30
0.000000
  0
VERTEX
  8
LAYER-1
 10
4.285652
 20
0.130782
 30
0.000000
  0
VERTEX
  8
LAYER-1
 10
4.281311
 20
0.132517
 30
0.000000
  0
VERTEX
  8
LAYER-1
 10
4.276971
 20
0.132517
 30
0.000000
  0
VERTEX
  8
LAYER-1
 10
4.272630
 20
0.129046
 30
0.000000
  0
VERTEX
  8
LAYER-1
 10
4.272630
 20
0.124705
 30
0.000000
  0
VERTEX
  8
LAYER-1
 10
4.273499
 20
0.120365
 30
0.000000
  0
VERTEX
  8
LAYER-1
 10
4.277839
 20
0.117760
 30
0.000000
  0
SEQEND
  8
LAYER-1
  0
POLYLINE
  8
LAYER-1
 66
  1
 70
  0
 62
  0
 10
4.442770
 20
0.194148
 30
0.000000
  0
VERTEX
  8
LAYER-1
 10
4.442770
 20
0.194148
 30
0.000000
  0
VERTEX
  8
LAYER-1
 10
4.447111
 20
0.194148
 30
0.000000
  0
VERTEX
  8
LAYER-1
 10
4.450583
 20
0.198489
 30
0.000000
  0
VERTEX
  8
LAYER-1
 10
4.451450
 20
0.203696
 30
0.000000
  0
VERTEX
  8
LAYER-1
 10
4.449715
 20
0.208037
 30
0.000000
  0
VERTEX
  8
LAYER-1
 10
4.445374
 20
0.209773
 30
0.000000
  0
VERTEX
  8
LAYER-1
 10
4.441034
 20
0.209773
 30
0.000000
  0
VERTEX
  8
LAYER-1
 10
4.436693
 20
0.206301
 30
0.000000
  0
VERTEX
  8
LAYER-1
 10
4.436693
 20
0.201960
 30
0.000000
  0
VERTEX
  8
LAYER-1
 10
4.437561
 20
0.197620
 30
0.000000
  0
VERTEX
  8
LAYER-1
 10
4.441902
 20
0.195015
 30
0.000000
  0
SEQEND
  8
LAYER-1
  0
POLYLINE
  8
LAYER-1
 66
  1
 70
  1
 62
  0
 10
4.894588
 20
0.150745
 30
0.000000
  0
VERTEX
  8
LAYER-1
 10
4.894588
 20
0.150745
 30
0.000000
  0
VERTEX
  8
LAYER-1
 10
4.920629
 20
0.157689
 30
0.000000
  0
VERTEX
  8
LAYER-1
 10
4.906741
 20
0.182862
 30
0.000000
  0
SEQEND
  8
LAYER-1
  0
POLYLINE
  8
LAYER-1
 66
  1
 70
  1
 62
  0
 10
4.576883
 20
0.203696
 30
0.000000
  0
VERTEX
  8
LAYER-1
 10
4.576883
 20
0.203696
 30
0.000000
  0
VERTEX
  8
LAYER-1
 10
4.599453
 20
0.190676
 30
0.000000
  0
VERTEX
  8
LAYER-1
 10
4.578620
 20
0.221057
 30
0.000000
  0
SEQEND
  8
LAYER-1
  0
POLYLINE
  8
LAYER-1
 66
  1
 70
  1
 62
  0
 10
5.513512
 20
0.109075
 30
0.000000
  0
VERTEX
  8
LAYER-1
 10
5.513512
 20
0.109075
 30
0.000000
  0
VERTEX
  8
LAYER-1
 10
5.538687
 20
0.092582
 30
0.000000
  0
VERTEX
  8
LAYER-1
 10
5.546499
 20
0.107339
 30
0.000000
  0
SEQEND
  8
LAYER-1
  0
POLYLINE
  8
LAYER-1
 66
  1
 70
  0
 62
  0
 10
5.334693
 20
0.117757
 30
0.000000
  0
VERTEX
  8
LAYER-1
 10
5.334693
 20
0.117757
 30
0.000000
  0
VERTEX
  8
LAYER-1
 10
5.334693
 20
0.113417
 30
0.000000
  0
VERTEX
  8
LAYER-1
 10
5.339034
 20
0.109945
 30
0.000000
  0
VERTEX
  8
LAYER-1
 10
5.344242
 20
0.109077
 30
0.000000
  0
VERTEX
  8
LAYER-1
 10
5.348582
 20
0.110814
 30
0.000000
  0
VERTEX
  8
LAYER-1
 10
5.350318
 20
0.115153
 30
0.000000
  0
VERTEX
  8
LAYER-1
 10
5.350318
 20
0.119494
 30
0.000000
  0
VERTEX
  8
LAYER-1
 10
5.346846
 20
0.123834
 30
0.000000
  0
VERTEX
  8
LAYER-1
 10
5.342506
 20
0.123834
 30
0.000000
  0
VERTEX
  8
LAYER-1
 10
5.338165
 20
0.122965
 30
0.000000
  0
VERTEX
  8
LAYER-1
 10
5.335561
 20
0.118626
 30
0.000000
  0
SEQEND
  8
LAYER-1
  0
POLYLINE
  8
LAYER-1
 66
  1
 70
  1
 62
  0
 10
4.964901
 20
0.137722
 30
0.000000
  0
VERTEX
  8
LAYER-1
 10
4.964901
 20
0.137722
 30
0.000000
  0
VERTEX
  8
LAYER-1
 10
4.987471
 20
0.124702
 30
0.000000
  0
VERTEX
  8
LAYER-1
 10
4.966638
 20
0.155084
 30
0.000000
  0
SEQEND
  8
LAYER-1
  0
POLYLINE
  8
LAYER-1
 66
  1
 70
  1
 62
  0
 10
4.927909
 20
0.208737
 30
0.000000
  0
VERTEX
  8
LAYER-1
 10
4.927909
 20
0.208737
 30
0.000000
  0
VERTEX
  8
LAYER-1
 10
4.947274
 20
0.196050
 30
0.000000
  0
VERTEX
  8
LAYER-1
 10
4.953284
 20
0.207402
 30
0.000000
  0
SEQEND
  8
LAYER-1
  0
POLYLINE
  8
LAYER-1
 66
  1
 70
  0
 62
  0
 10
4.572544
 20
0.143801
 30
0.000000
  0
VERTEX
  8
LAYER-1
 10
4.572544
 20
0.143801
 30
0.000000
  0
VERTEX
  8
LAYER-1
 10
4.572544
 20
0.139461
 30
0.000000
  0
VERTEX
  8
LAYER-1
 10
4.576884
 20
0.135989
 30
0.000000
  0
VERTEX
  8
LAYER-1
 10
4.582092
 20
0.135121
 30
0.000000
  0
VERTEX
  8
LAYER-1
 10
4.586433
 20
0.136857
 30
0.000000
  0
VERTEX
  8
LAYER-1
 10
4.588168
 20
0.141197
 30
0.000000
  0
VERTEX
  8
LAYER-1
 10
4.588168
 20
0.145537
 30
0.000000
  0
VERTEX
  8
LAYER-1
 10
4.584696
 20
0.149878
 30
0.000000
  0
VERTEX
  8
LAYER-1
 10
4.580356
 20
0.149878
 30
0.000000
  0
VERTEX
  8
LAYER-1
 10
4.576015
 20
0.149010
 30
0.000000
  0
VERTEX
  8
LAYER-1
 10
4.573411
 20
0.144669
 30
0.000000
  0
SEQEND
  8
LAYER-1
  0
POLYLINE
  8
LAYER-1
 66
  1
 70
  0
 62
  0
 10
4.978789
 20
0.105606
 30
0.000000
  0
VERTEX
  8
LAYER-1
 10
4.978789
 20
0.105606
 30
0.000000
  0
VERTEX
  8
LAYER-1
 10
4.978789
 20
0.101265
 30
0.000000
  0
VERTEX
  8
LAYER-1
 10
4.983130
 20
0.097794
 30
0.000000
  0
VERTEX
  8
LAYER-1
 10
4.988338
 20
0.096925
 30
0.000000
  0
VERTEX
  8
LAYER-1
 10
4.992679
 20
0.098661
 30
0.000000
  0
VERTEX
  8
LAYER-1
 10
4.994414
 20
0.103001
 30
0.000000
  0
VERTEX
  8
LAYER-1
 10
4.994414
 20
0.107341
 30
0.000000
  0
VERTEX
  8
LAYER-1
 10
4.990943
 20
0.111682
 30
0.000000
  0
VERTEX
  8
LAYER-1
 10
4.986602
 20
0.111682
 30
0.000000
  0
VERTEX
  8
LAYER-1
 10
4.982261
 20
0.110814
 30
0.000000
  0
VERTEX
  8
LAYER-1
 10
4.979657
 20
0.106473
 30
0.000000
  0
SEQEND
  8
LAYER-1
  0
POLYLINE
  8
LAYER-1
 66
  1
 70
  0
 62
  0
 10
5.047366
 20
0.141196
 30
0.000000
  0
VERTEX
  8
LAYER-1
 10
5.047366
 20
0.141196
 30
0.000000
  0
VERTEX
  8
LAYER-1
 10
5.047366
 20
0.136856
 30
0.000000
  0
VERTEX
  8
LAYER-1
 10
5.051707
 20
0.133384
 30
0.000000
  0
VERTEX
  8
LAYER-1
 10
5.056914
 20
0.132515
 30
0.000000
  0
VERTEX
  8
LAYER-1
 10
5.061255
 20
0.134252
 30
0.000000
  0
VERTEX
  8
LAYER-1
 10
5.062992
 20
0.138591
 30
0.000000
  0
VERTEX
  8
LAYER-1
 10
5.062992
 20
0.142932
 30
0.000000
  0
VERTEX
  8
LAYER-1
 10
5.059519
 20
0.147273
 30
0.000000
  0
VERTEX
  8
LAYER-1
 10
5.055179
 20
0.147273
 30
0.000000
  0
VERTEX
  8
LAYER-1
 10
5.050838
 20
0.146404
 30
0.000000
  0
VERTEX
  8
LAYER-1
 10
5.048234
 20
0.142064
 30
0.000000
  0
SEQEND
  8
LAYER-1
  0
POLYLINE
  8
LAYER-1
 66
  1
 70
  1
 62
  0
 10
5.086777
 20
0.162464
 30
0.000000
  0
VERTEX
  8
LAYER-1
 10
5.086777
 20
0.162464
 30
0.000000
  0
VERTEX
  8
LAYER-1
 10
5.093722
 20
0.136423
 30
0.000000
  0
VERTEX
  8
LAYER-1
 10
5.118895
 20
0.150310
 30
0.000000
  0
SEQEND
  8
LAYER-1
  0
POLYLINE
  8
LAYER-1
 66
  1
 70
  1
 62
  0
 10
5.248322
 20
0.191110
 30
0.000000
  0
VERTEX
  8
LAYER-1
 10
5.248322
 20
0.191110
 30
0.000000
  0
VERTEX
  8
LAYER-1
 10
5.235301
 20
0.168540
 30
0.000000
  0
VERTEX
  8
LAYER-1
 10
5.265683
 20
0.189372
 30
0.000000
  0
SEQEND
  8
LAYER-1
  0
POLYLINE
  8
LAYER-1
 66
  1
 70
  1
 62
  0
 10
5.640683
 20
0.161591
 30
0.000000
  0
VERTEX
  8
LAYER-1
 10
5.640683
 20
0.161591
 30
0.000000
  0
VERTEX
  8
LAYER-1
 10
5.624190
 20
0.136419
 30
0.000000
  0
VERTEX
  8
LAYER-1
 10
5.638947
 20
0.128606
 30
0.000000
  0
SEQEND
  8
LAYER-1
  0
POLYLINE
  8
LAYER-1
 66
  1
 70
  0
 62
  0
 10
5.036516
 20
0.193713
 30
0.000000
  0
VERTEX
  8
LAYER-1
 10
5.036516
 20
0.193713
 30
0.000000
  0
VERTEX
  8
LAYER-1
 10
5.032176
 20
0.193713
 30
0.000000
  0
VERTEX
  8
LAYER-1
 10
5.028704
 20
0.189372
 30
0.000000
  0
VERTEX
  8
LAYER-1
 10
5.027836
 20
0.184164
 30
0.000000
  0
VERTEX
  8
LAYER-1
 10
5.029572
 20
0.179823
 30
0.000000
  0
VERTEX
  8
LAYER-1
 10
5.033912
 20
0.178088
 30
0.000000
  0
VERTEX
  8
LAYER-1
 10
5.038252
 20
0.178088
 30
0.000000
  0
VERTEX
  8
LAYER-1
 10
5.042593
 20
0.181559
 30
0.000000
  0
VERTEX
  8
LAYER-1
 10
5.042593
 20
0.185900
 30
0.000000
  0
VERTEX
  8
LAYER-1
 10
5.041725
 20
0.190241
 30
0.000000
  0
VERTEX
  8
LAYER-1
 10
5.037384
 20
0.192846
 30
0.000000
  0
SEQEND
  8
LAYER-1
  0
POLYLINE
  8
LAYER-1
 66
  1
 70
  1
 62
  0
 10
5.099886
 20
0.117325
 30
0.000000
  0
VERTEX
  8
LAYER-1
 10
5.099886
 20
0.117325
 30
0.000000
  0
VERTEX
  8
LAYER-1
 10
5.086864
 20
0.094754
 30
0.000000
  0
VERTEX
  8
LAYER-1
 10
5.117246
 20
0.115586
 30
0.000000
  0
SEQEND
  8
LAYER-1
  0
POLYLINE
  8
LAYER-1
 66
  1
 70
  1
 62
  0
 10
5.168629
 20
0.095087
 30
0.000000
  0
VERTEX
  8
LAYER-1
 10
5.168629
 20
0.095087
 30
0.000000
  0
VERTEX
  8
LAYER-1
 10
5.181316
 20
0.114450
 30
0.000000
  0
VERTEX
  8
LAYER-1
 10
5.169965
 20
0.120461
 30
0.000000
  0
SEQEND
  8
LAYER-1
  0
POLYLINE
  8
LAYER-1
 66
  1
 70
  0
 62
  0
 10
5.188426
 20
0.195448
 30
0.000000
  0
VERTEX
  8
LAYER-1
 10
5.188426
 20
0.195448
 30
0.000000
  0
VERTEX
  8
LAYER-1
 10
5.184086
 20
0.195448
 30
0.000000
  0
VERTEX
  8
LAYER-1
 10
5.180614
 20
0.191108
 30
0.000000
  0
VERTEX
  8
LAYER-1
 10
5.179746
 20
0.185900
 30
0.000000
  0
VERTEX
  8
LAYER-1
 10
5.181482
 20
0.181559
 30
0.000000
  0
VERTEX
  8
LAYER-1
 10
5.185822
 20
0.179823
 30
0.000000
  0
VERTEX
  8
LAYER-1
 10
5.190163
 20
0.179823
 30
0.000000
  0
VERTEX
  8
LAYER-1
 10
5.194503
 20
0.183295
 30
0.000000
  0
VERTEX
  8
LAYER-1
 10
5.194503
 20
0.187636
 30
0.000000
  0
VERTEX
  8
LAYER-1
 10
5.193635
 20
0.191977
 30
0.000000
  0
VERTEX
  8
LAYER-1
 10
5.189294
 20
0.194582
 30
0.000000
  0
SEQEND
  8
LAYER-1
  0
POLYLINE
  8
LAYER-1
 66
  1
 70
  0
 62
  0
 10
5.692766
 20
0.155515
 30
0.000000
  0
VERTEX
  8
LAYER-1
 10
5.692766
 20
0.155515
 30
0.000000
  0
VERTEX
  8
LAYER-1
 10
5.688425
 20
0.155515
 30
0.000000
  0
VERTEX
  8
LAYER-1
 10
5.684953
 20
0.151175
 30
0.000000
  0
VERTEX
  8
LAYER-1
 10
5.684085
 20
0.145966
 30
0.000000
  0
VERTEX
  8
LAYER-1
 10
5.685821
 20
0.141626
 30
0.000000
  0
VERTEX
  8
LAYER-1
 10
5.690162
 20
0.139890
 30
0.000000
  0
VERTEX
  8
LAYER-1
 10
5.694502
 20
0.139890
 30
0.000000
  0
VERTEX
  8
LAYER-1
 10
5.698842
 20
0.143362
 30
0.000000
  0
VERTEX
  8
LAYER-1
 10
5.698842
 20
0.147703
 30
0.000000
  0
VERTEX
  8
LAYER-1
 10
5.697974
 20
0.152044
 30
0.000000
  0
VERTEX
  8
LAYER-1
 10
5.693634
 20
0.154648
 30
0.000000
  0
SEQEND
  8
LAYER-1
  0
POLYLINE
  8
LAYER-1
 66
  1
 70
  0
 62
  0
 10
5.601621
 20
0.123397
 30
0.000000
  0
VERTEX
  8
LAYER-1
 10
5.601621
 20
0.123397
 30
0.000000
  0
VERTEX
  8
LAYER-1
 10
5.597280
 20
0.123397
 30
0.000000
  0
VERTEX
  8
LAYER-1
 10
5.593808
 20
0.119057
 30
0.000000
  0
VERTEX
  8
LAYER-1
 10
5.592941
 20
0.113848
 30
0.000000
  0
VERTEX
  8
LAYER-1
 10
5.594677
 20
0.109508
 30
0.000000
  0
VERTEX
  8
LAYER-1
 10
5.599017
 20
0.107772
 30
0.000000
  0
VERTEX
  8
LAYER-1
 10
5.603357
 20
0.107772
 30
0.000000
  0
VERTEX
  8
LAYER-1
 10
5.607698
 20
0.111244
 30
0.000000
  0
VERTEX
  8
LAYER-1
 10
5.607698
 20
0.115584
 30
0.000000
  0
VERTEX
  8
LAYER-1
 10
5.606830
 20
0.119926
 30
0.000000
  0
VERTEX
  8
LAYER-1
 10
5.602489
 20
0.122530
 30
0.000000
  0
SEQEND
  8
LAYER-1
  0
POLYLINE
  8
LAYER-1
 66
  1
 70
  1
 62
  0
 10
5.286517
 20
0.177655
 30
0.000000
  0
VERTEX
  8
LAYER-1
 10
5.286517
 20
0.177655
 30
0.000000
  0
VERTEX
  8
LAYER-1
 10
5.312557
 20
0.184600
 30
0.000000
  0
VERTEX
  8
LAYER-1
 10
5.298670
 20
0.209773
 30
0.000000
  0
SEQEND
  8
LAYER-1
  0
POLYLINE
  8
LAYER-1
 66
  1
 70
  0
 62
  0
 10
5.255267
 20
0.128176
 30
0.000000
  0
VERTEX
  8
LAYER-1
 10
5.255267
 20
0.128176
 30
0.000000
  0
VERTEX
  8
LAYER-1
 10
5.255267
 20
0.123836
 30
0.000000
  0
VERTEX
  8
LAYER-1
 10
5.259608
 20
0.120364
 30
0.000000
  0
VERTEX
  8
LAYER-1
 10
5.264815
 20
0.119497
 30
0.000000
  0
VERTEX
  8
LAYER-1
 10
5.269156
 20
0.121233
 30
0.000000
  0
VERTEX
  8
LAYER-1
 10
5.270892
 20
0.125572
 30
0.000000
  0
VERTEX
  8
LAYER-1
 10
5.270892
 20
0.129913
 30
0.000000
  0
VERTEX
  8
LAYER-1
 10
5.267420
 20
0.134253
 30
0.000000
  0
VERTEX
  8
LAYER-1
 10
5.263079
 20
0.134253
 30
0.000000
  0
VERTEX
  8
LAYER-1
 10
5.258739
 20
0.133385
 30
0.000000
  0
VERTEX
  8
LAYER-1
 10
5.256134
 20
0.129045
 30
0.000000
  0
SEQEND
  8
LAYER-1
  0
POLYLINE
  8
LAYER-1
 66
  1
 70
  1
 62
  0
 10
5.350319
 20
0.141631
 30
0.000000
  0
VERTEX
  8
LAYER-1
 10
5.350319
 20
0.141631
 30
0.000000
  0
VERTEX
  8
LAYER-1
 10
5.363339
 20
0.164202
 30
0.000000
  0
VERTEX
  8
LAYER-1
 10
5.332958
 20
0.143369
 30
0.000000
  0
SEQEND
  8
LAYER-1
  0
POLYLINE
  8
LAYER-1
 66
  1
 70
  0
 62
  0
 10
5.405440
 20
0.175919
 30
0.000000
  0
VERTEX
  8
LAYER-1
 10
5.405440
 20
0.175919
 30
0.000000
  0
VERTEX
  8
LAYER-1
 10
5.405440
 20
0.171579
 30
0.000000
  0
VERTEX
  8
LAYER-1
 10
5.409781
 20
0.168108
 30
0.000000
  0
VERTEX
  8
LAYER-1
 10
5.414989
 20
0.167239
 30
0.000000
  0
VERTEX
  8
LAYER-1
 10
5.419329
 20
0.168976
 30
0.000000
  0
VERTEX
  8
LAYER-1
 10
5.421065
 20
0.173315
 30
0.000000
  0
VERTEX
  8
LAYER-1
 10
5.421065
 20
0.177655
 30
0.000000
  0
VERTEX
  8
LAYER-1
 10
5.417593
 20
0.181996
 30
0.000000
  0
VERTEX
  8
LAYER-1
 10
5.413253
 20
0.181996
 30
0.000000
  0
VERTEX
  8
LAYER-1
 10
5.408912
 20
0.181127
 30
0.000000
  0
VERTEX
  8
LAYER-1
 10
5.406307
 20
0.176787
 30
0.000000
  0
SEQEND
  8
LAYER-1
  0
POLYLINE
  8
LAYER-1
 66
  1
 70
  1
 62
  0
 10
6.151363
 20
0.192323
 30
0.000000
  0
VERTEX
  8
LAYER-1
 10
6.151363
 20
0.192323
 30
0.000000
  0
VERTEX
  8
LAYER-1
 10
6.144419
 20
0.218365
 30
0.000000
  0
VERTEX
  8
LAYER-1
 10
6.119245
 20
0.204477
 30
0.000000
  0
SEQEND
  8
LAYER-1
  0
POLYLINE
  8
LAYER-1
 66
  1
 70
  0
 62
  0
 10
6.191902
 20
0.066109
 30
0.000000
  0
VERTEX
  8
LAYER-1
 10
6.191902
 20
0.066109
 30
0.000000
  0
VERTEX
  8
LAYER-1
 10
6.196242
 20
0.066109
 30
0.000000
  0
VERTEX
  8
LAYER-1
 10
6.199715
 20
0.070450
 30
0.000000
  0
VERTEX
  8
LAYER-1
 10
6.200582
 20
0.075657
 30
0.000000
  0
VERTEX
  8
LAYER-1
 10
6.198846
 20
0.079998
 30
0.000000
  0
VERTEX
  8
LAYER-1
 10
6.194506
 20
0.081734
 30
0.000000
  0
VERTEX
  8
LAYER-1
 10
6.190165
 20
0.081734
 30
0.000000
  0
VERTEX
  8
LAYER-1
 10
6.185826
 20
0.078262
 30
0.000000
  0
VERTEX
  8
LAYER-1
 10
6.185826
 20
0.073921
 30
0.000000
  0
VERTEX
  8
LAYER-1
 10
6.186693
 20
0.069581
 30
0.000000
  0
VERTEX
  8
LAYER-1
 10
6.191033
 20
0.066977
 30
0.000000
  0
SEQEND
  8
LAYER-1
  0
POLYLINE
  8
LAYER-1
 66
  1
 70
  1
 62
  0
 10
5.488339
 20
0.099096
 30
0.000000
  0
VERTEX
  8
LAYER-1
 10
5.488339
 20
0.099096
 30
0.000000
  0
VERTEX
  8
LAYER-1
 10
5.501359
 20
0.121665
 30
0.000000
  0
VERTEX
  8
LAYER-1
 10
5.470978
 20
0.100833
 30
0.000000
  0
SEQEND
  8
LAYER-1
  0
POLYLINE
  8
LAYER-1
 66
  1
 70
  0
 62
  0
 10
5.532091
 20
0.177428
 30
0.000000
  0
VERTEX
  8
LAYER-1
 10
5.532091
 20
0.177428
 30
0.000000
  0
VERTEX
  8
LAYER-1
 10
5.536432
 20
0.177428
 30
0.000000
  0
VERTEX
  8
LAYER-1
 10
5.539903
 20
0.181769
 30
0.000000
  0
VERTEX
  8
LAYER-1
 10
5.540772
 20
0.186977
 30
0.000000
  0
VERTEX
  8
LAYER-1
 10
5.539035
 20
0.191317
 30
0.000000
  0
VERTEX
  8
LAYER-1
 10
5.534696
 20
0.193053
 30
0.000000
  0
VERTEX
  8
LAYER-1
 10
5.530355
 20
0.193053
 30
0.000000
  0
VERTEX
  8
LAYER-1
 10
5.526015
 20
0.189581
 30
0.000000
  0
VERTEX
  8
LAYER-1
 10
5.526015
 20
0.185241
 30
0.000000
  0
VERTEX
  8
LAYER-1
 10
5.526883
 20
0.180900
 30
0.000000
  0
VERTEX
  8
LAYER-1
 10
5.531223
 20
0.178296
 30
0.000000
  0
SEQEND
  8
LAYER-1
  0
POLYLINE
  8
LAYER-1
 66
  1
 70
  1
 62
  0
 10
6.071677
 20
0.108211
 30
0.000000
  0
VERTEX
  8
LAYER-1
 10
6.071677
 20
0.108211
 30
0.000000
  0
VERTEX
  8
LAYER-1
 10
6.045636
 20
0.101266
 30
0.000000
  0
VERTEX
  8
LAYER-1
 10
6.059524
 20
0.076092
 30
0.000000
  0
SEQEND
  8
LAYER-1
  0
POLYLINE
  8
LAYER-1
 66
  1
 70
  0
 62
  0
 10
5.436690
 20
0.122970
 30
0.000000
  0
VERTEX
  8
LAYER-1
 10
5.436690
 20
0.122970
 30
0.000000
  0
VERTEX
  8
LAYER-1
 10
5.436690
 20
0.127308
 30
0.000000
  0
VERTEX
  8
LAYER-1
 10
5.432349
 20
0.130782
 30
0.000000
  0
VERTEX
  8
LAYER-1
 10
5.427142
 20
0.131649
 30
0.000000
  0
VERTEX
  8
LAYER-1
 10
5.422801
 20
0.129913
 30
0.000000
  0
VERTEX
  8
LAYER-1
 10
5.421065
 20
0.125572
 30
0.000000
  0
VERTEX
  8
LAYER-1
 10
5.421065
 20
0.121232
 30
0.000000
  0
VERTEX
  8
LAYER-1
 10
5.424537
 20
0.116892
 30
0.000000
  0
VERTEX
  8
LAYER-1
 10
5.428878
 20
0.116892
 30
0.000000
  0
VERTEX
  8
LAYER-1
 10
5.433218
 20
0.117760
 30
0.000000
  0
VERTEX
  8
LAYER-1
 10
5.435822
 20
0.122101
 30
0.000000
  0
SEQEND
  8
LAYER-1
  0
POLYLINE
  8
LAYER-1
 66
  1
 70
  1
 62
  0
 10
6.020461
 20
0.097795
 30
0.000000
  0
VERTEX
  8
LAYER-1
 10
6.020461
 20
0.097795
 30
0.000000
  0
VERTEX
  8
LAYER-1
 10
5.992683
 20
0.114287
 30
0.000000
  0
VERTEX
  8
LAYER-1
 10
6.013515
 20
0.083906
 30
0.000000
  0
SEQEND
  8
LAYER-1
  0
POLYLINE
  8
LAYER-1
 66
  1
 70
  0
 62
  0
 10
5.730960
 20
0.179387
 30
0.000000
  0
VERTEX
  8
LAYER-1
 10
5.730960
 20
0.179387
 30
0.000000
  0
VERTEX
  8
LAYER-1
 10
5.730960
 20
0.183728
 30
0.000000
  0
VERTEX
  8
LAYER-1
 10
5.726620
 20
0.187200
 30
0.000000
  0
VERTEX
  8
LAYER-1
 10
5.721412
 20
0.188069
 30
0.000000
  0
VERTEX
  8
LAYER-1
 10
5.717071
 20
0.186331
 30
0.000000
  0
VERTEX
  8
LAYER-1
 10
5.715335
 20
0.181992
 30
0.000000
  0
VERTEX
  8
LAYER-1
 10
5.715335
 20
0.177651
 30
0.000000
  0
VERTEX
  8
LAYER-1
 10
5.718807
 20
0.173311
 30
0.000000
  0
VERTEX
  8
LAYER-1
 10
5.723148
 20
0.173311
 30
0.000000
  0
VERTEX
  8
LAYER-1
 10
5.727489
 20
0.174179
 30
0.000000
  0
VERTEX
  8
LAYER-1
 10
5.730092
 20
0.178519
 30
0.000000
  0
SEQEND
  8
LAYER-1
  0
POLYLINE
  8
LAYER-1
 66
  1
 70
  1
 62
  0
 10
6.301624
 20
0.085903
 30
0.000000
  0
VERTEX
  8
LAYER-1
 10
6.301624
 20
0.085903
 30
0.000000
  0
VERTEX
  8
LAYER-1
 10
6.294679
 20
0.111944
 30
0.000000
  0
VERTEX
  8
LAYER-1
 10
6.269505
 20
0.098056
 30
0.000000
  0
SEQEND
  8
LAYER-1
  0
POLYLINE
  8
LAYER-1
 66
  1
 70
  0
 62
  0
 10
6.391468
 20
0.186161
 30
0.000000
  0
VERTEX
  8
LAYER-1
 10
6.391468
 20
0.186161
 30
0.000000
  0
VERTEX
  8
LAYER-1
 10
6.395809
 20
0.186161
 30
0.000000
  0
VERTEX
  8
LAYER-1
 10
6.399281
 20
0.190503
 30
0.000000
  0
VERTEX
  8
LAYER-1
 10
6.400148
 20
0.195710
 30
0.000000
  0
VERTEX
  8
LAYER-1
 10
6.398412
 20
0.200050
 30
0.000000
  0
VERTEX
  8
LAYER-1
 10
6.394073
 20
0.201786
 30
0.000000
  0
VERTEX
  8
LAYER-1
 10
6.389732
 20
0.201786
 30
0.000000
  0
VERTEX
  8
LAYER-1
 10
6.385392
 20
0.198315
 30
0.000000
  0
VERTEX
  8
LAYER-1
 10
6.385392
 20
0.193974
 30
0.000000
  0
VERTEX
  8
LAYER-1
 10
6.386261
 20
0.189634
 30
0.000000
  0
VERTEX
  8
LAYER-1
 10
6.390600
 20
0.187030
 30
0.000000
  0
SEQEND
  8
LAYER-1
  0
POLYLINE
  8
LAYER-1
 66
  1
 70
  1
 62
  0
 10
6.376710
 20
0.221318
 30
0.000000
  0
VERTEX
  8
LAYER-1
 10
6.376710
 20
0.221318
 30
0.000000
  0
VERTEX
  8
LAYER-1
 10
6.350668
 20
0.214373
 30
0.000000
  0
VERTEX
  8
LAYER-1
 10
6.364557
 20
0.189200
 30
0.000000
  0
SEQEND
  8
LAYER-1
  0
POLYLINE
  8
LAYER-1
 66
  1
 70
  1
 62
  0
 10
5.625492
 20
0.080002
 30
0.000000
  0
VERTEX
  8
LAYER-1
 10
5.625492
 20
0.080002
 30
0.000000
  0
VERTEX
  8
LAYER-1
 10
5.638512
 20
0.102571
 30
0.000000
  0
VERTEX
  8
LAYER-1
 10
5.608131
 20
0.081739
 30
0.000000
  0
SEQEND
  8
LAYER-1
  0
POLYLINE
  8
LAYER-1
 66
  1
 70
  0
 62
  0
 10
5.622019
 20
0.186770
 30
0.000000
  0
VERTEX
  8
LAYER-1
 10
5.622019
 20
0.186770
 30
0.000000
  0
VERTEX
  8
LAYER-1
 10
5.626360
 20
0.186770
 30
0.000000
  0
VERTEX
  8
LAYER-1
 10
5.629832
 20
0.191110
 30
0.000000
  0
VERTEX
  8
LAYER-1
 10
5.630701
 20
0.196319
 30
0.000000
  0
VERTEX
  8
LAYER-1
 10
5.628965
 20
0.200659
 30
0.000000
  0
VERTEX
  8
LAYER-1
 10
5.624624
 20
0.202395
 30
0.000000
  0
VERTEX
  8
LAYER-1
 10
5.620283
 20
0.202395
 30
0.000000
  0
VERTEX
  8
LAYER-1
 10
5.615943
 20
0.198923
 30
0.000000
  0
VERTEX
  8
LAYER-1
 10
5.615943
 20
0.194583
 30
0.000000
  0
VERTEX
  8
LAYER-1
 10
5.616812
 20
0.190241
 30
0.000000
  0
VERTEX
  8
LAYER-1
 10
5.621152
 20
0.187638
 30
0.000000
  0
SEQEND
  8
LAYER-1
  0
POLYLINE
  8
LAYER-1
 66
  1
 70
  1
 62
  0
 10
5.574710
 20
0.165502
 30
0.000000
  0
VERTEX
  8
LAYER-1
 10
5.574710
 20
0.165502
 30
0.000000
  0
VERTEX
  8
LAYER-1
 10
5.599885
 20
0.149009
 30
0.000000
  0
VERTEX
  8
LAYER-1
 10
5.607698
 20
0.163766
 30
0.000000
  0
SEQEND
  8
LAYER-1
  0
POLYLINE
  8
LAYER-1
 66
  1
 70
  1
 62
  0
 10
5.561357
 20
0.137890
 30
0.000000
  0
VERTEX
  8
LAYER-1
 10
5.561357
 20
0.137890
 30
0.000000
  0
VERTEX
  8
LAYER-1
 10
5.541993
 20
0.150577
 30
0.000000
  0
VERTEX
  8
LAYER-1
 10
5.535982
 20
0.139226
 30
0.000000
  0
SEQEND
  8
LAYER-1
  0
POLYLINE
  8
LAYER-1
 66
  1
 70
  1
 62
  0
 10
1.338601
 20
0.196751
 30
0.000000
  0
VERTEX
  8
LAYER-1
 10
1.338601
 20
0.196751
 30
0.000000
  0
VERTEX
  8
LAYER-1
 10
1.325580
 20
0.174182
 30
0.000000
  0
VERTEX
  8
LAYER-1
 10
1.355962
 20
0.195014
 30
0.000000
  0
SEQEND
  8
LAYER-1
  0
POLYLINE
  8
LAYER-1
 66
  1
 70
  1
 62
  0
 10
5.888081
 20
0.123838
 30
0.000000
  0
VERTEX
  8
LAYER-1
 10
5.888081
 20
0.123838
 30
0.000000
  0
VERTEX
  8
LAYER-1
 10
5.910651
 20
0.110816
 30
0.000000
  0
VERTEX
  8
LAYER-1
 10
5.889818
 20
0.141198
 30
0.000000
  0
SEQEND
  8
LAYER-1
  0
POLYLINE
  8
LAYER-1
 66
  1
 70
  0
 62
  0
 10
5.816033
 20
0.170709
 30
0.000000
  0
VERTEX
  8
LAYER-1
 10
5.816033
 20
0.170709
 30
0.000000
  0
VERTEX
  8
LAYER-1
 10
5.816033
 20
0.166369
 30
0.000000
  0
VERTEX
  8
LAYER-1
 10
5.820374
 20
0.162897
 30
0.000000
  0
VERTEX
  8
LAYER-1
 10
5.825581
 20
0.162029
 30
0.000000
  0
VERTEX
  8
LAYER-1
 10
5.829922
 20
0.163765
 30
0.000000
  0
VERTEX
  8
LAYER-1
 10
5.831658
 20
0.168106
 30
0.000000
  0
VERTEX
  8
LAYER-1
 10
5.831658
 20
0.172446
 30
0.000000
  0
VERTEX
  8
LAYER-1
 10
5.828186
 20
0.176785
 30
0.000000
  0
VERTEX
  8
LAYER-1
 10
5.823845
 20
0.176785
 30
0.000000
  0
VERTEX
  8
LAYER-1
 10
5.819505
 20
0.175917
 30
0.000000
  0
VERTEX
  8
LAYER-1
 10
5.816901
 20
0.171577
 30
0.000000
  0
SEQEND
  8
LAYER-1
  0
POLYLINE
  8
LAYER-1
 66
  1
 70
  1
 62
  0
 10
5.765685
 20
0.181995
 30
0.000000
  0
VERTEX
  8
LAYER-1
 10
5.765685
 20
0.181995
 30
0.000000
  0
VERTEX
  8
LAYER-1
 10
5.788255
 20
0.168975
 30
0.000000
  0
VERTEX
  8
LAYER-1
 10
5.767422
 20
0.199356
 30
0.000000
  0
SEQEND
  8
LAYER-1
  0
POLYLINE
  8
LAYER-1
 66
  1
 70
  0
 62
  0
 10
6.027838
 20
0.123838
 30
0.000000
  0
VERTEX
  8
LAYER-1
 10
6.027838
 20
0.123838
 30
0.000000
  0
VERTEX
  8
LAYER-1
 10
6.027838
 20
0.119497
 30
0.000000
  0
VERTEX
  8
LAYER-1
 10
6.032179
 20
0.116025
 30
0.000000
  0
VERTEX
  8
LAYER-1
 10
6.037387
 20
0.115157
 30
0.000000
  0
VERTEX
  8
LAYER-1
 10
6.041727
 20
0.116892
 30
0.000000
  0
VERTEX
  8
LAYER-1
 10
6.043463
 20
0.121233
 30
0.000000
  0
VERTEX
  8
LAYER-1
 10
6.043463
 20
0.125573
 30
0.000000
  0
VERTEX
  8
LAYER-1
 10
6.039992
 20
0.129914
 30
0.000000
  0
VERTEX
  8
LAYER-1
 10
6.035651
 20
0.129914
 30
0.000000
  0
VERTEX
  8
LAYER-1
 10
6.031310
 20
0.129045
 30
0.000000
  0
VERTEX
  8
LAYER-1
 10
6.028706
 20
0.124705
 30
0.000000
  0
SEQEND
  8
LAYER-1
  0
POLYLINE
  8
LAYER-1
 66
  1
 70
  0
 62
  0
 10
5.862040
 20
0.178524
 30
0.000000
  0
VERTEX
  8
LAYER-1
 10
5.862040
 20
0.178524
 30
0.000000
  0
VERTEX
  8
LAYER-1
 10
5.862040
 20
0.174183
 30
0.000000
  0
VERTEX
  8
LAYER-1
 10
5.866380
 20
0.170713
 30
0.000000
  0
VERTEX
  8
LAYER-1
 10
5.871588
 20
0.169845
 30
0.000000
  0
VERTEX
  8
LAYER-1
 10
5.875929
 20
0.171580
 30
0.000000
  0
VERTEX
  8
LAYER-1
 10
5.877665
 20
0.175919
 30
0.000000
  0
VERTEX
  8
LAYER-1
 10
5.877665
 20
0.180260
 30
0.000000
  0
VERTEX
  8
LAYER-1
 10
5.874193
 20
0.184601
 30
0.000000
  0
VERTEX
  8
LAYER-1
 10
5.869852
 20
0.184601
 30
0.000000
  0
VERTEX
  8
LAYER-1
 10
5.865512
 20
0.183732
 30
0.000000
  0
VERTEX
  8
LAYER-1
 10
5.862907
 20
0.179392
 30
0.000000
  0
SEQEND
  8
LAYER-1
  0
POLYLINE
  8
LAYER-1
 66
  1
 70
  1
 62
  0
 10
5.786520
 20
0.113854
 30
0.000000
  0
VERTEX
  8
LAYER-1
 10
5.786520
 20
0.113854
 30
0.000000
  0
VERTEX
  8
LAYER-1
 10
5.773499
 20
0.091284
 30
0.000000
  0
VERTEX
  8
LAYER-1
 10
5.803880
 20
0.112116
 30
0.000000
  0
SEQEND
  8
LAYER-1
  0
POLYLINE
  8
LAYER-1
 66
  1
 70
  0
 62
  0
 10
5.712819
 20
0.105989
 30
0.000000
  0
VERTEX
  8
LAYER-1
 10
5.712819
 20
0.105989
 30
0.000000
  0
VERTEX
  8
LAYER-1
 10
5.708479
 20
0.105989
 30
0.000000
  0
VERTEX
  8
LAYER-1
 10
5.705006
 20
0.101648
 30
0.000000
  0
VERTEX
  8
LAYER-1
 10
5.704138
 20
0.096441
 30
0.000000
  0
VERTEX
  8
LAYER-1
 10
5.705875
 20
0.092100
 30
0.000000
  0
VERTEX
  8
LAYER-1
 10
5.710215
 20
0.090364
 30
0.000000
  0
VERTEX
  8
LAYER-1
 10
5.714556
 20
0.090364
 30
0.000000
  0
VERTEX
  8
LAYER-1
 10
5.718896
 20
0.093836
 30
0.000000
  0
VERTEX
  8
LAYER-1
 10
5.718896
 20
0.098177
 30
0.000000
  0
VERTEX
  8
LAYER-1
 10
5.718028
 20
0.102517
 30
0.000000
  0
VERTEX
  8
LAYER-1
 10
5.713687
 20
0.105122
 30
0.000000
  0
SEQEND
  8
LAYER-1
  0
POLYLINE
  8
LAYER-1
 66
  1
 70
  0
 62
  0
 10
5.786520
 20
0.144235
 30
0.000000
  0
VERTEX
  8
LAYER-1
 10
5.786520
 20
0.144235
 30
0.000000
  0
VERTEX
  8
LAYER-1
 10
5.782179
 20
0.144235
 30
0.000000
  0
VERTEX
  8
LAYER-1
 10
5.778707
 20
0.139894
 30
0.000000
  0
VERTEX
  8
LAYER-1
 10
5.777839
 20
0.134686
 30
0.000000
  0
VERTEX
  8
LAYER-1
 10
5.779575
 20
0.130346
 30
0.000000
  0
VERTEX
  8
LAYER-1
 10
5.783916
 20
0.128610
 30
0.000000
  0
VERTEX
  8
LAYER-1
 10
5.788255
 20
0.128610
 30
0.000000
  0
VERTEX
  8
LAYER-1
 10
5.792596
 20
0.132082
 30
0.000000
  0
VERTEX
  8
LAYER-1
 10
5.792596
 20
0.136422
 30
0.000000
  0
VERTEX
  8
LAYER-1
 10
5.791728
 20
0.140763
 30
0.000000
  0
VERTEX
  8
LAYER-1
 10
5.787387
 20
0.143367
 30
0.000000
  0
SEQEND
  8
LAYER-1
  0
POLYLINE
  8
LAYER-1
 66
  1
 70
  1
 62
  0
 10
6.093811
 20
0.160728
 30
0.000000
  0
VERTEX
  8
LAYER-1
 10
6.093811
 20
0.160728
 30
0.000000
  0
VERTEX
  8
LAYER-1
 10
6.100755
 20
0.134688
 30
0.000000
  0
VERTEX
  8
LAYER-1
 10
6.125929
 20
0.148576
 30
0.000000
  0
SEQEND
  8
LAYER-1
  0
POLYLINE
  8
LAYER-1
 66
  1
 70
  1
 62
  0
 10
6.256137
 20
0.189373
 30
0.000000
  0
VERTEX
  8
LAYER-1
 10
6.256137
 20
0.189373
 30
0.000000
  0
VERTEX
  8
LAYER-1
 10
6.243116
 20
0.166805
 30
0.000000
  0
VERTEX
  8
LAYER-1
 10
6.273498
 20
0.187637
 30
0.000000
  0
SEQEND
  8
LAYER-1
  0
POLYLINE
  8
LAYER-1
 66
  1
 70
  0
 62
  0
 10
6.044332
 20
0.191978
 30
0.000000
  0
VERTEX
  8
LAYER-1
 10
6.044332
 20
0.191978
 30
0.000000
  0
VERTEX
  8
LAYER-1
 10
6.039992
 20
0.191978
 30
0.000000
  0
VERTEX
  8
LAYER-1
 10
6.036520
 20
0.187637
 30
0.000000
  0
VERTEX
  8
LAYER-1
 10
6.035651
 20
0.182429
 30
0.000000
  0
VERTEX
  8
LAYER-1
 10
6.037387
 20
0.178089
 30
0.000000
  0
VERTEX
  8
LAYER-1
 10
6.041727
 20
0.176353
 30
0.000000
  0
VERTEX
  8
LAYER-1
 10
6.046068
 20
0.176353
 30
0.000000
  0
VERTEX
  8
LAYER-1
 10
6.050409
 20
0.179825
 30
0.000000
  0
VERTEX
  8
LAYER-1
 10
6.050409
 20
0.184165
 30
0.000000
  0
VERTEX
  8
LAYER-1
 10
6.049540
 20
0.188506
 30
0.000000
  0
VERTEX
  8
LAYER-1
 10
6.045200
 20
0.191110
 30
0.000000
  0
SEQEND
  8
LAYER-1
  0
POLYLINE
  8
LAYER-1
 66
  1
 70
  1
 62
  0
 10
6.154577
 20
0.124270
 30
0.000000
  0
VERTEX
  8
LAYER-1
 10
6.154577
 20
0.124270
 30
0.000000
  0
VERTEX
  8
LAYER-1
 10
6.141556
 20
0.101701
 30
0.000000
  0
VERTEX
  8
LAYER-1
 10
6.171937
 20
0.122533
 30
0.000000
  0
SEQEND
  8
LAYER-1
  0
POLYLINE
  8
LAYER-1
 66
  1
 70
  0
 62
  0
 10
6.196241
 20
0.193714
 30
0.000000
  0
VERTEX
  8
LAYER-1
 10
6.196241
 20
0.193714
 30
0.000000
  0
VERTEX
  8
LAYER-1
 10
6.191900
 20
0.193714
 30
0.000000
  0
VERTEX
  8
LAYER-1
 10
6.188429
 20
0.189373
 30
0.000000
  0
VERTEX
  8
LAYER-1
 10
6.187561
 20
0.184165
 30
0.000000
  0
VERTEX
  8
LAYER-1
 10
6.189296
 20
0.179825
 30
0.000000
  0
VERTEX
  8
LAYER-1
 10
6.193637
 20
0.178089
 30
0.000000
  0
VERTEX
  8
LAYER-1
 10
6.197977
 20
0.178089
 30
0.000000
  0
VERTEX
  8
LAYER-1
 10
6.202318
 20
0.181560
 30
0.000000
  0
VERTEX
  8
LAYER-1
 10
6.202318
 20
0.185901
 30
0.000000
  0
VERTEX
  8
LAYER-1
 10
6.201450
 20
0.190241
 30
0.000000
  0
VERTEX
  8
LAYER-1
 10
6.197109
 20
0.192846
 30
0.000000
  0
SEQEND
  8
LAYER-1
  0
POLYLINE
  8
LAYER-1
 66
  1
 70
  1
 62
  0
 10
6.535650
 20
0.185033
 30
0.000000
  0
VERTEX
  8
LAYER-1
 10
6.535650
 20
0.185033
 30
0.000000
  0
VERTEX
  8
LAYER-1
 10
6.542595
 20
0.158994
 30
0.000000
  0
VERTEX
  8
LAYER-1
 10
6.567768
 20
0.172881
 30
0.000000
  0
SEQEND
  8
LAYER-1
  0
POLYLINE
  8
LAYER-1
 66
  1
 70
  1
 62
  0
 10
6.697977
 20
0.213680
 30
0.000000
  0
VERTEX
  8
LAYER-1
 10
6.697977
 20
0.213680
 30
0.000000
  0
VERTEX
  8
LAYER-1
 10
6.684956
 20
0.191110
 30
0.000000
  0
VERTEX
  8
LAYER-1
 10
6.715338
 20
0.211942
 30
0.000000
  0
SEQEND
  8
LAYER-1
  0
POLYLINE
  8
LAYER-1
 66
  1
 70
  1
 62
  0
 10
5.926277
 20
0.149445
 30
0.000000
  0
VERTEX
  8
LAYER-1
 10
5.926277
 20
0.149445
 30
0.000000
  0
VERTEX
  8
LAYER-1
 10
5.951450
 20
0.132951
 30
0.000000
  0
VERTEX
  8
LAYER-1
 10
5.959262
 20
0.147708
 30
0.000000
  0
SEQEND
  8
LAYER-1
  0
POLYLINE
  8
LAYER-1
 66
  1
 70
  0
 62
  0
 10
6.496588
 20
0.205867
 30
0.000000
  0
VERTEX
  8
LAYER-1
 10
6.496588
 20
0.205867
 30
0.000000
  0
VERTEX
  8
LAYER-1
 10
6.492246
 20
0.205867
 30
0.000000
  0
VERTEX
  8
LAYER-1
 10
6.488775
 20
0.201527
 30
0.000000
  0
VERTEX
  8
LAYER-1
 10
6.487907
 20
0.196320
 30
0.000000
  0
VERTEX
  8
LAYER-1
 10
6.489643
 20
0.191978
 30
0.000000
  0
VERTEX
  8
LAYER-1
 10
6.493983
 20
0.190242
 30
0.000000
  0
VERTEX
  8
LAYER-1
 10
6.498323
 20
0.190242
 30
0.000000
  0
VERTEX
  8
LAYER-1
 10
6.502664
 20
0.193715
 30
0.000000
  0
VERTEX
  8
LAYER-1
 10
6.502664
 20
0.198055
 30
0.000000
  0
VERTEX
  8
LAYER-1
 10
6.501796
 20
0.202396
 30
0.000000
  0
VERTEX
  8
LAYER-1
 10
6.497455
 20
0.205001
 30
0.000000
  0
SEQEND
  8
LAYER-1
  0
POLYLINE
  8
LAYER-1
 66
  1
 70
  1
 62
  0
 10
6.512213
 20
0.117327
 30
0.000000
  0
VERTEX
  8
LAYER-1
 10
6.512213
 20
0.117327
 30
0.000000
  0
VERTEX
  8
LAYER-1
 10
6.499192
 20
0.094756
 30
0.000000
  0
VERTEX
  8
LAYER-1
 10
6.529575
 20
0.115589
 30
0.000000
  0
SEQEND
  8
LAYER-1
  0
POLYLINE
  8
LAYER-1
 66
  1
 70
  1
 62
  0
 10
6.606664
 20
0.131744
 30
0.000000
  0
VERTEX
  8
LAYER-1
 10
6.606664
 20
0.131744
 30
0.000000
  0
VERTEX
  8
LAYER-1
 10
6.593978
 20
0.112380
 30
0.000000
  0
VERTEX
  8
LAYER-1
 10
6.605328
 20
0.106369
 30
0.000000
  0
SEQEND
  8
LAYER-1
  0
POLYLINE
  8
LAYER-1
 66
  1
 70
  0
 62
  0
 10
6.638081
 20
0.210208
 30
0.000000
  0
VERTEX
  8
LAYER-1
 10
6.638081
 20
0.210208
 30
0.000000
  0
VERTEX
  8
LAYER-1
 10
6.633741
 20
0.210208
 30
0.000000
  0
VERTEX
  8
LAYER-1
 10
6.630268
 20
0.205866
 30
0.000000
  0
VERTEX
  8
LAYER-1
 10
6.629400
 20
0.200659
 30
0.000000
  0
VERTEX
  8
LAYER-1
 10
6.631136
 20
0.196319
 30
0.000000
  0
VERTEX
  8
LAYER-1
 10
6.635477
 20
0.194583
 30
0.000000
  0
VERTEX
  8
LAYER-1
 10
6.639818
 20
0.194583
 30
0.000000
  0
VERTEX
  8
LAYER-1
 10
6.644157
 20
0.198054
 30
0.000000
  0
VERTEX
  8
LAYER-1
 10
6.644157
 20
0.202395
 30
0.000000
  0
VERTEX
  8
LAYER-1
 10
6.643289
 20
0.206735
 30
0.000000
  0
VERTEX
  8
LAYER-1
 10
6.638949
 20
0.209340
 30
0.000000
  0
SEQEND
  8
LAYER-1
  0
POLYLINE
  8
LAYER-1
 66
  1
 70
  0
 62
  0
 10
5.914992
 20
0.202395
 30
0.000000
  0
VERTEX
  8
LAYER-1
 10
5.914992
 20
0.202395
 30
0.000000
  0
VERTEX
  8
LAYER-1
 10
5.914992
 20
0.198054
 30
0.000000
  0
VERTEX
  8
LAYER-1
 10
5.919333
 20
0.194583
 30
0.000000
  0
VERTEX
  8
LAYER-1
 10
5.924541
 20
0.193714
 30
0.000000
  0
VERTEX
  8
LAYER-1
 10
5.928881
 20
0.195450
 30
0.000000
  0
VERTEX
  8
LAYER-1
 10
5.930617
 20
0.199790
 30
0.000000
  0
VERTEX
  8
LAYER-1
 10
5.930617
 20
0.204131
 30
0.000000
  0
VERTEX
  8
LAYER-1
 10
5.927146
 20
0.208472
 30
0.000000
  0
VERTEX
  8
LAYER-1
 10
5.922805
 20
0.208472
 30
0.000000
  0
VERTEX
  8
LAYER-1
 10
5.918464
 20
0.207603
 30
0.000000
  0
VERTEX
  8
LAYER-1
 10
5.915859
 20
0.203262
 30
0.000000
  0
SEQEND
  8
LAYER-1
  0
POLYLINE
  8
LAYER-1
 66
  1
 70
  0
 62
  0
 10
6.478358
 20
0.118192
 30
0.000000
  0
VERTEX
  8
LAYER-1
 10
6.478358
 20
0.118192
 30
0.000000
  0
VERTEX
  8
LAYER-1
 10
6.474017
 20
0.118192
 30
0.000000
  0
VERTEX
  8
LAYER-1
 10
6.470545
 20
0.113852
 30
0.000000
  0
VERTEX
  8
LAYER-1
 10
6.469677
 20
0.108644
 30
0.000000
  0
VERTEX
  8
LAYER-1
 10
6.471413
 20
0.104303
 30
0.000000
  0
VERTEX
  8
LAYER-1
 10
6.475754
 20
0.102567
 30
0.000000
  0
VERTEX
  8
LAYER-1
 10
6.480093
 20
0.102567
 30
0.000000
  0
VERTEX
  8
LAYER-1
 10
6.484434
 20
0.106039
 30
0.000000
  0
VERTEX
  8
LAYER-1
 10
6.484434
 20
0.110380
 30
0.000000
  0
VERTEX
  8
LAYER-1
 10
6.483566
 20
0.114721
 30
0.000000
  0
VERTEX
  8
LAYER-1
 10
6.479226
 20
0.117326
 30
0.000000
  0
SEQEND
  8
LAYER-1
  0
POLYLINE
  8
LAYER-1
 66
  1
 70
  0
 62
  0
 10
6.376797
 20
0.155954
 30
0.000000
  0
VERTEX
  8
LAYER-1
 10
6.376797
 20
0.155954
 30
0.000000
  0
VERTEX
  8
LAYER-1
 10
6.376797
 20
0.160295
 30
0.000000
  0
VERTEX
  8
LAYER-1
 10
6.372456
 20
0.163767
 30
0.000000
  0
VERTEX
  8
LAYER-1
 10
6.367249
 20
0.164635
 30
0.000000
  0
VERTEX
  8
LAYER-1
 10
6.362908
 20
0.162899
 30
0.000000
  0
VERTEX
  8
LAYER-1
 10
6.361172
 20
0.158558
 30
0.000000
  0
VERTEX
  8
LAYER-1
 10
6.361172
 20
0.154219
 30
0.000000
  0
VERTEX
  8
LAYER-1
 10
6.364644
 20
0.149879
 30
0.000000
  0
VERTEX
  8
LAYER-1
 10
6.368985
 20
0.149879
 30
0.000000
  0
VERTEX
  8
LAYER-1
 10
6.373325
 20
0.150746
 30
0.000000
  0
VERTEX
  8
LAYER-1
 10
6.375928
 20
0.155086
 30
0.000000
  0
SEQEND
  8
LAYER-1
  0
POLYLINE
  8
LAYER-1
 66
  1
 70
  1
 62
  0
 10
6.309088
 20
0.142933
 30
0.000000
  0
VERTEX
  8
LAYER-1
 10
6.309088
 20
0.142933
 30
0.000000
  0
VERTEX
  8
LAYER-1
 10
6.286519
 20
0.155953
 30
0.000000
  0
VERTEX
  8
LAYER-1
 10
6.307352
 20
0.125571
 30
0.000000
  0
SEQEND
  8
LAYER-1
  0
POLYLINE
  8
LAYER-1
 66
  1
 70
  0
 62
  0
 10
6.226624
 20
0.108211
 30
0.000000
  0
VERTEX
  8
LAYER-1
 10
6.226624
 20
0.108211
 30
0.000000
  0
VERTEX
  8
LAYER-1
 10
6.226624
 20
0.112552
 30
0.000000
  0
VERTEX
  8
LAYER-1
 10
6.222283
 20
0.116024
 30
0.000000
  0
VERTEX
  8
LAYER-1
 10
6.217076
 20
0.116892
 30
0.000000
  0
VERTEX
  8
LAYER-1
 10
6.212735
 20
0.115156
 30
0.000000
  0
VERTEX
  8
LAYER-1
 10
6.210999
 20
0.110816
 30
0.000000
  0
VERTEX
  8
LAYER-1
 10
6.210999
 20
0.106476
 30
0.000000
  0
VERTEX
  8
LAYER-1
 10
6.214471
 20
0.102135
 30
0.000000
  0
VERTEX
  8
LAYER-1
 10
6.218811
 20
0.102135
 30
0.000000
  0
VERTEX
  8
LAYER-1
 10
6.223152
 20
0.103004
 30
0.000000
  0
VERTEX
  8
LAYER-1
 10
6.225755
 20
0.107344
 30
0.000000
  0
SEQEND
  8
LAYER-1
  0
POLYLINE
  8
LAYER-1
 66
  1
 70
  1
 62
  0
 10
6.416901
 20
0.098490
 30
0.000000
  0
VERTEX
  8
LAYER-1
 10
6.416901
 20
0.098490
 30
0.000000
  0
VERTEX
  8
LAYER-1
 10
6.409957
 20
0.124530
 30
0.000000
  0
VERTEX
  8
LAYER-1
 10
6.384783
 20
0.110643
 30
0.000000
  0
SEQEND
  8
LAYER-1
  0
POLYLINE
  8
LAYER-1
 66
  1
 70
  1
 62
  0
 10
6.438428
 20
0.152916
 30
0.000000
  0
VERTEX
  8
LAYER-1
 10
6.438428
 20
0.152916
 30
0.000000
  0
VERTEX
  8
LAYER-1
 10
6.451449
 20
0.175485
 30
0.000000
  0
VERTEX
  8
LAYER-1
 10
6.421067
 20
0.154654
 30
0.000000
  0
SEQEND
  8
LAYER-1
  0
POLYLINE
  8
LAYER-1
 66
  1
 70
  1
 62
  0
 10
5.866380
 20
0.096492
 30
0.000000
  0
VERTEX
  8
LAYER-1
 10
5.866380
 20
0.096492
 30
0.000000
  0
VERTEX
  8
LAYER-1
 10
5.843810
 20
0.109515
 30
0.000000
  0
VERTEX
  8
LAYER-1
 10
5.864643
 20
0.079132
 30
0.000000
  0
SEQEND
  8
LAYER-1
  0
POLYLINE
  8
LAYER-1
 66
  1
 70
  1
 62
  0
 10
6.644158
 20
0.120799
 30
0.000000
  0
VERTEX
  8
LAYER-1
 10
6.644158
 20
0.120799
 30
0.000000
  0
VERTEX
  8
LAYER-1
 10
6.660651
 20
0.145972
 30
0.000000
  0
VERTEX
  8
LAYER-1
 10
6.645894
 20
0.153785
 30
0.000000
  0
SEQEND
  8
LAYER-1
  0
POLYLINE
  8
LAYER-1
 66
  1
 70
  0
 62
  0
 10
6.675058
 20
0.047395
 30
0.000000
  0
VERTEX
  8
LAYER-1
 10
6.675058
 20
0.047395
 30
0.000000
  0
VERTEX
  8
LAYER-1
 10
6.679399
 20
0.047395
 30
0.000000
  0
VERTEX
  8
LAYER-1
 10
6.682871
 20
0.051736
 30
0.000000
  0
VERTEX
  8
LAYER-1
 10
6.683739
 20
0.056944
 30
0.000000
  0
VERTEX
  8
LAYER-1
 10
6.682003
 20
0.061284
 30
0.000000
  0
VERTEX
  8
LAYER-1
 10
6.677662
 20
0.063020
 30
0.000000
  0
VERTEX
  8
LAYER-1
 10
6.673323
 20
0.063020
 30
0.000000
  0
VERTEX
  8
LAYER-1
 10
6.668982
 20
0.059548
 30
0.000000
  0
VERTEX
  8
LAYER-1
 10
6.668982
 20
0.055208
 30
0.000000
  0
VERTEX
  8
LAYER-1
 10
6.669850
 20
0.050867
 30
0.000000
  0
VERTEX
  8
LAYER-1
 10
6.674190
 20
0.048263
 30
0.000000
  0
SEQEND
  8
LAYER-1
  0
POLYLINE
  8
LAYER-1
 66
  1
 70
  0
 62
  0
 10
6.651622
 20
0.072574
 30
0.000000
  0
VERTEX
  8
LAYER-1
 10
6.651622
 20
0.072574
 30
0.000000
  0
VERTEX
  8
LAYER-1
 10
6.655963
 20
0.072574
 30
0.000000
  0
VERTEX
  8
LAYER-1
 10
6.659434
 20
0.076915
 30
0.000000
  0
VERTEX
  8
LAYER-1
 10
6.660302
 20
0.082123
 30
0.000000
  0
VERTEX
  8
LAYER-1
 10
6.658567
 20
0.086464
 30
0.000000
  0
VERTEX
  8
LAYER-1
 10
6.654226
 20
0.088199
 30
0.000000
  0
VERTEX
  8
LAYER-1
 10
6.649886
 20
0.088199
 30
0.000000
  0
VERTEX
  8
LAYER-1
 10
6.645545
 20
0.084728
 30
0.000000
  0
VERTEX
  8
LAYER-1
 10
6.645545
 20
0.080387
 30
0.000000
  0
VERTEX
  8
LAYER-1
 10
6.646413
 20
0.076046
 30
0.000000
  0
VERTEX
  8
LAYER-1
 10
6.650754
 20
0.073441
 30
0.000000
  0
SEQEND
  8
LAYER-1
  0
POLYLINE
  8
LAYER-1
 66
  1
 70
  1
 62
  0
 10
6.725839
 20
0.088630
 30
0.000000
  0
VERTEX
  8
LAYER-1
 10
6.725839
 20
0.088630
 30
0.000000
  0
VERTEX
  8
LAYER-1
 10
6.700667
 20
0.105123
 30
0.000000
  0
VERTEX
  8
LAYER-1
 10
6.692854
 20
0.090366
 30
0.000000
  0
SEQEND
  8
LAYER-1
  0
POLYLINE
  8
LAYER-1
 66
  1
 70
  0
 62
  0
 10
6.736257
 20
0.127695
 30
0.000000
  0
VERTEX
  8
LAYER-1
 10
6.736257
 20
0.127695
 30
0.000000
  0
VERTEX
  8
LAYER-1
 10
6.736257
 20
0.132035
 30
0.000000
  0
VERTEX
  8
LAYER-1
 10
6.731917
 20
0.135507
 30
0.000000
  0
VERTEX
  8
LAYER-1
 10
6.726708
 20
0.136375
 30
0.000000
  0
VERTEX
  8
LAYER-1
 10
6.722368
 20
0.134639
 30
0.000000
  0
VERTEX
  8
LAYER-1
 10
6.720632
 20
0.130298
 30
0.000000
  0
VERTEX
  8
LAYER-1
 10
6.720632
 20
0.125959
 30
0.000000
  0
VERTEX
  8
LAYER-1
 10
6.724104
 20
0.121618
 30
0.000000
  0
VERTEX
  8
LAYER-1
 10
6.728444
 20
0.121618
 30
0.000000
  0
VERTEX
  8
LAYER-1
 10
6.732786
 20
0.122486
 30
0.000000
  0
VERTEX
  8
LAYER-1
 10
6.735390
 20
0.126827
 30
0.000000
  0
SEQEND
  8
LAYER-1
  0
POLYLINE
  8
LAYER-1
 66
  1
 70
  1
 62
  0
 10
6.682780
 20
0.133547
 30
0.000000
  0
VERTEX
  8
LAYER-1
 10
6.682780
 20
0.133547
 30
0.000000
  0
VERTEX
  8
LAYER-1
 10
6.695466
 20
0.152910
 30
0.000000
  0
VERTEX
  8
LAYER-1
 10
6.684116
 20
0.158921
 30
0.000000
  0
SEQEND
  8
LAYER-1
  0
POLYLINE
  8
LAYER-1
 66
  1
 70
  0
 62
  0
 10
6.006137
 20
0.163333
 30
0.000000
  0
VERTEX
  8
LAYER-1
 10
6.006137
 20
0.163333
 30
0.000000
  0
VERTEX
  8
LAYER-1
 10
6.006137
 20
0.167672
 30
0.000000
  0
VERTEX
  8
LAYER-1
 10
6.001796
 20
0.171146
 30
0.000000
  0
VERTEX
  8
LAYER-1
 10
5.996588
 20
0.172013
 30
0.000000
  0
VERTEX
  8
LAYER-1
 10
5.992248
 20
0.170277
 30
0.000000
  0
VERTEX
  8
LAYER-1
 10
5.990512
 20
0.165936
 30
0.000000
  0
VERTEX
  8
LAYER-1
 10
5.990512
 20
0.161596
 30
0.000000
  0
VERTEX
  8
LAYER-1
 10
5.993983
 20
0.157257
 30
0.000000
  0
VERTEX
  8
LAYER-1
 10
5.998324
 20
0.157257
 30
0.000000
  0
VERTEX
  8
LAYER-1
 10
6.002665
 20
0.158123
 30
0.000000
  0
VERTEX
  8
LAYER-1
 10
6.005270
 20
0.162465
 30
0.000000
  0
SEQEND
  8
LAYER-1
  0
POLYLINE
  8
LAYER-1
 66
  1
 70
  0
 62
  0
 10
6.592075
 20
0.126876
 30
0.000000
  0
VERTEX
  8
LAYER-1
 10
6.592075
 20
0.126876
 30
0.000000
  0
VERTEX
  8
LAYER-1
 10
6.596415
 20
0.126876
 30
0.000000
  0
VERTEX
  8
LAYER-1
 10
6.599887
 20
0.131216
 30
0.000000
  0
VERTEX
  8
LAYER-1
 10
6.600755
 20
0.136424
 30
0.000000
  0
VERTEX
  8
LAYER-1
 10
6.599019
 20
0.140765
 30
0.000000
  0
VERTEX
  8
LAYER-1
 10
6.594679
 20
0.142501
 30
0.000000
  0
VERTEX
  8
LAYER-1
 10
6.590339
 20
0.142501
 30
0.000000
  0
VERTEX
  8
LAYER-1
 10
6.585998
 20
0.139029
 30
0.000000
  0
VERTEX
  8
LAYER-1
 10
6.585998
 20
0.134688
 30
0.000000
  0
VERTEX
  8
LAYER-1
 10
6.586866
 20
0.130347
 30
0.000000
  0
VERTEX
  8
LAYER-1
 10
6.591207
 20
0.127742
 30
0.000000
  0
SEQEND
  8
LAYER-1
  0
POLYLINE
  8
LAYER-1
 66
  1
 70
  1
 62
  0
 10
0.849711
 20
0.130557
 30
0.000000
  0
VERTEX
  8
LAYER-1
 10
0.849711
 20
0.130557
 30
0.000000
  0
VERTEX
  8
LAYER-1
 10
0.827140
 20
0.143578
 30
0.000000
  0
VERTEX
  8
LAYER-1
 10
0.847973
 20
0.113196
 30
0.000000
  0
SEQEND
  8
LAYER-1
  0
POLYLINE
  8
LAYER-1
 66
  1
 70
  0
 62
  0
 10
0.838427
 20
0.063716
 30
0.000000
  0
VERTEX
  8
LAYER-1
 10
0.838427
 20
0.063716
 30
0.000000
  0
VERTEX
  8
LAYER-1
 10
0.838427
 20
0.068055
 30
0.000000
  0
VERTEX
  8
LAYER-1
 10
0.834086
 20
0.071529
 30
0.000000
  0
VERTEX
  8
LAYER-1
 10
0.828878
 20
0.072396
 30
0.000000
  0
VERTEX
  8
LAYER-1
 10
0.824537
 20
0.070660
 30
0.000000
  0
VERTEX
  8
LAYER-1
 10
0.822802
 20
0.066319
 30
0.000000
  0
VERTEX
  8
LAYER-1
 10
0.822802
 20
0.061979
 30
0.000000
  0
VERTEX
  8
LAYER-1
 10
0.826273
 20
0.057640
 30
0.000000
  0
VERTEX
  8
LAYER-1
 10
0.830614
 20
0.057640
 30
0.000000
  0
VERTEX
  8
LAYER-1
 10
0.834955
 20
0.058506
 30
0.000000
  0
VERTEX
  8
LAYER-1
 10
0.837560
 20
0.062848
 30
0.000000
  0
SEQEND
  8
LAYER-1
  0
POLYLINE
  8
LAYER-1
 66
  1
 70
  1
 62
  0
 10
1.116466
 20
0.052516
 30
0.000000
  0
VERTEX
  8
LAYER-1
 10
1.116466
 20
0.052516
 30
0.000000
  0
VERTEX
  8
LAYER-1
 10
1.132959
 20
0.077690
 30
0.000000
  0
VERTEX
  8
LAYER-1
 10
1.118202
 20
0.085503
 30
0.000000
  0
SEQEND
  8
LAYER-1
  0
POLYLINE
  8
LAYER-1
 66
  1
 70
  1
 62
  0
 10
1.164376
 20
0.067610
 30
0.000000
  0
VERTEX
  8
LAYER-1
 10
1.164376
 20
0.067610
 30
0.000000
  0
VERTEX
  8
LAYER-1
 10
1.177063
 20
0.086975
 30
0.000000
  0
VERTEX
  8
LAYER-1
 10
1.165712
 20
0.092985
 30
0.000000
  0
SEQEND
  8
LAYER-1
  0
POLYLINE
  8
LAYER-1
 66
  1
 70
  0
 62
  0
 10
1.228445
 20
0.043839
 30
0.000000
  0
VERTEX
  8
LAYER-1
 10
1.228445
 20
0.043839
 30
0.000000
  0
VERTEX
  8
LAYER-1
 10
1.232786
 20
0.043839
 30
0.000000
  0
VERTEX
  8
LAYER-1
 10
1.236258
 20
0.048179
 30
0.000000
  0
VERTEX
  8
LAYER-1
 10
1.237126
 20
0.053386
 30
0.000000
  0
VERTEX
  8
LAYER-1
 10
1.235390
 20
0.057727
 30
0.000000
  0
VERTEX
  8
LAYER-1
 10
1.231049
 20
0.059464
 30
0.000000
  0
VERTEX
  8
LAYER-1
 10
1.226709
 20
0.059464
 30
0.000000
  0
VERTEX
  8
LAYER-1
 10
1.222368
 20
0.055991
 30
0.000000
  0
VERTEX
  8
LAYER-1
 10
1.222368
 20
0.051651
 30
0.000000
  0
VERTEX
  8
LAYER-1
 10
1.223236
 20
0.047310
 30
0.000000
  0
VERTEX
  8
LAYER-1
 10
1.227577
 20
0.044706
 30
0.000000
  0
SEQEND
  8
LAYER-1
  0
POLYLINE
  8
LAYER-1
 66
  1
 70
  1
 62
  0
 10
1.262299
 20
0.106771
 30
0.000000
  0
VERTEX
  8
LAYER-1
 10
1.262299
 20
0.106771
 30
0.000000
  0
VERTEX
  8
LAYER-1
 10
1.236258
 20
0.099826
 30
0.000000
  0
VERTEX
  8
LAYER-1
 10
1.250146
 20
0.074653
 30
0.000000
  0
SEQEND
  8
LAYER-1
  0
POLYLINE
  8
LAYER-1
 66
  1
 70
  0
 62
  0
 10
2.630181
 20
0.074478
 30
0.000000
  0
VERTEX
  8
LAYER-1
 10
2.630181
 20
0.074478
 30
0.000000
  0
VERTEX
  8
LAYER-1
 10
2.630181
 20
0.078818
 30
0.000000
  0
VERTEX
  8
LAYER-1
 10
2.625840
 20
0.082291
 30
0.000000
  0
VERTEX
  8
LAYER-1
 10
2.620632
 20
0.083158
 30
0.000000
  0
VERTEX
  8
LAYER-1
 10
2.616292
 20
0.081423
 30
0.000000
  0
VERTEX
  8
LAYER-1
 10
2.614556
 20
0.077082
 30
0.000000
  0
VERTEX
  8
LAYER-1
 10
2.614556
 20
0.072742
 30
0.000000
  0
VERTEX
  8
LAYER-1
 10
2.618028
 20
0.068401
 30
0.000000
  0
VERTEX
  8
LAYER-1
 10
2.622368
 20
0.068401
 30
0.000000
  0
VERTEX
  8
LAYER-1
 10
2.626709
 20
0.069270
 30
0.000000
  0
VERTEX
  8
LAYER-1
 10
2.629313
 20
0.073610
 30
0.000000
  0
SEQEND
  8
LAYER-1
  0
POLYLINE
  8
LAYER-1
 66
  1
 70
  1
 62
  0
 10
2.564208
 20
0.037587
 30
0.000000
  0
VERTEX
  8
LAYER-1
 10
2.564208
 20
0.037587
 30
0.000000
  0
VERTEX
  8
LAYER-1
 10
2.557263
 20
0.063628
 30
0.000000
  0
VERTEX
  8
LAYER-1
 10
2.532090
 20
0.049739
 30
0.000000
  0
SEQEND
  8
LAYER-1
  0
POLYLINE
  8
LAYER-1
 66
  1
 70
  1
 62
  0
 10
2.576360
 20
0.074045
 30
0.000000
  0
VERTEX
  8
LAYER-1
 10
2.576360
 20
0.074045
 30
0.000000
  0
VERTEX
  8
LAYER-1
 10
2.589382
 20
0.096614
 30
0.000000
  0
VERTEX
  8
LAYER-1
 10
2.558999
 20
0.075782
 30
0.000000
  0
SEQEND
  8
LAYER-1
  0
POLYLINE
  8
LAYER-1
 66
  1
 70
  0
 62
  0
 10
2.412559
 20
0.084895
 30
0.000000
  0
VERTEX
  8
LAYER-1
 10
2.412559
 20
0.084895
 30
0.000000
  0
VERTEX
  8
LAYER-1
 10
2.408219
 20
0.084895
 30
0.000000
  0
VERTEX
  8
LAYER-1
 10
2.404747
 20
0.080555
 30
0.000000
  0
VERTEX
  8
LAYER-1
 10
2.403879
 20
0.075347
 30
0.000000
  0
VERTEX
  8
LAYER-1
 10
2.405615
 20
0.071006
 30
0.000000
  0
VERTEX
  8
LAYER-1
 10
2.409955
 20
0.069270
 30
0.000000
  0
VERTEX
  8
LAYER-1
 10
2.414295
 20
0.069270
 30
0.000000
  0
VERTEX
  8
LAYER-1
 10
2.418636
 20
0.072742
 30
0.000000
  0
VERTEX
  8
LAYER-1
 10
2.418636
 20
0.077082
 30
0.000000
  0
VERTEX
  8
LAYER-1
 10
2.417768
 20
0.081423
 30
0.000000
  0
VERTEX
  8
LAYER-1
 10
2.413427
 20
0.084028
 30
0.000000
  0
SEQEND
  8
LAYER-1
  0
POLYLINE
  8
LAYER-1
 66
  1
 70
  1
 62
  0
 10
2.492420
 20
0.047568
 30
0.000000
  0
VERTEX
  8
LAYER-1
 10
2.492420
 20
0.047568
 30
0.000000
  0
VERTEX
  8
LAYER-1
 10
2.469850
 20
0.060591
 30
0.000000
  0
VERTEX
  8
LAYER-1
 10
2.490682
 20
0.030207
 30
0.000000
  0
SEQEND
  8
LAYER-1
  0
POLYLINE
  8
LAYER-1
 66
  1
 70
  1
 62
  0
 10
3.087392
 20
0.048419
 30
0.000000
  0
VERTEX
  8
LAYER-1
 10
3.087392
 20
0.048419
 30
0.000000
  0
VERTEX
  8
LAYER-1
 10
3.100412
 20
0.070990
 30
0.000000
  0
VERTEX
  8
LAYER-1
 10
3.070030
 20
0.050156
 30
0.000000
  0
SEQEND
  8
LAYER-1
  0
POLYLINE
  8
LAYER-1
 66
  1
 70
  1
 62
  0
 10
2.992942
 20
0.054832
 30
0.000000
  0
VERTEX
  8
LAYER-1
 10
2.992942
 20
0.054832
 30
0.000000
  0
VERTEX
  8
LAYER-1
 10
3.005628
 20
0.074196
 30
0.000000
  0
VERTEX
  8
LAYER-1
 10
2.994278
 20
0.080207
 30
0.000000
  0
SEQEND
  8
LAYER-1
  0
POLYLINE
  8
LAYER-1
 66
  1
 70
  0
 62
  0
 10
3.121247
 20
0.047552
 30
0.000000
  0
VERTEX
  8
LAYER-1
 10
3.121247
 20
0.047552
 30
0.000000
  0
VERTEX
  8
LAYER-1
 10
3.125588
 20
0.047552
 30
0.000000
  0
VERTEX
  8
LAYER-1
 10
3.129059
 20
0.051893
 30
0.000000
  0
VERTEX
  8
LAYER-1
 10
3.129928
 20
0.057100
 30
0.000000
  0
VERTEX
  8
LAYER-1
 10
3.128192
 20
0.061441
 30
0.000000
  0
VERTEX
  8
LAYER-1
 10
3.123851
 20
0.063177
 30
0.000000
  0
VERTEX
  8
LAYER-1
 10
3.119511
 20
0.063177
 30
0.000000
  0
VERTEX
  8
LAYER-1
 10
3.115171
 20
0.059705
 30
0.000000
  0
VERTEX
  8
LAYER-1
 10
3.115171
 20
0.055365
 30
0.000000
  0
VERTEX
  8
LAYER-1
 10
3.116039
 20
0.051024
 30
0.000000
  0
VERTEX
  8
LAYER-1
 10
3.120379
 20
0.048419
 30
0.000000
  0
SEQEND
  8
LAYER-1
  0
POLYLINE
  8
LAYER-1
 66
  1
 70
  0
 62
  0
 10
3.007530
 20
0.038868
 30
0.000000
  0
VERTEX
  8
LAYER-1
 10
3.007530
 20
0.038868
 30
0.000000
  0
VERTEX
  8
LAYER-1
 10
3.003190
 20
0.038868
 30
0.000000
  0
VERTEX
  8
LAYER-1
 10
2.999718
 20
0.034528
 30
0.000000
  0
VERTEX
  8
LAYER-1
 10
2.998850
 20
0.029321
 30
0.000000
  0
VERTEX
  8
LAYER-1
 10
3.000586
 20
0.024979
 30
0.000000
  0
VERTEX
  8
LAYER-1
 10
3.004927
 20
0.023243
 30
0.000000
  0
VERTEX
  8
LAYER-1
 10
3.009266
 20
0.023243
 30
0.000000
  0
VERTEX
  8
LAYER-1
 10
3.013607
 20
0.026716
 30
0.000000
  0
VERTEX
  8
LAYER-1
 10
3.013607
 20
0.031056
 30
0.000000
  0
VERTEX
  8
LAYER-1
 10
3.012739
 20
0.035397
 30
0.000000
  0
VERTEX
  8
LAYER-1
 10
3.008398
 20
0.038002
 30
0.000000
  0
SEQEND
  8
LAYER-1
  0
POLYLINE
  8
LAYER-1
 66
  1
 70
  1
 62
  0
 10
2.848583
 20
0.052170
 30
0.000000
  0
VERTEX
  8
LAYER-1
 10
2.848583
 20
0.052170
 30
0.000000
  0
VERTEX
  8
LAYER-1
 10
2.861604
 20
0.074740
 30
0.000000
  0
VERTEX
  8
LAYER-1
 10
2.831223
 20
0.053908
 30
0.000000
  0
SEQEND
  8
LAYER-1
  0
POLYLINE
  8
LAYER-1
 66
  1
 70
  0
 62
  0
 10
2.882439
 20
0.051303
 30
0.000000
  0
VERTEX
  8
LAYER-1
 10
2.882439
 20
0.051303
 30
0.000000
  0
VERTEX
  8
LAYER-1
 10
2.886780
 20
0.051303
 30
0.000000
  0
VERTEX
  8
LAYER-1
 10
2.890252
 20
0.055644
 30
0.000000
  0
VERTEX
  8
LAYER-1
 10
2.891120
 20
0.060851
 30
0.000000
  0
VERTEX
  8
LAYER-1
 10
2.889384
 20
0.065191
 30
0.000000
  0
VERTEX
  8
LAYER-1
 10
2.885043
 20
0.066928
 30
0.000000
  0
VERTEX
  8
LAYER-1
 10
2.880703
 20
0.066928
 30
0.000000
  0
VERTEX
  8
LAYER-1
 10
2.876362
 20
0.063456
 30
0.000000
  0
VERTEX
  8
LAYER-1
 10
2.876362
 20
0.059115
 30
0.000000
  0
VERTEX
  8
LAYER-1
 10
2.877231
 20
0.054775
 30
0.000000
  0
VERTEX
  8
LAYER-1
 10
2.881571
 20
0.052170
 30
0.000000
  0
SEQEND
  8
LAYER-1
  0
POLYLINE
  8
LAYER-1
 66
  1
 70
  1
 62
  0
 10
3.480700
 20
0.087240
 30
0.000000
  0
VERTEX
  8
LAYER-1
 10
3.480700
 20
0.087240
 30
0.000000
  0
VERTEX
  8
LAYER-1
 10
3.503271
 20
0.074220
 30
0.000000
  0
VERTEX
  8
LAYER-1
 10
3.482438
 20
0.104602
 30
0.000000
  0
SEQEND
  8
LAYER-1
  0
POLYLINE
  8
LAYER-1
 66
  1
 70
  0
 62
  0
 10
3.479834
 20
0.053385
 30
0.000000
  0
VERTEX
  8
LAYER-1
 10
3.479834
 20
0.053385
 30
0.000000
  0
VERTEX
  8
LAYER-1
 10
3.479834
 20
0.049043
 30
0.000000
  0
VERTEX
  8
LAYER-1
 10
3.484174
 20
0.045572
 30
0.000000
  0
VERTEX
  8
LAYER-1
 10
3.489382
 20
0.044704
 30
0.000000
  0
VERTEX
  8
LAYER-1
 10
3.493722
 20
0.046440
 30
0.000000
  0
VERTEX
  8
LAYER-1
 10
3.495458
 20
0.050780
 30
0.000000
  0
VERTEX
  8
LAYER-1
 10
3.495458
 20
0.055121
 30
0.000000
  0
VERTEX
  8
LAYER-1
 10
3.491987
 20
0.059461
 30
0.000000
  0
VERTEX
  8
LAYER-1
 10
3.487646
 20
0.059461
 30
0.000000
  0
VERTEX
  8
LAYER-1
 10
3.483305
 20
0.058593
 30
0.000000
  0
VERTEX
  8
LAYER-1
 10
3.480700
 20
0.054253
 30
0.000000
  0
SEQEND
  8
LAYER-1
  0
POLYLINE
  8
LAYER-1
 66
  1
 70
  1
 62
  0
 10
4.030180
 20
0.119269
 30
0.000000
  0
VERTEX
  8
LAYER-1
 10
4.030180
 20
0.119269
 30
0.000000
  0
VERTEX
  8
LAYER-1
 10
4.037125
 20
0.093229
 30
0.000000
  0
VERTEX
  8
LAYER-1
 10
4.062298
 20
0.107117
 30
0.000000
  0
SEQEND
  8
LAYER-1
  0
POLYLINE
  8
LAYER-1
 66
  1
 70
  1
 62
  0
 10
4.001968
 20
0.082375
 30
0.000000
  0
VERTEX
  8
LAYER-1
 10
4.001968
 20
0.082375
 30
0.000000
  0
VERTEX
  8
LAYER-1
 10
4.024537
 20
0.069355
 30
0.000000
  0
VERTEX
  8
LAYER-1
 10
4.003704
 20
0.099737
 30
0.000000
  0
SEQEND
  8
LAYER-1
  0
POLYLINE
  8
LAYER-1
 66
  1
 70
  1
 62
  0
 10
4.118621
 20
0.074396
 30
0.000000
  0
VERTEX
  8
LAYER-1
 10
4.118621
 20
0.074396
 30
0.000000
  0
VERTEX
  8
LAYER-1
 10
4.137987
 20
0.061708
 30
0.000000
  0
VERTEX
  8
LAYER-1
 10
4.143997
 20
0.073060
 30
0.000000
  0
SEQEND
  8
LAYER-1
  0
POLYLINE
  8
LAYER-1
 66
  1
 70
  0
 62
  0
 10
4.063167
 20
0.080204
 30
0.000000
  0
VERTEX
  8
LAYER-1
 10
4.063167
 20
0.080204
 30
0.000000
  0
VERTEX
  8
LAYER-1
 10
4.058826
 20
0.080204
 30
0.000000
  0
VERTEX
  8
LAYER-1
 10
4.055355
 20
0.075862
 30
0.000000
  0
VERTEX
  8
LAYER-1
 10
4.054487
 20
0.070655
 30
0.000000
  0
VERTEX
  8
LAYER-1
 10
4.056222
 20
0.066315
 30
0.000000
  0
VERTEX
  8
LAYER-1
 10
4.060562
 20
0.064579
 30
0.000000
  0
VERTEX
  8
LAYER-1
 10
4.064903
 20
0.064579
 30
0.000000
  0
VERTEX
  8
LAYER-1
 10
4.069244
 20
0.068050
 30
0.000000
  0
VERTEX
  8
LAYER-1
 10
4.069244
 20
0.072391
 30
0.000000
  0
VERTEX
  8
LAYER-1
 10
4.068375
 20
0.076731
 30
0.000000
  0
VERTEX
  8
LAYER-1
 10
4.064035
 20
0.079336
 30
0.000000
  0
SEQEND
  8
LAYER-1
  0
POLYLINE
  8
LAYER-1
 66
  1
 70
  0
 62
  0
 10
3.947715
 20
0.057635
 30
0.000000
  0
VERTEX
  8
LAYER-1
 10
3.947715
 20
0.057635
 30
0.000000
  0
VERTEX
  8
LAYER-1
 10
3.952056
 20
0.057635
 30
0.000000
  0
VERTEX
  8
LAYER-1
 10
3.955528
 20
0.061975
 30
0.000000
  0
VERTEX
  8
LAYER-1
 10
3.956397
 20
0.067184
 30
0.000000
  0
VERTEX
  8
LAYER-1
 10
3.954661
 20
0.071524
 30
0.000000
  0
VERTEX
  8
LAYER-1
 10
3.950320
 20
0.073260
 30
0.000000
  0
VERTEX
  8
LAYER-1
 10
3.945980
 20
0.073260
 30
0.000000
  0
VERTEX
  8
LAYER-1
 10
3.941639
 20
0.069788
 30
0.000000
  0
VERTEX
  8
LAYER-1
 10
3.941639
 20
0.065447
 30
0.000000
  0
VERTEX
  8
LAYER-1
 10
3.942508
 20
0.061106
 30
0.000000
  0
VERTEX
  8
LAYER-1
 10
3.946849
 20
0.058502
 30
0.000000
  0
SEQEND
  8
LAYER-1
  0
POLYLINE
  8
LAYER-1
 66
  1
 70
  1
 62
  0
 10
4.434363
 20
0.027948
 30
0.000000
  0
VERTEX
  8
LAYER-1
 10
4.434363
 20
0.027948
 30
0.000000
  0
VERTEX
  8
LAYER-1
 10
4.427418
 20
0.053989
 30
0.000000
  0
VERTEX
  8
LAYER-1
 10
4.402245
 20
0.040101
 30
0.000000
  0
SEQEND
  8
LAYER-1
  0
POLYLINE
  8
LAYER-1
 66
  1
 70
  1
 62
  0
 10
4.462575
 20
0.064842
 30
0.000000
  0
VERTEX
  8
LAYER-1
 10
4.462575
 20
0.064842
 30
0.000000
  0
VERTEX
  8
LAYER-1
 10
4.440006
 20
0.077862
 30
0.000000
  0
VERTEX
  8
LAYER-1
 10
4.460838
 20
0.047481
 30
0.000000
  0
SEQEND
  8
LAYER-1
  0
POLYLINE
  8
LAYER-1
 66
  1
 70
  1
 62
  0
 10
4.345921
 20
0.072822
 30
0.000000
  0
VERTEX
  8
LAYER-1
 10
4.345921
 20
0.072822
 30
0.000000
  0
VERTEX
  8
LAYER-1
 10
4.326556
 20
0.085509
 30
0.000000
  0
VERTEX
  8
LAYER-1
 10
4.320546
 20
0.074158
 30
0.000000
  0
SEQEND
  8
LAYER-1
  0
POLYLINE
  8
LAYER-1
 66
  1
 70
  0
 62
  0
 10
4.401376
 20
0.067014
 30
0.000000
  0
VERTEX
  8
LAYER-1
 10
4.401376
 20
0.067014
 30
0.000000
  0
VERTEX
  8
LAYER-1
 10
4.405716
 20
0.067014
 30
0.000000
  0
VERTEX
  8
LAYER-1
 10
4.409188
 20
0.071355
 30
0.000000
  0
VERTEX
  8
LAYER-1
 10
4.410056
 20
0.076563
 30
0.000000
  0
VERTEX
  8
LAYER-1
 10
4.408320
 20
0.080903
 30
0.000000
  0
VERTEX
  8
LAYER-1
 10
4.403981
 20
0.082639
 30
0.000000
  0
VERTEX
  8
LAYER-1
 10
4.399640
 20
0.082639
 30
0.000000
  0
VERTEX
  8
LAYER-1
 10
4.395299
 20
0.079168
 30
0.000000
  0
VERTEX
  8
LAYER-1
 10
4.395299
 20
0.074827
 30
0.000000
  0
VERTEX
  8
LAYER-1
 10
4.396168
 20
0.070486
 30
0.000000
  0
VERTEX
  8
LAYER-1
 10
4.400508
 20
0.067882
 30
0.000000
  0
SEQEND
  8
LAYER-1
  0
POLYLINE
  8
LAYER-1
 66
  1
 70
  0
 62
  0
 10
4.516827
 20
0.089583
 30
0.000000
  0
VERTEX
  8
LAYER-1
 10
4.516827
 20
0.089583
 30
0.000000
  0
VERTEX
  8
LAYER-1
 10
4.512487
 20
0.089583
 30
0.000000
  0
VERTEX
  8
LAYER-1
 10
4.509015
 20
0.085242
 30
0.000000
  0
VERTEX
  8
LAYER-1
 10
4.508146
 20
0.080034
 30
0.000000
  0
VERTEX
  8
LAYER-1
 10
4.509882
 20
0.075694
 30
0.000000
  0
VERTEX
  8
LAYER-1
 10
4.514222
 20
0.073958
 30
0.000000
  0
VERTEX
  8
LAYER-1
 10
4.518563
 20
0.073958
 30
0.000000
  0
VERTEX
  8
LAYER-1
 10
4.522904
 20
0.077430
 30
0.000000
  0
VERTEX
  8
LAYER-1
 10
4.522904
 20
0.081770
 30
0.000000
  0
VERTEX
  8
LAYER-1
 10
4.522035
 20
0.086111
 30
0.000000
  0
VERTEX
  8
LAYER-1
 10
4.517694
 20
0.088715
 30
0.000000
  0
SEQEND
  8
LAYER-1
  0
POLYLINE
  8
LAYER-1
 66
  1
 70
  1
 62
  0
 10
4.686706
 20
0.011542
 30
0.000000
  0
VERTEX
  8
LAYER-1
 10
4.686706
 20
0.011542
 30
0.000000
  0
VERTEX
  8
LAYER-1
 10
4.679761
 20
0.037582
 30
0.000000
  0
VERTEX
  8
LAYER-1
 10
4.654588
 20
0.023694
 30
0.000000
  0
SEQEND
  8
LAYER-1
  0
POLYLINE
  8
LAYER-1
 66
  1
 70
  1
 62
  0
 10
4.714918
 20
0.048436
 30
0.000000
  0
VERTEX
  8
LAYER-1
 10
4.714918
 20
0.048436
 30
0.000000
  0
VERTEX
  8
LAYER-1
 10
4.692348
 20
0.061456
 30
0.000000
  0
VERTEX
  8
LAYER-1
 10
4.713181
 20
0.031075
 30
0.000000
  0
SEQEND
  8
LAYER-1
  0
POLYLINE
  8
LAYER-1
 66
  1
 70
  1
 62
  0
 10
4.598264
 20
0.056415
 30
0.000000
  0
VERTEX
  8
LAYER-1
 10
4.598264
 20
0.056415
 30
0.000000
  0
VERTEX
  8
LAYER-1
 10
4.578900
 20
0.069103
 30
0.000000
  0
VERTEX
  8
LAYER-1
 10
4.572890
 20
0.057751
 30
0.000000
  0
SEQEND
  8
LAYER-1
  0
POLYLINE
  8
LAYER-1
 66
  1
 70
  0
 62
  0
 10
4.653719
 20
0.050607
 30
0.000000
  0
VERTEX
  8
LAYER-1
 10
4.653719
 20
0.050607
 30
0.000000
  0
VERTEX
  8
LAYER-1
 10
4.658060
 20
0.050607
 30
0.000000
  0
VERTEX
  8
LAYER-1
 10
4.661532
 20
0.054949
 30
0.000000
  0
VERTEX
  8
LAYER-1
 10
4.662400
 20
0.060156
 30
0.000000
  0
VERTEX
  8
LAYER-1
 10
4.660664
 20
0.064497
 30
0.000000
  0
VERTEX
  8
LAYER-1
 10
4.656324
 20
0.066232
 30
0.000000
  0
VERTEX
  8
LAYER-1
 10
4.651983
 20
0.066232
 30
0.000000
  0
VERTEX
  8
LAYER-1
 10
4.647642
 20
0.062761
 30
0.000000
  0
VERTEX
  8
LAYER-1
 10
4.647642
 20
0.058420
 30
0.000000
  0
VERTEX
  8
LAYER-1
 10
4.648511
 20
0.054080
 30
0.000000
  0
VERTEX
  8
LAYER-1
 10
4.652851
 20
0.051476
 30
0.000000
  0
SEQEND
  8
LAYER-1
  0
POLYLINE
  8
LAYER-1
 66
  1
 70
  0
 62
  0
 10
4.769170
 20
0.073176
 30
0.000000
  0
VERTEX
  8
LAYER-1
 10
4.769170
 20
0.073176
 30
0.000000
  0
VERTEX
  8
LAYER-1
 10
4.764829
 20
0.073176
 30
0.000000
  0
VERTEX
  8
LAYER-1
 10
4.761358
 20
0.068836
 30
0.000000
  0
VERTEX
  8
LAYER-1
 10
4.760489
 20
0.063628
 30
0.000000
  0
VERTEX
  8
LAYER-1
 10
4.762225
 20
0.059287
 30
0.000000
  0
VERTEX
  8
LAYER-1
 10
4.766566
 20
0.057551
 30
0.000000
  0
VERTEX
  8
LAYER-1
 10
4.770906
 20
0.057551
 30
0.000000
  0
VERTEX
  8
LAYER-1
 10
4.775247
 20
0.061023
 30
0.000000
  0
VERTEX
  8
LAYER-1
 10
4.775247
 20
0.065364
 30
0.000000
  0
VERTEX
  8
LAYER-1
 10
4.774378
 20
0.069705
 30
0.000000
  0
VERTEX
  8
LAYER-1
 10
4.770037
 20
0.072310
 30
0.000000
  0
SEQEND
  8
LAYER-1
  0
POLYLINE
  8
LAYER-1
 66
  1
 70
  1
 62
  0
 10
4.907265
 20
0.110591
 30
0.000000
  0
VERTEX
  8
LAYER-1
 10
4.907265
 20
0.110591
 30
0.000000
  0
VERTEX
  8
LAYER-1
 10
4.914210
 20
0.084549
 30
0.000000
  0
VERTEX
  8
LAYER-1
 10
4.939383
 20
0.098437
 30
0.000000
  0
SEQEND
  8
LAYER-1
  0
POLYLINE
  8
LAYER-1
 66
  1
 70
  1
 62
  0
 10
4.879052
 20
0.073697
 30
0.000000
  0
VERTEX
  8
LAYER-1
 10
4.879052
 20
0.073697
 30
0.000000
  0
VERTEX
  8
LAYER-1
 10
4.901622
 20
0.060676
 30
0.000000
  0
VERTEX
  8
LAYER-1
 10
4.880789
 20
0.091057
 30
0.000000
  0
SEQEND
  8
LAYER-1
  0
POLYLINE
  8
LAYER-1
 66
  1
 70
  0
 62
  0
 10
4.824800
 20
0.048955
 30
0.000000
  0
VERTEX
  8
LAYER-1
 10
4.824800
 20
0.048955
 30
0.000000
  0
VERTEX
  8
LAYER-1
 10
4.829141
 20
0.048955
 30
0.000000
  0
VERTEX
  8
LAYER-1
 10
4.832613
 20
0.053296
 30
0.000000
  0
VERTEX
  8
LAYER-1
 10
4.833482
 20
0.058504
 30
0.000000
  0
VERTEX
  8
LAYER-1
 10
4.831746
 20
0.062844
 30
0.000000
  0
VERTEX
  8
LAYER-1
 10
4.827405
 20
0.064580
 30
0.000000
  0
VERTEX
  8
LAYER-1
 10
4.823064
 20
0.064580
 30
0.000000
  0
VERTEX
  8
LAYER-1
 10
4.818723
 20
0.061109
 30
0.000000
  0
VERTEX
  8
LAYER-1
 10
4.818723
 20
0.056768
 30
0.000000
  0
VERTEX
  8
LAYER-1
 10
4.819592
 20
0.052428
 30
0.000000
  0
VERTEX
  8
LAYER-1
 10
4.823933
 20
0.049822
 30
0.000000
  0
SEQEND
  8
LAYER-1
  0
POLYLINE
  8
LAYER-1
 66
  1
 70
  1
 62
  0
 10
5.460388
 20
0.222706
 30
0.000000
  0
VERTEX
  8
LAYER-1
 10
5.460388
 20
0.222706
 30
0.000000
  0
VERTEX
  8
LAYER-1
 10
5.467332
 20
0.196666
 30
0.000000
  0
VERTEX
  8
LAYER-1
 10
5.492506
 20
0.210553
 30
0.000000
  0
SEQEND
  8
LAYER-1
  0
POLYLINE
  8
LAYER-1
 66
  1
 70
  1
 62
  0
 10
5.473496
 20
0.177567
 30
0.000000
  0
VERTEX
  8
LAYER-1
 10
5.473496
 20
0.177567
 30
0.000000
  0
VERTEX
  8
LAYER-1
 10
5.460475
 20
0.154998
 30
0.000000
  0
VERTEX
  8
LAYER-1
 10
5.490857
 20
0.175830
 30
0.000000
  0
SEQEND
  8
LAYER-1
  0
POLYLINE
  8
LAYER-1
 66
  1
 70
  1
 62
  0
 10
5.164990
 20
0.146092
 30
0.000000
  0
VERTEX
  8
LAYER-1
 10
5.164990
 20
0.146092
 30
0.000000
  0
VERTEX
  8
LAYER-1
 10
5.158047
 20
0.172132
 30
0.000000
  0
VERTEX
  8
LAYER-1
 10
5.132874
 20
0.158245
 30
0.000000
  0
SEQEND
  8
LAYER-1
  0
POLYLINE
  8
LAYER-1
 66
  1
 70
  1
 62
  0
 10
5.151882
 20
0.191230
 30
0.000000
  0
VERTEX
  8
LAYER-1
 10
5.151882
 20
0.191230
 30
0.000000
  0
VERTEX
  8
LAYER-1
 10
5.164904
 20
0.213800
 30
0.000000
  0
VERTEX
  8
LAYER-1
 10
5.134521
 20
0.192968
 30
0.000000
  0
SEQEND
  8
LAYER-1
  0
POLYLINE
  8
LAYER-1
 66
  1
 70
  1
 62
  0
 10
5.669763
 20
0.048263
 30
0.000000
  0
VERTEX
  8
LAYER-1
 10
5.669763
 20
0.048263
 30
0.000000
  0
VERTEX
  8
LAYER-1
 10
5.695803
 20
0.055208
 30
0.000000
  0
VERTEX
  8
LAYER-1
 10
5.681916
 20
0.080382
 30
0.000000
  0
SEQEND
  8
LAYER-1
  0
POLYLINE
  8
LAYER-1
 66
  1
 70
  1
 62
  0
 10
5.714902
 20
0.061371
 30
0.000000
  0
VERTEX
  8
LAYER-1
 10
5.714902
 20
0.061371
 30
0.000000
  0
VERTEX
  8
LAYER-1
 10
5.737473
 20
0.048351
 30
0.000000
  0
VERTEX
  8
LAYER-1
 10
5.716640
 20
0.078732
 30
0.000000
  0
SEQEND
  8
LAYER-1
  0
ARC
  8
LAYER-1
 62
  0
 10
5.452374
 20
8.919158
 30
0.000000
 40
0.254425
 50
270.000000
 51
90.000000
  0
POLYLINE
  8
LAYER-1
 66
  1
 70
  0
 62
  0
 10
5.452374
 20
9.173583
 30
0.000000
  0
VERTEX
  8
LAYER-1
 10
5.452374
 20
9.173583
 30
0.000000
  0
VERTEX
  8
LAYER-1
 10
1.787451
 20
9.173583
 30
0.000000
  0
SEQEND
  8
LAYER-1
  0
POLYLINE
  8
LAYER-1
 66
  1
 70
  0
 62
  0
 10
1.787451
 20
9.173583
 30
0.000000
  0
VERTEX
  8
LAYER-1
 10
1.787451
 20
9.173583
 30
0.000000
  0
VERTEX
  8
LAYER-1
 10
1.787451
 20
8.664734
 30
0.000000
  0
SEQEND
  8
LAYER-1
  0
POLYLINE
  8
LAYER-1
 66
  1
 70
  0
 62
  0
 10
5.452374
 20
8.664734
 30
0.000000
  0
VERTEX
  8
LAYER-1
 10
5.452374
 20
8.664734
 30
0.000000
  0
VERTEX
  8
LAYER-1
 10
1.787451
 20
8.664734
 30
0.000000
  0
SEQEND
  8
LAYER-1
  0
TEXT
  8
LAYER-1
 62
  0
 10
3.597982
 20
9.461171
 30
0.000000
 40
0.333333
  1
MobilFlex
 72
  5
 11
5.750760
 21
9.461171
 31
0.000000
  0
POLYLINE
  8
LAYER-1
 66
  1
 70
  1
 62
  0
  0
VERTEX
  8
LAYER-1
 10
1.788955
 20
9.981145
 30
0.000000
  0
VERTEX
  8
LAYER-1
 10
2.026802
 20
9.981145
 30
0.000000
  0
VERTEX
  8
LAYER-1
 10
2.026802
 20
9.464201
 30
0.000000
  0
VERTEX
  8
LAYER-1
 10
1.788955
 20
9.464201
 30
0.000000
  0
SEQEND
  8
LAYER-1
  0
POLYLINE
  8
LAYER-1
 66
  1
 70
  1
 62
  0
  0
VERTEX
  8
LAYER-1
 10
2.101455
 20
9.981145
 30
0.000000
  0
VERTEX
  8
LAYER-1
 10
2.339302
 20
9.981145
 30
0.000000
  0
VERTEX
  8
LAYER-1
 10
2.339302
 20
9.464201
 30
0.000000
  0
VERTEX
  8
LAYER-1
 10
2.101455
 20
9.464201
 30
0.000000
  0
SEQEND
  8
LAYER-1
  0
POLYLINE
  8
LAYER-1
 66
  1
 70
  1
 62
  0
  0
VERTEX
  8
LAYER-1
 10
2.401802
 20
9.981145
 30
0.000000
  0
VERTEX
  8
LAYER-1
 10
2.639649
 20
9.981145
 30
0.000000
  0
VERTEX
  8
LAYER-1
 10
2.639649
 20
9.464201
 30
0.000000
  0
VERTEX
  8
LAYER-1
 10
2.401802
 20
9.464201
 30
0.000000
  0
SEQEND
  8
LAYER-1
  0
POLYLINE
  8
LAYER-1
 66
  1
 70
  1
 62
  0
  0
VERTEX
  8
LAYER-1
 10
2.705621
 20
9.981145
 30
0.000000
  0
VERTEX
  8
LAYER-1
 10
2.943469
 20
9.981145
 30
0.000000
  0
VERTEX
  8
LAYER-1
 10
2.943469
 20
9.464201
 30
0.000000
  0
VERTEX
  8
LAYER-1
 10
2.705621
 20
9.464201
 30
0.000000
  0
SEQEND
  8
LAYER-1
  0
POLYLINE
  8
LAYER-1
 66
  1
 70
  1
 62
  0
  0
VERTEX
  8
LAYER-1
 10
3.022462
 20
9.977230
 30
0.000000
  0
VERTEX
  8
LAYER-1
 10
3.397896
 20
9.977230
 30
0.000000
  0
VERTEX
  8
LAYER-1
 10
3.397896
 20
9.839210
 30
0.000000
  0
VERTEX
  8
LAYER-1
 10
3.022462
 20
9.839210
 30
0.000000
  0
SEQEND
  8
LAYER-1
  0
POLYLINE
  8
LAYER-1
 66
  1
 70
  1
 62
  0
  0
VERTEX
  8
LAYER-1
 10
3.022028
 20
9.749800
 30
0.000000
  0
VERTEX
  8
LAYER-1
 10
3.330187
 20
9.749800
 30
0.000000
  0
VERTEX
  8
LAYER-1
 10
3.330187
 20
9.615685
 30
0.000000
  0
VERTEX
  8
LAYER-1
 10
3.022028
 20
9.615685
 30
0.000000
  0
SEQEND
  8
LAYER-1
  0
POLYLINE
  8
LAYER-1
 66
  1
 70
  1
 62
  0
  0
VERTEX
  8
LAYER-1
 10
1.788955
 20
9.379574
 30
0.000000
  0
VERTEX
  8
LAYER-1
 10
5.707358
 20
9.379574
 30
0.000000
  0
VERTEX
  8
LAYER-1
 10
5.707358
 20
9.336171
 30
0.000000
  0
VERTEX
  8
LAYER-1
 10
1.788955
 20
9.336171
 30
0.000000
  0
SEQEND
  8
LAYER-1
  0
POLYLINE
  8
LAYER-1
 66
  1
 70
  1
 62
  0
  0
VERTEX
  8
LAYER-1
 10
3.422013
 20
7.144101
 30
0.000000
  0
VERTEX
  8
LAYER-1
 10
3.448922
 20
7.144101
 30
0.000000
  0
VERTEX
  8
LAYER-1
 10
3.448922
 20
0.616549
 30
0.000000
  0
VERTEX
  8
LAYER-1
 10
3.422013
 20
0.616549
 30
0.000000
  0
SEQEND
  8
LAYER-1
  0
POLYLINE
  8
LAYER-1
 66
  1
 70
  1
 62
  0
  0
VERTEX
  8
LAYER-1
 10
3.621738
 20
7.144026
 30
0.000000
  0
VERTEX
  8
LAYER-1
 10
3.657689
 20
7.144026
 30
0.000000
  0
VERTEX
  8
LAYER-1
 10
3.657689
 20
0.616747
 30
0.000000
  0
VERTEX
  8
LAYER-1
 10
3.621738
 20
0.616747
 30
0.000000
  0
SEQEND
  8
LAYER-1
  0
POLYLINE
  8
LAYER-1
 66
  1
 70
  1
 62
  0
  0
VERTEX
  8
LAYER-1
 10
3.014617
 20
7.144101
 30
0.000000
  0
VERTEX
  8
LAYER-1
 10
3.041526
 20
7.144101
 30
0.000000
  0
VERTEX
  8
LAYER-1
 10
3.041526
 20
0.616549
 30
0.000000
  0
VERTEX
  8
LAYER-1
 10
3.014617
 20
0.616549
 30
0.000000
  0
SEQEND
  8
LAYER-1
  0
POLYLINE
  8
LAYER-1
 66
  1
 70
  1
 62
  0
  0
VERTEX
  8
LAYER-1
 10
3.213474
 20
7.144026
 30
0.000000
  0
VERTEX
  8
LAYER-1
 10
3.249424
 20
7.144026
 30
0.000000
  0
VERTEX
  8
LAYER-1
 10
3.249424
 20
0.616747
 30
0.000000
  0
VERTEX
  8
LAYER-1
 10
3.213474
 20
0.616747
 30
0.000000
  0
SEQEND
  8
LAYER-1
  0
POLYLINE
  8
LAYER-1
 66
  1
 70
  1
 62
  0
  0
VERTEX
  8
LAYER-1
 10
2.607653
 20
7.144101
 30
0.000000
  0
VERTEX
  8
LAYER-1
 10
2.634562
 20
7.144101
 30
0.000000
  0
VERTEX
  8
LAYER-1
 10
2.634562
 20
0.616549
 30
0.000000
  0
VERTEX
  8
LAYER-1
 10
2.607653
 20
0.616549
 30
0.000000
  0
SEQEND
  8
LAYER-1
  0
POLYLINE
  8
LAYER-1
 66
  1
 70
  1
 62
  0
  0
VERTEX
  8
LAYER-1
 10
2.806945
 20
7.144026
 30
0.000000
  0
VERTEX
  8
LAYER-1
 10
2.842896
 20
7.144026
 30
0.000000
  0
VERTEX
  8
LAYER-1
 10
2.842896
 20
0.616747
 30
0.000000
  0
VERTEX
  8
LAYER-1
 10
2.806945
 20
0.616747
 30
0.000000
  0
SEQEND
  8
LAYER-1
  0
POLYLINE
  8
LAYER-1
 66
  1
 70
  1
 62
  0
  0
VERTEX
  8
LAYER-1
 10
2.198087
 20
7.144101
 30
0.000000
  0
VERTEX
  8
LAYER-1
 10
2.224996
 20
7.144101
 30
0.000000
  0
VERTEX
  8
LAYER-1
 10
2.224996
 20
0.616549
 30
0.000000
  0
VERTEX
  8
LAYER-1
 10
2.198087
 20
0.616549
 30
0.000000
  0
SEQEND
  8
LAYER-1
  0
POLYLINE
  8
LAYER-1
 66
  1
 70
  1
 62
  0
  0
VERTEX
  8
LAYER-1
 10
2.398681
 20
7.144026
 30
0.000000
  0
VERTEX
  8
LAYER-1
 10
2.434632
 20
7.144026
 30
0.000000
  0
VERTEX
  8
LAYER-1
 10
2.434632
 20
0.616747
 30
0.000000
  0
VERTEX
  8
LAYER-1
 10
2.398681
 20
0.616747
 30
0.000000
  0
SEQEND
  8
LAYER-1
  0
POLYLINE
  8
LAYER-1
 66
  1
 70
  1
 62
  0
  0
VERTEX
  8
LAYER-1
 10
1.787220
 20
7.144101
 30
0.000000
  0
VERTEX
  8
LAYER-1
 10
1.814130
 20
7.144101
 30
0.000000
  0
VERTEX
  8
LAYER-1
 10
1.814130
 20
0.616549
 30
0.000000
  0
VERTEX
  8
LAYER-1
 10
1.787220
 20
0.616549
 30
0.000000
  0
SEQEND
  8
LAYER-1
  0
POLYLINE
  8
LAYER-1
 66
  1
 70
  1
 62
  0
  0
VERTEX
  8
LAYER-1
 10
1.989115
 20
7.144026
 30
0.000000
  0
VERTEX
  8
LAYER-1
 10
2.025066
 20
7.144026
 30
0.000000
  0
VERTEX
  8
LAYER-1
 10
2.025066
 20
0.616747
 30
0.000000
  0
VERTEX
  8
LAYER-1
 10
1.989115
 20
0.616747
 30
0.000000
  0
SEQEND
  8
LAYER-1
  0
POLYLINE
  8
LAYER-1
 66
  1
 70
  1
 62
  0
 10
3.660255
 20
0.345082
 30
0.000000
  0
VERTEX
  8
LAYER-1
 10
3.660255
 20
0.345082
 30
0.000000
  0
VERTEX
  8
LAYER-1
 10
1.764337
 20
0.345183
 30
0.000000
  0
VERTEX
  8
LAYER-1
 10
1.764337
 20
0.616716
 30
0.000000
  0
VERTEX
  8
LAYER-1
 10
3.660255
 20
0.616832
 30
0.000000
  0
SEQEND
  8
LAYER-1
  0
POLYLINE
  8
LAYER-1
 66
  1
 70
  0
 62
  0
 10
3.660473
 20
0.412989
 30
0.000000
  0
VERTEX
  8
LAYER-1
 10
3.660473
 20
0.412989
 30
0.000000
  0
VERTEX
  8
LAYER-1
 10
3.620747
 20
0.412989
 30
0.000000
  0
SEQEND
  8
LAYER-1
  0
POLYLINE
  8
LAYER-1
 66
  1
 70
  0
 62
  0
 10
3.660473
 20
0.542899
 30
0.000000
  0
VERTEX
  8
LAYER-1
 10
3.660473
 20
0.542899
 30
0.000000
  0
VERTEX
  8
LAYER-1
 10
3.620747
 20
0.542899
 30
0.000000
  0
SEQEND
  8
LAYER-1
  0
POLYLINE
  8
LAYER-1
 66
  1
 70
  0
 62
  0
 10
3.622118
 20
0.339938
 30
0.000000
  0
VERTEX
  8
LAYER-1
 10
3.622118
 20
0.339938
 30
0.000000
  0
VERTEX
  8
LAYER-1
 10
3.635290
 20
0.332890
 30
0.000000
  0
VERTEX
  8
LAYER-1
 10
3.652370
 20
0.337221
 30
0.000000
  0
VERTEX
  8
LAYER-1
 10
3.659022
 20
0.339935
 30
0.000000
  0
SEQEND
  8
LAYER-1
  0
POLYLINE
  8
LAYER-1
 66
  1
 70
  1
 62
  0
  0
VERTEX
  8
LAYER-1
 10
3.666225
 20
0.339314
 30
0.000000
  0
VERTEX
  8
LAYER-1
 10
3.611610
 20
0.339314
 30
0.000000
  0
VERTEX
  8
LAYER-1
 10
3.611610
 20
0.345219
 30
0.000000
  0
VERTEX
  8
LAYER-1
 10
3.666225
 20
0.345219
 30
0.000000
  0
SEQEND
  8
LAYER-1
  0
POLYLINE
  8
LAYER-1
 66
  1
 70
  1
 62
  0
 10
3.660049
 20
7.415648
 30
0.000000
  0
VERTEX
  8
LAYER-1
 10
3.660049
 20
7.415648
 30
0.000000
  0
VERTEX
  8
LAYER-1
 10
1.763696
 20
7.415547
 30
0.000000
  0
VERTEX
  8
LAYER-1
 10
1.763696
 20
7.144014
 30
0.000000
  0
VERTEX
  8
LAYER-1
 10
3.660049
 20
7.143897
 30
0.000000
  0
SEQEND
  8
LAYER-1
  0
POLYLINE
  8
LAYER-1
 66
  1
 70
  0
 62
  0
 10
3.398759
 20
7.415648
 30
0.000000
  0
VERTEX
  8
LAYER-1
 10
3.398759
 20
7.415648
 30
0.000000
  0
VERTEX
  8
LAYER-1
 10
3.398759
 20
7.144016
 30
0.000000
  0
SEQEND
  8
LAYER-1
  0
POLYLINE
  8
LAYER-1
 66
  1
 70
  0
 62
  0
 10
3.068262
 20
7.144016
 30
0.000000
  0
VERTEX
  8
LAYER-1
 10
3.068262
 20
7.144016
 30
0.000000
  0
VERTEX
  8
LAYER-1
 10
3.068262
 20
7.415648
 30
0.000000
  0
SEQEND
  8
LAYER-1
  0
POLYLINE
  8
LAYER-1
 66
  1
 70
  0
 62
  0
 10
2.255431
 20
7.144016
 30
0.000000
  0
VERTEX
  8
LAYER-1
 10
2.255431
 20
7.144016
 30
0.000000
  0
VERTEX
  8
LAYER-1
 10
2.255431
 20
7.415648
 30
0.000000
  0
SEQEND
  8
LAYER-1
  0
POLYLINE
  8
LAYER-1
 66
  1
 70
  0
 62
  0
 10
2.436598
 20
7.415687
 30
0.000000
  0
VERTEX
  8
LAYER-1
 10
2.436598
 20
7.415687
 30
0.000000
  0
VERTEX
  8
LAYER-1
 10
2.436598
 20
7.144058
 30
0.000000
  0
SEQEND
  8
LAYER-1
  0
POLYLINE
  8
LAYER-1
 66
  1
 70
  0
 62
  0
 10
2.396739
 20
7.415687
 30
0.000000
  0
VERTEX
  8
LAYER-1
 10
2.396739
 20
7.415687
 30
0.000000
  0
VERTEX
  8
LAYER-1
 10
2.396739
 20
7.144058
 30
0.000000
  0
SEQEND
  8
LAYER-1
  0
POLYLINE
  8
LAYER-1
 66
  1
 70
  0
 62
  0
 10
3.250616
 20
7.415687
 30
0.000000
  0
VERTEX
  8
LAYER-1
 10
3.250616
 20
7.415687
 30
0.000000
  0
VERTEX
  8
LAYER-1
 10
3.250616
 20
7.144058
 30
0.000000
  0
SEQEND
  8
LAYER-1
  0
POLYLINE
  8
LAYER-1
 66
  1
 70
  0
 62
  0
 10
3.211799
 20
7.415687
 30
0.000000
  0
VERTEX
  8
LAYER-1
 10
3.211799
 20
7.415687
 30
0.000000
  0
VERTEX
  8
LAYER-1
 10
3.211799
 20
7.144058
 30
0.000000
  0
SEQEND
  8
LAYER-1
  0
POLYLINE
  8
LAYER-1
 66
  1
 70
  0
 62
  0
 10
2.983940
 20
7.415648
 30
0.000000
  0
VERTEX
  8
LAYER-1
 10
2.983940
 20
7.415648
 30
0.000000
  0
VERTEX
  8
LAYER-1
 10
2.983940
 20
7.144016
 30
0.000000
  0
SEQEND
  8
LAYER-1
  0
POLYLINE
  8
LAYER-1
 66
  1
 70
  0
 62
  0
 10
2.171109
 20
7.415648
 30
0.000000
  0
VERTEX
  8
LAYER-1
 10
2.171109
 20
7.415648
 30
0.000000
  0
VERTEX
  8
LAYER-1
 10
2.171109
 20
7.144016
 30
0.000000
  0
SEQEND
  8
LAYER-1
  0
POLYLINE
  8
LAYER-1
 66
  1
 70
  0
 62
  0
 10
2.026204
 20
7.415253
 30
0.000000
  0
VERTEX
  8
LAYER-1
 10
2.026204
 20
7.415253
 30
0.000000
  0
VERTEX
  8
LAYER-1
 10
2.026204
 20
7.143624
 30
0.000000
  0
SEQEND
  8
LAYER-1
  0
POLYLINE
  8
LAYER-1
 66
  1
 70
  0
 62
  0
 10
1.987821
 20
7.415253
 30
0.000000
  0
VERTEX
  8
LAYER-1
 10
1.987821
 20
7.415253
 30
0.000000
  0
VERTEX
  8
LAYER-1
 10
1.987821
 20
7.143624
 30
0.000000
  0
SEQEND
  8
LAYER-1
  0
POLYLINE
  8
LAYER-1
 66
  1
 70
  0
 62
  0
 10
2.844042
 20
7.415722
 30
0.000000
  0
VERTEX
  8
LAYER-1
 10
2.844042
 20
7.415722
 30
0.000000
  0
VERTEX
  8
LAYER-1
 10
2.844042
 20
7.144094
 30
0.000000
  0
SEQEND
  8
LAYER-1
  0
POLYLINE
  8
LAYER-1
 66
  1
 70
  0
 62
  0
 10
2.805660
 20
7.415722
 30
0.000000
  0
VERTEX
  8
LAYER-1
 10
2.805660
 20
7.415722
 30
0.000000
  0
VERTEX
  8
LAYER-1
 10
2.805660
 20
7.144094
 30
0.000000
  0
SEQEND
  8
LAYER-1
  0
POLYLINE
  8
LAYER-1
 66
  1
 70
  0
 62
  0
 10
3.471093
 20
7.144019
 30
0.000000
  0
VERTEX
  8
LAYER-1
 10
3.471093
 20
7.144019
 30
0.000000
  0
VERTEX
  8
LAYER-1
 10
3.471093
 20
7.415648
 30
0.000000
  0
SEQEND
  8
LAYER-1
  0
POLYLINE
  8
LAYER-1
 66
  1
 70
  0
 62
  0
 10
3.435664
 20
7.415648
 30
0.000000
  0
VERTEX
  8
LAYER-1
 10
3.435664
 20
7.415648
 30
0.000000
  0
VERTEX
  8
LAYER-1
 10
3.435664
 20
7.144018
 30
0.000000
  0
SEQEND
  8
LAYER-1
  0
POLYLINE
  8
LAYER-1
 66
  1
 70
  0
 62
  0
 10
3.470190
 20
7.415649
 30
0.000000
  0
VERTEX
  8
LAYER-1
 10
3.470190
 20
7.415649
 30
0.000000
  0
VERTEX
  8
LAYER-1
 10
3.456313
 20
7.426587
 30
0.000000
  0
VERTEX
  8
LAYER-1
 10
3.441550
 20
7.424508
 30
0.000000
  0
VERTEX
  8
LAYER-1
 10
3.436634
 20
7.415660
 30
0.000000
  0
SEQEND
  8
LAYER-1
  0
POLYLINE
  8
LAYER-1
 66
  1
 70
  0
 62
  0
 10
3.435664
 20
7.415649
 30
0.000000
  0
VERTEX
  8
LAYER-1
 10
3.435664
 20
7.415649
 30
0.000000
  0
VERTEX
  8
LAYER-1
 10
3.418556
 20
7.426632
 30
0.000000
  0
VERTEX
  8
LAYER-1
 10
3.401475
 20
7.422300
 30
0.000000
  0
VERTEX
  8
LAYER-1
 10
3.398761
 20
7.415648
 30
0.000000
  0
SEQEND
  8
LAYER-1
  0
POLYLINE
  8
LAYER-1
 66
  1
 70
  0
 62
  0
 10
3.020108
 20
7.415154
 30
0.000000
  0
VERTEX
  8
LAYER-1
 10
3.020108
 20
7.415154
 30
0.000000
  0
VERTEX
  8
LAYER-1
 10
3.000604
 20
7.425146
 30
0.000000
  0
VERTEX
  8
LAYER-1
 10
2.982530
 20
7.418421
 30
0.000000
  0
VERTEX
  8
LAYER-1
 10
2.983200
 20
7.415154
 30
0.000000
  0
SEQEND
  8
LAYER-1
  0
POLYLINE
  8
LAYER-1
 66
  1
 70
  0
 62
  0
 10
2.207150
 20
7.415624
 30
0.000000
  0
VERTEX
  8
LAYER-1
 10
2.207150
 20
7.415624
 30
0.000000
  0
VERTEX
  8
LAYER-1
 10
2.187645
 20
7.425617
 30
0.000000
  0
VERTEX
  8
LAYER-1
 10
2.169572
 20
7.418891
 30
0.000000
  0
VERTEX
  8
LAYER-1
 10
2.170242
 20
7.415624
 30
0.000000
  0
SEQEND
  8
LAYER-1
  0
POLYLINE
  8
LAYER-1
 66
  1
 70
  0
 62
  0
 10
3.067817
 20
7.415154
 30
0.000000
  0
VERTEX
  8
LAYER-1
 10
3.067817
 20
7.415154
 30
0.000000
  0
VERTEX
  8
LAYER-1
 10
3.048313
 20
7.425147
 30
0.000000
  0
VERTEX
  8
LAYER-1
 10
3.030240
 20
7.418421
 30
0.000000
  0
VERTEX
  8
LAYER-1
 10
3.030910
 20
7.415154
 30
0.000000
  0
SEQEND
  8
LAYER-1
  0
POLYLINE
  8
LAYER-1
 66
  1
 70
  0
 62
  0
 10
3.045875
 20
7.415714
 30
0.000000
  0
VERTEX
  8
LAYER-1
 10
3.045875
 20
7.415714
 30
0.000000
  0
VERTEX
  8
LAYER-1
 10
3.035123
 20
7.428719
 30
0.000000
  0
VERTEX
  8
LAYER-1
 10
3.021108
 20
7.430312
 30
0.000000
  0
VERTEX
  8
LAYER-1
 10
3.010071
 20
7.421529
 30
0.000000
  0
VERTEX
  8
LAYER-1
 10
3.010446
 20
7.415714
 30
0.000000
  0
SEQEND
  8
LAYER-1
  0
POLYLINE
  8
LAYER-1
 66
  1
 70
  0
 62
  0
 10
3.045875
 20
7.415714
 30
0.000000
  0
VERTEX
  8
LAYER-1
 10
3.045875
 20
7.415714
 30
0.000000
  0
VERTEX
  8
LAYER-1
 10
3.010446
 20
7.415714
 30
0.000000
  0
SEQEND
  8
LAYER-1
  0
POLYLINE
  8
LAYER-1
 66
  1
 70
  0
 62
  0
 10
2.255800
 20
7.415624
 30
0.000000
  0
VERTEX
  8
LAYER-1
 10
2.255800
 20
7.415624
 30
0.000000
  0
VERTEX
  8
LAYER-1
 10
2.236296
 20
7.425617
 30
0.000000
  0
VERTEX
  8
LAYER-1
 10
2.218222
 20
7.418891
 30
0.000000
  0
VERTEX
  8
LAYER-1
 10
2.218893
 20
7.415624
 30
0.000000
  0
SEQEND
  8
LAYER-1
  0
POLYLINE
  8
LAYER-1
 66
  1
 70
  0
 62
  0
 10
2.229628
 20
7.415714
 30
0.000000
  0
VERTEX
  8
LAYER-1
 10
2.229628
 20
7.415714
 30
0.000000
  0
VERTEX
  8
LAYER-1
 10
2.218876
 20
7.428719
 30
0.000000
  0
VERTEX
  8
LAYER-1
 10
2.204861
 20
7.430312
 30
0.000000
  0
VERTEX
  8
LAYER-1
 10
2.193824
 20
7.421529
 30
0.000000
  0
VERTEX
  8
LAYER-1
 10
2.194199
 20
7.415714
 30
0.000000
  0
SEQEND
  8
LAYER-1
  0
POLYLINE
  8
LAYER-1
 66
  1
 70
  0
 62
  0
 10
2.229628
 20
7.415714
 30
0.000000
  0
VERTEX
  8
LAYER-1
 10
2.229628
 20
7.415714
 30
0.000000
  0
VERTEX
  8
LAYER-1
 10
2.194199
 20
7.415714
 30
0.000000
  0
SEQEND
  8
LAYER-1
  0
POLYLINE
  8
LAYER-1
 66
  1
 70
  0
 62
  0
 10
3.436940
 20
7.143432
 30
0.000000
  0
VERTEX
  8
LAYER-1
 10
3.436940
 20
7.143432
 30
0.000000
  0
VERTEX
  8
LAYER-1
 10
3.447176
 20
7.136837
 30
0.000000
  0
VERTEX
  8
LAYER-1
 10
3.461860
 20
7.139413
 30
0.000000
  0
VERTEX
  8
LAYER-1
 10
3.470160
 20
7.143992
 30
0.000000
  0
SEQEND
  8
LAYER-1
  0
POLYLINE
  8
LAYER-1
 66
  1
 70
  0
 62
  0
 10
3.436940
 20
7.143432
 30
0.000000
  0
VERTEX
  8
LAYER-1
 10
3.436940
 20
7.143432
 30
0.000000
  0
VERTEX
  8
LAYER-1
 10
3.470160
 20
7.143992
 30
0.000000
  0
SEQEND
  8
LAYER-1
  0
POLYLINE
  8
LAYER-1
 66
  1
 70
  0
 62
  0
 10
3.397827
 20
7.143993
 30
0.000000
  0
VERTEX
  8
LAYER-1
 10
3.397827
 20
7.143993
 30
0.000000
  0
VERTEX
  8
LAYER-1
 10
3.410999
 20
7.136946
 30
0.000000
  0
VERTEX
  8
LAYER-1
 10
3.428079
 20
7.141276
 30
0.000000
  0
VERTEX
  8
LAYER-1
 10
3.434732
 20
7.143992
 30
0.000000
  0
SEQEND
  8
LAYER-1
  0
POLYLINE
  8
LAYER-1
 66
  1
 70
  0
 62
  0
 10
3.397828
 20
7.143993
 30
0.000000
  0
VERTEX
  8
LAYER-1
 10
3.397828
 20
7.143993
 30
0.000000
  0
VERTEX
  8
LAYER-1
 10
3.434731
 20
7.143992
 30
0.000000
  0
SEQEND
  8
LAYER-1
  0
POLYLINE
  8
LAYER-1
 66
  1
 70
  0
 62
  0
 10
3.030984
 20
7.143546
 30
0.000000
  0
VERTEX
  8
LAYER-1
 10
3.030984
 20
7.143546
 30
0.000000
  0
VERTEX
  8
LAYER-1
 10
3.046551
 20
7.137490
 30
0.000000
  0
VERTEX
  8
LAYER-1
 10
3.064625
 20
7.144216
 30
0.000000
  0
VERTEX
  8
LAYER-1
 10
3.067891
 20
7.143546
 30
0.000000
  0
SEQEND
  8
LAYER-1
  0
POLYLINE
  8
LAYER-1
 66
  1
 70
  0
 62
  0
 10
2.983743
 20
7.143546
 30
0.000000
  0
VERTEX
  8
LAYER-1
 10
2.983743
 20
7.143546
 30
0.000000
  0
VERTEX
  8
LAYER-1
 10
2.999310
 20
7.137490
 30
0.000000
  0
VERTEX
  8
LAYER-1
 10
3.017384
 20
7.144216
 30
0.000000
  0
VERTEX
  8
LAYER-1
 10
3.020651
 20
7.143546
 30
0.000000
  0
SEQEND
  8
LAYER-1
  0
POLYLINE
  8
LAYER-1
 66
  1
 70
  0
 62
  0
 10
3.010989
 20
7.143456
 30
0.000000
  0
VERTEX
  8
LAYER-1
 10
3.010989
 20
7.143456
 30
0.000000
  0
VERTEX
  8
LAYER-1
 10
3.017804
 20
7.134388
 30
0.000000
  0
VERTEX
  8
LAYER-1
 10
3.031819
 20
7.132795
 30
0.000000
  0
VERTEX
  8
LAYER-1
 10
3.042856
 20
7.141578
 30
0.000000
  0
VERTEX
  8
LAYER-1
 10
3.046418
 20
7.143456
 30
0.000000
  0
SEQEND
  8
LAYER-1
  0
POLYLINE
  8
LAYER-1
 66
  1
 70
  0
 62
  0
 10
3.046417
 20
7.143456
 30
0.000000
  0
VERTEX
  8
LAYER-1
 10
3.046417
 20
7.143456
 30
0.000000
  0
VERTEX
  8
LAYER-1
 10
3.010989
 20
7.143456
 30
0.000000
  0
SEQEND
  8
LAYER-1
  0
POLYLINE
  8
LAYER-1
 66
  1
 70
  0
 62
  0
 10
2.218429
 20
7.143546
 30
0.000000
  0
VERTEX
  8
LAYER-1
 10
2.218429
 20
7.143546
 30
0.000000
  0
VERTEX
  8
LAYER-1
 10
2.233996
 20
7.137490
 30
0.000000
  0
VERTEX
  8
LAYER-1
 10
2.252070
 20
7.144216
 30
0.000000
  0
VERTEX
  8
LAYER-1
 10
2.255337
 20
7.143546
 30
0.000000
  0
SEQEND
  8
LAYER-1
  0
POLYLINE
  8
LAYER-1
 66
  1
 70
  0
 62
  0
 10
2.170249
 20
7.143546
 30
0.000000
  0
VERTEX
  8
LAYER-1
 10
2.170249
 20
7.143546
 30
0.000000
  0
VERTEX
  8
LAYER-1
 10
2.185816
 20
7.137490
 30
0.000000
  0
VERTEX
  8
LAYER-1
 10
2.203890
 20
7.144216
 30
0.000000
  0
VERTEX
  8
LAYER-1
 10
2.207157
 20
7.143546
 30
0.000000
  0
SEQEND
  8
LAYER-1
  0
POLYLINE
  8
LAYER-1
 66
  1
 70
  0
 62
  0
 10
2.194205
 20
7.143456
 30
0.000000
  0
VERTEX
  8
LAYER-1
 10
2.194205
 20
7.143456
 30
0.000000
  0
VERTEX
  8
LAYER-1
 10
2.201020
 20
7.134388
 30
0.000000
  0
VERTEX
  8
LAYER-1
 10
2.215035
 20
7.132795
 30
0.000000
  0
VERTEX
  8
LAYER-1
 10
2.226072
 20
7.141578
 30
0.000000
  0
VERTEX
  8
LAYER-1
 10
2.229634
 20
7.143456
 30
0.000000
  0
SEQEND
  8
LAYER-1
  0
POLYLINE
  8
LAYER-1
 66
  1
 70
  0
 62
  0
 10
2.229634
 20
7.143456
 30
0.000000
  0
VERTEX
  8
LAYER-1
 10
2.229634
 20
7.143456
 30
0.000000
  0
VERTEX
  8
LAYER-1
 10
2.194206
 20
7.143456
 30
0.000000
  0
SEQEND
  8
LAYER-1
  0
POLYLINE
  8
LAYER-1
 66
  1
 70
  1
 62
  0
  0
VERTEX
  8
LAYER-1
 10
3.010445
 20
7.415648
 30
0.000000
  0
VERTEX
  8
LAYER-1
 10
3.045875
 20
7.415648
 30
0.000000
  0
VERTEX
  8
LAYER-1
 10
3.045875
 20
7.144018
 30
0.000000
  0
VERTEX
  8
LAYER-1
 10
3.010445
 20
7.144018
 30
0.000000
  0
SEQEND
  8
LAYER-1
  0
POLYLINE
  8
LAYER-1
 66
  1
 70
  1
 62
  0
  0
VERTEX
  8
LAYER-1
 10
2.194131
 20
7.415648
 30
0.000000
  0
VERTEX
  8
LAYER-1
 10
2.229561
 20
7.415648
 30
0.000000
  0
VERTEX
  8
LAYER-1
 10
2.229561
 20
7.144018
 30
0.000000
  0
VERTEX
  8
LAYER-1
 10
2.194131
 20
7.144018
 30
0.000000
  0
SEQEND
  8
LAYER-1
  0
POLYLINE
  8
LAYER-1
 66
  1
 70
  0
 62
  0
 10
3.045875
 20
7.347740
 30
0.000000
  0
VERTEX
  8
LAYER-1
 10
3.045875
 20
7.347740
 30
0.000000
  0
VERTEX
  8
LAYER-1
 10
3.010445
 20
7.347740
 30
0.000000
  0
SEQEND
  8
LAYER-1
  0
POLYLINE
  8
LAYER-1
 66
  1
 70
  0
 62
  0
 10
3.045875
 20
7.217831
 30
0.000000
  0
VERTEX
  8
LAYER-1
 10
3.045875
 20
7.217831
 30
0.000000
  0
VERTEX
  8
LAYER-1
 10
3.010445
 20
7.217831
 30
0.000000
  0
SEQEND
  8
LAYER-1
  0
POLYLINE
  8
LAYER-1
 66
  1
 70
  0
 62
  0
 10
2.229561
 20
7.347740
 30
0.000000
  0
VERTEX
  8
LAYER-1
 10
2.229561
 20
7.347740
 30
0.000000
  0
VERTEX
  8
LAYER-1
 10
2.194132
 20
7.347740
 30
0.000000
  0
SEQEND
  8
LAYER-1
  0
POLYLINE
  8
LAYER-1
 66
  1
 70
  0
 62
  0
 10
2.229561
 20
7.217830
 30
0.000000
  0
VERTEX
  8
LAYER-1
 10
2.229561
 20
7.217830
 30
0.000000
  0
VERTEX
  8
LAYER-1
 10
2.194132
 20
7.217830
 30
0.000000
  0
SEQEND
  8
LAYER-1
  0
POLYLINE
  8
LAYER-1
 66
  1
 70
  0
 62
  0
 10
3.248207
 20
7.415204
 30
0.000000
  0
VERTEX
  8
LAYER-1
 10
3.248207
 20
7.415204
 30
0.000000
  0
VERTEX
  8
LAYER-1
 10
3.234329
 20
7.426142
 30
0.000000
  0
VERTEX
  8
LAYER-1
 10
3.219567
 20
7.424064
 30
0.000000
  0
VERTEX
  8
LAYER-1
 10
3.214987
 20
7.415764
 30
0.000000
  0
SEQEND
  8
LAYER-1
  0
POLYLINE
  8
LAYER-1
 66
  1
 70
  0
 62
  0
 10
3.660267
 20
7.347740
 30
0.000000
  0
VERTEX
  8
LAYER-1
 10
3.660267
 20
7.347740
 30
0.000000
  0
VERTEX
  8
LAYER-1
 10
3.620541
 20
7.347740
 30
0.000000
  0
SEQEND
  8
LAYER-1
  0
POLYLINE
  8
LAYER-1
 66
  1
 70
  0
 62
  0
 10
3.660267
 20
7.217830
 30
0.000000
  0
VERTEX
  8
LAYER-1
 10
3.660267
 20
7.217830
 30
0.000000
  0
VERTEX
  8
LAYER-1
 10
3.620541
 20
7.217830
 30
0.000000
  0
SEQEND
  8
LAYER-1
  0
POLYLINE
  8
LAYER-1
 66
  1
 70
  0
 62
  0
 10
2.434713
 20
7.415587
 30
0.000000
  0
VERTEX
  8
LAYER-1
 10
2.434713
 20
7.415587
 30
0.000000
  0
VERTEX
  8
LAYER-1
 10
2.417604
 20
7.426570
 30
0.000000
  0
VERTEX
  8
LAYER-1
 10
2.400524
 20
7.422238
 30
0.000000
  0
VERTEX
  8
LAYER-1
 10
2.397809
 20
7.415585
 30
0.000000
  0
SEQEND
  8
LAYER-1
  0
POLYLINE
  8
LAYER-1
 66
  1
 70
  0
 62
  0
 10
3.658816
 20
7.420793
 30
0.000000
  0
VERTEX
  8
LAYER-1
 10
3.658816
 20
7.420793
 30
0.000000
  0
VERTEX
  8
LAYER-1
 10
3.641707
 20
7.431776
 30
0.000000
  0
VERTEX
  8
LAYER-1
 10
3.624627
 20
7.427445
 30
0.000000
  0
VERTEX
  8
LAYER-1
 10
3.621912
 20
7.420792
 30
0.000000
  0
SEQEND
  8
LAYER-1
  0
POLYLINE
  8
LAYER-1
 66
  1
 70
  1
 62
  0
  0
VERTEX
  8
LAYER-1
 10
3.611403
 20
7.421416
 30
0.000000
  0
VERTEX
  8
LAYER-1
 10
3.666019
 20
7.421416
 30
0.000000
  0
VERTEX
  8
LAYER-1
 10
3.666019
 20
7.415510
 30
0.000000
  0
VERTEX
  8
LAYER-1
 10
3.611403
 20
7.415510
 30
0.000000
  0
SEQEND
  8
LAYER-1
  0
POLYLINE
  8
LAYER-1
 66
  1
 70
  1
 62
  0
  0
VERTEX
  8
LAYER-1
 10
3.006268
 20
1.438064
 30
0.000000
  0
VERTEX
  8
LAYER-1
 10
3.457997
 20
1.438064
 30
0.000000
  0
VERTEX
  8
LAYER-1
 10
3.457997
 20
1.429207
 30
0.000000
  0
VERTEX
  8
LAYER-1
 10
3.006268
 20
1.429207
 30
0.000000
  0
SEQEND
  8
LAYER-1
  0
POLYLINE
  8
LAYER-1
 66
  1
 70
  1
 62
  0
  0
VERTEX
  8
LAYER-1
 10
3.005834
 20
2.254367
 30
0.000000
  0
VERTEX
  8
LAYER-1
 10
3.457563
 20
2.254367
 30
0.000000
  0
VERTEX
  8
LAYER-1
 10
3.457563
 20
2.245510
 30
0.000000
  0
VERTEX
  8
LAYER-1
 10
3.005834
 20
2.245510
 30
0.000000
  0
SEQEND
  8
LAYER-1
  0
POLYLINE
  8
LAYER-1
 66
  1
 70
  1
 62
  0
  0
VERTEX
  8
LAYER-1
 10
3.006703
 20
3.070670
 30
0.000000
  0
VERTEX
  8
LAYER-1
 10
3.458431
 20
3.070670
 30
0.000000
  0
VERTEX
  8
LAYER-1
 10
3.458431
 20
3.061813
 30
0.000000
  0
VERTEX
  8
LAYER-1
 10
3.006703
 20
3.061813
 30
0.000000
  0
SEQEND
  8
LAYER-1
  0
POLYLINE
  8
LAYER-1
 66
  1
 70
  1
 62
  0
  0
VERTEX
  8
LAYER-1
 10
3.006703
 20
3.886973
 30
0.000000
  0
VERTEX
  8
LAYER-1
 10
3.458431
 20
3.886973
 30
0.000000
  0
VERTEX
  8
LAYER-1
 10
3.458431
 20
3.878117
 30
0.000000
  0
VERTEX
  8
LAYER-1
 10
3.006703
 20
3.878117
 30
0.000000
  0
SEQEND
  8
LAYER-1
  0
POLYLINE
  8
LAYER-1
 66
  1
 70
  1
 62
  0
  0
VERTEX
  8
LAYER-1
 10
3.006269
 20
4.703277
 30
0.000000
  0
VERTEX
  8
LAYER-1
 10
3.457997
 20
4.703277
 30
0.000000
  0
VERTEX
  8
LAYER-1
 10
3.457997
 20
4.694421
 30
0.000000
  0
VERTEX
  8
LAYER-1
 10
3.006269
 20
4.694421
 30
0.000000
  0
SEQEND
  8
LAYER-1
  0
POLYLINE
  8
LAYER-1
 66
  1
 70
  1
 62
  0
  0
VERTEX
  8
LAYER-1
 10
3.006703
 20
5.519581
 30
0.000000
  0
VERTEX
  8
LAYER-1
 10
3.458431
 20
5.519581
 30
0.000000
  0
VERTEX
  8
LAYER-1
 10
3.458431
 20
5.510724
 30
0.000000
  0
VERTEX
  8
LAYER-1
 10
3.006703
 20
5.510724
 30
0.000000
  0
SEQEND
  8
LAYER-1
  0
POLYLINE
  8
LAYER-1
 66
  1
 70
  1
 62
  0
  0
VERTEX
  8
LAYER-1
 10
3.006269
 20
6.335884
 30
0.000000
  0
VERTEX
  8
LAYER-1
 10
3.457997
 20
6.335884
 30
0.000000
  0
VERTEX
  8
LAYER-1
 10
3.457997
 20
6.327028
 30
0.000000
  0
VERTEX
  8
LAYER-1
 10
3.006269
 20
6.327028
 30
0.000000
  0
SEQEND
  8
LAYER-1
  0
POLYLINE
  8
LAYER-1
 66
  1
 70
  1
 62
  0
  0
VERTEX
  8
LAYER-1
 10
2.195204
 20
1.438064
 30
0.000000
  0
VERTEX
  8
LAYER-1
 10
2.646934
 20
1.438064
 30
0.000000
  0
VERTEX
  8
LAYER-1
 10
2.646934
 20
1.429207
 30
0.000000
  0
VERTEX
  8
LAYER-1
 10
2.195204
 20
1.429207
 30
0.000000
  0
SEQEND
  8
LAYER-1
  0
POLYLINE
  8
LAYER-1
 66
  1
 70
  1
 62
  0
  0
VERTEX
  8
LAYER-1
 10
2.195204
 20
2.254367
 30
0.000000
  0
VERTEX
  8
LAYER-1
 10
2.646934
 20
2.254367
 30
0.000000
  0
VERTEX
  8
LAYER-1
 10
2.646934
 20
2.245510
 30
0.000000
  0
VERTEX
  8
LAYER-1
 10
2.195204
 20
2.245510
 30
0.000000
  0
SEQEND
  8
LAYER-1
  0
POLYLINE
  8
LAYER-1
 66
  1
 70
  1
 62
  0
  0
VERTEX
  8
LAYER-1
 10
2.189995
 20
3.070670
 30
0.000000
  0
VERTEX
  8
LAYER-1
 10
2.641725
 20
3.070670
 30
0.000000
  0
VERTEX
  8
LAYER-1
 10
2.641725
 20
3.061813
 30
0.000000
  0
VERTEX
  8
LAYER-1
 10
2.189995
 20
3.061813
 30
0.000000
  0
SEQEND
  8
LAYER-1
  0
POLYLINE
  8
LAYER-1
 66
  1
 70
  1
 62
  0
  0
VERTEX
  8
LAYER-1
 10
2.189995
 20
3.886973
 30
0.000000
  0
VERTEX
  8
LAYER-1
 10
2.641725
 20
3.886973
 30
0.000000
  0
VERTEX
  8
LAYER-1
 10
2.641725
 20
3.878117
 30
0.000000
  0
VERTEX
  8
LAYER-1
 10
2.189995
 20
3.878117
 30
0.000000
  0
SEQEND
  8
LAYER-1
  0
POLYLINE
  8
LAYER-1
 66
  1
 70
  1
 62
  0
  0
VERTEX
  8
LAYER-1
 10
2.189995
 20
4.703279
 30
0.000000
  0
VERTEX
  8
LAYER-1
 10
2.641725
 20
4.703279
 30
0.000000
  0
VERTEX
  8
LAYER-1
 10
2.641725
 20
4.694421
 30
0.000000
  0
VERTEX
  8
LAYER-1
 10
2.189995
 20
4.694421
 30
0.000000
  0
SEQEND
  8
LAYER-1
  0
POLYLINE
  8
LAYER-1
 66
  1
 70
  1
 62
  0
  0
VERTEX
  8
LAYER-1
 10
2.189995
 20
5.519581
 30
0.000000
  0
VERTEX
  8
LAYER-1
 10
2.641725
 20
5.519581
 30
0.000000
  0
VERTEX
  8
LAYER-1
 10
2.641725
 20
5.510725
 30
0.000000
  0
VERTEX
  8
LAYER-1
 10
2.189995
 20
5.510725
 30
0.000000
  0
SEQEND
  8
LAYER-1
  0
POLYLINE
  8
LAYER-1
 66
  1
 70
  1
 62
  0
  0
VERTEX
  8
LAYER-1
 10
2.189995
 20
6.335884
 30
0.000000
  0
VERTEX
  8
LAYER-1
 10
2.641725
 20
6.335884
 30
0.000000
  0
VERTEX
  8
LAYER-1
 10
2.641725
 20
6.327028
 30
0.000000
  0
VERTEX
  8
LAYER-1
 10
2.189995
 20
6.327028
 30
0.000000
  0
SEQEND
  8
LAYER-1
  0
POLYLINE
  8
LAYER-1
 66
  1
 70
  1
 62
  0
  0
VERTEX
  8
LAYER-1
 10
2.599173
 20
1.036527
 30
0.000000
  0
VERTEX
  8
LAYER-1
 10
3.050903
 20
1.036527
 30
0.000000
  0
VERTEX
  8
LAYER-1
 10
3.050903
 20
1.027669
 30
0.000000
  0
VERTEX
  8
LAYER-1
 10
2.599173
 20
1.027669
 30
0.000000
  0
SEQEND
  8
LAYER-1
  0
POLYLINE
  8
LAYER-1
 66
  1
 70
  1
 62
  0
  0
VERTEX
  8
LAYER-1
 10
2.599607
 20
1.852829
 30
0.000000
  0
VERTEX
  8
LAYER-1
 10
3.051337
 20
1.852829
 30
0.000000
  0
VERTEX
  8
LAYER-1
 10
3.051337
 20
1.843974
 30
0.000000
  0
VERTEX
  8
LAYER-1
 10
2.599607
 20
1.843974
 30
0.000000
  0
SEQEND
  8
LAYER-1
  0
POLYLINE
  8
LAYER-1
 66
  1
 70
  1
 62
  0
  0
VERTEX
  8
LAYER-1
 10
2.599607
 20
2.669133
 30
0.000000
  0
VERTEX
  8
LAYER-1
 10
3.051337
 20
2.669133
 30
0.000000
  0
VERTEX
  8
LAYER-1
 10
3.051337
 20
2.660275
 30
0.000000
  0
VERTEX
  8
LAYER-1
 10
2.599607
 20
2.660275
 30
0.000000
  0
SEQEND
  8
LAYER-1
  0
POLYLINE
  8
LAYER-1
 66
  1
 70
  1
 62
  0
  0
VERTEX
  8
LAYER-1
 10
2.598739
 20
3.485435
 30
0.000000
  0
VERTEX
  8
LAYER-1
 10
3.050469
 20
3.485435
 30
0.000000
  0
VERTEX
  8
LAYER-1
 10
3.050469
 20
3.476579
 30
0.000000
  0
VERTEX
  8
LAYER-1
 10
2.598739
 20
3.476579
 30
0.000000
  0
SEQEND
  8
LAYER-1
  0
POLYLINE
  8
LAYER-1
 66
  1
 70
  1
 62
  0
  0
VERTEX
  8
LAYER-1
 10
2.598739
 20
4.301739
 30
0.000000
  0
VERTEX
  8
LAYER-1
 10
3.050469
 20
4.301739
 30
0.000000
  0
VERTEX
  8
LAYER-1
 10
3.050469
 20
4.292881
 30
0.000000
  0
VERTEX
  8
LAYER-1
 10
2.598739
 20
4.292881
 30
0.000000
  0
SEQEND
  8
LAYER-1
  0
POLYLINE
  8
LAYER-1
 66
  1
 70
  1
 62
  0
  0
VERTEX
  8
LAYER-1
 10
2.598739
 20
5.118044
 30
0.000000
  0
VERTEX
  8
LAYER-1
 10
3.050469
 20
5.118044
 30
0.000000
  0
VERTEX
  8
LAYER-1
 10
3.050469
 20
5.109187
 30
0.000000
  0
VERTEX
  8
LAYER-1
 10
2.598739
 20
5.109187
 30
0.000000
  0
SEQEND
  8
LAYER-1
  0
POLYLINE
  8
LAYER-1
 66
  1
 70
  1
 62
  0
  0
VERTEX
  8
LAYER-1
 10
2.599173
 20
5.934348
 30
0.000000
  0
VERTEX
  8
LAYER-1
 10
3.050903
 20
5.934348
 30
0.000000
  0
VERTEX
  8
LAYER-1
 10
3.050903
 20
5.925490
 30
0.000000
  0
VERTEX
  8
LAYER-1
 10
2.599173
 20
5.925490
 30
0.000000
  0
SEQEND
  8
LAYER-1
  0
POLYLINE
  8
LAYER-1
 66
  1
 70
  1
 62
  0
  0
VERTEX
  8
LAYER-1
 10
2.599173
 20
6.750642
 30
0.000000
  0
VERTEX
  8
LAYER-1
 10
3.050903
 20
6.750642
 30
0.000000
  0
VERTEX
  8
LAYER-1
 10
3.050903
 20
6.741785
 30
0.000000
  0
VERTEX
  8
LAYER-1
 10
2.599173
 20
6.741785
 30
0.000000
  0
SEQEND
  8
LAYER-1
  0
POLYLINE
  8
LAYER-1
 66
  1
 70
  1
 62
  0
  0
VERTEX
  8
LAYER-1
 10
1.780729
 20
1.036527
 30
0.000000
  0
VERTEX
  8
LAYER-1
 10
2.232460
 20
1.036527
 30
0.000000
  0
VERTEX
  8
LAYER-1
 10
2.232460
 20
1.027669
 30
0.000000
  0
VERTEX
  8
LAYER-1
 10
1.780729
 20
1.027669
 30
0.000000
  0
SEQEND
  8
LAYER-1
  0
POLYLINE
  8
LAYER-1
 66
  1
 70
  1
 62
  0
  0
VERTEX
  8
LAYER-1
 10
1.781164
 20
1.852829
 30
0.000000
  0
VERTEX
  8
LAYER-1
 10
2.232894
 20
1.852829
 30
0.000000
  0
VERTEX
  8
LAYER-1
 10
2.232894
 20
1.843974
 30
0.000000
  0
VERTEX
  8
LAYER-1
 10
1.781164
 20
1.843974
 30
0.000000
  0
SEQEND
  8
LAYER-1
  0
POLYLINE
  8
LAYER-1
 66
  1
 70
  1
 62
  0
  0
VERTEX
  8
LAYER-1
 10
1.780730
 20
2.669133
 30
0.000000
  0
VERTEX
  8
LAYER-1
 10
2.232460
 20
2.669133
 30
0.000000
  0
VERTEX
  8
LAYER-1
 10
2.232460
 20
2.660275
 30
0.000000
  0
VERTEX
  8
LAYER-1
 10
1.780730
 20
2.660275
 30
0.000000
  0
SEQEND
  8
LAYER-1
  0
POLYLINE
  8
LAYER-1
 66
  1
 70
  1
 62
  0
  0
VERTEX
  8
LAYER-1
 10
1.780295
 20
3.485435
 30
0.000000
  0
VERTEX
  8
LAYER-1
 10
2.232026
 20
3.485435
 30
0.000000
  0
VERTEX
  8
LAYER-1
 10
2.232026
 20
3.476579
 30
0.000000
  0
VERTEX
  8
LAYER-1
 10
1.780295
 20
3.476579
 30
0.000000
  0
SEQEND
  8
LAYER-1
  0
POLYLINE
  8
LAYER-1
 66
  1
 70
  1
 62
  0
  0
VERTEX
  8
LAYER-1
 10
1.780730
 20
4.301739
 30
0.000000
  0
VERTEX
  8
LAYER-1
 10
2.232460
 20
4.301739
 30
0.000000
  0
VERTEX
  8
LAYER-1
 10
2.232460
 20
4.292881
 30
0.000000
  0
VERTEX
  8
LAYER-1
 10
1.780730
 20
4.292881
 30
0.000000
  0
SEQEND
  8
LAYER-1
  0
POLYLINE
  8
LAYER-1
 66
  1
 70
  1
 62
  0
  0
VERTEX
  8
LAYER-1
 10
1.780730
 20
5.118044
 30
0.000000
  0
VERTEX
  8
LAYER-1
 10
2.232460
 20
5.118044
 30
0.000000
  0
VERTEX
  8
LAYER-1
 10
2.232460
 20
5.109187
 30
0.000000
  0
VERTEX
  8
LAYER-1
 10
1.780730
 20
5.109187
 30
0.000000
  0
SEQEND
  8
LAYER-1
  0
POLYLINE
  8
LAYER-1
 66
  1
 70
  1
 62
  0
  0
VERTEX
  8
LAYER-1
 10
1.780296
 20
5.934346
 30
0.000000
  0
VERTEX
  8
LAYER-1
 10
2.232026
 20
5.934346
 30
0.000000
  0
VERTEX
  8
LAYER-1
 10
2.232026
 20
5.925490
 30
0.000000
  0
VERTEX
  8
LAYER-1
 10
1.780296
 20
5.925490
 30
0.000000
  0
SEQEND
  8
LAYER-1
  0
POLYLINE
  8
LAYER-1
 66
  1
 70
  1
 62
  0
  0
VERTEX
  8
LAYER-1
 10
1.781164
 20
6.750642
 30
0.000000
  0
VERTEX
  8
LAYER-1
 10
2.232894
 20
6.750642
 30
0.000000
  0
VERTEX
  8
LAYER-1
 10
2.232894
 20
6.741785
 30
0.000000
  0
VERTEX
  8
LAYER-1
 10
1.781164
 20
6.741785
 30
0.000000
  0
SEQEND
  8
LAYER-1
  0
POLYLINE
  8
LAYER-1
 66
  1
 70
  1
 62
  0
  0
VERTEX
  8
LAYER-1
 10
3.409970
 20
1.034934
 30
0.000000
  0
VERTEX
  8
LAYER-1
 10
3.660135
 20
1.034934
 30
0.000000
  0
VERTEX
  8
LAYER-1
 10
3.660135
 20
1.026076
 30
0.000000
  0
VERTEX
  8
LAYER-1
 10
3.409970
 20
1.026076
 30
0.000000
  0
SEQEND
  8
LAYER-1
  0
POLYLINE
  8
LAYER-1
 66
  1
 70
  1
 62
  0
  0
VERTEX
  8
LAYER-1
 10
3.409970
 20
1.851236
 30
0.000000
  0
VERTEX
  8
LAYER-1
 10
3.660135
 20
1.851236
 30
0.000000
  0
VERTEX
  8
LAYER-1
 10
3.660135
 20
1.842379
 30
0.000000
  0
VERTEX
  8
LAYER-1
 10
3.409970
 20
1.842379
 30
0.000000
  0
SEQEND
  8
LAYER-1
  0
POLYLINE
  8
LAYER-1
 66
  1
 70
  1
 62
  0
  0
VERTEX
  8
LAYER-1
 10
3.409970
 20
2.667540
 30
0.000000
  0
VERTEX
  8
LAYER-1
 10
3.660135
 20
2.667540
 30
0.000000
  0
VERTEX
  8
LAYER-1
 10
3.660135
 20
2.658681
 30
0.000000
  0
VERTEX
  8
LAYER-1
 10
3.409970
 20
2.658681
 30
0.000000
  0
SEQEND
  8
LAYER-1
  0
POLYLINE
  8
LAYER-1
 66
  1
 70
  1
 62
  0
  0
VERTEX
  8
LAYER-1
 10
3.409970
 20
3.483842
 30
0.000000
  0
VERTEX
  8
LAYER-1
 10
3.660135
 20
3.483842
 30
0.000000
  0
VERTEX
  8
LAYER-1
 10
3.660135
 20
3.474985
 30
0.000000
  0
VERTEX
  8
LAYER-1
 10
3.409970
 20
3.474985
 30
0.000000
  0
SEQEND
  8
LAYER-1
  0
POLYLINE
  8
LAYER-1
 66
  1
 70
  1
 62
  0
  0
VERTEX
  8
LAYER-1
 10
3.409970
 20
4.300145
 30
0.000000
  0
VERTEX
  8
LAYER-1
 10
3.660135
 20
4.300145
 30
0.000000
  0
VERTEX
  8
LAYER-1
 10
3.660135
 20
4.291287
 30
0.000000
  0
VERTEX
  8
LAYER-1
 10
3.409970
 20
4.291287
 30
0.000000
  0
SEQEND
  8
LAYER-1
  0
POLYLINE
  8
LAYER-1
 66
  1
 70
  1
 62
  0
  0
VERTEX
  8
LAYER-1
 10
3.409970
 20
5.116450
 30
0.000000
  0
VERTEX
  8
LAYER-1
 10
3.660135
 20
5.116450
 30
0.000000
  0
VERTEX
  8
LAYER-1
 10
3.660135
 20
5.107594
 30
0.000000
  0
VERTEX
  8
LAYER-1
 10
3.409970
 20
5.107594
 30
0.000000
  0
SEQEND
  8
LAYER-1
  0
POLYLINE
  8
LAYER-1
 66
  1
 70
  1
 62
  0
  0
VERTEX
  8
LAYER-1
 10
3.409970
 20
5.932755
 30
0.000000
  0
VERTEX
  8
LAYER-1
 10
3.660135
 20
5.932755
 30
0.000000
  0
VERTEX
  8
LAYER-1
 10
3.660135
 20
5.923897
 30
0.000000
  0
VERTEX
  8
LAYER-1
 10
3.409970
 20
5.923897
 30
0.000000
  0
SEQEND
  8
LAYER-1
  0
POLYLINE
  8
LAYER-1
 66
  1
 70
  1
 62
  0
  0
VERTEX
  8
LAYER-1
 10
3.409970
 20
6.749050
 30
0.000000
  0
VERTEX
  8
LAYER-1
 10
3.660135
 20
6.749050
 30
0.000000
  0
VERTEX
  8
LAYER-1
 10
3.660135
 20
6.740192
 30
0.000000
  0
VERTEX
  8
LAYER-1
 10
3.409970
 20
6.740192
 30
0.000000
  0
SEQEND
  8
LAYER-1
  0
POLYLINE
  8
LAYER-1
 66
  1
 70
  0
 62
  0
 10
3.620107
 20
7.415645
 30
0.000000
  0
VERTEX
  8
LAYER-1
 10
3.620107
 20
7.415645
 30
0.000000
  0
VERTEX
  8
LAYER-1
 10
3.620107
 20
7.143897
 30
0.000000
  0
SEQEND
  8
LAYER-1
  0
POLYLINE
  8
LAYER-1
 66
  1
 70
  0
 62
  0
 10
3.620118
 20
0.616987
 30
0.000000
  0
VERTEX
  8
LAYER-1
 10
3.620118
 20
0.616987
 30
0.000000
  0
VERTEX
  8
LAYER-1
 10
3.620118
 20
0.345286
 30
0.000000
  0
SEQEND
  8
LAYER-1
  0
POLYLINE
  8
LAYER-1
 66
  1
 70
  0
 62
  0
 10
2.621908
 20
7.143429
 30
0.000000
  0
VERTEX
  8
LAYER-1
 10
2.621908
 20
7.143429
 30
0.000000
  0
VERTEX
  8
LAYER-1
 10
2.632144
 20
7.136835
 30
0.000000
  0
VERTEX
  8
LAYER-1
 10
2.646829
 20
7.139409
 30
0.000000
  0
VERTEX
  8
LAYER-1
 10
2.655128
 20
7.143990
 30
0.000000
  0
SEQEND
  8
LAYER-1
  0
POLYLINE
  8
LAYER-1
 66
  1
 70
  0
 62
  0
 10
2.621909
 20
7.143429
 30
0.000000
  0
VERTEX
  8
LAYER-1
 10
2.621909
 20
7.143429
 30
0.000000
  0
VERTEX
  8
LAYER-1
 10
2.655128
 20
7.143990
 30
0.000000
  0
SEQEND
  8
LAYER-1
  0
POLYLINE
  8
LAYER-1
 66
  1
 70
  0
 62
  0
 10
2.582796
 20
7.143990
 30
0.000000
  0
VERTEX
  8
LAYER-1
 10
2.582796
 20
7.143990
 30
0.000000
  0
VERTEX
  8
LAYER-1
 10
2.595967
 20
7.136944
 30
0.000000
  0
VERTEX
  8
LAYER-1
 10
2.613047
 20
7.141274
 30
0.000000
  0
VERTEX
  8
LAYER-1
 10
2.619700
 20
7.143990
 30
0.000000
  0
SEQEND
  8
LAYER-1
  0
POLYLINE
  8
LAYER-1
 66
  1
 70
  0
 62
  0
 10
2.582796
 20
7.143990
 30
0.000000
  0
VERTEX
  8
LAYER-1
 10
2.582796
 20
7.143990
 30
0.000000
  0
VERTEX
  8
LAYER-1
 10
2.619699
 20
7.143990
 30
0.000000
  0
SEQEND
  8
LAYER-1
  0
POLYLINE
  8
LAYER-1
 66
  1
 70
  0
 62
  0
 10
2.583967
 20
7.415648
 30
0.000000
  0
VERTEX
  8
LAYER-1
 10
2.583967
 20
7.415648
 30
0.000000
  0
VERTEX
  8
LAYER-1
 10
2.583967
 20
7.144016
 30
0.000000
  0
SEQEND
  8
LAYER-1
  0
POLYLINE
  8
LAYER-1
 66
  1
 70
  0
 62
  0
 10
2.656301
 20
7.144019
 30
0.000000
  0
VERTEX
  8
LAYER-1
 10
2.656301
 20
7.144019
 30
0.000000
  0
VERTEX
  8
LAYER-1
 10
2.656301
 20
7.415648
 30
0.000000
  0
SEQEND
  8
LAYER-1
  0
POLYLINE
  8
LAYER-1
 66
  1
 70
  0
 62
  0
 10
2.620871
 20
7.415648
 30
0.000000
  0
VERTEX
  8
LAYER-1
 10
2.620871
 20
7.415648
 30
0.000000
  0
VERTEX
  8
LAYER-1
 10
2.620871
 20
7.144018
 30
0.000000
  0
SEQEND
  8
LAYER-1
  0
POLYLINE
  8
LAYER-1
 66
  1
 70
  0
 62
  0
 10
2.655997
 20
7.415507
 30
0.000000
  0
VERTEX
  8
LAYER-1
 10
2.655997
 20
7.415507
 30
0.000000
  0
VERTEX
  8
LAYER-1
 10
2.642119
 20
7.426444
 30
0.000000
  0
VERTEX
  8
LAYER-1
 10
2.627356
 20
7.424366
 30
0.000000
  0
VERTEX
  8
LAYER-1
 10
2.622777
 20
7.416066
 30
0.000000
  0
SEQEND
  8
LAYER-1
  0
POLYLINE
  8
LAYER-1
 66
  1
 70
  0
 62
  0
 10
2.622777
 20
7.416066
 30
0.000000
  0
VERTEX
  8
LAYER-1
 10
2.622777
 20
7.416066
 30
0.000000
  0
VERTEX
  8
LAYER-1
 10
2.655996
 20
7.415507
 30
0.000000
  0
SEQEND
  8
LAYER-1
  0
POLYLINE
  8
LAYER-1
 66
  1
 70
  0
 62
  0
 10
2.620568
 20
7.415507
 30
0.000000
  0
VERTEX
  8
LAYER-1
 10
2.620568
 20
7.415507
 30
0.000000
  0
VERTEX
  8
LAYER-1
 10
2.603460
 20
7.426490
 30
0.000000
  0
VERTEX
  8
LAYER-1
 10
2.586380
 20
7.422158
 30
0.000000
  0
VERTEX
  8
LAYER-1
 10
2.583664
 20
7.415505
 30
0.000000
  0
SEQEND
  8
LAYER-1
  0
POLYLINE
  8
LAYER-1
 66
  1
 70
  0
 62
  0
 10
2.583665
 20
7.415505
 30
0.000000
  0
VERTEX
  8
LAYER-1
 10
2.583665
 20
7.415505
 30
0.000000
  0
VERTEX
  8
LAYER-1
 10
2.620568
 20
7.415507
 30
0.000000
  0
SEQEND
  8
LAYER-1
  0
POLYLINE
  8
LAYER-1
 66
  1
 70
  0
 62
  0
 10
1.801908
 20
7.143429
 30
0.000000
  0
VERTEX
  8
LAYER-1
 10
1.801908
 20
7.143429
 30
0.000000
  0
VERTEX
  8
LAYER-1
 10
1.812144
 20
7.136835
 30
0.000000
  0
VERTEX
  8
LAYER-1
 10
1.826829
 20
7.139409
 30
0.000000
  0
VERTEX
  8
LAYER-1
 10
1.835128
 20
7.143990
 30
0.000000
  0
SEQEND
  8
LAYER-1
  0
POLYLINE
  8
LAYER-1
 66
  1
 70
  0
 62
  0
 10
1.801909
 20
7.143429
 30
0.000000
  0
VERTEX
  8
LAYER-1
 10
1.801909
 20
7.143429
 30
0.000000
  0
VERTEX
  8
LAYER-1
 10
1.835128
 20
7.143990
 30
0.000000
  0
SEQEND
  8
LAYER-1
  0
POLYLINE
  8
LAYER-1
 66
  1
 70
  0
 62
  0
 10
1.762796
 20
7.143990
 30
0.000000
  0
VERTEX
  8
LAYER-1
 10
1.762796
 20
7.143990
 30
0.000000
  0
VERTEX
  8
LAYER-1
 10
1.775967
 20
7.136944
 30
0.000000
  0
VERTEX
  8
LAYER-1
 10
1.793047
 20
7.141274
 30
0.000000
  0
VERTEX
  8
LAYER-1
 10
1.799700
 20
7.143990
 30
0.000000
  0
SEQEND
  8
LAYER-1
  0
POLYLINE
  8
LAYER-1
 66
  1
 70
  0
 62
  0
 10
1.762796
 20
7.143990
 30
0.000000
  0
VERTEX
  8
LAYER-1
 10
1.762796
 20
7.143990
 30
0.000000
  0
VERTEX
  8
LAYER-1
 10
1.799699
 20
7.143990
 30
0.000000
  0
SEQEND
  8
LAYER-1
  0
POLYLINE
  8
LAYER-1
 66
  1
 70
  0
 62
  0
 10
1.763967
 20
7.415648
 30
0.000000
  0
VERTEX
  8
LAYER-1
 10
1.763967
 20
7.415648
 30
0.000000
  0
VERTEX
  8
LAYER-1
 10
1.763967
 20
7.144016
 30
0.000000
  0
SEQEND
  8
LAYER-1
  0
POLYLINE
  8
LAYER-1
 66
  1
 70
  0
 62
  0
 10
1.836301
 20
7.144019
 30
0.000000
  0
VERTEX
  8
LAYER-1
 10
1.836301
 20
7.144019
 30
0.000000
  0
VERTEX
  8
LAYER-1
 10
1.836301
 20
7.415648
 30
0.000000
  0
SEQEND
  8
LAYER-1
  0
POLYLINE
  8
LAYER-1
 66
  1
 70
  0
 62
  0
 10
1.800871
 20
7.415648
 30
0.000000
  0
VERTEX
  8
LAYER-1
 10
1.800871
 20
7.415648
 30
0.000000
  0
VERTEX
  8
LAYER-1
 10
1.800871
 20
7.144018
 30
0.000000
  0
SEQEND
  8
LAYER-1
  0
POLYLINE
  8
LAYER-1
 66
  1
 70
  0
 62
  0
 10
1.835997
 20
7.415507
 30
0.000000
  0
VERTEX
  8
LAYER-1
 10
1.835997
 20
7.415507
 30
0.000000
  0
VERTEX
  8
LAYER-1
 10
1.822119
 20
7.426444
 30
0.000000
  0
VERTEX
  8
LAYER-1
 10
1.807357
 20
7.424366
 30
0.000000
  0
VERTEX
  8
LAYER-1
 10
1.802777
 20
7.416066
 30
0.000000
  0
SEQEND
  8
LAYER-1
  0
POLYLINE
  8
LAYER-1
 66
  1
 70
  0
 62
  0
 10
1.802777
 20
7.416066
 30
0.000000
  0
VERTEX
  8
LAYER-1
 10
1.802777
 20
7.416066
 30
0.000000
  0
VERTEX
  8
LAYER-1
 10
1.835996
 20
7.415507
 30
0.000000
  0
SEQEND
  8
LAYER-1
  0
POLYLINE
  8
LAYER-1
 66
  1
 70
  0
 62
  0
 10
1.800568
 20
7.415507
 30
0.000000
  0
VERTEX
  8
LAYER-1
 10
1.800568
 20
7.415507
 30
0.000000
  0
VERTEX
  8
LAYER-1
 10
1.783460
 20
7.426490
 30
0.000000
  0
VERTEX
  8
LAYER-1
 10
1.766380
 20
7.422158
 30
0.000000
  0
VERTEX
  8
LAYER-1
 10
1.763664
 20
7.415505
 30
0.000000
  0
SEQEND
  8
LAYER-1
  0
POLYLINE
  8
LAYER-1
 66
  1
 70
  0
 62
  0
 10
1.763665
 20
7.415505
 30
0.000000
  0
VERTEX
  8
LAYER-1
 10
1.763665
 20
7.415505
 30
0.000000
  0
VERTEX
  8
LAYER-1
 10
1.800567
 20
7.415507
 30
0.000000
  0
SEQEND
  8
LAYER-1
  0
POLYLINE
  8
LAYER-1
 66
  1
 70
  0
 62
  0
 10
3.399199
 20
0.344848
 30
0.000000
  0
VERTEX
  8
LAYER-1
 10
3.399199
 20
0.344848
 30
0.000000
  0
VERTEX
  8
LAYER-1
 10
3.399199
 20
0.616480
 30
0.000000
  0
SEQEND
  8
LAYER-1
  0
POLYLINE
  8
LAYER-1
 66
  1
 70
  0
 62
  0
 10
3.068701
 20
0.616480
 30
0.000000
  0
VERTEX
  8
LAYER-1
 10
3.068701
 20
0.616480
 30
0.000000
  0
VERTEX
  8
LAYER-1
 10
3.068701
 20
0.344848
 30
0.000000
  0
SEQEND
  8
LAYER-1
  0
POLYLINE
  8
LAYER-1
 66
  1
 70
  0
 62
  0
 10
2.255870
 20
0.616480
 30
0.000000
  0
VERTEX
  8
LAYER-1
 10
2.255870
 20
0.616480
 30
0.000000
  0
VERTEX
  8
LAYER-1
 10
2.255870
 20
0.344848
 30
0.000000
  0
SEQEND
  8
LAYER-1
  0
POLYLINE
  8
LAYER-1
 66
  1
 70
  0
 62
  0
 10
2.437037
 20
0.344809
 30
0.000000
  0
VERTEX
  8
LAYER-1
 10
2.437037
 20
0.344809
 30
0.000000
  0
VERTEX
  8
LAYER-1
 10
2.437037
 20
0.616437
 30
0.000000
  0
SEQEND
  8
LAYER-1
  0
POLYLINE
  8
LAYER-1
 66
  1
 70
  0
 62
  0
 10
2.397178
 20
0.344809
 30
0.000000
  0
VERTEX
  8
LAYER-1
 10
2.397178
 20
0.344809
 30
0.000000
  0
VERTEX
  8
LAYER-1
 10
2.397178
 20
0.616437
 30
0.000000
  0
SEQEND
  8
LAYER-1
  0
POLYLINE
  8
LAYER-1
 66
  1
 70
  0
 62
  0
 10
3.251054
 20
0.344809
 30
0.000000
  0
VERTEX
  8
LAYER-1
 10
3.251054
 20
0.344809
 30
0.000000
  0
VERTEX
  8
LAYER-1
 10
3.251054
 20
0.616437
 30
0.000000
  0
SEQEND
  8
LAYER-1
  0
POLYLINE
  8
LAYER-1
 66
  1
 70
  0
 62
  0
 10
3.212238
 20
0.344809
 30
0.000000
  0
VERTEX
  8
LAYER-1
 10
3.212238
 20
0.344809
 30
0.000000
  0
VERTEX
  8
LAYER-1
 10
3.212238
 20
0.616437
 30
0.000000
  0
SEQEND
  8
LAYER-1
  0
POLYLINE
  8
LAYER-1
 66
  1
 70
  0
 62
  0
 10
2.984378
 20
0.344848
 30
0.000000
  0
VERTEX
  8
LAYER-1
 10
2.984378
 20
0.344848
 30
0.000000
  0
VERTEX
  8
LAYER-1
 10
2.984378
 20
0.616480
 30
0.000000
  0
SEQEND
  8
LAYER-1
  0
POLYLINE
  8
LAYER-1
 66
  1
 70
  0
 62
  0
 10
2.171548
 20
0.344848
 30
0.000000
  0
VERTEX
  8
LAYER-1
 10
2.171548
 20
0.344848
 30
0.000000
  0
VERTEX
  8
LAYER-1
 10
2.171548
 20
0.616480
 30
0.000000
  0
SEQEND
  8
LAYER-1
  0
POLYLINE
  8
LAYER-1
 66
  1
 70
  0
 62
  0
 10
2.026643
 20
0.345242
 30
0.000000
  0
VERTEX
  8
LAYER-1
 10
2.026643
 20
0.345242
 30
0.000000
  0
VERTEX
  8
LAYER-1
 10
2.026643
 20
0.616870
 30
0.000000
  0
SEQEND
  8
LAYER-1
  0
POLYLINE
  8
LAYER-1
 66
  1
 70
  0
 62
  0
 10
1.988260
 20
0.345242
 30
0.000000
  0
VERTEX
  8
LAYER-1
 10
1.988260
 20
0.345242
 30
0.000000
  0
VERTEX
  8
LAYER-1
 10
1.988260
 20
0.616870
 30
0.000000
  0
SEQEND
  8
LAYER-1
  0
POLYLINE
  8
LAYER-1
 66
  1
 70
  0
 62
  0
 10
2.844481
 20
0.344773
 30
0.000000
  0
VERTEX
  8
LAYER-1
 10
2.844481
 20
0.344773
 30
0.000000
  0
VERTEX
  8
LAYER-1
 10
2.844481
 20
0.616401
 30
0.000000
  0
SEQEND
  8
LAYER-1
  0
POLYLINE
  8
LAYER-1
 66
  1
 70
  0
 62
  0
 10
2.806098
 20
0.344773
 30
0.000000
  0
VERTEX
  8
LAYER-1
 10
2.806098
 20
0.344773
 30
0.000000
  0
VERTEX
  8
LAYER-1
 10
2.806098
 20
0.616401
 30
0.000000
  0
SEQEND
  8
LAYER-1
  0
POLYLINE
  8
LAYER-1
 66
  1
 70
  0
 62
  0
 10
3.471532
 20
0.616475
 30
0.000000
  0
VERTEX
  8
LAYER-1
 10
3.471532
 20
0.616475
 30
0.000000
  0
VERTEX
  8
LAYER-1
 10
3.471532
 20
0.344847
 30
0.000000
  0
SEQEND
  8
LAYER-1
  0
POLYLINE
  8
LAYER-1
 66
  1
 70
  0
 62
  0
 10
3.436102
 20
0.344847
 30
0.000000
  0
VERTEX
  8
LAYER-1
 10
3.436102
 20
0.344847
 30
0.000000
  0
VERTEX
  8
LAYER-1
 10
3.436102
 20
0.616478
 30
0.000000
  0
SEQEND
  8
LAYER-1
  0
POLYLINE
  8
LAYER-1
 66
  1
 70
  0
 62
  0
 10
3.437073
 20
0.344836
 30
0.000000
  0
VERTEX
  8
LAYER-1
 10
3.437073
 20
0.344836
 30
0.000000
  0
VERTEX
  8
LAYER-1
 10
3.447019
 20
0.337843
 30
0.000000
  0
VERTEX
  8
LAYER-1
 10
3.461781
 20
0.339932
 30
0.000000
  0
VERTEX
  8
LAYER-1
 10
3.470628
 20
0.344847
 30
0.000000
  0
SEQEND
  8
LAYER-1
  0
POLYLINE
  8
LAYER-1
 66
  1
 70
  0
 62
  0
 10
3.399199
 20
0.344848
 30
0.000000
  0
VERTEX
  8
LAYER-1
 10
3.399199
 20
0.344848
 30
0.000000
  0
VERTEX
  8
LAYER-1
 10
3.412370
 20
0.337801
 30
0.000000
  0
VERTEX
  8
LAYER-1
 10
3.429450
 20
0.342132
 30
0.000000
  0
VERTEX
  8
LAYER-1
 10
3.436102
 20
0.344847
 30
0.000000
  0
SEQEND
  8
LAYER-1
  0
POLYLINE
  8
LAYER-1
 66
  1
 70
  0
 62
  0
 10
2.983639
 20
0.345341
 30
0.000000
  0
VERTEX
  8
LAYER-1
 10
2.983639
 20
0.345341
 30
0.000000
  0
VERTEX
  8
LAYER-1
 10
2.999206
 20
0.339286
 30
0.000000
  0
VERTEX
  8
LAYER-1
 10
3.017280
 20
0.346011
 30
0.000000
  0
VERTEX
  8
LAYER-1
 10
3.020547
 20
0.345341
 30
0.000000
  0
SEQEND
  8
LAYER-1
  0
POLYLINE
  8
LAYER-1
 66
  1
 70
  0
 62
  0
 10
2.170681
 20
0.344872
 30
0.000000
  0
VERTEX
  8
LAYER-1
 10
2.170681
 20
0.344872
 30
0.000000
  0
VERTEX
  8
LAYER-1
 10
2.186248
 20
0.338815
 30
0.000000
  0
VERTEX
  8
LAYER-1
 10
2.204322
 20
0.345541
 30
0.000000
  0
VERTEX
  8
LAYER-1
 10
2.207588
 20
0.344872
 30
0.000000
  0
SEQEND
  8
LAYER-1
  0
POLYLINE
  8
LAYER-1
 66
  1
 70
  0
 62
  0
 10
3.031349
 20
0.345341
 30
0.000000
  0
VERTEX
  8
LAYER-1
 10
3.031349
 20
0.345341
 30
0.000000
  0
VERTEX
  8
LAYER-1
 10
3.046915
 20
0.339286
 30
0.000000
  0
VERTEX
  8
LAYER-1
 10
3.064989
 20
0.346011
 30
0.000000
  0
VERTEX
  8
LAYER-1
 10
3.068256
 20
0.345340
 30
0.000000
  0
SEQEND
  8
LAYER-1
  0
POLYLINE
  8
LAYER-1
 66
  1
 70
  0
 62
  0
 10
3.010885
 20
0.344782
 30
0.000000
  0
VERTEX
  8
LAYER-1
 10
3.010885
 20
0.344782
 30
0.000000
  0
VERTEX
  8
LAYER-1
 10
3.017700
 20
0.335713
 30
0.000000
  0
VERTEX
  8
LAYER-1
 10
3.031715
 20
0.334119
 30
0.000000
  0
VERTEX
  8
LAYER-1
 10
3.042752
 20
0.342902
 30
0.000000
  0
VERTEX
  8
LAYER-1
 10
3.046314
 20
0.344782
 30
0.000000
  0
SEQEND
  8
LAYER-1
  0
POLYLINE
  8
LAYER-1
 66
  1
 70
  0
 62
  0
 10
3.046313
 20
0.344782
 30
0.000000
  0
VERTEX
  8
LAYER-1
 10
3.046313
 20
0.344782
 30
0.000000
  0
VERTEX
  8
LAYER-1
 10
3.010885
 20
0.344782
 30
0.000000
  0
SEQEND
  8
LAYER-1
  0
POLYLINE
  8
LAYER-1
 66
  1
 70
  0
 62
  0
 10
2.219331
 20
0.344872
 30
0.000000
  0
VERTEX
  8
LAYER-1
 10
2.219331
 20
0.344872
 30
0.000000
  0
VERTEX
  8
LAYER-1
 10
2.234898
 20
0.338815
 30
0.000000
  0
VERTEX
  8
LAYER-1
 10
2.252972
 20
0.345541
 30
0.000000
  0
VERTEX
  8
LAYER-1
 10
2.256239
 20
0.344870
 30
0.000000
  0
SEQEND
  8
LAYER-1
  0
POLYLINE
  8
LAYER-1
 66
  1
 70
  0
 62
  0
 10
2.194638
 20
0.344782
 30
0.000000
  0
VERTEX
  8
LAYER-1
 10
2.194638
 20
0.344782
 30
0.000000
  0
VERTEX
  8
LAYER-1
 10
2.201452
 20
0.335713
 30
0.000000
  0
VERTEX
  8
LAYER-1
 10
2.215468
 20
0.334119
 30
0.000000
  0
VERTEX
  8
LAYER-1
 10
2.226504
 20
0.342902
 30
0.000000
  0
VERTEX
  8
LAYER-1
 10
2.230066
 20
0.344782
 30
0.000000
  0
SEQEND
  8
LAYER-1
  0
POLYLINE
  8
LAYER-1
 66
  1
 70
  0
 62
  0
 10
2.230066
 20
0.344782
 30
0.000000
  0
VERTEX
  8
LAYER-1
 10
2.230066
 20
0.344782
 30
0.000000
  0
VERTEX
  8
LAYER-1
 10
2.194638
 20
0.344782
 30
0.000000
  0
SEQEND
  8
LAYER-1
  0
POLYLINE
  8
LAYER-1
 66
  1
 70
  0
 62
  0
 10
3.470599
 20
0.616503
 30
0.000000
  0
VERTEX
  8
LAYER-1
 10
3.470599
 20
0.616503
 30
0.000000
  0
VERTEX
  8
LAYER-1
 10
3.456721
 20
0.627441
 30
0.000000
  0
VERTEX
  8
LAYER-1
 10
3.441958
 20
0.625363
 30
0.000000
  0
VERTEX
  8
LAYER-1
 10
3.437379
 20
0.617063
 30
0.000000
  0
SEQEND
  8
LAYER-1
  0
POLYLINE
  8
LAYER-1
 66
  1
 70
  0
 62
  0
 10
3.437379
 20
0.617064
 30
0.000000
  0
VERTEX
  8
LAYER-1
 10
3.437379
 20
0.617064
 30
0.000000
  0
VERTEX
  8
LAYER-1
 10
3.470598
 20
0.616503
 30
0.000000
  0
SEQEND
  8
LAYER-1
  0
POLYLINE
  8
LAYER-1
 66
  1
 70
  0
 62
  0
 10
3.435170
 20
0.616503
 30
0.000000
  0
VERTEX
  8
LAYER-1
 10
3.435170
 20
0.616503
 30
0.000000
  0
VERTEX
  8
LAYER-1
 10
3.418061
 20
0.627486
 30
0.000000
  0
VERTEX
  8
LAYER-1
 10
3.400981
 20
0.623155
 30
0.000000
  0
VERTEX
  8
LAYER-1
 10
3.398266
 20
0.616502
 30
0.000000
  0
SEQEND
  8
LAYER-1
  0
POLYLINE
  8
LAYER-1
 66
  1
 70
  0
 62
  0
 10
3.398266
 20
0.616503
 30
0.000000
  0
VERTEX
  8
LAYER-1
 10
3.398266
 20
0.616503
 30
0.000000
  0
VERTEX
  8
LAYER-1
 10
3.435169
 20
0.616503
 30
0.000000
  0
SEQEND
  8
LAYER-1
  0
POLYLINE
  8
LAYER-1
 66
  1
 70
  0
 62
  0
 10
3.068330
 20
0.616949
 30
0.000000
  0
VERTEX
  8
LAYER-1
 10
3.068330
 20
0.616949
 30
0.000000
  0
VERTEX
  8
LAYER-1
 10
3.048826
 20
0.626941
 30
0.000000
  0
VERTEX
  8
LAYER-1
 10
3.030752
 20
0.620216
 30
0.000000
  0
VERTEX
  8
LAYER-1
 10
3.031423
 20
0.616948
 30
0.000000
  0
SEQEND
  8
LAYER-1
  0
POLYLINE
  8
LAYER-1
 66
  1
 70
  0
 62
  0
 10
3.021089
 20
0.616949
 30
0.000000
  0
VERTEX
  8
LAYER-1
 10
3.021089
 20
0.616949
 30
0.000000
  0
VERTEX
  8
LAYER-1
 10
3.001585
 20
0.626941
 30
0.000000
  0
VERTEX
  8
LAYER-1
 10
2.983511
 20
0.620216
 30
0.000000
  0
VERTEX
  8
LAYER-1
 10
2.984182
 20
0.616948
 30
0.000000
  0
SEQEND
  8
LAYER-1
  0
POLYLINE
  8
LAYER-1
 66
  1
 70
  0
 62
  0
 10
3.046856
 20
0.617038
 30
0.000000
  0
VERTEX
  8
LAYER-1
 10
3.046856
 20
0.617038
 30
0.000000
  0
VERTEX
  8
LAYER-1
 10
3.036104
 20
0.630044
 30
0.000000
  0
VERTEX
  8
LAYER-1
 10
3.022089
 20
0.631638
 30
0.000000
  0
VERTEX
  8
LAYER-1
 10
3.011052
 20
0.622854
 30
0.000000
  0
VERTEX
  8
LAYER-1
 10
3.011427
 20
0.617038
 30
0.000000
  0
SEQEND
  8
LAYER-1
  0
POLYLINE
  8
LAYER-1
 66
  1
 70
  0
 62
  0
 10
3.046856
 20
0.617039
 30
0.000000
  0
VERTEX
  8
LAYER-1
 10
3.046856
 20
0.617039
 30
0.000000
  0
VERTEX
  8
LAYER-1
 10
3.011427
 20
0.617039
 30
0.000000
  0
SEQEND
  8
LAYER-1
  0
POLYLINE
  8
LAYER-1
 66
  1
 70
  0
 62
  0
 10
2.255775
 20
0.616949
 30
0.000000
  0
VERTEX
  8
LAYER-1
 10
2.255775
 20
0.616949
 30
0.000000
  0
VERTEX
  8
LAYER-1
 10
2.236271
 20
0.626941
 30
0.000000
  0
VERTEX
  8
LAYER-1
 10
2.218197
 20
0.620216
 30
0.000000
  0
VERTEX
  8
LAYER-1
 10
2.218868
 20
0.616948
 30
0.000000
  0
SEQEND
  8
LAYER-1
  0
POLYLINE
  8
LAYER-1
 66
  1
 70
  0
 62
  0
 10
2.207596
 20
0.616949
 30
0.000000
  0
VERTEX
  8
LAYER-1
 10
2.207596
 20
0.616949
 30
0.000000
  0
VERTEX
  8
LAYER-1
 10
2.188091
 20
0.626941
 30
0.000000
  0
VERTEX
  8
LAYER-1
 10
2.170018
 20
0.620216
 30
0.000000
  0
VERTEX
  8
LAYER-1
 10
2.170688
 20
0.616948
 30
0.000000
  0
SEQEND
  8
LAYER-1
  0
POLYLINE
  8
LAYER-1
 66
  1
 70
  0
 62
  0
 10
2.230073
 20
0.617038
 30
0.000000
  0
VERTEX
  8
LAYER-1
 10
2.230073
 20
0.617038
 30
0.000000
  0
VERTEX
  8
LAYER-1
 10
2.219321
 20
0.630044
 30
0.000000
  0
VERTEX
  8
LAYER-1
 10
2.205306
 20
0.631638
 30
0.000000
  0
VERTEX
  8
LAYER-1
 10
2.194269
 20
0.622854
 30
0.000000
  0
VERTEX
  8
LAYER-1
 10
2.194644
 20
0.617038
 30
0.000000
  0
SEQEND
  8
LAYER-1
  0
POLYLINE
  8
LAYER-1
 66
  1
 70
  0
 62
  0
 10
2.230072
 20
0.617039
 30
0.000000
  0
VERTEX
  8
LAYER-1
 10
2.230072
 20
0.617039
 30
0.000000
  0
VERTEX
  8
LAYER-1
 10
2.194644
 20
0.617039
 30
0.000000
  0
SEQEND
  8
LAYER-1
  0
POLYLINE
  8
LAYER-1
 66
  1
 70
  1
 62
  0
  0
VERTEX
  8
LAYER-1
 10
3.046313
 20
0.344848
 30
0.000000
  0
VERTEX
  8
LAYER-1
 10
3.010883
 20
0.344848
 30
0.000000
  0
VERTEX
  8
LAYER-1
 10
3.010883
 20
0.616476
 30
0.000000
  0
VERTEX
  8
LAYER-1
 10
3.046313
 20
0.616476
 30
0.000000
  0
SEQEND
  8
LAYER-1
  0
POLYLINE
  8
LAYER-1
 66
  1
 70
  1
 62
  0
  0
VERTEX
  8
LAYER-1
 10
2.230000
 20
0.344848
 30
0.000000
  0
VERTEX
  8
LAYER-1
 10
2.194569
 20
0.344848
 30
0.000000
  0
VERTEX
  8
LAYER-1
 10
2.194569
 20
0.616476
 30
0.000000
  0
VERTEX
  8
LAYER-1
 10
2.230000
 20
0.616476
 30
0.000000
  0
SEQEND
  8
LAYER-1
  0
POLYLINE
  8
LAYER-1
 66
  1
 70
  0
 62
  0
 10
3.046313
 20
0.412754
 30
0.000000
  0
VERTEX
  8
LAYER-1
 10
3.046313
 20
0.412754
 30
0.000000
  0
VERTEX
  8
LAYER-1
 10
3.010883
 20
0.412754
 30
0.000000
  0
SEQEND
  8
LAYER-1
  0
POLYLINE
  8
LAYER-1
 66
  1
 70
  0
 62
  0
 10
3.046313
 20
0.542664
 30
0.000000
  0
VERTEX
  8
LAYER-1
 10
3.046313
 20
0.542664
 30
0.000000
  0
VERTEX
  8
LAYER-1
 10
3.010883
 20
0.542664
 30
0.000000
  0
SEQEND
  8
LAYER-1
  0
POLYLINE
  8
LAYER-1
 66
  1
 70
  0
 62
  0
 10
2.230000
 20
0.412754
 30
0.000000
  0
VERTEX
  8
LAYER-1
 10
2.230000
 20
0.412754
 30
0.000000
  0
VERTEX
  8
LAYER-1
 10
2.194571
 20
0.412754
 30
0.000000
  0
SEQEND
  8
LAYER-1
  0
POLYLINE
  8
LAYER-1
 66
  1
 70
  0
 62
  0
 10
2.230000
 20
0.542664
 30
0.000000
  0
VERTEX
  8
LAYER-1
 10
2.230000
 20
0.542664
 30
0.000000
  0
VERTEX
  8
LAYER-1
 10
2.194571
 20
0.542664
 30
0.000000
  0
SEQEND
  8
LAYER-1
  0
POLYLINE
  8
LAYER-1
 66
  1
 70
  0
 62
  0
 10
3.215426
 20
0.344731
 30
0.000000
  0
VERTEX
  8
LAYER-1
 10
3.215426
 20
0.344731
 30
0.000000
  0
VERTEX
  8
LAYER-1
 10
3.225662
 20
0.338137
 30
0.000000
  0
VERTEX
  8
LAYER-1
 10
3.240346
 20
0.340712
 30
0.000000
  0
VERTEX
  8
LAYER-1
 10
3.248645
 20
0.345291
 30
0.000000
  0
SEQEND
  8
LAYER-1
  0
POLYLINE
  8
LAYER-1
 66
  1
 70
  0
 62
  0
 10
2.398247
 20
0.344910
 30
0.000000
  0
VERTEX
  8
LAYER-1
 10
2.398247
 20
0.344910
 30
0.000000
  0
VERTEX
  8
LAYER-1
 10
2.411418
 20
0.337863
 30
0.000000
  0
VERTEX
  8
LAYER-1
 10
2.428499
 20
0.342194
 30
0.000000
  0
VERTEX
  8
LAYER-1
 10
2.435151
 20
0.344909
 30
0.000000
  0
SEQEND
  8
LAYER-1
  0
POLYLINE
  8
LAYER-1
 66
  1
 70
  0
 62
  0
 10
2.655567
 20
0.616507
 30
0.000000
  0
VERTEX
  8
LAYER-1
 10
2.655567
 20
0.616507
 30
0.000000
  0
VERTEX
  8
LAYER-1
 10
2.641689
 20
0.627444
 30
0.000000
  0
VERTEX
  8
LAYER-1
 10
2.626927
 20
0.625365
 30
0.000000
  0
VERTEX
  8
LAYER-1
 10
2.622347
 20
0.617066
 30
0.000000
  0
SEQEND
  8
LAYER-1
  0
POLYLINE
  8
LAYER-1
 66
  1
 70
  0
 62
  0
 10
2.622348
 20
0.617066
 30
0.000000
  0
VERTEX
  8
LAYER-1
 10
2.622348
 20
0.617066
 30
0.000000
  0
VERTEX
  8
LAYER-1
 10
2.655567
 20
0.616505
 30
0.000000
  0
SEQEND
  8
LAYER-1
  0
POLYLINE
  8
LAYER-1
 66
  1
 70
  0
 62
  0
 10
2.620139
 20
0.616505
 30
0.000000
  0
VERTEX
  8
LAYER-1
 10
2.620139
 20
0.616505
 30
0.000000
  0
VERTEX
  8
LAYER-1
 10
2.603030
 20
0.627489
 30
0.000000
  0
VERTEX
  8
LAYER-1
 10
2.585950
 20
0.623158
 30
0.000000
  0
VERTEX
  8
LAYER-1
 10
2.583235
 20
0.616504
 30
0.000000
  0
SEQEND
  8
LAYER-1
  0
POLYLINE
  8
LAYER-1
 66
  1
 70
  0
 62
  0
 10
2.583235
 20
0.616504
 30
0.000000
  0
VERTEX
  8
LAYER-1
 10
2.583235
 20
0.616504
 30
0.000000
  0
VERTEX
  8
LAYER-1
 10
2.620138
 20
0.616505
 30
0.000000
  0
SEQEND
  8
LAYER-1
  0
POLYLINE
  8
LAYER-1
 66
  1
 70
  0
 62
  0
 10
2.584406
 20
0.344848
 30
0.000000
  0
VERTEX
  8
LAYER-1
 10
2.584406
 20
0.344848
 30
0.000000
  0
VERTEX
  8
LAYER-1
 10
2.584406
 20
0.616480
 30
0.000000
  0
SEQEND
  8
LAYER-1
  0
POLYLINE
  8
LAYER-1
 66
  1
 70
  0
 62
  0
 10
2.656740
 20
0.616475
 30
0.000000
  0
VERTEX
  8
LAYER-1
 10
2.656740
 20
0.616475
 30
0.000000
  0
VERTEX
  8
LAYER-1
 10
2.656740
 20
0.344847
 30
0.000000
  0
SEQEND
  8
LAYER-1
  0
POLYLINE
  8
LAYER-1
 66
  1
 70
  0
 62
  0
 10
2.621310
 20
0.344847
 30
0.000000
  0
VERTEX
  8
LAYER-1
 10
2.621310
 20
0.344847
 30
0.000000
  0
VERTEX
  8
LAYER-1
 10
2.621310
 20
0.616478
 30
0.000000
  0
SEQEND
  8
LAYER-1
  0
POLYLINE
  8
LAYER-1
 66
  1
 70
  0
 62
  0
 10
2.623215
 20
0.344429
 30
0.000000
  0
VERTEX
  8
LAYER-1
 10
2.623215
 20
0.344429
 30
0.000000
  0
VERTEX
  8
LAYER-1
 10
2.633451
 20
0.337835
 30
0.000000
  0
VERTEX
  8
LAYER-1
 10
2.648136
 20
0.340409
 30
0.000000
  0
VERTEX
  8
LAYER-1
 10
2.656435
 20
0.344989
 30
0.000000
  0
SEQEND
  8
LAYER-1
  0
POLYLINE
  8
LAYER-1
 66
  1
 70
  0
 62
  0
 10
2.623216
 20
0.344428
 30
0.000000
  0
VERTEX
  8
LAYER-1
 10
2.623216
 20
0.344428
 30
0.000000
  0
VERTEX
  8
LAYER-1
 10
2.656435
 20
0.344989
 30
0.000000
  0
SEQEND
  8
LAYER-1
  0
POLYLINE
  8
LAYER-1
 66
  1
 70
  0
 62
  0
 10
2.584103
 20
0.344990
 30
0.000000
  0
VERTEX
  8
LAYER-1
 10
2.584103
 20
0.344990
 30
0.000000
  0
VERTEX
  8
LAYER-1
 10
2.597274
 20
0.337943
 30
0.000000
  0
VERTEX
  8
LAYER-1
 10
2.614354
 20
0.342274
 30
0.000000
  0
VERTEX
  8
LAYER-1
 10
2.621007
 20
0.344989
 30
0.000000
  0
SEQEND
  8
LAYER-1
  0
POLYLINE
  8
LAYER-1
 66
  1
 70
  0
 62
  0
 10
2.584103
 20
0.344989
 30
0.000000
  0
VERTEX
  8
LAYER-1
 10
2.584103
 20
0.344989
 30
0.000000
  0
VERTEX
  8
LAYER-1
 10
2.621006
 20
0.344989
 30
0.000000
  0
SEQEND
  8
LAYER-1
  0
POLYLINE
  8
LAYER-1
 66
  1
 70
  0
 62
  0
 10
1.835567
 20
0.616507
 30
0.000000
  0
VERTEX
  8
LAYER-1
 10
1.835567
 20
0.616507
 30
0.000000
  0
VERTEX
  8
LAYER-1
 10
1.821690
 20
0.627444
 30
0.000000
  0
VERTEX
  8
LAYER-1
 10
1.806927
 20
0.625365
 30
0.000000
  0
VERTEX
  8
LAYER-1
 10
1.802347
 20
0.617066
 30
0.000000
  0
SEQEND
  8
LAYER-1
  0
POLYLINE
  8
LAYER-1
 66
  1
 70
  0
 62
  0
 10
1.802348
 20
0.617066
 30
0.000000
  0
VERTEX
  8
LAYER-1
 10
1.802348
 20
0.617066
 30
0.000000
  0
VERTEX
  8
LAYER-1
 10
1.835567
 20
0.616505
 30
0.000000
  0
SEQEND
  8
LAYER-1
  0
POLYLINE
  8
LAYER-1
 66
  1
 70
  0
 62
  0
 10
1.800138
 20
0.616505
 30
0.000000
  0
VERTEX
  8
LAYER-1
 10
1.800138
 20
0.616505
 30
0.000000
  0
VERTEX
  8
LAYER-1
 10
1.783030
 20
0.627489
 30
0.000000
  0
VERTEX
  8
LAYER-1
 10
1.765950
 20
0.623158
 30
0.000000
  0
VERTEX
  8
LAYER-1
 10
1.763235
 20
0.616504
 30
0.000000
  0
SEQEND
  8
LAYER-1
  0
POLYLINE
  8
LAYER-1
 66
  1
 70
  0
 62
  0
 10
1.763235
 20
0.616504
 30
0.000000
  0
VERTEX
  8
LAYER-1
 10
1.763235
 20
0.616504
 30
0.000000
  0
VERTEX
  8
LAYER-1
 10
1.800138
 20
0.616505
 30
0.000000
  0
SEQEND
  8
LAYER-1
  0
POLYLINE
  8
LAYER-1
 66
  1
 70
  0
 62
  0
 10
1.764406
 20
0.344848
 30
0.000000
  0
VERTEX
  8
LAYER-1
 10
1.764406
 20
0.344848
 30
0.000000
  0
VERTEX
  8
LAYER-1
 10
1.764406
 20
0.616480
 30
0.000000
  0
SEQEND
  8
LAYER-1
  0
POLYLINE
  8
LAYER-1
 66
  1
 70
  0
 62
  0
 10
1.836740
 20
0.616475
 30
0.000000
  0
VERTEX
  8
LAYER-1
 10
1.836740
 20
0.616475
 30
0.000000
  0
VERTEX
  8
LAYER-1
 10
1.836740
 20
0.344847
 30
0.000000
  0
SEQEND
  8
LAYER-1
  0
POLYLINE
  8
LAYER-1
 66
  1
 70
  0
 62
  0
 10
1.801310
 20
0.344847
 30
0.000000
  0
VERTEX
  8
LAYER-1
 10
1.801310
 20
0.344847
 30
0.000000
  0
VERTEX
  8
LAYER-1
 10
1.801310
 20
0.616478
 30
0.000000
  0
SEQEND
  8
LAYER-1
  0
POLYLINE
  8
LAYER-1
 66
  1
 70
  0
 62
  0
 10
1.803216
 20
0.344429
 30
0.000000
  0
VERTEX
  8
LAYER-1
 10
1.803216
 20
0.344429
 30
0.000000
  0
VERTEX
  8
LAYER-1
 10
1.813452
 20
0.337835
 30
0.000000
  0
VERTEX
  8
LAYER-1
 10
1.828136
 20
0.340409
 30
0.000000
  0
VERTEX
  8
LAYER-1
 10
1.836436
 20
0.344989
 30
0.000000
  0
SEQEND
  8
LAYER-1
  0
POLYLINE
  8
LAYER-1
 66
  1
 70
  0
 62
  0
 10
1.803216
 20
0.344428
 30
0.000000
  0
VERTEX
  8
LAYER-1
 10
1.803216
 20
0.344428
 30
0.000000
  0
VERTEX
  8
LAYER-1
 10
1.836435
 20
0.344989
 30
0.000000
  0
SEQEND
  8
LAYER-1
  0
POLYLINE
  8
LAYER-1
 66
  1
 70
  0
 62
  0
 10
1.764103
 20
0.344990
 30
0.000000
  0
VERTEX
  8
LAYER-1
 10
1.764103
 20
0.344990
 30
0.000000
  0
VERTEX
  8
LAYER-1
 10
1.777274
 20
0.337943
 30
0.000000
  0
VERTEX
  8
LAYER-1
 10
1.794354
 20
0.342274
 30
0.000000
  0
VERTEX
  8
LAYER-1
 10
1.801007
 20
0.344989
 30
0.000000
  0
SEQEND
  8
LAYER-1
  0
POLYLINE
  8
LAYER-1
 66
  1
 70
  0
 62
  0
 10
1.764104
 20
0.344989
 30
0.000000
  0
VERTEX
  8
LAYER-1
 10
1.764104
 20
0.344989
 30
0.000000
  0
VERTEX
  8
LAYER-1
 10
1.801006
 20
0.344989
 30
0.000000
  0
SEQEND
  8
LAYER-1
  0
POLYLINE
  8
LAYER-1
 66
  1
 70
  1
 62
  0
  0
VERTEX
  8
LAYER-1
 10
3.660033
 20
7.415132
 30
0.000000
  0
VERTEX
  8
LAYER-1
 10
3.828915
 20
7.415132
 30
0.000000
  0
VERTEX
  8
LAYER-1
 10
3.828915
 20
0.345306
 30
0.000000
  0
VERTEX
  8
LAYER-1
 10
3.660033
 20
0.345306
 30
0.000000
  0
SEQEND
  8
LAYER-1
  0
CIRCLE
  8
LAYER-1
 62
  0
 10
3.744680
 20
3.180689
 30
0.000000
 40
0.064283
  0
LINE
  8
LAYER-1
 62
  0
 10
6.750760
 20
7.482560
 30
0.000000
 11
0.747288
 21
7.482560
 31
0.000000
  0
LINE
  8
LAYER-1
 62
  0
 10
6.750760
 20
7.592560
 30
0.000000
 11
0.747288
 21
7.592560
 31
0.000000
  0
LINE
  8
LAYER-1
 62
  0
 10
1.306316
 20
7.480596
 30
0.000000
 11
1.306316
 21
7.590574
 31
0.000000
  0
LINE
  8
LAYER-1
 62
  0
 10
1.246947
 20
7.480596
 30
0.000000
 11
1.431316
 21
7.480596
 31
0.000000
  0
LINE
  8
LAYER-1
 62
  0
 10
1.247288
 20
7.590574
 30
0.000000
 11
1.431316
 21
7.590574
 31
0.000000
  0
LINE
  8
LAYER-1
 62
  0
 10
1.306316
 20
7.590574
 30
0.000000
 11
1.306316
 21
7.225060
 31
0.000000
  0
LINE
  8
LAYER-1
 62
  0
 10
1.276853
 20
7.510059
 30
0.000000
 11
1.335778
 21
7.451133
 31
0.000000
  0
LINE
  8
LAYER-1
 62
  0
 10
1.276853
 20
7.620038
 30
0.000000
 11
1.335778
 21
7.561111
 31
0.000000
  0
TEXT
  8
LAYER-1
 62
  0
 10
1.296255
 20
7.099185
 30
0.000000
 40
0.125000
  1
 
  0
POLYLINE
  8
LAYER-1
 66
  1
 70
  1
 62
  0
  0
VERTEX
  8
LAYER-1
 10
3.767799
 20
7.480557
 30
0.000000
  0
VERTEX
  8
LAYER-1
 10
3.792895
 20
7.480557
 30
0.000000
  0
VERTEX
  8
LAYER-1
 10
3.792895
 20
7.415106
 30
0.000000
  0
VERTEX
  8
LAYER-1
 10
3.767799
 20
7.415106
 30
0.000000
  0
SEQEND
  8
LAYER-1
  0
POLYLINE
  8
LAYER-1
 66
  1
 70
  1
 62
  0
  0
VERTEX
  8
LAYER-1
 10
4.651105
 20
7.480899
 30
0.000000
  0
VERTEX
  8
LAYER-1
 10
4.676200
 20
7.480899
 30
0.000000
  0
VERTEX
  8
LAYER-1
 10
4.676200
 20
7.414979
 30
0.000000
  0
VERTEX
  8
LAYER-1
 10
4.651105
 20
7.414979
 30
0.000000
  0
SEQEND
  8
LAYER-1
  0
POLYLINE
  8
LAYER-1
 66
  1
 70
  1
 62
  0
  0
VERTEX
  8
LAYER-1
 10
5.468076
 20
7.480899
 30
0.000000
  0
VERTEX
  8
LAYER-1
 10
5.493172
 20
7.480899
 30
0.000000
  0
VERTEX
  8
LAYER-1
 10
5.493172
 20
7.414979
 30
0.000000
  0
VERTEX
  8
LAYER-1
 10
5.468076
 20
7.414979
 30
0.000000
  0
SEQEND
  8
LAYER-1
  0
POLYLINE
  8
LAYER-1
 66
  1
 70
  1
 62
  0
  0
VERTEX
  8
LAYER-1
 10
3.689237
 20
0.345431
 30
0.000000
  0
VERTEX
  8
LAYER-1
 10
3.722794
 20
0.345431
 30
0.000000
  0
VERTEX
  8
LAYER-1
 10
3.722794
 20
0.249925
 30
0.000000
  0
VERTEX
  8
LAYER-1
 10
3.689237
 20
0.249925
 30
0.000000
  0
SEQEND
  8
LAYER-1
  0
POLYLINE
  8
LAYER-1
 66
  1
 70
  0
 62
  0
 10
3.702333
 20
2.123049
 30
0.000000
  0
VERTEX
  8
LAYER-1
 10
3.702333
 20
2.123049
 30
0.000000
  0
VERTEX
  8
LAYER-1
 10
3.702335
 20
2.123049
 30
0.000000
  0
SEQEND
  8
LAYER-1
  0
POLYLINE
  8
LAYER-1
 66
  1
 70
  0
 62
  0
 10
3.710299
 20
2.115085
 30
0.000000
  0
VERTEX
  8
LAYER-1
 10
3.710299
 20
2.115085
 30
0.000000
  0
VERTEX
  8
LAYER-1
 10
3.710299
 20
1.865542
 30
0.000000
  0
SEQEND
  8
LAYER-1
  0
POLYLINE
  8
LAYER-1
 66
  1
 70
  0
 62
  0
 10
3.702335
 20
1.857578
 30
0.000000
  0
VERTEX
  8
LAYER-1
 10
3.702335
 20
1.857578
 30
0.000000
  0
VERTEX
  8
LAYER-1
 10
3.702333
 20
1.857578
 30
0.000000
  0
SEQEND
  8
LAYER-1
  0
POLYLINE
  8
LAYER-1
 66
  1
 70
  0
 62
  0
 10
3.694369
 20
1.865542
 30
0.000000
  0
VERTEX
  8
LAYER-1
 10
3.694369
 20
1.865542
 30
0.000000
  0
VERTEX
  8
LAYER-1
 10
3.694369
 20
2.115085
 30
0.000000
  0
SEQEND
  8
LAYER-1
  0
ARC
  8
LAYER-1
 62
  0
 10
3.702333
 20
2.115085
 30
0.000000
 40
0.007964
 50
270.000000
 51
0.000000
  0
ARC
  8
LAYER-1
 62
  0
 10
3.702333
 20
1.865542
 30
0.000000
 40
0.007964
 50
0.000000
 51
90.000000
  0
ARC
  8
LAYER-1
 62
  0
 10
3.702335
 20
1.865542
 30
0.000000
 40
0.007964
 50
90.000000
 51
180.000000
  0
ARC
  8
LAYER-1
 62
  0
 10
3.702335
 20
2.115085
 30
0.000000
 40
0.007964
 50
180.000000
 51
270.000000
  0
POLYLINE
  8
LAYER-1
 66
  1
 70
  1
 62
  0
  0
VERTEX
  8
LAYER-1
 10
2.812570
 20
7.480603
 30
0.000000
  0
VERTEX
  8
LAYER-1
 10
2.837666
 20
7.480603
 30
0.000000
  0
VERTEX
  8
LAYER-1
 10
2.837666
 20
7.415622
 30
0.000000
  0
VERTEX
  8
LAYER-1
 10
2.812570
 20
7.415622
 30
0.000000
  0
SEQEND
  8
LAYER-1
  0
POLYLINE
  8
LAYER-1
 66
  1
 70
  1
 62
  0
  0
VERTEX
  8
LAYER-1
 10
1.994731
 20
7.480603
 30
0.000000
  0
VERTEX
  8
LAYER-1
 10
2.019827
 20
7.480603
 30
0.000000
  0
VERTEX
  8
LAYER-1
 10
2.019827
 20
7.415622
 30
0.000000
  0
VERTEX
  8
LAYER-1
 10
1.994731
 20
7.415622
 30
0.000000
  0
SEQEND
  8
LAYER-1
  0
POLYLINE
  8
LAYER-1
 66
  1
 70
  0
 62
  0
 10
3.659334
 20
0.242265
 30
0.000000
  0
VERTEX
  8
LAYER-1
 10
3.659334
 20
0.242265
 30
0.000000
  0
VERTEX
  8
LAYER-1
 10
3.672112
 20
0.249830
 30
0.000000
  0
SEQEND
  8
LAYER-1
  0
POLYLINE
  8
LAYER-1
 66
  1
 70
  0
 62
  0
 10
3.659334
 20
0.242265
 30
0.000000
  0
VERTEX
  8
LAYER-1
 10
3.659334
 20
0.242265
 30
0.000000
  0
VERTEX
  8
LAYER-1
 10
3.659334
 20
0.240700
 30
0.000000
  0
SEQEND
  8
LAYER-1
  0
POLYLINE
  8
LAYER-1
 66
  1
 70
  1
 62
  0
  0
VERTEX
  8
LAYER-1
 10
3.677777
 20
0.240686
 30
0.000000
  0
VERTEX
  8
LAYER-1
 10
3.734364
 20
0.240686
 30
0.000000
  0
VERTEX
  8
LAYER-1
 10
3.734364
 20
0.053023
 30
0.000000
  0
VERTEX
  8
LAYER-1
 10
3.677777
 20
0.053023
 30
0.000000
  0
SEQEND
  8
LAYER-1
  0
POLYLINE
  8
LAYER-1
  6
LTYPE01
 66
  1
 70
  1
 62
  0
  0
VERTEX
  8
LAYER-1
  6
LTYPE01
 10
3.682471
 20
0.249812
 30
0.000000
  0
VERTEX
  8
LAYER-1
  6
LTYPE01
 10
3.729411
 20
0.249812
 30
0.000000
  0
VERTEX
  8
LAYER-1
  6
LTYPE01
 10
3.729411
 20
0.062584
 30
0.000000
  0
VERTEX
  8
LAYER-1
  6
LTYPE01
 10
3.682471
 20
0.062584
 30
0.000000
  0
SEQEND
  8
LAYER-1
  0
POLYLINE
  8
LAYER-1
 66
  1
 70
  0
 62
  0
 10
3.659334
 20
0.240700
 30
0.000000
  0
VERTEX
  8
LAYER-1
 10
3.659334
 20
0.240700
 30
0.000000
  0
VERTEX
  8
LAYER-1
 10
3.752951
 20
0.240700
 30
0.000000
  0
SEQEND
  8
LAYER-1
  0
POLYLINE
  8
LAYER-1
 66
  1
 70
  0
 62
  0
 10
3.752951
 20
0.240700
 30
0.000000
  0
VERTEX
  8
LAYER-1
 10
3.752951
 20
0.240700
 30
0.000000
  0
VERTEX
  8
LAYER-1
 10
3.752951
 20
0.242265
 30
0.000000
  0
SEQEND
  8
LAYER-1
  0
POLYLINE
  8
LAYER-1
 66
  1
 70
  0
 62
  0
 10
3.752951
 20
0.242265
 30
0.000000
  0
VERTEX
  8
LAYER-1
 10
3.752951
 20
0.242265
 30
0.000000
  0
VERTEX
  8
LAYER-1
 10
3.739911
 20
0.249830
 30
0.000000
  0
SEQEND
  8
LAYER-1
  0
POLYLINE
  8
LAYER-1
  6
LTYPE02
 66
  1
 70
  0
 62
  0
  6
LTYPE02
 10
3.683716
 20
0.149043
 30
0.000000
  0
VERTEX
  8
LAYER-1
  6
LTYPE02
 10
3.683716
 20
0.149043
 30
0.000000
  0
VERTEX
  8
LAYER-1
  6
LTYPE02
 10
3.683716
 20
0.115144
 30
0.000000
  0
SEQEND
  8
LAYER-1
  0
POLYLINE
  8
LAYER-1
  6
LTYPE02
 66
  1
 70
  0
 62
  0
  6
LTYPE02
 10
3.687624
 20
0.149043
 30
0.000000
  0
VERTEX
  8
LAYER-1
  6
LTYPE02
 10
3.687624
 20
0.149043
 30
0.000000
  0
VERTEX
  8
LAYER-1
  6
LTYPE02
 10
3.683716
 20
0.149043
 30
0.000000
  0
SEQEND
  8
LAYER-1
  0
POLYLINE
  8
LAYER-1
  6
LTYPE02
 66
  1
 70
  0
 62
  0
  6
LTYPE02
 10
3.687624
 20
0.149043
 30
0.000000
  0
VERTEX
  8
LAYER-1
  6
LTYPE02
 10
3.687624
 20
0.149043
 30
0.000000
  0
VERTEX
  8
LAYER-1
  6
LTYPE02
 10
3.687624
 20
0.153475
 30
0.000000
  0
SEQEND
  8
LAYER-1
  0
POLYLINE
  8
LAYER-1
  6
LTYPE02
 66
  1
 70
  0
 62
  0
  6
LTYPE02
 10
3.687624
 20
0.153475
 30
0.000000
  0
VERTEX
  8
LAYER-1
  6
LTYPE02
 10
3.687624
 20
0.153475
 30
0.000000
  0
VERTEX
  8
LAYER-1
  6
LTYPE02
 10
3.724884
 20
0.153475
 30
0.000000
  0
SEQEND
  8
LAYER-1
  0
POLYLINE
  8
LAYER-1
  6
LTYPE02
 66
  1
 70
  0
 62
  0
  6
LTYPE02
 10
3.683716
 20
0.115144
 30
0.000000
  0
VERTEX
  8
LAYER-1
  6
LTYPE02
 10
3.683716
 20
0.115144
 30
0.000000
  0
VERTEX
  8
LAYER-1
  6
LTYPE02
 10
3.728047
 20
0.115144
 30
0.000000
  0
SEQEND
  8
LAYER-1
  0
POLYLINE
  8
LAYER-1
  6
LTYPE02
 66
  1
 70
  0
 62
  0
  6
LTYPE02
 10
3.728047
 20
0.115144
 30
0.000000
  0
VERTEX
  8
LAYER-1
  6
LTYPE02
 10
3.728047
 20
0.115144
 30
0.000000
  0
VERTEX
  8
LAYER-1
  6
LTYPE02
 10
3.728047
 20
0.149043
 30
0.000000
  0
SEQEND
  8
LAYER-1
  0
POLYLINE
  8
LAYER-1
  6
LTYPE02
 66
  1
 70
  0
 62
  0
  6
LTYPE02
 10
3.724884
 20
0.149043
 30
0.000000
  0
VERTEX
  8
LAYER-1
  6
LTYPE02
 10
3.724884
 20
0.149043
 30
0.000000
  0
VERTEX
  8
LAYER-1
  6
LTYPE02
 10
3.728047
 20
0.149043
 30
0.000000
  0
SEQEND
  8
LAYER-1
  0
POLYLINE
  8
LAYER-1
  6
LTYPE02
 66
  1
 70
  0
 62
  0
  6
LTYPE02
 10
3.724884
 20
0.153475
 30
0.000000
  0
VERTEX
  8
LAYER-1
  6
LTYPE02
 10
3.724884
 20
0.153475
 30
0.000000
  0
VERTEX
  8
LAYER-1
  6
LTYPE02
 10
3.724884
 20
0.149043
 30
0.000000
  0
SEQEND
  8
LAYER-1
  0
POLYLINE
  8
LAYER-1
  6
LTYPE01
 66
  1
 70
  1
 62
  0
  0
VERTEX
  8
LAYER-1
  6
LTYPE01
 10
3.688853
 20
0.114997
 30
0.000000
  0
VERTEX
  8
LAYER-1
  6
LTYPE01
 10
3.723275
 20
0.114997
 30
0.000000
  0
VERTEX
  8
LAYER-1
  6
LTYPE01
 10
3.723275
 20
0.062843
 30
0.000000
  0
VERTEX
  8
LAYER-1
  6
LTYPE01
 10
3.688853
 20
0.062843
 30
0.000000
  0
SEQEND
  8
LAYER-1
  0
POLYLINE
  8
LAYER-1
  6
LTYPE02
 66
  1
 70
  0
 62
  0
  6
LTYPE02
 10
3.723275
 20
0.114997
 30
0.000000
  0
VERTEX
  8
LAYER-1
  6
LTYPE02
 10
3.723275
 20
0.114997
 30
0.000000
  0
VERTEX
  8
LAYER-1
  6
LTYPE02
 10
3.688853
 20
0.112129
 30
0.000000
  0
SEQEND
  8
LAYER-1
  0
POLYLINE
  8
LAYER-1
  6
LTYPE02
 66
  1
 70
  0
 62
  0
  6
LTYPE02
 10
3.723275
 20
0.113433
 30
0.000000
  0
VERTEX
  8
LAYER-1
  6
LTYPE02
 10
3.723275
 20
0.113433
 30
0.000000
  0
VERTEX
  8
LAYER-1
  6
LTYPE02
 10
3.688853
 20
0.110304
 30
0.000000
  0
SEQEND
  8
LAYER-1
  0
POLYLINE
  8
LAYER-1
  6
LTYPE02
 66
  1
 70
  0
 62
  0
  6
LTYPE02
 10
3.723275
 20
0.110044
 30
0.000000
  0
VERTEX
  8
LAYER-1
  6
LTYPE02
 10
3.723275
 20
0.110044
 30
0.000000
  0
VERTEX
  8
LAYER-1
  6
LTYPE02
 10
3.688853
 20
0.107173
 30
0.000000
  0
SEQEND
  8
LAYER-1
  0
POLYLINE
  8
LAYER-1
  6
LTYPE02
 66
  1
 70
  0
 62
  0
  6
LTYPE02
 10
3.723275
 20
0.108477
 30
0.000000
  0
VERTEX
  8
LAYER-1
  6
LTYPE02
 10
3.723275
 20
0.108477
 30
0.000000
  0
VERTEX
  8
LAYER-1
  6
LTYPE02
 10
3.688853
 20
0.105349
 30
0.000000
  0
SEQEND
  8
LAYER-1
  0
POLYLINE
  8
LAYER-1
  6
LTYPE02
 66
  1
 70
  0
 62
  0
  6
LTYPE02
 10
3.723275
 20
0.104894
 30
0.000000
  0
VERTEX
  8
LAYER-1
  6
LTYPE02
 10
3.723275
 20
0.104894
 30
0.000000
  0
VERTEX
  8
LAYER-1
  6
LTYPE02
 10
3.688853
 20
0.102025
 30
0.000000
  0
SEQEND
  8
LAYER-1
  0
POLYLINE
  8
LAYER-1
  6
LTYPE02
 66
  1
 70
  0
 62
  0
  6
LTYPE02
 10
3.723275
 20
0.103330
 30
0.000000
  0
VERTEX
  8
LAYER-1
  6
LTYPE02
 10
3.723275
 20
0.103330
 30
0.000000
  0
VERTEX
  8
LAYER-1
  6
LTYPE02
 10
3.688853
 20
0.100200
 30
0.000000
  0
SEQEND
  8
LAYER-1
  0
POLYLINE
  8
LAYER-1
  6
LTYPE02
 66
  1
 70
  0
 62
  0
  6
LTYPE02
 10
3.723210
 20
0.100394
 30
0.000000
  0
VERTEX
  8
LAYER-1
  6
LTYPE02
 10
3.723210
 20
0.100394
 30
0.000000
  0
VERTEX
  8
LAYER-1
  6
LTYPE02
 10
3.688788
 20
0.097527
 30
0.000000
  0
SEQEND
  8
LAYER-1
  0
POLYLINE
  8
LAYER-1
  6
LTYPE02
 66
  1
 70
  0
 62
  0
  6
LTYPE02
 10
3.723210
 20
0.098831
 30
0.000000
  0
VERTEX
  8
LAYER-1
  6
LTYPE02
 10
3.723210
 20
0.098831
 30
0.000000
  0
VERTEX
  8
LAYER-1
  6
LTYPE02
 10
3.688788
 20
0.095702
 30
0.000000
  0
SEQEND
  8
LAYER-1
  0
POLYLINE
  8
LAYER-1
  6
LTYPE02
 66
  1
 70
  0
 62
  0
  6
LTYPE02
 10
3.723210
 20
0.095572
 30
0.000000
  0
VERTEX
  8
LAYER-1
  6
LTYPE02
 10
3.723210
 20
0.095572
 30
0.000000
  0
VERTEX
  8
LAYER-1
  6
LTYPE02
 10
3.688788
 20
0.092704
 30
0.000000
  0
SEQEND
  8
LAYER-1
  0
POLYLINE
  8
LAYER-1
  6
LTYPE02
 66
  1
 70
  0
 62
  0
  6
LTYPE02
 10
3.723210
 20
0.094006
 30
0.000000
  0
VERTEX
  8
LAYER-1
  6
LTYPE02
 10
3.723210
 20
0.094006
 30
0.000000
  0
VERTEX
  8
LAYER-1
  6
LTYPE02
 10
3.688788
 20
0.090876
 30
0.000000
  0
SEQEND
  8
LAYER-1
  0
POLYLINE
  8
LAYER-1
  6
LTYPE02
 66
  1
 70
  0
 62
  0
  6
LTYPE02
 10
3.723210
 20
0.090615
 30
0.000000
  0
VERTEX
  8
LAYER-1
  6
LTYPE02
 10
3.723210
 20
0.090615
 30
0.000000
  0
VERTEX
  8
LAYER-1
  6
LTYPE02
 10
3.688788
 20
0.087747
 30
0.000000
  0
SEQEND
  8
LAYER-1
  0
POLYLINE
  8
LAYER-1
  6
LTYPE02
 66
  1
 70
  0
 62
  0
  6
LTYPE02
 10
3.723210
 20
0.089052
 30
0.000000
  0
VERTEX
  8
LAYER-1
  6
LTYPE02
 10
3.723210
 20
0.089052
 30
0.000000
  0
VERTEX
  8
LAYER-1
  6
LTYPE02
 10
3.688788
 20
0.085921
 30
0.000000
  0
SEQEND
  8
LAYER-1
  0
POLYLINE
  8
LAYER-1
  6
LTYPE02
 66
  1
 70
  0
 62
  0
  6
LTYPE02
 10
3.723210
 20
0.085466
 30
0.000000
  0
VERTEX
  8
LAYER-1
  6
LTYPE02
 10
3.723210
 20
0.085466
 30
0.000000
  0
VERTEX
  8
LAYER-1
  6
LTYPE02
 10
3.688788
 20
0.082597
 30
0.000000
  0
SEQEND
  8
LAYER-1
  0
POLYLINE
  8
LAYER-1
  6
LTYPE02
 66
  1
 70
  0
 62
  0
  6
LTYPE02
 10
3.723210
 20
0.083901
 30
0.000000
  0
VERTEX
  8
LAYER-1
  6
LTYPE02
 10
3.723210
 20
0.083901
 30
0.000000
  0
VERTEX
  8
LAYER-1
  6
LTYPE02
 10
3.688788
 20
0.080772
 30
0.000000
  0
SEQEND
  8
LAYER-1
  0
POLYLINE
  8
LAYER-1
  6
LTYPE02
 66
  1
 70
  0
 62
  0
  6
LTYPE02
 10
3.723145
 20
0.080967
 30
0.000000
  0
VERTEX
  8
LAYER-1
  6
LTYPE02
 10
3.723145
 20
0.080967
 30
0.000000
  0
VERTEX
  8
LAYER-1
  6
LTYPE02
 10
3.688724
 20
0.078100
 30
0.000000
  0
SEQEND
  8
LAYER-1
  0
POLYLINE
  8
LAYER-1
  6
LTYPE02
 66
  1
 70
  0
 62
  0
  6
LTYPE02
 10
3.723145
 20
0.079404
 30
0.000000
  0
VERTEX
  8
LAYER-1
  6
LTYPE02
 10
3.723145
 20
0.079404
 30
0.000000
  0
VERTEX
  8
LAYER-1
  6
LTYPE02
 10
3.688724
 20
0.076274
 30
0.000000
  0
SEQEND
  8
LAYER-1
  0
POLYLINE
  8
LAYER-1
  6
LTYPE02
 66
  1
 70
  0
 62
  0
  6
LTYPE02
 10
3.723275
 20
0.076600
 30
0.000000
  0
VERTEX
  8
LAYER-1
  6
LTYPE02
 10
3.723275
 20
0.076600
 30
0.000000
  0
VERTEX
  8
LAYER-1
  6
LTYPE02
 10
3.688853
 20
0.073732
 30
0.000000
  0
SEQEND
  8
LAYER-1
  0
POLYLINE
  8
LAYER-1
  6
LTYPE02
 66
  1
 70
  0
 62
  0
  6
LTYPE02
 10
3.723275
 20
0.075035
 30
0.000000
  0
VERTEX
  8
LAYER-1
  6
LTYPE02
 10
3.723275
 20
0.075035
 30
0.000000
  0
VERTEX
  8
LAYER-1
  6
LTYPE02
 10
3.688853
 20
0.071906
 30
0.000000
  0
SEQEND
  8
LAYER-1
  0
POLYLINE
  8
LAYER-1
  6
LTYPE02
 66
  1
 70
  0
 62
  0
  6
LTYPE02
 10
3.723275
 20
0.071646
 30
0.000000
  0
VERTEX
  8
LAYER-1
  6
LTYPE02
 10
3.723275
 20
0.071646
 30
0.000000
  0
VERTEX
  8
LAYER-1
  6
LTYPE02
 10
3.688853
 20
0.068778
 30
0.000000
  0
SEQEND
  8
LAYER-1
  0
POLYLINE
  8
LAYER-1
  6
LTYPE02
 66
  1
 70
  0
 62
  0
  6
LTYPE02
 10
3.723275
 20
0.070081
 30
0.000000
  0
VERTEX
  8
LAYER-1
  6
LTYPE02
 10
3.723275
 20
0.070081
 30
0.000000
  0
VERTEX
  8
LAYER-1
  6
LTYPE02
 10
3.688853
 20
0.066951
 30
0.000000
  0
SEQEND
  8
LAYER-1
  0
POLYLINE
  8
LAYER-1
  6
LTYPE02
 66
  1
 70
  0
 62
  0
  6
LTYPE02
 10
3.723275
 20
0.066495
 30
0.000000
  0
VERTEX
  8
LAYER-1
  6
LTYPE02
 10
3.723275
 20
0.066495
 30
0.000000
  0
VERTEX
  8
LAYER-1
  6
LTYPE02
 10
3.688853
 20
0.063626
 30
0.000000
  0
SEQEND
  8
LAYER-1
  0
POLYLINE
  8
LAYER-1
  6
LTYPE02
 66
  1
 70
  0
 62
  0
  6
LTYPE02
 10
3.723275
 20
0.064931
 30
0.000000
  0
VERTEX
  8
LAYER-1
  6
LTYPE02
 10
3.723275
 20
0.064931
 30
0.000000
  0
VERTEX
  8
LAYER-1
  6
LTYPE02
 10
3.700262
 20
0.062843
 30
0.000000
  0
SEQEND
  8
LAYER-1
  0
POLYLINE
  8
LAYER-1
  6
LTYPE02
 66
  1
 70
  0
 62
  0
  6
LTYPE02
 10
3.689845
 20
0.174207
 30
0.000000
  0
VERTEX
  8
LAYER-1
  6
LTYPE02
 10
3.689845
 20
0.174207
 30
0.000000
  0
VERTEX
  8
LAYER-1
  6
LTYPE02
 10
3.689845
 20
0.249830
 30
0.000000
  0
SEQEND
  8
LAYER-1
  0
POLYLINE
  8
LAYER-1
  6
LTYPE02
 66
  1
 70
  0
 62
  0
  6
LTYPE02
 10
3.722179
 20
0.174207
 30
0.000000
  0
VERTEX
  8
LAYER-1
  6
LTYPE02
 10
3.722179
 20
0.174207
 30
0.000000
  0
VERTEX
  8
LAYER-1
  6
LTYPE02
 10
3.722179
 20
0.249830
 30
0.000000
  0
SEQEND
  8
LAYER-1
  0
POLYLINE
  8
LAYER-1
  6
LTYPE01
 66
  1
 70
  0
 62
  0
  6
LTYPE01
 10
3.689844
 20
0.174207
 30
0.000000
  0
VERTEX
  8
LAYER-1
  6
LTYPE01
 10
3.689844
 20
0.174207
 30
0.000000
  0
VERTEX
  8
LAYER-1
  6
LTYPE01
 10
3.692611
 20
0.164743
 30
0.000000
  0
VERTEX
  8
LAYER-1
  6
LTYPE01
 10
3.704043
 20
0.160009
 30
0.000000
  0
VERTEX
  8
LAYER-1
  6
LTYPE01
 10
3.715476
 20
0.164743
 30
0.000000
  0
VERTEX
  8
LAYER-1
  6
LTYPE01
 10
3.722179
 20
0.174207
 30
0.000000
  0
SEQEND
  8
LAYER-1
  0
POLYLINE
  8
LAYER-1
 66
  1
 70
  0
 62
  0
 10
3.672112
 20
0.249830
 30
0.000000
  0
VERTEX
  8
LAYER-1
 10
3.672112
 20
0.249830
 30
0.000000
  0
VERTEX
  8
LAYER-1
 10
3.739911
 20
0.249830
 30
0.000000
  0
SEQEND
  8
LAYER-1
  0
TEXT
  8
LAYER-1
 62
  7
 10
1.972982
 20
8.794505
 30
0.000000
 40
0.166667
  1
Elevazione modello System S-126
 72
  5
 11
5.611871
 21
8.794505
 31
0.000000
  0
TEXT
  8
LAYER-1
 62
  0
 10
1.056316
 20
6.850060
 30
0.000000
 40
0.125000
  1
1-
 72
  5
 11
1.278538
 21
6.850060
 31
0.000000
  0
TEXT
  8
LAYER-1
 62
  0
 10
1.278538
 20
6.850060
 30
0.000000
 40
0.104167
  1
9/16
 72
  5
 11
1.639649
 21
6.850060
 31
0.000000
  0
TEXT
  8
LAYER-1
 62
  0
 10
1.639649
 20
6.850060
 30
0.000000
 40
0.125000
  1
"
 72
  5
 11
1.764649
 21
6.850060
 31
0.000000
  0
TEXT
  8
LAYER-1
 62
  0
 10
1.056316
 20
6.655616
 30
0.000000
 40
0.125000
  1
40mm
 72
  5
 11
1.625760
 21
6.655616
 31
0.000000
  0
TEXT
  8
LAYER-1
 62
  0
 10
6.028538
 20
4.711171
 30
0.000000
 40
0.125000
  1
barre
 72
  5
 11
6.500760
 21
4.711171
 31
0.000000
  0
TEXT
  8
LAYER-1
 62
  0
 10
5.861871
 20
4.516727
 30
0.000000
 40
0.125000
  1
orizzontali
 72
  5
 11
6.681316
 21
4.516727
 31
0.000000
  0
TEXT
  8
LAYER-1
 62
  0
 10
6.097982
 20
4.322283
 30
0.000000
 40
0.104167
  1
1/8
 72
  5
 11
6.375760
 21
4.322283
 31
0.000000
  0
TEXT
  8
LAYER-1
 62
  0
 10
6.375760
 20
4.322283
 30
0.000000
 40
0.125000
  1
"
 72
  5
 11
6.500760
 21
4.322283
 31
0.000000
  0
TEXT
  8
LAYER-1
 62
  0
 10
6.028538
 20
4.127838
 30
0.000000
 40
0.125000
  1
3mm
 72
  5
 11
6.500760
 21
4.127838
 31
0.000000
  0
POLYLINE
  8
LAYER-1
 66
  1
 70
  1
 62
  7
  0
VERTEX
  8
LAYER-1
 10
0.078052
 20
5.136517
 30
0.000000
  0
VERTEX
  8
LAYER-1
 10
0.088782
 20
5.136517
 30
0.000000
  0
VERTEX
  8
LAYER-1
 10
0.088782
 20
3.439020
 30
0.000000
  0
VERTEX
  8
LAYER-1
 10
0.078052
 20
3.439020
 30
0.000000
  0
SEQEND
  8
LAYER-1
  0
POLYLINE
  8
LAYER-1
 66
  1
 70
  0
 62
 15
 10
0.078052
 20
5.136517
 30
0.000000
  0
VERTEX
  8
LAYER-1
 10
0.078052
 20
5.136517
 30
0.000000
  0
VERTEX
  8
LAYER-1
 10
0.078052
 20
3.439020
 30
0.000000
  0
SEQEND
  8
LAYER-1
  0
POLYLINE
  8
LAYER-1
 66
  1
 70
  0
 62
 15
 10
0.088782
 20
5.136517
 30
0.000000
  0
VERTEX
  8
LAYER-1
 10
0.088782
 20
5.136517
 30
0.000000
  0
VERTEX
  8
LAYER-1
 10
0.088782
 20
3.439020
 30
0.000000
  0
SEQEND
  8
LAYER-1
  0
POLYLINE
  8
LAYER-1
 66
  1
 70
  1
 62
  7
  0
VERTEX
  8
LAYER-1
 10
0.004726
 20
5.037430
 30
0.000000
  0
VERTEX
  8
LAYER-1
 10
0.011880
 20
5.037430
 30
0.000000
  0
VERTEX
  8
LAYER-1
 10
0.011880
 20
3.538415
 30
0.000000
  0
VERTEX
  8
LAYER-1
 10
0.004726
 20
3.538415
 30
0.000000
  0
SEQEND
  8
LAYER-1
  0
POLYLINE
  8
LAYER-1
 66
  1
 70
  1
 62
  7
  0
VERTEX
  8
LAYER-1
 10
1.056325
 20
5.037430
 30
0.000000
  0
VERTEX
  8
LAYER-1
 10
1.063477
 20
5.037430
 30
0.000000
  0
VERTEX
  8
LAYER-1
 10
1.063477
 20
3.538415
 30
0.000000
  0
VERTEX
  8
LAYER-1
 10
1.056325
 20
3.538415
 30
0.000000
  0
SEQEND
  8
LAYER-1
  0
POLYLINE
  8
LAYER-1
 66
  1
 70
  1
 62
  7
  0
VERTEX
  8
LAYER-1
 10
0.906095
 20
5.037430
 30
0.000000
  0
VERTEX
  8
LAYER-1
 10
0.913250
 20
5.037430
 30
0.000000
  0
VERTEX
  8
LAYER-1
 10
0.913250
 20
3.538415
 30
0.000000
  0
VERTEX
  8
LAYER-1
 10
0.906095
 20
3.538415
 30
0.000000
  0
SEQEND
  8
LAYER-1
  0
POLYLINE
  8
LAYER-1
 66
  1
 70
  1
 62
  7
  0
VERTEX
  8
LAYER-1
 10
0.755867
 20
5.037430
 30
0.000000
  0
VERTEX
  8
LAYER-1
 10
0.763021
 20
5.037430
 30
0.000000
  0
VERTEX
  8
LAYER-1
 10
0.763021
 20
3.538415
 30
0.000000
  0
VERTEX
  8
LAYER-1
 10
0.755867
 20
3.538415
 30
0.000000
  0
SEQEND
  8
LAYER-1
  0
POLYLINE
  8
LAYER-1
 66
  1
 70
  1
 62
  7
  0
VERTEX
  8
LAYER-1
 10
0.605639
 20
5.037430
 30
0.000000
  0
VERTEX
  8
LAYER-1
 10
0.612793
 20
5.037430
 30
0.000000
  0
VERTEX
  8
LAYER-1
 10
0.612793
 20
3.538415
 30
0.000000
  0
VERTEX
  8
LAYER-1
 10
0.605639
 20
3.538415
 30
0.000000
  0
SEQEND
  8
LAYER-1
  0
POLYLINE
  8
LAYER-1
 66
  1
 70
  1
 62
  7
  0
VERTEX
  8
LAYER-1
 10
0.455410
 20
5.037430
 30
0.000000
  0
VERTEX
  8
LAYER-1
 10
0.462565
 20
5.037430
 30
0.000000
  0
VERTEX
  8
LAYER-1
 10
0.462565
 20
3.538415
 30
0.000000
  0
VERTEX
  8
LAYER-1
 10
0.455410
 20
3.538415
 30
0.000000
  0
SEQEND
  8
LAYER-1
  0
POLYLINE
  8
LAYER-1
 66
  1
 70
  1
 62
  7
  0
VERTEX
  8
LAYER-1
 10
0.305182
 20
5.037430
 30
0.000000
  0
VERTEX
  8
LAYER-1
 10
0.312336
 20
5.037430
 30
0.000000
  0
VERTEX
  8
LAYER-1
 10
0.312336
 20
3.538415
 30
0.000000
  0
VERTEX
  8
LAYER-1
 10
0.305182
 20
3.538415
 30
0.000000
  0
SEQEND
  8
LAYER-1
  0
POLYLINE
  8
LAYER-1
 66
  1
 70
  1
 62
  7
  0
VERTEX
  8
LAYER-1
 10
0.154954
 20
5.037430
 30
0.000000
  0
VERTEX
  8
LAYER-1
 10
0.162108
 20
5.037430
 30
0.000000
  0
VERTEX
  8
LAYER-1
 10
0.162108
 20
3.538415
 30
0.000000
  0
VERTEX
  8
LAYER-1
 10
0.154954
 20
3.538415
 30
0.000000
  0
SEQEND
  8
LAYER-1
  0
POLYLINE
  8
LAYER-1
 66
  1
 70
  1
 62
  7
  0
VERTEX
  8
LAYER-1
 10
0.979419
 20
5.136517
 30
0.000000
  0
VERTEX
  8
LAYER-1
 10
0.990152
 20
5.136517
 30
0.000000
  0
VERTEX
  8
LAYER-1
 10
0.990152
 20
3.439020
 30
0.000000
  0
VERTEX
  8
LAYER-1
 10
0.979419
 20
3.439020
 30
0.000000
  0
SEQEND
  8
LAYER-1
  0
POLYLINE
  8
LAYER-1
 66
  1
 70
  0
 62
 15
 10
0.979419
 20
5.136517
 30
0.000000
  0
VERTEX
  8
LAYER-1
 10
0.979419
 20
5.136517
 30
0.000000
  0
VERTEX
  8
LAYER-1
 10
0.979419
 20
3.439020
 30
0.000000
  0
SEQEND
  8
LAYER-1
  0
POLYLINE
  8
LAYER-1
 66
  1
 70
  0
 62
 15
 10
0.990152
 20
5.136517
 30
0.000000
  0
VERTEX
  8
LAYER-1
 10
0.990152
 20
5.136517
 30
0.000000
  0
VERTEX
  8
LAYER-1
 10
0.990152
 20
3.439020
 30
0.000000
  0
SEQEND
  8
LAYER-1
  0
POLYLINE
  8
LAYER-1
 66
  1
 70
  1
 62
  7
  0
VERTEX
  8
LAYER-1
 10
0.829193
 20
5.136517
 30
0.000000
  0
VERTEX
  8
LAYER-1
 10
0.839923
 20
5.136517
 30
0.000000
  0
VERTEX
  8
LAYER-1
 10
0.839923
 20
3.439020
 30
0.000000
  0
VERTEX
  8
LAYER-1
 10
0.829193
 20
3.439020
 30
0.000000
  0
SEQEND
  8
LAYER-1
  0
POLYLINE
  8
LAYER-1
 66
  1
 70
  0
 62
 15
 10
0.829193
 20
5.136517
 30
0.000000
  0
VERTEX
  8
LAYER-1
 10
0.829193
 20
5.136517
 30
0.000000
  0
VERTEX
  8
LAYER-1
 10
0.829193
 20
3.439020
 30
0.000000
  0
SEQEND
  8
LAYER-1
  0
POLYLINE
  8
LAYER-1
 66
  1
 70
  0
 62
 15
 10
0.839923
 20
5.136517
 30
0.000000
  0
VERTEX
  8
LAYER-1
 10
0.839923
 20
5.136517
 30
0.000000
  0
VERTEX
  8
LAYER-1
 10
0.839923
 20
3.439020
 30
0.000000
  0
SEQEND
  8
LAYER-1
  0
POLYLINE
  8
LAYER-1
 66
  1
 70
  1
 62
  7
  0
VERTEX
  8
LAYER-1
 10
0.678965
 20
5.136517
 30
0.000000
  0
VERTEX
  8
LAYER-1
 10
0.689696
 20
5.136517
 30
0.000000
  0
VERTEX
  8
LAYER-1
 10
0.689696
 20
3.439020
 30
0.000000
  0
VERTEX
  8
LAYER-1
 10
0.678965
 20
3.439020
 30
0.000000
  0
SEQEND
  8
LAYER-1
  0
POLYLINE
  8
LAYER-1
 66
  1
 70
  0
 62
 15
 10
0.678965
 20
5.136517
 30
0.000000
  0
VERTEX
  8
LAYER-1
 10
0.678965
 20
5.136517
 30
0.000000
  0
VERTEX
  8
LAYER-1
 10
0.678965
 20
3.439020
 30
0.000000
  0
SEQEND
  8
LAYER-1
  0
POLYLINE
  8
LAYER-1
 66
  1
 70
  0
 62
 15
 10
0.689696
 20
5.136517
 30
0.000000
  0
VERTEX
  8
LAYER-1
 10
0.689696
 20
5.136517
 30
0.000000
  0
VERTEX
  8
LAYER-1
 10
0.689696
 20
3.439020
 30
0.000000
  0
SEQEND
  8
LAYER-1
  0
POLYLINE
  8
LAYER-1
 66
  1
 70
  1
 62
  7
  0
VERTEX
  8
LAYER-1
 10
0.528736
 20
5.136517
 30
0.000000
  0
VERTEX
  8
LAYER-1
 10
0.539468
 20
5.136517
 30
0.000000
  0
VERTEX
  8
LAYER-1
 10
0.539468
 20
3.439020
 30
0.000000
  0
VERTEX
  8
LAYER-1
 10
0.528736
 20
3.439020
 30
0.000000
  0
SEQEND
  8
LAYER-1
  0
POLYLINE
  8
LAYER-1
 66
  1
 70
  0
 62
 15
 10
0.528736
 20
5.136517
 30
0.000000
  0
VERTEX
  8
LAYER-1
 10
0.528736
 20
5.136517
 30
0.000000
  0
VERTEX
  8
LAYER-1
 10
0.528736
 20
3.439020
 30
0.000000
  0
SEQEND
  8
LAYER-1
  0
POLYLINE
  8
LAYER-1
 66
  1
 70
  0
 62
 15
 10
0.539468
 20
5.136517
 30
0.000000
  0
VERTEX
  8
LAYER-1
 10
0.539468
 20
5.136517
 30
0.000000
  0
VERTEX
  8
LAYER-1
 10
0.539468
 20
3.439020
 30
0.000000
  0
SEQEND
  8
LAYER-1
  0
POLYLINE
  8
LAYER-1
 66
  1
 70
  1
 62
  7
  0
VERTEX
  8
LAYER-1
 10
0.378507
 20
5.136517
 30
0.000000
  0
VERTEX
  8
LAYER-1
 10
0.389239
 20
5.136517
 30
0.000000
  0
VERTEX
  8
LAYER-1
 10
0.389239
 20
3.439020
 30
0.000000
  0
VERTEX
  8
LAYER-1
 10
0.378507
 20
3.439020
 30
0.000000
  0
SEQEND
  8
LAYER-1
  0
POLYLINE
  8
LAYER-1
 66
  1
 70
  0
 62
 15
 10
0.378507
 20
5.136517
 30
0.000000
  0
VERTEX
  8
LAYER-1
 10
0.378507
 20
5.136517
 30
0.000000
  0
VERTEX
  8
LAYER-1
 10
0.378507
 20
3.439020
 30
0.000000
  0
SEQEND
  8
LAYER-1
  0
POLYLINE
  8
LAYER-1
 66
  1
 70
  0
 62
 15
 10
0.389239
 20
5.136517
 30
0.000000
  0
VERTEX
  8
LAYER-1
 10
0.389239
 20
5.136517
 30
0.000000
  0
VERTEX
  8
LAYER-1
 10
0.389239
 20
3.439020
 30
0.000000
  0
SEQEND
  8
LAYER-1
  0
POLYLINE
  8
LAYER-1
 66
  1
 70
  1
 62
  7
  0
VERTEX
  8
LAYER-1
 10
0.228279
 20
5.136517
 30
0.000000
  0
VERTEX
  8
LAYER-1
 10
0.239010
 20
5.136517
 30
0.000000
  0
VERTEX
  8
LAYER-1
 10
0.239010
 20
3.439020
 30
0.000000
  0
VERTEX
  8
LAYER-1
 10
0.228279
 20
3.439020
 30
0.000000
  0
SEQEND
  8
LAYER-1
  0
POLYLINE
  8
LAYER-1
 66
  1
 70
  0
 62
 15
 10
0.228279
 20
5.136517
 30
0.000000
  0
VERTEX
  8
LAYER-1
 10
0.228279
 20
5.136517
 30
0.000000
  0
VERTEX
  8
LAYER-1
 10
0.228279
 20
3.439020
 30
0.000000
  0
SEQEND
  8
LAYER-1
  0
POLYLINE
  8
LAYER-1
 66
  1
 70
  0
 62
 15
 10
0.239010
 20
5.136517
 30
0.000000
  0
VERTEX
  8
LAYER-1
 10
0.239010
 20
5.136517
 30
0.000000
  0
VERTEX
  8
LAYER-1
 10
0.239010
 20
3.439020
 30
0.000000
  0
SEQEND
  8
LAYER-1
  0
POLYLINE
  8
LAYER-1
 66
  1
 70
  1
 62
  7
  0
VERTEX
  8
LAYER-1
 10
0.002572
 20
5.137102
 30
0.000000
  0
VERTEX
  8
LAYER-1
 10
0.152945
 20
5.137102
 30
0.000000
  0
VERTEX
  8
LAYER-1
 10
0.152945
 20
5.037359
 30
0.000000
  0
VERTEX
  8
LAYER-1
 10
0.002572
 20
5.037359
 30
0.000000
  0
SEQEND
  8
LAYER-1
  0
POLYLINE
  8
LAYER-1
 66
  1
 70
  1
 62
  7
  0
VERTEX
  8
LAYER-1
 10
0.152880
 20
5.137102
 30
0.000000
  0
VERTEX
  8
LAYER-1
 10
0.303254
 20
5.137102
 30
0.000000
  0
VERTEX
  8
LAYER-1
 10
0.303254
 20
5.037359
 30
0.000000
  0
VERTEX
  8
LAYER-1
 10
0.152880
 20
5.037359
 30
0.000000
  0
SEQEND
  8
LAYER-1
  0
POLYLINE
  8
LAYER-1
 66
  1
 70
  1
 62
  7
  0
VERTEX
  8
LAYER-1
 10
0.303042
 20
5.137102
 30
0.000000
  0
VERTEX
  8
LAYER-1
 10
0.453268
 20
5.137102
 30
0.000000
  0
VERTEX
  8
LAYER-1
 10
0.453268
 20
5.037359
 30
0.000000
  0
VERTEX
  8
LAYER-1
 10
0.303042
 20
5.037359
 30
0.000000
  0
SEQEND
  8
LAYER-1
  0
POLYLINE
  8
LAYER-1
 66
  1
 70
  1
 62
  7
  0
VERTEX
  8
LAYER-1
 10
0.453057
 20
5.137102
 30
0.000000
  0
VERTEX
  8
LAYER-1
 10
0.603576
 20
5.137102
 30
0.000000
  0
VERTEX
  8
LAYER-1
 10
0.603576
 20
5.037359
 30
0.000000
  0
VERTEX
  8
LAYER-1
 10
0.453057
 20
5.037359
 30
0.000000
  0
SEQEND
  8
LAYER-1
  0
POLYLINE
  8
LAYER-1
 66
  1
 70
  1
 62
  7
  0
VERTEX
  8
LAYER-1
 10
0.603657
 20
5.137102
 30
0.000000
  0
VERTEX
  8
LAYER-1
 10
0.753736
 20
5.137102
 30
0.000000
  0
VERTEX
  8
LAYER-1
 10
0.753736
 20
5.037359
 30
0.000000
  0
VERTEX
  8
LAYER-1
 10
0.603657
 20
5.037359
 30
0.000000
  0
SEQEND
  8
LAYER-1
  0
POLYLINE
  8
LAYER-1
 66
  1
 70
  1
 62
  7
  0
VERTEX
  8
LAYER-1
 10
0.753673
 20
5.137102
 30
0.000000
  0
VERTEX
  8
LAYER-1
 10
0.904045
 20
5.137102
 30
0.000000
  0
VERTEX
  8
LAYER-1
 10
0.904045
 20
5.037359
 30
0.000000
  0
VERTEX
  8
LAYER-1
 10
0.753673
 20
5.037359
 30
0.000000
  0
SEQEND
  8
LAYER-1
  0
POLYLINE
  8
LAYER-1
 66
  1
 70
  1
 62
  7
  0
VERTEX
  8
LAYER-1
 10
0.903981
 20
5.137102
 30
0.000000
  0
VERTEX
  8
LAYER-1
 10
1.065668
 20
5.137102
 30
0.000000
  0
VERTEX
  8
LAYER-1
 10
1.065668
 20
5.037359
 30
0.000000
  0
VERTEX
  8
LAYER-1
 10
0.903981
 20
5.037359
 30
0.000000
  0
SEQEND
  8
LAYER-1
  0
POLYLINE
  8
LAYER-1
 66
  1
 70
  1
 62
  7
  0
VERTEX
  8
LAYER-1
 10
0.002572
 20
3.538552
 30
0.000000
  0
VERTEX
  8
LAYER-1
 10
0.152945
 20
3.538552
 30
0.000000
  0
VERTEX
  8
LAYER-1
 10
0.152945
 20
3.438809
 30
0.000000
  0
VERTEX
  8
LAYER-1
 10
0.002572
 20
3.438809
 30
0.000000
  0
SEQEND
  8
LAYER-1
  0
POLYLINE
  8
LAYER-1
 66
  1
 70
  1
 62
  7
  0
VERTEX
  8
LAYER-1
 10
0.152880
 20
3.538552
 30
0.000000
  0
VERTEX
  8
LAYER-1
 10
0.303254
 20
3.538552
 30
0.000000
  0
VERTEX
  8
LAYER-1
 10
0.303254
 20
3.438809
 30
0.000000
  0
VERTEX
  8
LAYER-1
 10
0.152880
 20
3.438809
 30
0.000000
  0
SEQEND
  8
LAYER-1
  0
POLYLINE
  8
LAYER-1
 66
  1
 70
  1
 62
  7
  0
VERTEX
  8
LAYER-1
 10
0.303042
 20
3.538552
 30
0.000000
  0
VERTEX
  8
LAYER-1
 10
0.453268
 20
3.538552
 30
0.000000
  0
VERTEX
  8
LAYER-1
 10
0.453268
 20
3.438809
 30
0.000000
  0
VERTEX
  8
LAYER-1
 10
0.303042
 20
3.438809
 30
0.000000
  0
SEQEND
  8
LAYER-1
  0
POLYLINE
  8
LAYER-1
 66
  1
 70
  1
 62
  7
  0
VERTEX
  8
LAYER-1
 10
0.453351
 20
3.538552
 30
0.000000
  0
VERTEX
  8
LAYER-1
 10
0.603576
 20
3.538552
 30
0.000000
  0
VERTEX
  8
LAYER-1
 10
0.603576
 20
3.438809
 30
0.000000
  0
VERTEX
  8
LAYER-1
 10
0.453351
 20
3.438809
 30
0.000000
  0
SEQEND
  8
LAYER-1
  0
POLYLINE
  8
LAYER-1
 66
  1
 70
  1
 62
  7
  0
VERTEX
  8
LAYER-1
 10
0.603657
 20
3.538552
 30
0.000000
  0
VERTEX
  8
LAYER-1
 10
0.753736
 20
3.538552
 30
0.000000
  0
VERTEX
  8
LAYER-1
 10
0.753736
 20
3.438809
 30
0.000000
  0
VERTEX
  8
LAYER-1
 10
0.603657
 20
3.438809
 30
0.000000
  0
SEQEND
  8
LAYER-1
  0
POLYLINE
  8
LAYER-1
 66
  1
 70
  1
 62
  7
  0
VERTEX
  8
LAYER-1
 10
0.753673
 20
3.538552
 30
0.000000
  0
VERTEX
  8
LAYER-1
 10
0.904045
 20
3.538552
 30
0.000000
  0
VERTEX
  8
LAYER-1
 10
0.904045
 20
3.438809
 30
0.000000
  0
VERTEX
  8
LAYER-1
 10
0.753673
 20
3.438809
 30
0.000000
  0
SEQEND
  8
LAYER-1
  0
POLYLINE
  8
LAYER-1
 66
  1
 70
  1
 62
  7
  0
VERTEX
  8
LAYER-1
 10
0.903981
 20
3.538552
 30
0.000000
  0
VERTEX
  8
LAYER-1
 10
1.065668
 20
3.538552
 30
0.000000
  0
VERTEX
  8
LAYER-1
 10
1.065668
 20
3.438809
 30
0.000000
  0
VERTEX
  8
LAYER-1
 10
0.903981
 20
3.438809
 30
0.000000
  0
SEQEND
  8
LAYER-1
  0
POLYLINE
  8
LAYER-1
 66
  1
 70
  0
 62
  7
 10
0.164166
 20
3.538578
 30
0.000000
  0
VERTEX
  8
LAYER-1
 10
0.164166
 20
3.538578
 30
0.000000
  0
VERTEX
  8
LAYER-1
 10
0.164166
 20
3.438807
 30
0.000000
  0
SEQEND
  8
LAYER-1
  0
POLYLINE
  8
LAYER-1
 66
  1
 70
  0
 62
  7
 10
0.464624
 20
3.538578
 30
0.000000
  0
VERTEX
  8
LAYER-1
 10
0.464624
 20
3.538578
 30
0.000000
  0
VERTEX
  8
LAYER-1
 10
0.464624
 20
3.438807
 30
0.000000
  0
SEQEND
  8
LAYER-1
  0
POLYLINE
  8
LAYER-1
 66
  1
 70
  0
 62
  7
 10
0.614851
 20
3.538578
 30
0.000000
  0
VERTEX
  8
LAYER-1
 10
0.614851
 20
3.538578
 30
0.000000
  0
VERTEX
  8
LAYER-1
 10
0.614851
 20
3.438807
 30
0.000000
  0
SEQEND
  8
LAYER-1
  0
POLYLINE
  8
LAYER-1
 66
  1
 70
  0
 62
  7
 10
0.915308
 20
3.538578
 30
0.000000
  0
VERTEX
  8
LAYER-1
 10
0.915308
 20
3.538578
 30
0.000000
  0
VERTEX
  8
LAYER-1
 10
0.915308
 20
3.438807
 30
0.000000
  0
SEQEND
  8
LAYER-1
  0
POLYLINE
  8
LAYER-1
 66
  1
 70
  0
 62
  7
 10
0.314395
 20
3.538578
 30
0.000000
  0
VERTEX
  8
LAYER-1
 10
0.314395
 20
3.538578
 30
0.000000
  0
VERTEX
  8
LAYER-1
 10
0.314395
 20
3.438795
 30
0.000000
  0
SEQEND
  8
LAYER-1
  0
POLYLINE
  8
LAYER-1
 66
  1
 70
  0
 62
  7
 10
0.765079
 20
3.538564
 30
0.000000
  0
VERTEX
  8
LAYER-1
 10
0.765079
 20
3.538564
 30
0.000000
  0
VERTEX
  8
LAYER-1
 10
0.765079
 20
3.438795
 30
0.000000
  0
SEQEND
  8
LAYER-1
  0
POLYLINE
  8
LAYER-1
 66
  1
 70
  0
 62
  7
 10
0.013938
 20
3.538578
 30
0.000000
  0
VERTEX
  8
LAYER-1
 10
0.013938
 20
3.538578
 30
0.000000
  0
VERTEX
  8
LAYER-1
 10
0.013938
 20
3.438807
 30
0.000000
  0
SEQEND
  8
LAYER-1
  0
POLYLINE
  8
LAYER-1
 66
  1
 70
  0
 62
  7
 10
1.065536
 20
3.538578
 30
0.000000
  0
VERTEX
  8
LAYER-1
 10
1.065536
 20
3.538578
 30
0.000000
  0
VERTEX
  8
LAYER-1
 10
1.065536
 20
3.438807
 30
0.000000
  0
SEQEND
  8
LAYER-1
  0
POLYLINE
  8
LAYER-1
 66
  1
 70
  0
 62
  7
 10
0.164117
 20
5.137111
 30
0.000000
  0
VERTEX
  8
LAYER-1
 10
0.164117
 20
5.137111
 30
0.000000
  0
VERTEX
  8
LAYER-1
 10
0.164117
 20
5.037340
 30
0.000000
  0
SEQEND
  8
LAYER-1
  0
POLYLINE
  8
LAYER-1
 66
  1
 70
  0
 62
  7
 10
0.464573
 20
5.137111
 30
0.000000
  0
VERTEX
  8
LAYER-1
 10
0.464573
 20
5.137111
 30
0.000000
  0
VERTEX
  8
LAYER-1
 10
0.464573
 20
5.037340
 30
0.000000
  0
SEQEND
  8
LAYER-1
  0
POLYLINE
  8
LAYER-1
 66
  1
 70
  0
 62
  7
 10
0.614802
 20
5.137111
 30
0.000000
  0
VERTEX
  8
LAYER-1
 10
0.614802
 20
5.137111
 30
0.000000
  0
VERTEX
  8
LAYER-1
 10
0.614802
 20
5.037340
 30
0.000000
  0
SEQEND
  8
LAYER-1
  0
POLYLINE
  8
LAYER-1
 66
  1
 70
  0
 62
  7
 10
0.915258
 20
5.137111
 30
0.000000
  0
VERTEX
  8
LAYER-1
 10
0.915258
 20
5.137111
 30
0.000000
  0
VERTEX
  8
LAYER-1
 10
0.915258
 20
5.037340
 30
0.000000
  0
SEQEND
  8
LAYER-1
  0
POLYLINE
  8
LAYER-1
 66
  1
 70
  0
 62
  7
 10
0.314345
 20
5.137111
 30
0.000000
  0
VERTEX
  8
LAYER-1
 10
0.314345
 20
5.137111
 30
0.000000
  0
VERTEX
  8
LAYER-1
 10
0.314345
 20
5.037326
 30
0.000000
  0
SEQEND
  8
LAYER-1
  0
POLYLINE
  8
LAYER-1
 66
  1
 70
  0
 62
  7
 10
0.765031
 20
5.137097
 30
0.000000
  0
VERTEX
  8
LAYER-1
 10
0.765031
 20
5.137097
 30
0.000000
  0
VERTEX
  8
LAYER-1
 10
0.765031
 20
5.037326
 30
0.000000
  0
SEQEND
  8
LAYER-1
  0
POLYLINE
  8
LAYER-1
 66
  1
 70
  0
 62
  7
 10
0.013889
 20
5.137111
 30
0.000000
  0
VERTEX
  8
LAYER-1
 10
0.013889
 20
5.137111
 30
0.000000
  0
VERTEX
  8
LAYER-1
 10
0.013889
 20
5.037340
 30
0.000000
  0
SEQEND
  8
LAYER-1
  0
POLYLINE
  8
LAYER-1
 66
  1
 70
  0
 62
  7
 10
1.065486
 20
5.137111
 30
0.000000
  0
VERTEX
  8
LAYER-1
 10
1.065486
 20
5.137111
 30
0.000000
  0
VERTEX
  8
LAYER-1
 10
1.065486
 20
5.037340
 30
0.000000
  0
SEQEND
  8
LAYER-1
  0
POLYLINE
  8
LAYER-1
 66
  1
 70
  1
 62
  0
  0
VERTEX
  8
LAYER-1
 10
0.003561
 20
3.690397
 30
0.000000
  0
VERTEX
  8
LAYER-1
 10
0.163078
 20
3.690397
 30
0.000000
  0
VERTEX
  8
LAYER-1
 10
0.163078
 20
3.687326
 30
0.000000
  0
VERTEX
  8
LAYER-1
 10
0.003561
 20
3.687326
 30
0.000000
  0
SEQEND
  8
LAYER-1
  0
POLYLINE
  8
LAYER-1
 66
  1
 70
  1
 62
  0
  0
VERTEX
  8
LAYER-1
 10
0.304017
 20
3.690397
 30
0.000000
  0
VERTEX
  8
LAYER-1
 10
0.463534
 20
3.690397
 30
0.000000
  0
VERTEX
  8
LAYER-1
 10
0.463534
 20
3.687326
 30
0.000000
  0
VERTEX
  8
LAYER-1
 10
0.304017
 20
3.687326
 30
0.000000
  0
SEQEND
  8
LAYER-1
  0
POLYLINE
  8
LAYER-1
 66
  1
 70
  1
 62
  0
  0
VERTEX
  8
LAYER-1
 10
0.604473
 20
3.690397
 30
0.000000
  0
VERTEX
  8
LAYER-1
 10
0.763990
 20
3.690397
 30
0.000000
  0
VERTEX
  8
LAYER-1
 10
0.763990
 20
3.687326
 30
0.000000
  0
VERTEX
  8
LAYER-1
 10
0.604473
 20
3.687326
 30
0.000000
  0
SEQEND
  8
LAYER-1
  0
POLYLINE
  8
LAYER-1
 66
  1
 70
  1
 62
  0
  0
VERTEX
  8
LAYER-1
 10
0.904930
 20
3.690397
 30
0.000000
  0
VERTEX
  8
LAYER-1
 10
1.064446
 20
3.690397
 30
0.000000
  0
VERTEX
  8
LAYER-1
 10
1.064446
 20
3.687326
 30
0.000000
  0
VERTEX
  8
LAYER-1
 10
0.904930
 20
3.687326
 30
0.000000
  0
SEQEND
  8
LAYER-1
  0
POLYLINE
  8
LAYER-1
 66
  1
 70
  1
 62
  0
  0
VERTEX
  8
LAYER-1
 10
0.003561
 20
3.990195
 30
0.000000
  0
VERTEX
  8
LAYER-1
 10
0.163078
 20
3.990195
 30
0.000000
  0
VERTEX
  8
LAYER-1
 10
0.163078
 20
3.987124
 30
0.000000
  0
VERTEX
  8
LAYER-1
 10
0.003561
 20
3.987124
 30
0.000000
  0
SEQEND
  8
LAYER-1
  0
POLYLINE
  8
LAYER-1
 66
  1
 70
  1
 62
  0
  0
VERTEX
  8
LAYER-1
 10
0.304017
 20
3.990195
 30
0.000000
  0
VERTEX
  8
LAYER-1
 10
0.463534
 20
3.990195
 30
0.000000
  0
VERTEX
  8
LAYER-1
 10
0.463534
 20
3.987124
 30
0.000000
  0
VERTEX
  8
LAYER-1
 10
0.304017
 20
3.987124
 30
0.000000
  0
SEQEND
  8
LAYER-1
  0
POLYLINE
  8
LAYER-1
 66
  1
 70
  1
 62
  0
  0
VERTEX
  8
LAYER-1
 10
0.604473
 20
3.990195
 30
0.000000
  0
VERTEX
  8
LAYER-1
 10
0.763990
 20
3.990195
 30
0.000000
  0
VERTEX
  8
LAYER-1
 10
0.763990
 20
3.987124
 30
0.000000
  0
VERTEX
  8
LAYER-1
 10
0.604473
 20
3.987124
 30
0.000000
  0
SEQEND
  8
LAYER-1
  0
POLYLINE
  8
LAYER-1
 66
  1
 70
  1
 62
  0
  0
VERTEX
  8
LAYER-1
 10
0.904930
 20
3.990195
 30
0.000000
  0
VERTEX
  8
LAYER-1
 10
1.064446
 20
3.990195
 30
0.000000
  0
VERTEX
  8
LAYER-1
 10
1.064446
 20
3.987124
 30
0.000000
  0
VERTEX
  8
LAYER-1
 10
0.904930
 20
3.987124
 30
0.000000
  0
SEQEND
  8
LAYER-1
  0
POLYLINE
  8
LAYER-1
 66
  1
 70
  1
 62
  0
  0
VERTEX
  8
LAYER-1
 10
0.003561
 20
4.289992
 30
0.000000
  0
VERTEX
  8
LAYER-1
 10
0.163078
 20
4.289992
 30
0.000000
  0
VERTEX
  8
LAYER-1
 10
0.163078
 20
4.286922
 30
0.000000
  0
VERTEX
  8
LAYER-1
 10
0.003561
 20
4.286922
 30
0.000000
  0
SEQEND
  8
LAYER-1
  0
POLYLINE
  8
LAYER-1
 66
  1
 70
  1
 62
  0
  0
VERTEX
  8
LAYER-1
 10
0.304017
 20
4.289992
 30
0.000000
  0
VERTEX
  8
LAYER-1
 10
0.463534
 20
4.289992
 30
0.000000
  0
VERTEX
  8
LAYER-1
 10
0.463534
 20
4.286922
 30
0.000000
  0
VERTEX
  8
LAYER-1
 10
0.304017
 20
4.286922
 30
0.000000
  0
SEQEND
  8
LAYER-1
  0
POLYLINE
  8
LAYER-1
 66
  1
 70
  1
 62
  0
  0
VERTEX
  8
LAYER-1
 10
0.604473
 20
4.289992
 30
0.000000
  0
VERTEX
  8
LAYER-1
 10
0.763990
 20
4.289992
 30
0.000000
  0
VERTEX
  8
LAYER-1
 10
0.763990
 20
4.286922
 30
0.000000
  0
VERTEX
  8
LAYER-1
 10
0.604473
 20
4.286922
 30
0.000000
  0
SEQEND
  8
LAYER-1
  0
POLYLINE
  8
LAYER-1
 66
  1
 70
  1
 62
  0
  0
VERTEX
  8
LAYER-1
 10
0.904930
 20
4.289992
 30
0.000000
  0
VERTEX
  8
LAYER-1
 10
1.064446
 20
4.289992
 30
0.000000
  0
VERTEX
  8
LAYER-1
 10
1.064446
 20
4.286922
 30
0.000000
  0
VERTEX
  8
LAYER-1
 10
0.904930
 20
4.286922
 30
0.000000
  0
SEQEND
  8
LAYER-1
  0
POLYLINE
  8
LAYER-1
 66
  1
 70
  1
 62
  0
  0
VERTEX
  8
LAYER-1
 10
0.003561
 20
4.589791
 30
0.000000
  0
VERTEX
  8
LAYER-1
 10
0.163078
 20
4.589791
 30
0.000000
  0
VERTEX
  8
LAYER-1
 10
0.163078
 20
4.586720
 30
0.000000
  0
VERTEX
  8
LAYER-1
 10
0.003561
 20
4.586720
 30
0.000000
  0
SEQEND
  8
LAYER-1
  0
POLYLINE
  8
LAYER-1
 66
  1
 70
  1
 62
  0
  0
VERTEX
  8
LAYER-1
 10
0.304017
 20
4.589791
 30
0.000000
  0
VERTEX
  8
LAYER-1
 10
0.463534
 20
4.589791
 30
0.000000
  0
VERTEX
  8
LAYER-1
 10
0.463534
 20
4.586720
 30
0.000000
  0
VERTEX
  8
LAYER-1
 10
0.304017
 20
4.586720
 30
0.000000
  0
SEQEND
  8
LAYER-1
  0
POLYLINE
  8
LAYER-1
 66
  1
 70
  1
 62
  0
  0
VERTEX
  8
LAYER-1
 10
0.604473
 20
4.589791
 30
0.000000
  0
VERTEX
  8
LAYER-1
 10
0.763990
 20
4.589791
 30
0.000000
  0
VERTEX
  8
LAYER-1
 10
0.763990
 20
4.586720
 30
0.000000
  0
VERTEX
  8
LAYER-1
 10
0.604473
 20
4.586720
 30
0.000000
  0
SEQEND
  8
LAYER-1
  0
POLYLINE
  8
LAYER-1
 66
  1
 70
  1
 62
  0
  0
VERTEX
  8
LAYER-1
 10
0.904930
 20
4.589791
 30
0.000000
  0
VERTEX
  8
LAYER-1
 10
1.064446
 20
4.589791
 30
0.000000
  0
VERTEX
  8
LAYER-1
 10
1.064446
 20
4.586720
 30
0.000000
  0
VERTEX
  8
LAYER-1
 10
0.904930
 20
4.586720
 30
0.000000
  0
SEQEND
  8
LAYER-1
  0
POLYLINE
  8
LAYER-1
 66
  1
 70
  1
 62
  0
  0
VERTEX
  8
LAYER-1
 10
0.003561
 20
4.889588
 30
0.000000
  0
VERTEX
  8
LAYER-1
 10
0.163078
 20
4.889588
 30
0.000000
  0
VERTEX
  8
LAYER-1
 10
0.163078
 20
4.886517
 30
0.000000
  0
VERTEX
  8
LAYER-1
 10
0.003561
 20
4.886517
 30
0.000000
  0
SEQEND
  8
LAYER-1
  0
POLYLINE
  8
LAYER-1
 66
  1
 70
  1
 62
  0
  0
VERTEX
  8
LAYER-1
 10
0.304017
 20
4.889588
 30
0.000000
  0
VERTEX
  8
LAYER-1
 10
0.463534
 20
4.889588
 30
0.000000
  0
VERTEX
  8
LAYER-1
 10
0.463534
 20
4.886517
 30
0.000000
  0
VERTEX
  8
LAYER-1
 10
0.304017
 20
4.886517
 30
0.000000
  0
SEQEND
  8
LAYER-1
  0
POLYLINE
  8
LAYER-1
 66
  1
 70
  1
 62
  0
  0
VERTEX
  8
LAYER-1
 10
0.604473
 20
4.889588
 30
0.000000
  0
VERTEX
  8
LAYER-1
 10
0.763990
 20
4.889588
 30
0.000000
  0
VERTEX
  8
LAYER-1
 10
0.763990
 20
4.886517
 30
0.000000
  0
VERTEX
  8
LAYER-1
 10
0.604473
 20
4.886517
 30
0.000000
  0
SEQEND
  8
LAYER-1
  0
POLYLINE
  8
LAYER-1
 66
  1
 70
  1
 62
  0
  0
VERTEX
  8
LAYER-1
 10
0.904930
 20
4.889588
 30
0.000000
  0
VERTEX
  8
LAYER-1
 10
1.064446
 20
4.889588
 30
0.000000
  0
VERTEX
  8
LAYER-1
 10
1.064446
 20
4.886517
 30
0.000000
  0
VERTEX
  8
LAYER-1
 10
0.904930
 20
4.886517
 30
0.000000
  0
SEQEND
  8
LAYER-1
  0
POLYLINE
  8
LAYER-1
 66
  1
 70
  1
 62
  0
  0
VERTEX
  8
LAYER-1
 10
0.153789
 20
3.840296
 30
0.000000
  0
VERTEX
  8
LAYER-1
 10
0.313305
 20
3.840296
 30
0.000000
  0
VERTEX
  8
LAYER-1
 10
0.313305
 20
3.837224
 30
0.000000
  0
VERTEX
  8
LAYER-1
 10
0.153789
 20
3.837224
 30
0.000000
  0
SEQEND
  8
LAYER-1
  0
POLYLINE
  8
LAYER-1
 66
  1
 70
  1
 62
  0
  0
VERTEX
  8
LAYER-1
 10
0.454245
 20
3.840296
 30
0.000000
  0
VERTEX
  8
LAYER-1
 10
0.613762
 20
3.840296
 30
0.000000
  0
VERTEX
  8
LAYER-1
 10
0.613762
 20
3.837224
 30
0.000000
  0
VERTEX
  8
LAYER-1
 10
0.454245
 20
3.837224
 30
0.000000
  0
SEQEND
  8
LAYER-1
  0
POLYLINE
  8
LAYER-1
 66
  1
 70
  1
 62
  0
  0
VERTEX
  8
LAYER-1
 10
0.754702
 20
3.840296
 30
0.000000
  0
VERTEX
  8
LAYER-1
 10
0.914218
 20
3.840296
 30
0.000000
  0
VERTEX
  8
LAYER-1
 10
0.914218
 20
3.837224
 30
0.000000
  0
VERTEX
  8
LAYER-1
 10
0.754702
 20
3.837224
 30
0.000000
  0
SEQEND
  8
LAYER-1
  0
POLYLINE
  8
LAYER-1
 66
  1
 70
  1
 62
  0
  0
VERTEX
  8
LAYER-1
 10
0.153789
 20
4.140093
 30
0.000000
  0
VERTEX
  8
LAYER-1
 10
0.313305
 20
4.140093
 30
0.000000
  0
VERTEX
  8
LAYER-1
 10
0.313305
 20
4.137023
 30
0.000000
  0
VERTEX
  8
LAYER-1
 10
0.153789
 20
4.137023
 30
0.000000
  0
SEQEND
  8
LAYER-1
  0
POLYLINE
  8
LAYER-1
 66
  1
 70
  1
 62
  0
  0
VERTEX
  8
LAYER-1
 10
0.454245
 20
4.140093
 30
0.000000
  0
VERTEX
  8
LAYER-1
 10
0.613762
 20
4.140093
 30
0.000000
  0
VERTEX
  8
LAYER-1
 10
0.613762
 20
4.137023
 30
0.000000
  0
VERTEX
  8
LAYER-1
 10
0.454245
 20
4.137023
 30
0.000000
  0
SEQEND
  8
LAYER-1
  0
POLYLINE
  8
LAYER-1
 66
  1
 70
  1
 62
  0
  0
VERTEX
  8
LAYER-1
 10
0.754702
 20
4.140093
 30
0.000000
  0
VERTEX
  8
LAYER-1
 10
0.914218
 20
4.140093
 30
0.000000
  0
VERTEX
  8
LAYER-1
 10
0.914218
 20
4.137023
 30
0.000000
  0
VERTEX
  8
LAYER-1
 10
0.754702
 20
4.137023
 30
0.000000
  0
SEQEND
  8
LAYER-1
  0
POLYLINE
  8
LAYER-1
 66
  1
 70
  1
 62
  0
  0
VERTEX
  8
LAYER-1
 10
0.153789
 20
4.439891
 30
0.000000
  0
VERTEX
  8
LAYER-1
 10
0.313305
 20
4.439891
 30
0.000000
  0
VERTEX
  8
LAYER-1
 10
0.313305
 20
4.436821
 30
0.000000
  0
VERTEX
  8
LAYER-1
 10
0.153789
 20
4.436821
 30
0.000000
  0
SEQEND
  8
LAYER-1
  0
POLYLINE
  8
LAYER-1
 66
  1
 70
  1
 62
  0
  0
VERTEX
  8
LAYER-1
 10
0.454245
 20
4.439891
 30
0.000000
  0
VERTEX
  8
LAYER-1
 10
0.613762
 20
4.439891
 30
0.000000
  0
VERTEX
  8
LAYER-1
 10
0.613762
 20
4.436821
 30
0.000000
  0
VERTEX
  8
LAYER-1
 10
0.454245
 20
4.436821
 30
0.000000
  0
SEQEND
  8
LAYER-1
  0
POLYLINE
  8
LAYER-1
 66
  1
 70
  1
 62
  0
  0
VERTEX
  8
LAYER-1
 10
0.754702
 20
4.439891
 30
0.000000
  0
VERTEX
  8
LAYER-1
 10
0.914218
 20
4.439891
 30
0.000000
  0
VERTEX
  8
LAYER-1
 10
0.914218
 20
4.436821
 30
0.000000
  0
VERTEX
  8
LAYER-1
 10
0.754702
 20
4.436821
 30
0.000000
  0
SEQEND
  8
LAYER-1
  0
POLYLINE
  8
LAYER-1
 66
  1
 70
  1
 62
  0
  0
VERTEX
  8
LAYER-1
 10
0.153789
 20
4.739688
 30
0.000000
  0
VERTEX
  8
LAYER-1
 10
0.313305
 20
4.739688
 30
0.000000
  0
VERTEX
  8
LAYER-1
 10
0.313305
 20
4.736619
 30
0.000000
  0
VERTEX
  8
LAYER-1
 10
0.153789
 20
4.736619
 30
0.000000
  0
SEQEND
  8
LAYER-1
  0
POLYLINE
  8
LAYER-1
 66
  1
 70
  1
 62
  0
  0
VERTEX
  8
LAYER-1
 10
0.454245
 20
4.739688
 30
0.000000
  0
VERTEX
  8
LAYER-1
 10
0.613762
 20
4.739688
 30
0.000000
  0
VERTEX
  8
LAYER-1
 10
0.613762
 20
4.736619
 30
0.000000
  0
VERTEX
  8
LAYER-1
 10
0.454245
 20
4.736619
 30
0.000000
  0
SEQEND
  8
LAYER-1
  0
POLYLINE
  8
LAYER-1
 66
  1
 70
  1
 62
  0
  0
VERTEX
  8
LAYER-1
 10
0.754702
 20
4.739688
 30
0.000000
  0
VERTEX
  8
LAYER-1
 10
0.914218
 20
4.739688
 30
0.000000
  0
VERTEX
  8
LAYER-1
 10
0.914218
 20
4.736619
 30
0.000000
  0
VERTEX
  8
LAYER-1
 10
0.754702
 20
4.736619
 30
0.000000
  0
SEQEND
  8
LAYER-1
  0
POLYLINE
  8
LAYER-1
 66
  1
 70
  0
 62
  7
 10
1.054319
 20
3.538578
 30
0.000000
  0
VERTEX
  8
LAYER-1
 10
1.054319
 20
3.538578
 30
0.000000
  0
VERTEX
  8
LAYER-1
 10
1.054319
 20
3.438807
 30
0.000000
  0
SEQEND
  8
LAYER-1
  0
POLYLINE
  8
LAYER-1
 66
  1
 70
  0
 62
  7
 10
1.054563
 20
5.137111
 30
0.000000
  0
VERTEX
  8
LAYER-1
 10
1.054563
 20
5.137111
 30
0.000000
  0
VERTEX
  8
LAYER-1
 10
1.054563
 20
5.037340
 30
0.000000
  0
SEQEND
  8
LAYER-1
  0
TEXT
  8
LAYER-1
 62
  0
 10
-0.013129
 20
3.211171
 30
0.000000
 40
0.104167
  1
SYSTEM S-126
 72
  5
 11
1.070205
 21
3.211171
 31
0.000000
  0
TEXT
  8
LAYER-1
 62
  0
 10
0.306316
 20
3.100060
 30
0.000000
 40
0.083333
  1
(Aperto)
 72
  5
 11
0.764649
 21
3.100060
 31
0.000000
  0
POLYLINE
  8
LAYER-1
 66
  1
 70
  0
 62
  7
 10
0.076152
 20
5.136660
 30
0.000000
  0
VERTEX
  8
LAYER-1
 10
0.076152
 20
5.136660
 30
0.000000
  0
VERTEX
  8
LAYER-1
 10
0.076152
 20
5.036905
 30
0.000000
  0
SEQEND
  8
LAYER-1
  0
POLYLINE
  8
LAYER-1
 66
  1
 70
  0
 62
  7
 10
0.088027
 20
5.136660
 30
0.000000
  0
VERTEX
  8
LAYER-1
 10
0.088027
 20
5.136660
 30
0.000000
  0
VERTEX
  8
LAYER-1
 10
0.088027
 20
5.036905
 30
0.000000
  0
SEQEND
  8
LAYER-1
  0
POLYLINE
  8
LAYER-1
 66
  1
 70
  0
 62
  7
 10
0.227494
 20
5.136660
 30
0.000000
  0
VERTEX
  8
LAYER-1
 10
0.227494
 20
5.136660
 30
0.000000
  0
VERTEX
  8
LAYER-1
 10
0.227494
 20
5.036905
 30
0.000000
  0
SEQEND
  8
LAYER-1
  0
POLYLINE
  8
LAYER-1
 66
  1
 70
  0
 62
  7
 10
0.239370
 20
5.136660
 30
0.000000
  0
VERTEX
  8
LAYER-1
 10
0.239370
 20
5.136660
 30
0.000000
  0
VERTEX
  8
LAYER-1
 10
0.239370
 20
5.036905
 30
0.000000
  0
SEQEND
  8
LAYER-1
  0
POLYLINE
  8
LAYER-1
 66
  1
 70
  0
 62
  7
 10
0.377254
 20
5.136660
 30
0.000000
  0
VERTEX
  8
LAYER-1
 10
0.377254
 20
5.136660
 30
0.000000
  0
VERTEX
  8
LAYER-1
 10
0.377254
 20
5.036905
 30
0.000000
  0
SEQEND
  8
LAYER-1
  0
POLYLINE
  8
LAYER-1
 66
  1
 70
  0
 62
  7
 10
0.389129
 20
5.136660
 30
0.000000
  0
VERTEX
  8
LAYER-1
 10
0.389129
 20
5.136660
 30
0.000000
  0
VERTEX
  8
LAYER-1
 10
0.389129
 20
5.036905
 30
0.000000
  0
SEQEND
  8
LAYER-1
  0
POLYLINE
  8
LAYER-1
 66
  1
 70
  0
 62
  7
 10
0.527804
 20
5.136660
 30
0.000000
  0
VERTEX
  8
LAYER-1
 10
0.527804
 20
5.136660
 30
0.000000
  0
VERTEX
  8
LAYER-1
 10
0.527804
 20
5.036905
 30
0.000000
  0
SEQEND
  8
LAYER-1
  0
POLYLINE
  8
LAYER-1
 66
  1
 70
  0
 62
  7
 10
0.539680
 20
5.136660
 30
0.000000
  0
VERTEX
  8
LAYER-1
 10
0.539680
 20
5.136660
 30
0.000000
  0
VERTEX
  8
LAYER-1
 10
0.539680
 20
5.036905
 30
0.000000
  0
SEQEND
  8
LAYER-1
  0
POLYLINE
  8
LAYER-1
 66
  1
 70
  0
 62
  7
 10
0.677564
 20
5.136660
 30
0.000000
  0
VERTEX
  8
LAYER-1
 10
0.677564
 20
5.136660
 30
0.000000
  0
VERTEX
  8
LAYER-1
 10
0.677564
 20
5.036905
 30
0.000000
  0
SEQEND
  8
LAYER-1
  0
POLYLINE
  8
LAYER-1
 66
  1
 70
  0
 62
  7
 10
0.689439
 20
5.136660
 30
0.000000
  0
VERTEX
  8
LAYER-1
 10
0.689439
 20
5.136660
 30
0.000000
  0
VERTEX
  8
LAYER-1
 10
0.689439
 20
5.036905
 30
0.000000
  0
SEQEND
  8
LAYER-1
  0
POLYLINE
  8
LAYER-1
 66
  1
 70
  0
 62
  7
 10
0.828115
 20
5.136660
 30
0.000000
  0
VERTEX
  8
LAYER-1
 10
0.828115
 20
5.136660
 30
0.000000
  0
VERTEX
  8
LAYER-1
 10
0.828115
 20
5.036905
 30
0.000000
  0
SEQEND
  8
LAYER-1
  0
POLYLINE
  8
LAYER-1
 66
  1
 70
  0
 62
  7
 10
0.839990
 20
5.136660
 30
0.000000
  0
VERTEX
  8
LAYER-1
 10
0.839990
 20
5.136660
 30
0.000000
  0
VERTEX
  8
LAYER-1
 10
0.839990
 20
5.036905
 30
0.000000
  0
SEQEND
  8
LAYER-1
  0
POLYLINE
  8
LAYER-1
 66
  1
 70
  0
 62
  7
 10
0.977874
 20
5.136660
 30
0.000000
  0
VERTEX
  8
LAYER-1
 10
0.977874
 20
5.136660
 30
0.000000
  0
VERTEX
  8
LAYER-1
 10
0.977874
 20
5.036905
 30
0.000000
  0
SEQEND
  8
LAYER-1
  0
POLYLINE
  8
LAYER-1
 66
  1
 70
  0
 62
  7
 10
0.989749
 20
5.136660
 30
0.000000
  0
VERTEX
  8
LAYER-1
 10
0.989749
 20
5.136660
 30
0.000000
  0
VERTEX
  8
LAYER-1
 10
0.989749
 20
5.036905
 30
0.000000
  0
SEQEND
  8
LAYER-1
  0
POLYLINE
  8
LAYER-1
 66
  1
 70
  0
 62
  7
 10
0.076943
 20
3.538993
 30
0.000000
  0
VERTEX
  8
LAYER-1
 10
0.076943
 20
3.538993
 30
0.000000
  0
VERTEX
  8
LAYER-1
 10
0.076943
 20
3.439237
 30
0.000000
  0
SEQEND
  8
LAYER-1
  0
POLYLINE
  8
LAYER-1
 66
  1
 70
  0
 62
  7
 10
0.088819
 20
3.538993
 30
0.000000
  0
VERTEX
  8
LAYER-1
 10
0.088819
 20
3.538993
 30
0.000000
  0
VERTEX
  8
LAYER-1
 10
0.088819
 20
3.439237
 30
0.000000
  0
SEQEND
  8
LAYER-1
  0
POLYLINE
  8
LAYER-1
 66
  1
 70
  0
 62
  7
 10
0.228286
 20
3.538993
 30
0.000000
  0
VERTEX
  8
LAYER-1
 10
0.228286
 20
3.538993
 30
0.000000
  0
VERTEX
  8
LAYER-1
 10
0.228286
 20
3.439237
 30
0.000000
  0
SEQEND
  8
LAYER-1
  0
POLYLINE
  8
LAYER-1
 66
  1
 70
  0
 62
  7
 10
0.240161
 20
3.538993
 30
0.000000
  0
VERTEX
  8
LAYER-1
 10
0.240161
 20
3.538993
 30
0.000000
  0
VERTEX
  8
LAYER-1
 10
0.240161
 20
3.439237
 30
0.000000
  0
SEQEND
  8
LAYER-1
  0
POLYLINE
  8
LAYER-1
 66
  1
 70
  0
 62
  7
 10
0.378045
 20
3.538993
 30
0.000000
  0
VERTEX
  8
LAYER-1
 10
0.378045
 20
3.538993
 30
0.000000
  0
VERTEX
  8
LAYER-1
 10
0.378045
 20
3.439237
 30
0.000000
  0
SEQEND
  8
LAYER-1
  0
POLYLINE
  8
LAYER-1
 66
  1
 70
  0
 62
  7
 10
0.389920
 20
3.538993
 30
0.000000
  0
VERTEX
  8
LAYER-1
 10
0.389920
 20
3.538993
 30
0.000000
  0
VERTEX
  8
LAYER-1
 10
0.389920
 20
3.439237
 30
0.000000
  0
SEQEND
  8
LAYER-1
  0
POLYLINE
  8
LAYER-1
 66
  1
 70
  0
 62
  7
 10
0.528596
 20
3.538993
 30
0.000000
  0
VERTEX
  8
LAYER-1
 10
0.528596
 20
3.538993
 30
0.000000
  0
VERTEX
  8
LAYER-1
 10
0.528596
 20
3.439237
 30
0.000000
  0
SEQEND
  8
LAYER-1
  0
POLYLINE
  8
LAYER-1
 66
  1
 70
  0
 62
  7
 10
0.540471
 20
3.538993
 30
0.000000
  0
VERTEX
  8
LAYER-1
 10
0.540471
 20
3.538993
 30
0.000000
  0
VERTEX
  8
LAYER-1
 10
0.540471
 20
3.439237
 30
0.000000
  0
SEQEND
  8
LAYER-1
  0
POLYLINE
  8
LAYER-1
 66
  1
 70
  0
 62
  7
 10
0.678355
 20
3.538993
 30
0.000000
  0
VERTEX
  8
LAYER-1
 10
0.678355
 20
3.538993
 30
0.000000
  0
VERTEX
  8
LAYER-1
 10
0.678355
 20
3.439237
 30
0.000000
  0
SEQEND
  8
LAYER-1
  0
POLYLINE
  8
LAYER-1
 66
  1
 70
  0
 62
  7
 10
0.690231
 20
3.538993
 30
0.000000
  0
VERTEX
  8
LAYER-1
 10
0.690231
 20
3.538993
 30
0.000000
  0
VERTEX
  8
LAYER-1
 10
0.690231
 20
3.439237
 30
0.000000
  0
SEQEND
  8
LAYER-1
  0
POLYLINE
  8
LAYER-1
 66
  1
 70
  0
 62
  7
 10
0.828906
 20
3.538993
 30
0.000000
  0
VERTEX
  8
LAYER-1
 10
0.828906
 20
3.538993
 30
0.000000
  0
VERTEX
  8
LAYER-1
 10
0.828906
 20
3.439237
 30
0.000000
  0
SEQEND
  8
LAYER-1
  0
POLYLINE
  8
LAYER-1
 66
  1
 70
  0
 62
  7
 10
0.840781
 20
3.538993
 30
0.000000
  0
VERTEX
  8
LAYER-1
 10
0.840781
 20
3.538993
 30
0.000000
  0
VERTEX
  8
LAYER-1
 10
0.840781
 20
3.439237
 30
0.000000
  0
SEQEND
  8
LAYER-1
  0
POLYLINE
  8
LAYER-1
 66
  1
 70
  0
 62
  7
 10
0.978665
 20
3.538993
 30
0.000000
  0
VERTEX
  8
LAYER-1
 10
0.978665
 20
3.538993
 30
0.000000
  0
VERTEX
  8
LAYER-1
 10
0.978665
 20
3.439237
 30
0.000000
  0
SEQEND
  8
LAYER-1
  0
POLYLINE
  8
LAYER-1
 66
  1
 70
  0
 62
  7
 10
0.990541
 20
3.538993
 30
0.000000
  0
VERTEX
  8
LAYER-1
 10
0.990541
 20
3.538993
 30
0.000000
  0
VERTEX
  8
LAYER-1
 10
0.990541
 20
3.439237
 30
0.000000
  0
SEQEND
  8
LAYER-1
  0
TEXT
  8
LAYER-1
 62
  0
 10
2.445205
 20
7.905616
 30
0.000000
 40
0.125000
  1
Montante
 72
  5
 11
3.209094
 21
7.905616
 31
0.000000
  0
TEXT
  8
LAYER-1
 62
  0
 10
2.445205
 20
7.711171
 30
0.000000
 40
0.125000
  1
intermedio #3
 72
  5
 11
3.570205
 21
7.711171
 31
0.000000
  0
POLYLINE
  8
LAYER-1
 66
  1
 70
  0
 62
  0
 10
3.493816
 20
7.745894
 30
0.000000
  0
VERTEX
  8
LAYER-1
 10
3.493816
 20
7.745894
 30
0.000000
  0
VERTEX
  8
LAYER-1
 10
3.734893
 20
7.430798
 30
0.000000
  0
SEQEND
  8
LAYER-1
  0
POLYLINE
  8
LAYER-1
 66
  1
 70
  1
 62
  0
  0
VERTEX
  8
LAYER-1
 10
3.746854
 20
7.415165
 30
0.000000
  0
VERTEX
  8
LAYER-1
 10
3.671564
 20
7.444999
 30
0.000000
  0
VERTEX
  8
LAYER-1
 10
3.704656
 20
7.470318
 30
0.000000
  0
VERTEX
  8
LAYER-1
 10
3.737748
 20
7.495636
 30
0.000000
  0
VERTEX
  8
LAYER-1
 10
3.746854
 20
7.415165
 30
0.000000
  0
SEQEND
  8
LAYER-1
  0
TEXT
  8
LAYER-1
 62
  0
 10
1.070205
 20
7.072283
 30
0.000000
 40
0.125000
  1
Guida
 72
  5
 11
1.597982
 21
7.072283
 31
0.000000
  0
CIRCLE
  8
LAYER-1
 62
  7
 10
3.744680
 20
3.180449
 30
0.000000
 40
0.047124
  0
CIRCLE
  8
LAYER-1
 62
  0
 10
3.744680
 20
3.180449
 30
0.000000
 40
0.042287
  0
CIRCLE
  8
LAYER-1
 62
  0
 10
3.744680
 20
3.163653
 30
0.000000
 40
0.018794
  0
CIRCLE
  8
LAYER-1
 62
  0
 10
3.744680
 20
3.155617
 30
0.000000
 40
0.008035
  0
TEXT
  8
LAYER-1
 62
  0
 10
3.709094
 20
3.183394
 30
0.000000
 40
0.010417
  1
MobilFlex
 72
  5
 11
3.861871
 21
3.183394
 31
0.000000
  0
POLYLINE
  8
LAYER-1
 66
  1
 70
  1
 62
  0
 10
3.741055
 20
3.145406
 30
0.000000
  0
VERTEX
  8
LAYER-1
 10
3.741055
 20
3.145406
 30
0.000000
  0
VERTEX
  8
LAYER-1
 10
3.741055
 20
3.154107
 30
0.000000
  0
VERTEX
  8
LAYER-1
 10
3.744438
 20
3.154107
 30
0.000000
  0
VERTEX
  8
LAYER-1
 10
3.744438
 20
3.157490
 30
0.000000
  0
VERTEX
  8
LAYER-1
 10
3.740814
 20
3.161115
 30
0.000000
  0
VERTEX
  8
LAYER-1
 10
3.740814
 20
3.163532
 30
0.000000
  0
VERTEX
  8
LAYER-1
 10
3.743231
 20
3.170781
 30
0.000000
  0
VERTEX
  8
LAYER-1
 10
3.746372
 20
3.170781
 30
0.000000
  0
VERTEX
  8
LAYER-1
 10
3.745647
 20
3.165465
 30
0.000000
  0
VERTEX
  8
LAYER-1
 10
3.745889
 20
3.163532
 30
0.000000
  0
VERTEX
  8
LAYER-1
 10
3.747339
 20
3.163532
 30
0.000000
  0
VERTEX
  8
LAYER-1
 10
3.747339
 20
3.151207
 30
0.000000
  0
VERTEX
  8
LAYER-1
 10
3.744680
 20
3.149998
 30
0.000000
  0
VERTEX
  8
LAYER-1
 10
3.744680
 20
3.147581
 30
0.000000
  0
VERTEX
  8
LAYER-1
 10
3.747339
 20
3.147098
 30
0.000000
  0
VERTEX
  8
LAYER-1
 10
3.747339
 20
3.145406
 30
0.000000
  0
SEQEND
  8
LAYER-1
  0
POLYLINE
  8
LAYER-1
 66
  1
 70
  1
 62
  0
  0
VERTEX
  8
LAYER-1
 10
4.040263
 20
7.143897
 30
0.000000
  0
VERTEX
  8
LAYER-1
 10
4.067173
 20
7.143897
 30
0.000000
  0
VERTEX
  8
LAYER-1
 10
4.067173
 20
0.616343
 30
0.000000
  0
VERTEX
  8
LAYER-1
 10
4.040263
 20
0.616343
 30
0.000000
  0
SEQEND
  8
LAYER-1
  0
POLYLINE
  8
LAYER-1
 66
  1
 70
  1
 62
  0
  0
VERTEX
  8
LAYER-1
 10
3.831496
 20
7.143823
 30
0.000000
  0
VERTEX
  8
LAYER-1
 10
3.867446
 20
7.143823
 30
0.000000
  0
VERTEX
  8
LAYER-1
 10
3.867446
 20
0.616541
 30
0.000000
  0
VERTEX
  8
LAYER-1
 10
3.831496
 20
0.616541
 30
0.000000
  0
SEQEND
  8
LAYER-1
  0
POLYLINE
  8
LAYER-1
 66
  1
 70
  1
 62
  0
  0
VERTEX
  8
LAYER-1
 10
4.447658
 20
7.143897
 30
0.000000
  0
VERTEX
  8
LAYER-1
 10
4.474567
 20
7.143897
 30
0.000000
  0
VERTEX
  8
LAYER-1
 10
4.474567
 20
0.616343
 30
0.000000
  0
VERTEX
  8
LAYER-1
 10
4.447658
 20
0.616343
 30
0.000000
  0
SEQEND
  8
LAYER-1
  0
POLYLINE
  8
LAYER-1
 66
  1
 70
  1
 62
  0
  0
VERTEX
  8
LAYER-1
 10
4.239760
 20
7.143823
 30
0.000000
  0
VERTEX
  8
LAYER-1
 10
4.275711
 20
7.143823
 30
0.000000
  0
VERTEX
  8
LAYER-1
 10
4.275711
 20
0.616541
 30
0.000000
  0
VERTEX
  8
LAYER-1
 10
4.239760
 20
0.616541
 30
0.000000
  0
SEQEND
  8
LAYER-1
  0
POLYLINE
  8
LAYER-1
 66
  1
 70
  1
 62
  0
  0
VERTEX
  8
LAYER-1
 10
4.854621
 20
7.143897
 30
0.000000
  0
VERTEX
  8
LAYER-1
 10
4.881531
 20
7.143897
 30
0.000000
  0
VERTEX
  8
LAYER-1
 10
4.881531
 20
0.616343
 30
0.000000
  0
VERTEX
  8
LAYER-1
 10
4.854621
 20
0.616343
 30
0.000000
  0
SEQEND
  8
LAYER-1
  0
POLYLINE
  8
LAYER-1
 66
  1
 70
  1
 62
  0
  0
VERTEX
  8
LAYER-1
 10
4.646288
 20
7.143823
 30
0.000000
  0
VERTEX
  8
LAYER-1
 10
4.682239
 20
7.143823
 30
0.000000
  0
VERTEX
  8
LAYER-1
 10
4.682239
 20
0.616541
 30
0.000000
  0
VERTEX
  8
LAYER-1
 10
4.646288
 20
0.616541
 30
0.000000
  0
SEQEND
  8
LAYER-1
  0
POLYLINE
  8
LAYER-1
 66
  1
 70
  1
 62
  0
  0
VERTEX
  8
LAYER-1
 10
5.264188
 20
7.143897
 30
0.000000
  0
VERTEX
  8
LAYER-1
 10
5.291097
 20
7.143897
 30
0.000000
  0
VERTEX
  8
LAYER-1
 10
5.291097
 20
0.616343
 30
0.000000
  0
VERTEX
  8
LAYER-1
 10
5.264188
 20
0.616343
 30
0.000000
  0
SEQEND
  8
LAYER-1
  0
POLYLINE
  8
LAYER-1
 66
  1
 70
  1
 62
  0
  0
VERTEX
  8
LAYER-1
 10
5.054552
 20
7.143823
 30
0.000000
  0
VERTEX
  8
LAYER-1
 10
5.090503
 20
7.143823
 30
0.000000
  0
VERTEX
  8
LAYER-1
 10
5.090503
 20
0.616541
 30
0.000000
  0
VERTEX
  8
LAYER-1
 10
5.054552
 20
0.616541
 30
0.000000
  0
SEQEND
  8
LAYER-1
  0
POLYLINE
  8
LAYER-1
 66
  1
 70
  1
 62
  0
  0
VERTEX
  8
LAYER-1
 10
5.675054
 20
7.143897
 30
0.000000
  0
VERTEX
  8
LAYER-1
 10
5.701964
 20
7.143897
 30
0.000000
  0
VERTEX
  8
LAYER-1
 10
5.701964
 20
0.616343
 30
0.000000
  0
VERTEX
  8
LAYER-1
 10
5.675054
 20
0.616343
 30
0.000000
  0
SEQEND
  8
LAYER-1
  0
POLYLINE
  8
LAYER-1
 66
  1
 70
  1
 62
  0
  0
VERTEX
  8
LAYER-1
 10
5.464119
 20
7.143823
 30
0.000000
  0
VERTEX
  8
LAYER-1
 10
5.500069
 20
7.143823
 30
0.000000
  0
VERTEX
  8
LAYER-1
 10
5.500069
 20
0.616541
 30
0.000000
  0
VERTEX
  8
LAYER-1
 10
5.464119
 20
0.616541
 30
0.000000
  0
SEQEND
  8
LAYER-1
  0
POLYLINE
  8
LAYER-1
 66
  1
 70
  1
 62
  0
 10
3.828929
 20
0.344876
 30
0.000000
  0
VERTEX
  8
LAYER-1
 10
3.828929
 20
0.344876
 30
0.000000
  0
VERTEX
  8
LAYER-1
 10
5.724847
 20
0.344977
 30
0.000000
  0
VERTEX
  8
LAYER-1
 10
5.724847
 20
0.616510
 30
0.000000
  0
VERTEX
  8
LAYER-1
 10
3.828929
 20
0.616627
 30
0.000000
  0
SEQEND
  8
LAYER-1
  0
POLYLINE
  8
LAYER-1
 66
  1
 70
  0
 62
  0
 10
3.828711
 20
0.412783
 30
0.000000
  0
VERTEX
  8
LAYER-1
 10
3.828711
 20
0.412783
 30
0.000000
  0
VERTEX
  8
LAYER-1
 10
3.868437
 20
0.412783
 30
0.000000
  0
SEQEND
  8
LAYER-1
  0
POLYLINE
  8
LAYER-1
 66
  1
 70
  0
 62
  0
 10
3.828711
 20
0.542693
 30
0.000000
  0
VERTEX
  8
LAYER-1
 10
3.828711
 20
0.542693
 30
0.000000
  0
VERTEX
  8
LAYER-1
 10
3.868437
 20
0.542693
 30
0.000000
  0
SEQEND
  8
LAYER-1
  0
POLYLINE
  8
LAYER-1
 66
  1
 70
  0
 62
  0
 10
3.830162
 20
0.339730
 30
0.000000
  0
VERTEX
  8
LAYER-1
 10
3.830162
 20
0.339730
 30
0.000000
  0
VERTEX
  8
LAYER-1
 10
3.843333
 20
0.332686
 30
0.000000
  0
VERTEX
  8
LAYER-1
 10
3.860413
 20
0.337017
 30
0.000000
  0
VERTEX
  8
LAYER-1
 10
3.867066
 20
0.339732
 30
0.000000
  0
SEQEND
  8
LAYER-1
  0
POLYLINE
  8
LAYER-1
 66
  1
 70
  1
 62
  0
  0
VERTEX
  8
LAYER-1
 10
3.877574
 20
0.339109
 30
0.000000
  0
VERTEX
  8
LAYER-1
 10
3.822959
 20
0.339109
 30
0.000000
  0
VERTEX
  8
LAYER-1
 10
3.822959
 20
0.345015
 30
0.000000
  0
VERTEX
  8
LAYER-1
 10
3.877574
 20
0.345015
 30
0.000000
  0
SEQEND
  8
LAYER-1
  0
POLYLINE
  8
LAYER-1
 66
  1
 70
  1
 62
  0
 10
3.829136
 20
7.415443
 30
0.000000
  0
VERTEX
  8
LAYER-1
 10
3.829136
 20
7.415443
 30
0.000000
  0
VERTEX
  8
LAYER-1
 10
5.725488
 20
7.415343
 30
0.000000
  0
VERTEX
  8
LAYER-1
 10
5.725488
 20
7.143810
 30
0.000000
  0
VERTEX
  8
LAYER-1
 10
3.829136
 20
7.143693
 30
0.000000
  0
SEQEND
  8
LAYER-1
  0
POLYLINE
  8
LAYER-1
 66
  1
 70
  0
 62
  0
 10
4.090425
 20
7.415443
 30
0.000000
  0
VERTEX
  8
LAYER-1
 10
4.090425
 20
7.415443
 30
0.000000
  0
VERTEX
  8
LAYER-1
 10
4.090425
 20
7.143812
 30
0.000000
  0
SEQEND
  8
LAYER-1
  0
POLYLINE
  8
LAYER-1
 66
  1
 70
  0
 62
  0
 10
4.420922
 20
7.143812
 30
0.000000
  0
VERTEX
  8
LAYER-1
 10
4.420922
 20
7.143812
 30
0.000000
  0
VERTEX
  8
LAYER-1
 10
4.420922
 20
7.415443
 30
0.000000
  0
SEQEND
  8
LAYER-1
  0
POLYLINE
  8
LAYER-1
 66
  1
 70
  0
 62
  0
 10
5.233754
 20
7.143812
 30
0.000000
  0
VERTEX
  8
LAYER-1
 10
5.233754
 20
7.143812
 30
0.000000
  0
VERTEX
  8
LAYER-1
 10
5.233754
 20
7.415443
 30
0.000000
  0
SEQEND
  8
LAYER-1
  0
POLYLINE
  8
LAYER-1
 66
  1
 70
  0
 62
  0
 10
5.052586
 20
7.415482
 30
0.000000
  0
VERTEX
  8
LAYER-1
 10
5.052586
 20
7.415482
 30
0.000000
  0
VERTEX
  8
LAYER-1
 10
5.052586
 20
7.143854
 30
0.000000
  0
SEQEND
  8
LAYER-1
  0
POLYLINE
  8
LAYER-1
 66
  1
 70
  0
 62
  0
 10
5.092445
 20
7.415482
 30
0.000000
  0
VERTEX
  8
LAYER-1
 10
5.092445
 20
7.415482
 30
0.000000
  0
VERTEX
  8
LAYER-1
 10
5.092445
 20
7.143854
 30
0.000000
  0
SEQEND
  8
LAYER-1
  0
POLYLINE
  8
LAYER-1
 66
  1
 70
  0
 62
  0
 10
4.238568
 20
7.415482
 30
0.000000
  0
VERTEX
  8
LAYER-1
 10
4.238568
 20
7.415482
 30
0.000000
  0
VERTEX
  8
LAYER-1
 10
4.238568
 20
7.143854
 30
0.000000
  0
SEQEND
  8
LAYER-1
  0
POLYLINE
  8
LAYER-1
 66
  1
 70
  0
 62
  0
 10
4.277384
 20
7.415482
 30
0.000000
  0
VERTEX
  8
LAYER-1
 10
4.277384
 20
7.415482
 30
0.000000
  0
VERTEX
  8
LAYER-1
 10
4.277384
 20
7.143854
 30
0.000000
  0
SEQEND
  8
LAYER-1
  0
POLYLINE
  8
LAYER-1
 66
  1
 70
  0
 62
  0
 10
4.505244
 20
7.415443
 30
0.000000
  0
VERTEX
  8
LAYER-1
 10
4.505244
 20
7.415443
 30
0.000000
  0
VERTEX
  8
LAYER-1
 10
4.505244
 20
7.143812
 30
0.000000
  0
SEQEND
  8
LAYER-1
  0
POLYLINE
  8
LAYER-1
 66
  1
 70
  0
 62
  0
 10
5.318075
 20
7.415443
 30
0.000000
  0
VERTEX
  8
LAYER-1
 10
5.318075
 20
7.415443
 30
0.000000
  0
VERTEX
  8
LAYER-1
 10
5.318075
 20
7.143812
 30
0.000000
  0
SEQEND
  8
LAYER-1
  0
POLYLINE
  8
LAYER-1
 66
  1
 70
  0
 62
  0
 10
5.462980
 20
7.415049
 30
0.000000
  0
VERTEX
  8
LAYER-1
 10
5.462980
 20
7.415049
 30
0.000000
  0
VERTEX
  8
LAYER-1
 10
5.462980
 20
7.143420
 30
0.000000
  0
SEQEND
  8
LAYER-1
  0
POLYLINE
  8
LAYER-1
 66
  1
 70
  0
 62
  0
 10
5.501362
 20
7.415049
 30
0.000000
  0
VERTEX
  8
LAYER-1
 10
5.501362
 20
7.415049
 30
0.000000
  0
VERTEX
  8
LAYER-1
 10
5.501362
 20
7.143420
 30
0.000000
  0
SEQEND
  8
LAYER-1
  0
POLYLINE
  8
LAYER-1
 66
  1
 70
  0
 62
  0
 10
4.645142
 20
7.415518
 30
0.000000
  0
VERTEX
  8
LAYER-1
 10
4.645142
 20
7.415518
 30
0.000000
  0
VERTEX
  8
LAYER-1
 10
4.645142
 20
7.143890
 30
0.000000
  0
SEQEND
  8
LAYER-1
  0
POLYLINE
  8
LAYER-1
 66
  1
 70
  0
 62
  0
 10
4.683525
 20
7.415518
 30
0.000000
  0
VERTEX
  8
LAYER-1
 10
4.683525
 20
7.415518
 30
0.000000
  0
VERTEX
  8
LAYER-1
 10
4.683525
 20
7.143890
 30
0.000000
  0
SEQEND
  8
LAYER-1
  0
POLYLINE
  8
LAYER-1
 66
  1
 70
  0
 62
  0
 10
4.018092
 20
7.143815
 30
0.000000
  0
VERTEX
  8
LAYER-1
 10
4.018092
 20
7.143815
 30
0.000000
  0
VERTEX
  8
LAYER-1
 10
4.018092
 20
7.415444
 30
0.000000
  0
SEQEND
  8
LAYER-1
  0
POLYLINE
  8
LAYER-1
 66
  1
 70
  0
 62
  0
 10
4.053522
 20
7.415444
 30
0.000000
  0
VERTEX
  8
LAYER-1
 10
4.053522
 20
7.415444
 30
0.000000
  0
VERTEX
  8
LAYER-1
 10
4.053522
 20
7.143813
 30
0.000000
  0
SEQEND
  8
LAYER-1
  0
POLYLINE
  8
LAYER-1
 66
  1
 70
  0
 62
  0
 10
4.052551
 20
7.415455
 30
0.000000
  0
VERTEX
  8
LAYER-1
 10
4.052551
 20
7.415455
 30
0.000000
  0
VERTEX
  8
LAYER-1
 10
4.038669
 20
7.426386
 30
0.000000
  0
VERTEX
  8
LAYER-1
 10
4.023907
 20
7.424297
 30
0.000000
  0
VERTEX
  8
LAYER-1
 10
4.018996
 20
7.415444
 30
0.000000
  0
SEQEND
  8
LAYER-1
  0
POLYLINE
  8
LAYER-1
 66
  1
 70
  0
 62
  0
 10
4.090424
 20
7.415443
 30
0.000000
  0
VERTEX
  8
LAYER-1
 10
4.090424
 20
7.415443
 30
0.000000
  0
VERTEX
  8
LAYER-1
 10
4.073318
 20
7.426427
 30
0.000000
  0
VERTEX
  8
LAYER-1
 10
4.056237
 20
7.422097
 30
0.000000
  0
VERTEX
  8
LAYER-1
 10
4.053522
 20
7.415444
 30
0.000000
  0
SEQEND
  8
LAYER-1
  0
POLYLINE
  8
LAYER-1
 66
  1
 70
  0
 62
  0
 10
4.505984
 20
7.414950
 30
0.000000
  0
VERTEX
  8
LAYER-1
 10
4.505984
 20
7.414950
 30
0.000000
  0
VERTEX
  8
LAYER-1
 10
4.486479
 20
7.424942
 30
0.000000
  0
VERTEX
  8
LAYER-1
 10
4.468406
 20
7.418217
 30
0.000000
  0
VERTEX
  8
LAYER-1
 10
4.469076
 20
7.414950
 30
0.000000
  0
SEQEND
  8
LAYER-1
  0
POLYLINE
  8
LAYER-1
 66
  1
 70
  0
 62
  0
 10
5.318942
 20
7.415420
 30
0.000000
  0
VERTEX
  8
LAYER-1
 10
5.318942
 20
7.415420
 30
0.000000
  0
VERTEX
  8
LAYER-1
 10
5.299438
 20
7.425412
 30
0.000000
  0
VERTEX
  8
LAYER-1
 10
5.281364
 20
7.418687
 30
0.000000
  0
VERTEX
  8
LAYER-1
 10
5.282034
 20
7.415421
 30
0.000000
  0
SEQEND
  8
LAYER-1
  0
POLYLINE
  8
LAYER-1
 66
  1
 70
  0
 62
  0
 10
4.458274
 20
7.414950
 30
0.000000
  0
VERTEX
  8
LAYER-1
 10
4.458274
 20
7.414950
 30
0.000000
  0
VERTEX
  8
LAYER-1
 10
4.438770
 20
7.424943
 30
0.000000
  0
VERTEX
  8
LAYER-1
 10
4.420697
 20
7.418218
 30
0.000000
  0
VERTEX
  8
LAYER-1
 10
4.421367
 20
7.414951
 30
0.000000
  0
SEQEND
  8
LAYER-1
  0
POLYLINE
  8
LAYER-1
 66
  1
 70
  0
 62
  0
 10
4.478738
 20
7.415510
 30
0.000000
  0
VERTEX
  8
LAYER-1
 10
4.478738
 20
7.415510
 30
0.000000
  0
VERTEX
  8
LAYER-1
 10
4.467986
 20
7.428515
 30
0.000000
  0
VERTEX
  8
LAYER-1
 10
4.453971
 20
7.430108
 30
0.000000
  0
VERTEX
  8
LAYER-1
 10
4.442934
 20
7.421325
 30
0.000000
  0
VERTEX
  8
LAYER-1
 10
4.443309
 20
7.415510
 30
0.000000
  0
SEQEND
  8
LAYER-1
  0
POLYLINE
  8
LAYER-1
 66
  1
 70
  0
 62
  0
 10
4.443309
 20
7.415510
 30
0.000000
  0
VERTEX
  8
LAYER-1
 10
4.443309
 20
7.415510
 30
0.000000
  0
VERTEX
  8
LAYER-1
 10
4.478738
 20
7.415510
 30
0.000000
  0
SEQEND
  8
LAYER-1
  0
POLYLINE
  8
LAYER-1
 66
  1
 70
  0
 62
  0
 10
5.270292
 20
7.415420
 30
0.000000
  0
VERTEX
  8
LAYER-1
 10
5.270292
 20
7.415420
 30
0.000000
  0
VERTEX
  8
LAYER-1
 10
5.250787
 20
7.425412
 30
0.000000
  0
VERTEX
  8
LAYER-1
 10
5.232713
 20
7.418687
 30
0.000000
  0
VERTEX
  8
LAYER-1
 10
5.233384
 20
7.415421
 30
0.000000
  0
SEQEND
  8
LAYER-1
  0
POLYLINE
  8
LAYER-1
 66
  1
 70
  0
 62
  0
 10
5.294985
 20
7.415510
 30
0.000000
  0
VERTEX
  8
LAYER-1
 10
5.294985
 20
7.415510
 30
0.000000
  0
VERTEX
  8
LAYER-1
 10
5.284233
 20
7.428515
 30
0.000000
  0
VERTEX
  8
LAYER-1
 10
5.270218
 20
7.430108
 30
0.000000
  0
VERTEX
  8
LAYER-1
 10
5.259181
 20
7.421325
 30
0.000000
  0
VERTEX
  8
LAYER-1
 10
5.259556
 20
7.415510
 30
0.000000
  0
SEQEND
  8
LAYER-1
  0
POLYLINE
  8
LAYER-1
 66
  1
 70
  0
 62
  0
 10
5.259557
 20
7.415510
 30
0.000000
  0
VERTEX
  8
LAYER-1
 10
5.259557
 20
7.415510
 30
0.000000
  0
VERTEX
  8
LAYER-1
 10
5.294985
 20
7.415510
 30
0.000000
  0
SEQEND
  8
LAYER-1
  0
POLYLINE
  8
LAYER-1
 66
  1
 70
  0
 62
  0
 10
4.019026
 20
7.143788
 30
0.000000
  0
VERTEX
  8
LAYER-1
 10
4.019026
 20
7.143788
 30
0.000000
  0
VERTEX
  8
LAYER-1
 10
4.028966
 20
7.136787
 30
0.000000
  0
VERTEX
  8
LAYER-1
 10
4.043729
 20
7.138865
 30
0.000000
  0
VERTEX
  8
LAYER-1
 10
4.052245
 20
7.143227
 30
0.000000
  0
SEQEND
  8
LAYER-1
  0
POLYLINE
  8
LAYER-1
 66
  1
 70
  0
 62
  0
 10
4.052245
 20
7.143227
 30
0.000000
  0
VERTEX
  8
LAYER-1
 10
4.052245
 20
7.143227
 30
0.000000
  0
VERTEX
  8
LAYER-1
 10
4.019026
 20
7.143788
 30
0.000000
  0
SEQEND
  8
LAYER-1
  0
POLYLINE
  8
LAYER-1
 66
  1
 70
  0
 62
  0
 10
4.054454
 20
7.143788
 30
0.000000
  0
VERTEX
  8
LAYER-1
 10
4.054454
 20
7.143788
 30
0.000000
  0
VERTEX
  8
LAYER-1
 10
4.067625
 20
7.136742
 30
0.000000
  0
VERTEX
  8
LAYER-1
 10
4.084705
 20
7.141073
 30
0.000000
  0
VERTEX
  8
LAYER-1
 10
4.091357
 20
7.143789
 30
0.000000
  0
SEQEND
  8
LAYER-1
  0
POLYLINE
  8
LAYER-1
 66
  1
 70
  0
 62
  0
 10
4.091356
 20
7.143789
 30
0.000000
  0
VERTEX
  8
LAYER-1
 10
4.091356
 20
7.143789
 30
0.000000
  0
VERTEX
  8
LAYER-1
 10
4.054455
 20
7.143788
 30
0.000000
  0
SEQEND
  8
LAYER-1
  0
POLYLINE
  8
LAYER-1
 66
  1
 70
  0
 62
  0
 10
4.421293
 20
7.143342
 30
0.000000
  0
VERTEX
  8
LAYER-1
 10
4.421293
 20
7.143342
 30
0.000000
  0
VERTEX
  8
LAYER-1
 10
4.436860
 20
7.137287
 30
0.000000
  0
VERTEX
  8
LAYER-1
 10
4.454934
 20
7.144012
 30
0.000000
  0
VERTEX
  8
LAYER-1
 10
4.458200
 20
7.143343
 30
0.000000
  0
SEQEND
  8
LAYER-1
  0
POLYLINE
  8
LAYER-1
 66
  1
 70
  0
 62
  0
 10
4.468533
 20
7.143342
 30
0.000000
  0
VERTEX
  8
LAYER-1
 10
4.468533
 20
7.143342
 30
0.000000
  0
VERTEX
  8
LAYER-1
 10
4.484100
 20
7.137287
 30
0.000000
  0
VERTEX
  8
LAYER-1
 10
4.502174
 20
7.144012
 30
0.000000
  0
VERTEX
  8
LAYER-1
 10
4.505441
 20
7.143343
 30
0.000000
  0
SEQEND
  8
LAYER-1
  0
POLYLINE
  8
LAYER-1
 66
  1
 70
  0
 62
  0
 10
4.442766
 20
7.143253
 30
0.000000
  0
VERTEX
  8
LAYER-1
 10
4.442766
 20
7.143253
 30
0.000000
  0
VERTEX
  8
LAYER-1
 10
4.449582
 20
7.134184
 30
0.000000
  0
VERTEX
  8
LAYER-1
 10
4.463596
 20
7.132590
 30
0.000000
  0
VERTEX
  8
LAYER-1
 10
4.474633
 20
7.141374
 30
0.000000
  0
VERTEX
  8
LAYER-1
 10
4.478196
 20
7.143253
 30
0.000000
  0
SEQEND
  8
LAYER-1
  0
POLYLINE
  8
LAYER-1
 66
  1
 70
  0
 62
  0
 10
4.442767
 20
7.143253
 30
0.000000
  0
VERTEX
  8
LAYER-1
 10
4.442767
 20
7.143253
 30
0.000000
  0
VERTEX
  8
LAYER-1
 10
4.478196
 20
7.143253
 30
0.000000
  0
SEQEND
  8
LAYER-1
  0
POLYLINE
  8
LAYER-1
 66
  1
 70
  0
 62
  0
 10
5.233848
 20
7.143342
 30
0.000000
  0
VERTEX
  8
LAYER-1
 10
5.233848
 20
7.143342
 30
0.000000
  0
VERTEX
  8
LAYER-1
 10
5.249415
 20
7.137287
 30
0.000000
  0
VERTEX
  8
LAYER-1
 10
5.267488
 20
7.144012
 30
0.000000
  0
VERTEX
  8
LAYER-1
 10
5.270755
 20
7.143343
 30
0.000000
  0
SEQEND
  8
LAYER-1
  0
POLYLINE
  8
LAYER-1
 66
  1
 70
  0
 62
  0
 10
5.282027
 20
7.143342
 30
0.000000
  0
VERTEX
  8
LAYER-1
 10
5.282027
 20
7.143342
 30
0.000000
  0
VERTEX
  8
LAYER-1
 10
5.297594
 20
7.137287
 30
0.000000
  0
VERTEX
  8
LAYER-1
 10
5.315668
 20
7.144012
 30
0.000000
  0
VERTEX
  8
LAYER-1
 10
5.318935
 20
7.143343
 30
0.000000
  0
SEQEND
  8
LAYER-1
  0
POLYLINE
  8
LAYER-1
 66
  1
 70
  0
 62
  0
 10
5.259550
 20
7.143253
 30
0.000000
  0
VERTEX
  8
LAYER-1
 10
5.259550
 20
7.143253
 30
0.000000
  0
VERTEX
  8
LAYER-1
 10
5.266365
 20
7.134184
 30
0.000000
  0
VERTEX
  8
LAYER-1
 10
5.280380
 20
7.132590
 30
0.000000
  0
VERTEX
  8
LAYER-1
 10
5.291417
 20
7.141374
 30
0.000000
  0
VERTEX
  8
LAYER-1
 10
5.294979
 20
7.143253
 30
0.000000
  0
SEQEND
  8
LAYER-1
  0
POLYLINE
  8
LAYER-1
 66
  1
 70
  0
 62
  0
 10
5.259550
 20
7.143253
 30
0.000000
  0
VERTEX
  8
LAYER-1
 10
5.259550
 20
7.143253
 30
0.000000
  0
VERTEX
  8
LAYER-1
 10
5.294979
 20
7.143253
 30
0.000000
  0
SEQEND
  8
LAYER-1
  0
POLYLINE
  8
LAYER-1
 66
  1
 70
  1
 62
  0
  0
VERTEX
  8
LAYER-1
 10
4.443309
 20
7.415443
 30
0.000000
  0
VERTEX
  8
LAYER-1
 10
4.478739
 20
7.415443
 30
0.000000
  0
VERTEX
  8
LAYER-1
 10
4.478739
 20
7.143814
 30
0.000000
  0
VERTEX
  8
LAYER-1
 10
4.443309
 20
7.143814
 30
0.000000
  0
SEQEND
  8
LAYER-1
  0
POLYLINE
  8
LAYER-1
 66
  1
 70
  1
 62
  0
  0
VERTEX
  8
LAYER-1
 10
5.259623
 20
7.415443
 30
0.000000
  0
VERTEX
  8
LAYER-1
 10
5.295053
 20
7.415443
 30
0.000000
  0
VERTEX
  8
LAYER-1
 10
5.295053
 20
7.143814
 30
0.000000
  0
VERTEX
  8
LAYER-1
 10
5.259623
 20
7.143814
 30
0.000000
  0
SEQEND
  8
LAYER-1
  0
POLYLINE
  8
LAYER-1
 66
  1
 70
  0
 62
  0
 10
4.443309
 20
7.347536
 30
0.000000
  0
VERTEX
  8
LAYER-1
 10
4.443309
 20
7.347536
 30
0.000000
  0
VERTEX
  8
LAYER-1
 10
4.478739
 20
7.347536
 30
0.000000
  0
SEQEND
  8
LAYER-1
  0
POLYLINE
  8
LAYER-1
 66
  1
 70
  0
 62
  0
 10
4.443309
 20
7.217627
 30
0.000000
  0
VERTEX
  8
LAYER-1
 10
4.443309
 20
7.217627
 30
0.000000
  0
VERTEX
  8
LAYER-1
 10
4.478739
 20
7.217627
 30
0.000000
  0
SEQEND
  8
LAYER-1
  0
POLYLINE
  8
LAYER-1
 66
  1
 70
  0
 62
  0
 10
5.259623
 20
7.347536
 30
0.000000
  0
VERTEX
  8
LAYER-1
 10
5.259623
 20
7.347536
 30
0.000000
  0
VERTEX
  8
LAYER-1
 10
5.295052
 20
7.347536
 30
0.000000
  0
SEQEND
  8
LAYER-1
  0
POLYLINE
  8
LAYER-1
 66
  1
 70
  0
 62
  0
 10
5.259623
 20
7.217626
 30
0.000000
  0
VERTEX
  8
LAYER-1
 10
5.259623
 20
7.217626
 30
0.000000
  0
VERTEX
  8
LAYER-1
 10
5.295052
 20
7.217626
 30
0.000000
  0
SEQEND
  8
LAYER-1
  0
POLYLINE
  8
LAYER-1
 66
  1
 70
  0
 62
  0
 10
4.274197
 20
7.415560
 30
0.000000
  0
VERTEX
  8
LAYER-1
 10
4.274197
 20
7.415560
 30
0.000000
  0
VERTEX
  8
LAYER-1
 10
4.260024
 20
7.426092
 30
0.000000
  0
VERTEX
  8
LAYER-1
 10
4.245340
 20
7.423516
 30
0.000000
  0
VERTEX
  8
LAYER-1
 10
4.240977
 20
7.415000
 30
0.000000
  0
SEQEND
  8
LAYER-1
  0
POLYLINE
  8
LAYER-1
 66
  1
 70
  0
 62
  0
 10
5.091375
 20
7.415382
 30
0.000000
  0
VERTEX
  8
LAYER-1
 10
5.091375
 20
7.415382
 30
0.000000
  0
VERTEX
  8
LAYER-1
 10
5.074267
 20
7.426364
 30
0.000000
  0
VERTEX
  8
LAYER-1
 10
5.057187
 20
7.422034
 30
0.000000
  0
VERTEX
  8
LAYER-1
 10
5.054472
 20
7.415382
 30
0.000000
  0
SEQEND
  8
LAYER-1
  0
POLYLINE
  8
LAYER-1
 66
  1
 70
  0
 62
  0
 10
4.834056
 20
7.143785
 30
0.000000
  0
VERTEX
  8
LAYER-1
 10
4.834056
 20
7.143785
 30
0.000000
  0
VERTEX
  8
LAYER-1
 10
4.843996
 20
7.136785
 30
0.000000
  0
VERTEX
  8
LAYER-1
 10
4.858759
 20
7.138863
 30
0.000000
  0
VERTEX
  8
LAYER-1
 10
4.867275
 20
7.143226
 30
0.000000
  0
SEQEND
  8
LAYER-1
  0
POLYLINE
  8
LAYER-1
 66
  1
 70
  0
 62
  0
 10
4.867275
 20
7.143226
 30
0.000000
  0
VERTEX
  8
LAYER-1
 10
4.867275
 20
7.143226
 30
0.000000
  0
VERTEX
  8
LAYER-1
 10
4.834056
 20
7.143785
 30
0.000000
  0
SEQEND
  8
LAYER-1
  0
POLYLINE
  8
LAYER-1
 66
  1
 70
  0
 62
  0
 10
4.869485
 20
7.143785
 30
0.000000
  0
VERTEX
  8
LAYER-1
 10
4.869485
 20
7.143785
 30
0.000000
  0
VERTEX
  8
LAYER-1
 10
4.882656
 20
7.136739
 30
0.000000
  0
VERTEX
  8
LAYER-1
 10
4.899736
 20
7.141071
 30
0.000000
  0
VERTEX
  8
LAYER-1
 10
4.906388
 20
7.143786
 30
0.000000
  0
SEQEND
  8
LAYER-1
  0
POLYLINE
  8
LAYER-1
 66
  1
 70
  0
 62
  0
 10
4.906388
 20
7.143786
 30
0.000000
  0
VERTEX
  8
LAYER-1
 10
4.906388
 20
7.143786
 30
0.000000
  0
VERTEX
  8
LAYER-1
 10
4.869485
 20
7.143785
 30
0.000000
  0
SEQEND
  8
LAYER-1
  0
POLYLINE
  8
LAYER-1
 66
  1
 70
  0
 62
  0
 10
4.905217
 20
7.415443
 30
0.000000
  0
VERTEX
  8
LAYER-1
 10
4.905217
 20
7.415443
 30
0.000000
  0
VERTEX
  8
LAYER-1
 10
4.905217
 20
7.143812
 30
0.000000
  0
SEQEND
  8
LAYER-1
  0
POLYLINE
  8
LAYER-1
 66
  1
 70
  0
 62
  0
 10
4.832883
 20
7.143815
 30
0.000000
  0
VERTEX
  8
LAYER-1
 10
4.832883
 20
7.143815
 30
0.000000
  0
VERTEX
  8
LAYER-1
 10
4.832883
 20
7.415444
 30
0.000000
  0
SEQEND
  8
LAYER-1
  0
POLYLINE
  8
LAYER-1
 66
  1
 70
  0
 62
  0
 10
4.868312
 20
7.415444
 30
0.000000
  0
VERTEX
  8
LAYER-1
 10
4.868312
 20
7.415444
 30
0.000000
  0
VERTEX
  8
LAYER-1
 10
4.868312
 20
7.143813
 30
0.000000
  0
SEQEND
  8
LAYER-1
  0
POLYLINE
  8
LAYER-1
 66
  1
 70
  0
 62
  0
 10
4.866407
 20
7.415863
 30
0.000000
  0
VERTEX
  8
LAYER-1
 10
4.866407
 20
7.415863
 30
0.000000
  0
VERTEX
  8
LAYER-1
 10
4.852234
 20
7.426394
 30
0.000000
  0
VERTEX
  8
LAYER-1
 10
4.837550
 20
7.423819
 30
0.000000
  0
VERTEX
  8
LAYER-1
 10
4.833188
 20
7.415303
 30
0.000000
  0
SEQEND
  8
LAYER-1
  0
POLYLINE
  8
LAYER-1
 66
  1
 70
  0
 62
  0
 10
4.866406
 20
7.415863
 30
0.000000
  0
VERTEX
  8
LAYER-1
 10
4.866406
 20
7.415863
 30
0.000000
  0
VERTEX
  8
LAYER-1
 10
4.833188
 20
7.415303
 30
0.000000
  0
SEQEND
  8
LAYER-1
  0
POLYLINE
  8
LAYER-1
 66
  1
 70
  0
 62
  0
 10
4.905519
 20
7.415302
 30
0.000000
  0
VERTEX
  8
LAYER-1
 10
4.905519
 20
7.415302
 30
0.000000
  0
VERTEX
  8
LAYER-1
 10
4.888411
 20
7.426285
 30
0.000000
  0
VERTEX
  8
LAYER-1
 10
4.871331
 20
7.421955
 30
0.000000
  0
VERTEX
  8
LAYER-1
 10
4.868616
 20
7.415303
 30
0.000000
  0
SEQEND
  8
LAYER-1
  0
POLYLINE
  8
LAYER-1
 66
  1
 70
  0
 62
  0
 10
4.905519
 20
7.415302
 30
0.000000
  0
VERTEX
  8
LAYER-1
 10
4.905519
 20
7.415302
 30
0.000000
  0
VERTEX
  8
LAYER-1
 10
4.868616
 20
7.415303
 30
0.000000
  0
SEQEND
  8
LAYER-1
  0
POLYLINE
  8
LAYER-1
 66
  1
 70
  0
 62
  0
 10
5.654056
 20
7.143785
 30
0.000000
  0
VERTEX
  8
LAYER-1
 10
5.654056
 20
7.143785
 30
0.000000
  0
VERTEX
  8
LAYER-1
 10
5.663996
 20
7.136785
 30
0.000000
  0
VERTEX
  8
LAYER-1
 10
5.678759
 20
7.138863
 30
0.000000
  0
VERTEX
  8
LAYER-1
 10
5.687275
 20
7.143226
 30
0.000000
  0
SEQEND
  8
LAYER-1
  0
POLYLINE
  8
LAYER-1
 66
  1
 70
  0
 62
  0
 10
5.687275
 20
7.143226
 30
0.000000
  0
VERTEX
  8
LAYER-1
 10
5.687275
 20
7.143226
 30
0.000000
  0
VERTEX
  8
LAYER-1
 10
5.654056
 20
7.143785
 30
0.000000
  0
SEQEND
  8
LAYER-1
  0
POLYLINE
  8
LAYER-1
 66
  1
 70
  0
 62
  0
 10
5.689485
 20
7.143785
 30
0.000000
  0
VERTEX
  8
LAYER-1
 10
5.689485
 20
7.143785
 30
0.000000
  0
VERTEX
  8
LAYER-1
 10
5.702656
 20
7.136739
 30
0.000000
  0
VERTEX
  8
LAYER-1
 10
5.719736
 20
7.141071
 30
0.000000
  0
VERTEX
  8
LAYER-1
 10
5.726388
 20
7.143786
 30
0.000000
  0
SEQEND
  8
LAYER-1
  0
POLYLINE
  8
LAYER-1
 66
  1
 70
  0
 62
  0
 10
5.726388
 20
7.143786
 30
0.000000
  0
VERTEX
  8
LAYER-1
 10
5.726388
 20
7.143786
 30
0.000000
  0
VERTEX
  8
LAYER-1
 10
5.689485
 20
7.143785
 30
0.000000
  0
SEQEND
  8
LAYER-1
  0
POLYLINE
  8
LAYER-1
 66
  1
 70
  0
 62
  0
 10
5.725217
 20
7.415443
 30
0.000000
  0
VERTEX
  8
LAYER-1
 10
5.725217
 20
7.415443
 30
0.000000
  0
VERTEX
  8
LAYER-1
 10
5.725217
 20
7.143812
 30
0.000000
  0
SEQEND
  8
LAYER-1
  0
POLYLINE
  8
LAYER-1
 66
  1
 70
  0
 62
  0
 10
5.652883
 20
7.143815
 30
0.000000
  0
VERTEX
  8
LAYER-1
 10
5.652883
 20
7.143815
 30
0.000000
  0
VERTEX
  8
LAYER-1
 10
5.652883
 20
7.415444
 30
0.000000
  0
SEQEND
  8
LAYER-1
  0
POLYLINE
  8
LAYER-1
 66
  1
 70
  0
 62
  0
 10
5.688313
 20
7.415444
 30
0.000000
  0
VERTEX
  8
LAYER-1
 10
5.688313
 20
7.415444
 30
0.000000
  0
VERTEX
  8
LAYER-1
 10
5.688313
 20
7.143813
 30
0.000000
  0
SEQEND
  8
LAYER-1
  0
POLYLINE
  8
LAYER-1
 66
  1
 70
  0
 62
  0
 10
5.686406
 20
7.415863
 30
0.000000
  0
VERTEX
  8
LAYER-1
 10
5.686406
 20
7.415863
 30
0.000000
  0
VERTEX
  8
LAYER-1
 10
5.672234
 20
7.426394
 30
0.000000
  0
VERTEX
  8
LAYER-1
 10
5.657550
 20
7.423819
 30
0.000000
  0
VERTEX
  8
LAYER-1
 10
5.653187
 20
7.415303
 30
0.000000
  0
SEQEND
  8
LAYER-1
  0
POLYLINE
  8
LAYER-1
 66
  1
 70
  0
 62
  0
 10
5.686406
 20
7.415863
 30
0.000000
  0
VERTEX
  8
LAYER-1
 10
5.686406
 20
7.415863
 30
0.000000
  0
VERTEX
  8
LAYER-1
 10
5.653188
 20
7.415303
 30
0.000000
  0
SEQEND
  8
LAYER-1
  0
POLYLINE
  8
LAYER-1
 66
  1
 70
  0
 62
  0
 10
5.725519
 20
7.415302
 30
0.000000
  0
VERTEX
  8
LAYER-1
 10
5.725519
 20
7.415302
 30
0.000000
  0
VERTEX
  8
LAYER-1
 10
5.708411
 20
7.426285
 30
0.000000
  0
VERTEX
  8
LAYER-1
 10
5.691331
 20
7.421955
 30
0.000000
  0
VERTEX
  8
LAYER-1
 10
5.688616
 20
7.415303
 30
0.000000
  0
SEQEND
  8
LAYER-1
  0
POLYLINE
  8
LAYER-1
 66
  1
 70
  0
 62
  0
 10
5.725519
 20
7.415302
 30
0.000000
  0
VERTEX
  8
LAYER-1
 10
5.725519
 20
7.415302
 30
0.000000
  0
VERTEX
  8
LAYER-1
 10
5.688616
 20
7.415303
 30
0.000000
  0
SEQEND
  8
LAYER-1
  0
POLYLINE
  8
LAYER-1
 66
  1
 70
  0
 62
  0
 10
3.828918
 20
7.347536
 30
0.000000
  0
VERTEX
  8
LAYER-1
 10
3.828918
 20
7.347536
 30
0.000000
  0
VERTEX
  8
LAYER-1
 10
3.868643
 20
7.347536
 30
0.000000
  0
SEQEND
  8
LAYER-1
  0
POLYLINE
  8
LAYER-1
 66
  1
 70
  0
 62
  0
 10
3.828918
 20
7.217626
 30
0.000000
  0
VERTEX
  8
LAYER-1
 10
3.828918
 20
7.217626
 30
0.000000
  0
VERTEX
  8
LAYER-1
 10
3.868643
 20
7.217626
 30
0.000000
  0
SEQEND
  8
LAYER-1
  0
POLYLINE
  8
LAYER-1
 66
  1
 70
  0
 62
  0
 10
3.867272
 20
7.420589
 30
0.000000
  0
VERTEX
  8
LAYER-1
 10
3.867272
 20
7.420589
 30
0.000000
  0
VERTEX
  8
LAYER-1
 10
3.850164
 20
7.431573
 30
0.000000
  0
VERTEX
  8
LAYER-1
 10
3.833084
 20
7.427242
 30
0.000000
  0
VERTEX
  8
LAYER-1
 10
3.830369
 20
7.420590
 30
0.000000
  0
SEQEND
  8
LAYER-1
  0
POLYLINE
  8
LAYER-1
 66
  1
 70
  1
 62
  0
  0
VERTEX
  8
LAYER-1
 10
3.823166
 20
7.421212
 30
0.000000
  0
VERTEX
  8
LAYER-1
 10
3.877781
 20
7.421212
 30
0.000000
  0
VERTEX
  8
LAYER-1
 10
3.877781
 20
7.415306
 30
0.000000
  0
VERTEX
  8
LAYER-1
 10
3.823166
 20
7.415306
 30
0.000000
  0
SEQEND
  8
LAYER-1
  0
POLYLINE
  8
LAYER-1
 66
  1
 70
  1
 62
  0
  0
VERTEX
  8
LAYER-1
 10
4.031189
 20
1.437859
 30
0.000000
  0
VERTEX
  8
LAYER-1
 10
4.482916
 20
1.437859
 30
0.000000
  0
VERTEX
  8
LAYER-1
 10
4.482916
 20
1.429001
 30
0.000000
  0
VERTEX
  8
LAYER-1
 10
4.031189
 20
1.429001
 30
0.000000
  0
SEQEND
  8
LAYER-1
  0
POLYLINE
  8
LAYER-1
 66
  1
 70
  1
 62
  0
  0
VERTEX
  8
LAYER-1
 10
4.031623
 20
2.254161
 30
0.000000
  0
VERTEX
  8
LAYER-1
 10
4.483350
 20
2.254161
 30
0.000000
  0
VERTEX
  8
LAYER-1
 10
4.483350
 20
2.245305
 30
0.000000
  0
VERTEX
  8
LAYER-1
 10
4.031623
 20
2.245305
 30
0.000000
  0
SEQEND
  8
LAYER-1
  0
POLYLINE
  8
LAYER-1
 66
  1
 70
  1
 62
  0
  0
VERTEX
  8
LAYER-1
 10
4.030754
 20
3.070467
 30
0.000000
  0
VERTEX
  8
LAYER-1
 10
4.482481
 20
3.070467
 30
0.000000
  0
VERTEX
  8
LAYER-1
 10
4.482481
 20
3.061608
 30
0.000000
  0
VERTEX
  8
LAYER-1
 10
4.030754
 20
3.061608
 30
0.000000
  0
SEQEND
  8
LAYER-1
  0
POLYLINE
  8
LAYER-1
 66
  1
 70
  1
 62
  0
  0
VERTEX
  8
LAYER-1
 10
4.030754
 20
3.886769
 30
0.000000
  0
VERTEX
  8
LAYER-1
 10
4.482481
 20
3.886769
 30
0.000000
  0
VERTEX
  8
LAYER-1
 10
4.482481
 20
3.877912
 30
0.000000
  0
VERTEX
  8
LAYER-1
 10
4.030754
 20
3.877912
 30
0.000000
  0
SEQEND
  8
LAYER-1
  0
POLYLINE
  8
LAYER-1
 66
  1
 70
  1
 62
  0
  0
VERTEX
  8
LAYER-1
 10
4.031189
 20
4.703072
 30
0.000000
  0
VERTEX
  8
LAYER-1
 10
4.482915
 20
4.703072
 30
0.000000
  0
VERTEX
  8
LAYER-1
 10
4.482915
 20
4.694217
 30
0.000000
  0
VERTEX
  8
LAYER-1
 10
4.031189
 20
4.694217
 30
0.000000
  0
SEQEND
  8
LAYER-1
  0
POLYLINE
  8
LAYER-1
 66
  1
 70
  1
 62
  0
  0
VERTEX
  8
LAYER-1
 10
4.030754
 20
5.519377
 30
0.000000
  0
VERTEX
  8
LAYER-1
 10
4.482481
 20
5.519377
 30
0.000000
  0
VERTEX
  8
LAYER-1
 10
4.482481
 20
5.510519
 30
0.000000
  0
VERTEX
  8
LAYER-1
 10
4.030754
 20
5.510519
 30
0.000000
  0
SEQEND
  8
LAYER-1
  0
POLYLINE
  8
LAYER-1
 66
  1
 70
  1
 62
  0
  0
VERTEX
  8
LAYER-1
 10
4.031189
 20
6.335680
 30
0.000000
  0
VERTEX
  8
LAYER-1
 10
4.482915
 20
6.335680
 30
0.000000
  0
VERTEX
  8
LAYER-1
 10
4.482915
 20
6.326824
 30
0.000000
  0
VERTEX
  8
LAYER-1
 10
4.031189
 20
6.326824
 30
0.000000
  0
SEQEND
  8
LAYER-1
  0
POLYLINE
  8
LAYER-1
 66
  1
 70
  1
 62
  0
  0
VERTEX
  8
LAYER-1
 10
4.842250
 20
1.437859
 30
0.000000
  0
VERTEX
  8
LAYER-1
 10
5.293980
 20
1.437859
 30
0.000000
  0
VERTEX
  8
LAYER-1
 10
5.293980
 20
1.429001
 30
0.000000
  0
VERTEX
  8
LAYER-1
 10
4.842250
 20
1.429001
 30
0.000000
  0
SEQEND
  8
LAYER-1
  0
POLYLINE
  8
LAYER-1
 66
  1
 70
  1
 62
  0
  0
VERTEX
  8
LAYER-1
 10
4.842250
 20
2.254161
 30
0.000000
  0
VERTEX
  8
LAYER-1
 10
5.293980
 20
2.254161
 30
0.000000
  0
VERTEX
  8
LAYER-1
 10
5.293980
 20
2.245305
 30
0.000000
  0
VERTEX
  8
LAYER-1
 10
4.842250
 20
2.245305
 30
0.000000
  0
SEQEND
  8
LAYER-1
  0
POLYLINE
  8
LAYER-1
 66
  1
 70
  1
 62
  0
  0
VERTEX
  8
LAYER-1
 10
4.847459
 20
3.070467
 30
0.000000
  0
VERTEX
  8
LAYER-1
 10
5.299189
 20
3.070467
 30
0.000000
  0
VERTEX
  8
LAYER-1
 10
5.299189
 20
3.061608
 30
0.000000
  0
VERTEX
  8
LAYER-1
 10
4.847459
 20
3.061608
 30
0.000000
  0
SEQEND
  8
LAYER-1
  0
POLYLINE
  8
LAYER-1
 66
  1
 70
  1
 62
  0
  0
VERTEX
  8
LAYER-1
 10
4.847459
 20
3.886769
 30
0.000000
  0
VERTEX
  8
LAYER-1
 10
5.299189
 20
3.886769
 30
0.000000
  0
VERTEX
  8
LAYER-1
 10
5.299189
 20
3.877912
 30
0.000000
  0
VERTEX
  8
LAYER-1
 10
4.847459
 20
3.877912
 30
0.000000
  0
SEQEND
  8
LAYER-1
  0
POLYLINE
  8
LAYER-1
 66
  1
 70
  1
 62
  0
  0
VERTEX
  8
LAYER-1
 10
4.847459
 20
4.703074
 30
0.000000
  0
VERTEX
  8
LAYER-1
 10
5.299189
 20
4.703074
 30
0.000000
  0
VERTEX
  8
LAYER-1
 10
5.299189
 20
4.694217
 30
0.000000
  0
VERTEX
  8
LAYER-1
 10
4.847459
 20
4.694217
 30
0.000000
  0
SEQEND
  8
LAYER-1
  0
POLYLINE
  8
LAYER-1
 66
  1
 70
  1
 62
  0
  0
VERTEX
  8
LAYER-1
 10
4.847459
 20
5.519377
 30
0.000000
  0
VERTEX
  8
LAYER-1
 10
5.299189
 20
5.519377
 30
0.000000
  0
VERTEX
  8
LAYER-1
 10
5.299189
 20
5.510521
 30
0.000000
  0
VERTEX
  8
LAYER-1
 10
4.847459
 20
5.510521
 30
0.000000
  0
SEQEND
  8
LAYER-1
  0
POLYLINE
  8
LAYER-1
 66
  1
 70
  1
 62
  0
  0
VERTEX
  8
LAYER-1
 10
4.847459
 20
6.335680
 30
0.000000
  0
VERTEX
  8
LAYER-1
 10
5.299189
 20
6.335680
 30
0.000000
  0
VERTEX
  8
LAYER-1
 10
5.299189
 20
6.326824
 30
0.000000
  0
VERTEX
  8
LAYER-1
 10
4.847459
 20
6.326824
 30
0.000000
  0
SEQEND
  8
LAYER-1
  0
POLYLINE
  8
LAYER-1
 66
  1
 70
  1
 62
  0
  0
VERTEX
  8
LAYER-1
 10
4.438281
 20
1.036323
 30
0.000000
  0
VERTEX
  8
LAYER-1
 10
4.890011
 20
1.036323
 30
0.000000
  0
VERTEX
  8
LAYER-1
 10
4.890011
 20
1.027464
 30
0.000000
  0
VERTEX
  8
LAYER-1
 10
4.438281
 20
1.027464
 30
0.000000
  0
SEQEND
  8
LAYER-1
  0
POLYLINE
  8
LAYER-1
 66
  1
 70
  1
 62
  0
  0
VERTEX
  8
LAYER-1
 10
4.437847
 20
1.852623
 30
0.000000
  0
VERTEX
  8
LAYER-1
 10
4.889577
 20
1.852623
 30
0.000000
  0
VERTEX
  8
LAYER-1
 10
4.889577
 20
1.843769
 30
0.000000
  0
VERTEX
  8
LAYER-1
 10
4.437847
 20
1.843769
 30
0.000000
  0
SEQEND
  8
LAYER-1
  0
POLYLINE
  8
LAYER-1
 66
  1
 70
  1
 62
  0
  0
VERTEX
  8
LAYER-1
 10
4.437847
 20
2.668928
 30
0.000000
  0
VERTEX
  8
LAYER-1
 10
4.889577
 20
2.668928
 30
0.000000
  0
VERTEX
  8
LAYER-1
 10
4.889577
 20
2.660071
 30
0.000000
  0
VERTEX
  8
LAYER-1
 10
4.437847
 20
2.660071
 30
0.000000
  0
SEQEND
  8
LAYER-1
  0
POLYLINE
  8
LAYER-1
 66
  1
 70
  1
 62
  0
  0
VERTEX
  8
LAYER-1
 10
4.438715
 20
3.485231
 30
0.000000
  0
VERTEX
  8
LAYER-1
 10
4.890446
 20
3.485231
 30
0.000000
  0
VERTEX
  8
LAYER-1
 10
4.890446
 20
3.476374
 30
0.000000
  0
VERTEX
  8
LAYER-1
 10
4.438715
 20
3.476374
 30
0.000000
  0
SEQEND
  8
LAYER-1
  0
POLYLINE
  8
LAYER-1
 66
  1
 70
  1
 62
  0
  0
VERTEX
  8
LAYER-1
 10
4.438715
 20
4.301535
 30
0.000000
  0
VERTEX
  8
LAYER-1
 10
4.890446
 20
4.301535
 30
0.000000
  0
VERTEX
  8
LAYER-1
 10
4.890446
 20
4.292677
 30
0.000000
  0
VERTEX
  8
LAYER-1
 10
4.438715
 20
4.292677
 30
0.000000
  0
SEQEND
  8
LAYER-1
  0
POLYLINE
  8
LAYER-1
 66
  1
 70
  1
 62
  0
  0
VERTEX
  8
LAYER-1
 10
4.438715
 20
5.117839
 30
0.000000
  0
VERTEX
  8
LAYER-1
 10
4.890446
 20
5.117839
 30
0.000000
  0
VERTEX
  8
LAYER-1
 10
4.890446
 20
5.108983
 30
0.000000
  0
VERTEX
  8
LAYER-1
 10
4.438715
 20
5.108983
 30
0.000000
  0
SEQEND
  8
LAYER-1
  0
POLYLINE
  8
LAYER-1
 66
  1
 70
  1
 62
  0
  0
VERTEX
  8
LAYER-1
 10
4.438281
 20
5.934144
 30
0.000000
  0
VERTEX
  8
LAYER-1
 10
4.890011
 20
5.934144
 30
0.000000
  0
VERTEX
  8
LAYER-1
 10
4.890011
 20
5.925285
 30
0.000000
  0
VERTEX
  8
LAYER-1
 10
4.438281
 20
5.925285
 30
0.000000
  0
SEQEND
  8
LAYER-1
  0
POLYLINE
  8
LAYER-1
 66
  1
 70
  1
 62
  0
  0
VERTEX
  8
LAYER-1
 10
4.438281
 20
6.750438
 30
0.000000
  0
VERTEX
  8
LAYER-1
 10
4.890011
 20
6.750438
 30
0.000000
  0
VERTEX
  8
LAYER-1
 10
4.890011
 20
6.741581
 30
0.000000
  0
VERTEX
  8
LAYER-1
 10
4.438281
 20
6.741581
 30
0.000000
  0
SEQEND
  8
LAYER-1
  0
POLYLINE
  8
LAYER-1
 66
  1
 70
  1
 62
  0
  0
VERTEX
  8
LAYER-1
 10
5.256724
 20
1.036323
 30
0.000000
  0
VERTEX
  8
LAYER-1
 10
5.708455
 20
1.036323
 30
0.000000
  0
VERTEX
  8
LAYER-1
 10
5.708455
 20
1.027464
 30
0.000000
  0
VERTEX
  8
LAYER-1
 10
5.256724
 20
1.027464
 30
0.000000
  0
SEQEND
  8
LAYER-1
  0
POLYLINE
  8
LAYER-1
 66
  1
 70
  1
 62
  0
  0
VERTEX
  8
LAYER-1
 10
5.256290
 20
1.852623
 30
0.000000
  0
VERTEX
  8
LAYER-1
 10
5.708020
 20
1.852623
 30
0.000000
  0
VERTEX
  8
LAYER-1
 10
5.708020
 20
1.843769
 30
0.000000
  0
VERTEX
  8
LAYER-1
 10
5.256290
 20
1.843769
 30
0.000000
  0
SEQEND
  8
LAYER-1
  0
POLYLINE
  8
LAYER-1
 66
  1
 70
  1
 62
  0
  0
VERTEX
  8
LAYER-1
 10
5.256724
 20
2.668928
 30
0.000000
  0
VERTEX
  8
LAYER-1
 10
5.708454
 20
2.668928
 30
0.000000
  0
VERTEX
  8
LAYER-1
 10
5.708454
 20
2.660071
 30
0.000000
  0
VERTEX
  8
LAYER-1
 10
5.256724
 20
2.660071
 30
0.000000
  0
SEQEND
  8
LAYER-1
  0
POLYLINE
  8
LAYER-1
 66
  1
 70
  1
 62
  0
  0
VERTEX
  8
LAYER-1
 10
5.257158
 20
3.485231
 30
0.000000
  0
VERTEX
  8
LAYER-1
 10
5.708889
 20
3.485231
 30
0.000000
  0
VERTEX
  8
LAYER-1
 10
5.708889
 20
3.476374
 30
0.000000
  0
VERTEX
  8
LAYER-1
 10
5.257158
 20
3.476374
 30
0.000000
  0
SEQEND
  8
LAYER-1
  0
POLYLINE
  8
LAYER-1
 66
  1
 70
  1
 62
  0
  0
VERTEX
  8
LAYER-1
 10
5.256724
 20
4.301535
 30
0.000000
  0
VERTEX
  8
LAYER-1
 10
5.708454
 20
4.301535
 30
0.000000
  0
VERTEX
  8
LAYER-1
 10
5.708454
 20
4.292677
 30
0.000000
  0
VERTEX
  8
LAYER-1
 10
5.256724
 20
4.292677
 30
0.000000
  0
SEQEND
  8
LAYER-1
  0
POLYLINE
  8
LAYER-1
 66
  1
 70
  1
 62
  0
  0
VERTEX
  8
LAYER-1
 10
5.256724
 20
5.117839
 30
0.000000
  0
VERTEX
  8
LAYER-1
 10
5.708454
 20
5.117839
 30
0.000000
  0
VERTEX
  8
LAYER-1
 10
5.708454
 20
5.108983
 30
0.000000
  0
VERTEX
  8
LAYER-1
 10
5.256724
 20
5.108983
 30
0.000000
  0
SEQEND
  8
LAYER-1
  0
POLYLINE
  8
LAYER-1
 66
  1
 70
  1
 62
  0
  0
VERTEX
  8
LAYER-1
 10
5.257158
 20
5.934142
 30
0.000000
  0
VERTEX
  8
LAYER-1
 10
5.708889
 20
5.934142
 30
0.000000
  0
VERTEX
  8
LAYER-1
 10
5.708889
 20
5.925285
 30
0.000000
  0
VERTEX
  8
LAYER-1
 10
5.257158
 20
5.925285
 30
0.000000
  0
SEQEND
  8
LAYER-1
  0
POLYLINE
  8
LAYER-1
 66
  1
 70
  1
 62
  0
  0
VERTEX
  8
LAYER-1
 10
5.256290
 20
6.750438
 30
0.000000
  0
VERTEX
  8
LAYER-1
 10
5.708020
 20
6.750438
 30
0.000000
  0
VERTEX
  8
LAYER-1
 10
5.708020
 20
6.741581
 30
0.000000
  0
VERTEX
  8
LAYER-1
 10
5.256290
 20
6.741581
 30
0.000000
  0
SEQEND
  8
LAYER-1
  0
POLYLINE
  8
LAYER-1
 66
  1
 70
  1
 62
  0
  0
VERTEX
  8
LAYER-1
 10
3.829049
 20
1.034729
 30
0.000000
  0
VERTEX
  8
LAYER-1
 10
4.079215
 20
1.034729
 30
0.000000
  0
VERTEX
  8
LAYER-1
 10
4.079215
 20
1.025870
 30
0.000000
  0
VERTEX
  8
LAYER-1
 10
3.829049
 20
1.025870
 30
0.000000
  0
SEQEND
  8
LAYER-1
  0
POLYLINE
  8
LAYER-1
 66
  1
 70
  1
 62
  0
  0
VERTEX
  8
LAYER-1
 10
3.829049
 20
1.851032
 30
0.000000
  0
VERTEX
  8
LAYER-1
 10
4.079215
 20
1.851032
 30
0.000000
  0
VERTEX
  8
LAYER-1
 10
4.079215
 20
1.842173
 30
0.000000
  0
VERTEX
  8
LAYER-1
 10
3.829049
 20
1.842173
 30
0.000000
  0
SEQEND
  8
LAYER-1
  0
POLYLINE
  8
LAYER-1
 66
  1
 70
  1
 62
  0
  0
VERTEX
  8
LAYER-1
 10
3.829049
 20
2.667336
 30
0.000000
  0
VERTEX
  8
LAYER-1
 10
4.079215
 20
2.667336
 30
0.000000
  0
VERTEX
  8
LAYER-1
 10
4.079215
 20
2.658477
 30
0.000000
  0
VERTEX
  8
LAYER-1
 10
3.829049
 20
2.658477
 30
0.000000
  0
SEQEND
  8
LAYER-1
  0
POLYLINE
  8
LAYER-1
 66
  1
 70
  1
 62
  0
  0
VERTEX
  8
LAYER-1
 10
3.829049
 20
3.483638
 30
0.000000
  0
VERTEX
  8
LAYER-1
 10
4.079215
 20
3.483638
 30
0.000000
  0
VERTEX
  8
LAYER-1
 10
4.079215
 20
3.474781
 30
0.000000
  0
VERTEX
  8
LAYER-1
 10
3.829049
 20
3.474781
 30
0.000000
  0
SEQEND
  8
LAYER-1
  0
POLYLINE
  8
LAYER-1
 66
  1
 70
  1
 62
  0
  0
VERTEX
  8
LAYER-1
 10
3.829049
 20
4.299941
 30
0.000000
  0
VERTEX
  8
LAYER-1
 10
4.079215
 20
4.299941
 30
0.000000
  0
VERTEX
  8
LAYER-1
 10
4.079215
 20
4.291083
 30
0.000000
  0
VERTEX
  8
LAYER-1
 10
3.829049
 20
4.291083
 30
0.000000
  0
SEQEND
  8
LAYER-1
  0
POLYLINE
  8
LAYER-1
 66
  1
 70
  1
 62
  0
  0
VERTEX
  8
LAYER-1
 10
3.829049
 20
5.116246
 30
0.000000
  0
VERTEX
  8
LAYER-1
 10
4.079215
 20
5.116246
 30
0.000000
  0
VERTEX
  8
LAYER-1
 10
4.079215
 20
5.107389
 30
0.000000
  0
VERTEX
  8
LAYER-1
 10
3.829049
 20
5.107389
 30
0.000000
  0
SEQEND
  8
LAYER-1
  0
POLYLINE
  8
LAYER-1
 66
  1
 70
  1
 62
  0
  0
VERTEX
  8
LAYER-1
 10
3.829049
 20
5.932550
 30
0.000000
  0
VERTEX
  8
LAYER-1
 10
4.079215
 20
5.932550
 30
0.000000
  0
VERTEX
  8
LAYER-1
 10
4.079215
 20
5.923692
 30
0.000000
  0
VERTEX
  8
LAYER-1
 10
3.829049
 20
5.923692
 30
0.000000
  0
SEQEND
  8
LAYER-1
  0
POLYLINE
  8
LAYER-1
 66
  1
 70
  1
 62
  0
  0
VERTEX
  8
LAYER-1
 10
3.829049
 20
6.748846
 30
0.000000
  0
VERTEX
  8
LAYER-1
 10
4.079215
 20
6.748846
 30
0.000000
  0
VERTEX
  8
LAYER-1
 10
4.079215
 20
6.739988
 30
0.000000
  0
VERTEX
  8
LAYER-1
 10
3.829049
 20
6.739988
 30
0.000000
  0
SEQEND
  8
LAYER-1
  0
POLYLINE
  8
LAYER-1
 66
  1
 70
  0
 62
  0
 10
3.869077
 20
7.415441
 30
0.000000
  0
VERTEX
  8
LAYER-1
 10
3.869077
 20
7.415441
 30
0.000000
  0
VERTEX
  8
LAYER-1
 10
3.869077
 20
7.143693
 30
0.000000
  0
SEQEND
  8
LAYER-1
  0
POLYLINE
  8
LAYER-1
 66
  1
 70
  0
 62
  0
 10
3.869066
 20
0.616781
 30
0.000000
  0
VERTEX
  8
LAYER-1
 10
3.869066
 20
0.616781
 30
0.000000
  0
VERTEX
  8
LAYER-1
 10
3.869066
 20
0.345082
 30
0.000000
  0
SEQEND
  8
LAYER-1
  0
POLYLINE
  8
LAYER-1
 66
  1
 70
  0
 62
  0
 10
4.089986
 20
0.344643
 30
0.000000
  0
VERTEX
  8
LAYER-1
 10
4.089986
 20
0.344643
 30
0.000000
  0
VERTEX
  8
LAYER-1
 10
4.089986
 20
0.616274
 30
0.000000
  0
SEQEND
  8
LAYER-1
  0
POLYLINE
  8
LAYER-1
 66
  1
 70
  0
 62
  0
 10
4.420483
 20
0.616274
 30
0.000000
  0
VERTEX
  8
LAYER-1
 10
4.420483
 20
0.616274
 30
0.000000
  0
VERTEX
  8
LAYER-1
 10
4.420483
 20
0.344643
 30
0.000000
  0
SEQEND
  8
LAYER-1
  0
POLYLINE
  8
LAYER-1
 66
  1
 70
  0
 62
  0
 10
5.233314
 20
0.616274
 30
0.000000
  0
VERTEX
  8
LAYER-1
 10
5.233314
 20
0.616274
 30
0.000000
  0
VERTEX
  8
LAYER-1
 10
5.233314
 20
0.344643
 30
0.000000
  0
SEQEND
  8
LAYER-1
  0
POLYLINE
  8
LAYER-1
 66
  1
 70
  0
 62
  0
 10
5.052147
 20
0.344603
 30
0.000000
  0
VERTEX
  8
LAYER-1
 10
5.052147
 20
0.344603
 30
0.000000
  0
VERTEX
  8
LAYER-1
 10
5.052147
 20
0.616231
 30
0.000000
  0
SEQEND
  8
LAYER-1
  0
POLYLINE
  8
LAYER-1
 66
  1
 70
  0
 62
  0
 10
5.092006
 20
0.344603
 30
0.000000
  0
VERTEX
  8
LAYER-1
 10
5.092006
 20
0.344603
 30
0.000000
  0
VERTEX
  8
LAYER-1
 10
5.092006
 20
0.616231
 30
0.000000
  0
SEQEND
  8
LAYER-1
  0
POLYLINE
  8
LAYER-1
 66
  1
 70
  0
 62
  0
 10
4.238130
 20
0.344603
 30
0.000000
  0
VERTEX
  8
LAYER-1
 10
4.238130
 20
0.344603
 30
0.000000
  0
VERTEX
  8
LAYER-1
 10
4.238130
 20
0.616231
 30
0.000000
  0
SEQEND
  8
LAYER-1
  0
POLYLINE
  8
LAYER-1
 66
  1
 70
  0
 62
  0
 10
4.276946
 20
0.344603
 30
0.000000
  0
VERTEX
  8
LAYER-1
 10
4.276946
 20
0.344603
 30
0.000000
  0
VERTEX
  8
LAYER-1
 10
4.276946
 20
0.616231
 30
0.000000
  0
SEQEND
  8
LAYER-1
  0
POLYLINE
  8
LAYER-1
 66
  1
 70
  0
 62
  0
 10
4.504805
 20
0.344643
 30
0.000000
  0
VERTEX
  8
LAYER-1
 10
4.504805
 20
0.344643
 30
0.000000
  0
VERTEX
  8
LAYER-1
 10
4.504805
 20
0.616274
 30
0.000000
  0
SEQEND
  8
LAYER-1
  0
POLYLINE
  8
LAYER-1
 66
  1
 70
  0
 62
  0
 10
5.317636
 20
0.344643
 30
0.000000
  0
VERTEX
  8
LAYER-1
 10
5.317636
 20
0.344643
 30
0.000000
  0
VERTEX
  8
LAYER-1
 10
5.317636
 20
0.616274
 30
0.000000
  0
SEQEND
  8
LAYER-1
  0
POLYLINE
  8
LAYER-1
 66
  1
 70
  0
 62
  0
 10
5.462541
 20
0.345038
 30
0.000000
  0
VERTEX
  8
LAYER-1
 10
5.462541
 20
0.345038
 30
0.000000
  0
VERTEX
  8
LAYER-1
 10
5.462541
 20
0.616666
 30
0.000000
  0
SEQEND
  8
LAYER-1
  0
POLYLINE
  8
LAYER-1
 66
  1
 70
  0
 62
  0
 10
5.500924
 20
0.345038
 30
0.000000
  0
VERTEX
  8
LAYER-1
 10
5.500924
 20
0.345038
 30
0.000000
  0
VERTEX
  8
LAYER-1
 10
5.500924
 20
0.616666
 30
0.000000
  0
SEQEND
  8
LAYER-1
  0
POLYLINE
  8
LAYER-1
 66
  1
 70
  0
 62
  0
 10
4.644703
 20
0.344568
 30
0.000000
  0
VERTEX
  8
LAYER-1
 10
4.644703
 20
0.344568
 30
0.000000
  0
VERTEX
  8
LAYER-1
 10
4.644703
 20
0.616195
 30
0.000000
  0
SEQEND
  8
LAYER-1
  0
POLYLINE
  8
LAYER-1
 66
  1
 70
  0
 62
  0
 10
4.683086
 20
0.344568
 30
0.000000
  0
VERTEX
  8
LAYER-1
 10
4.683086
 20
0.344568
 30
0.000000
  0
VERTEX
  8
LAYER-1
 10
4.683086
 20
0.616195
 30
0.000000
  0
SEQEND
  8
LAYER-1
  0
POLYLINE
  8
LAYER-1
 66
  1
 70
  0
 62
  0
 10
4.017654
 20
0.616270
 30
0.000000
  0
VERTEX
  8
LAYER-1
 10
4.017654
 20
0.616270
 30
0.000000
  0
VERTEX
  8
LAYER-1
 10
4.017654
 20
0.344642
 30
0.000000
  0
SEQEND
  8
LAYER-1
  0
POLYLINE
  8
LAYER-1
 66
  1
 70
  0
 62
  0
 10
4.053083
 20
0.344642
 30
0.000000
  0
VERTEX
  8
LAYER-1
 10
4.053083
 20
0.344642
 30
0.000000
  0
VERTEX
  8
LAYER-1
 10
4.053083
 20
0.616272
 30
0.000000
  0
SEQEND
  8
LAYER-1
  0
POLYLINE
  8
LAYER-1
 66
  1
 70
  0
 62
  0
 10
4.018558
 20
0.344642
 30
0.000000
  0
VERTEX
  8
LAYER-1
 10
4.018558
 20
0.344642
 30
0.000000
  0
VERTEX
  8
LAYER-1
 10
4.028497
 20
0.337641
 30
0.000000
  0
VERTEX
  8
LAYER-1
 10
4.043260
 20
0.339719
 30
0.000000
  0
VERTEX
  8
LAYER-1
 10
4.052113
 20
0.344630
 30
0.000000
  0
SEQEND
  8
LAYER-1
  0
POLYLINE
  8
LAYER-1
 66
  1
 70
  0
 62
  0
 10
4.053083
 20
0.344642
 30
0.000000
  0
VERTEX
  8
LAYER-1
 10
4.053083
 20
0.344642
 30
0.000000
  0
VERTEX
  8
LAYER-1
 10
4.066254
 20
0.337595
 30
0.000000
  0
VERTEX
  8
LAYER-1
 10
4.083334
 20
0.341926
 30
0.000000
  0
VERTEX
  8
LAYER-1
 10
4.089985
 20
0.344643
 30
0.000000
  0
SEQEND
  8
LAYER-1
  0
POLYLINE
  8
LAYER-1
 66
  1
 70
  0
 62
  0
 10
4.468637
 20
0.345135
 30
0.000000
  0
VERTEX
  8
LAYER-1
 10
4.468637
 20
0.345135
 30
0.000000
  0
VERTEX
  8
LAYER-1
 10
4.484204
 20
0.339080
 30
0.000000
  0
VERTEX
  8
LAYER-1
 10
4.502278
 20
0.345806
 30
0.000000
  0
VERTEX
  8
LAYER-1
 10
4.505544
 20
0.345135
 30
0.000000
  0
SEQEND
  8
LAYER-1
  0
POLYLINE
  8
LAYER-1
 66
  1
 70
  0
 62
  0
 10
5.281595
 20
0.344666
 30
0.000000
  0
VERTEX
  8
LAYER-1
 10
5.281595
 20
0.344666
 30
0.000000
  0
VERTEX
  8
LAYER-1
 10
5.297163
 20
0.338611
 30
0.000000
  0
VERTEX
  8
LAYER-1
 10
5.315236
 20
0.345336
 30
0.000000
  0
VERTEX
  8
LAYER-1
 10
5.318503
 20
0.344666
 30
0.000000
  0
SEQEND
  8
LAYER-1
  0
POLYLINE
  8
LAYER-1
 66
  1
 70
  0
 62
  0
 10
4.420928
 20
0.345135
 30
0.000000
  0
VERTEX
  8
LAYER-1
 10
4.420928
 20
0.345135
 30
0.000000
  0
VERTEX
  8
LAYER-1
 10
4.436495
 20
0.339080
 30
0.000000
  0
VERTEX
  8
LAYER-1
 10
4.454569
 20
0.345806
 30
0.000000
  0
VERTEX
  8
LAYER-1
 10
4.457835
 20
0.345135
 30
0.000000
  0
SEQEND
  8
LAYER-1
  0
POLYLINE
  8
LAYER-1
 66
  1
 70
  0
 62
  0
 10
4.442871
 20
0.344577
 30
0.000000
  0
VERTEX
  8
LAYER-1
 10
4.442871
 20
0.344577
 30
0.000000
  0
VERTEX
  8
LAYER-1
 10
4.449686
 20
0.335509
 30
0.000000
  0
VERTEX
  8
LAYER-1
 10
4.463701
 20
0.333915
 30
0.000000
  0
VERTEX
  8
LAYER-1
 10
4.474738
 20
0.342698
 30
0.000000
  0
VERTEX
  8
LAYER-1
 10
4.478300
 20
0.344577
 30
0.000000
  0
SEQEND
  8
LAYER-1
  0
POLYLINE
  8
LAYER-1
 66
  1
 70
  0
 62
  0
 10
4.442871
 20
0.344577
 30
0.000000
  0
VERTEX
  8
LAYER-1
 10
4.442871
 20
0.344577
 30
0.000000
  0
VERTEX
  8
LAYER-1
 10
4.478300
 20
0.344577
 30
0.000000
  0
SEQEND
  8
LAYER-1
  0
POLYLINE
  8
LAYER-1
 66
  1
 70
  0
 62
  0
 10
5.232945
 20
0.344665
 30
0.000000
  0
VERTEX
  8
LAYER-1
 10
5.232945
 20
0.344665
 30
0.000000
  0
VERTEX
  8
LAYER-1
 10
5.248513
 20
0.338611
 30
0.000000
  0
VERTEX
  8
LAYER-1
 10
5.266586
 20
0.345336
 30
0.000000
  0
VERTEX
  8
LAYER-1
 10
5.269853
 20
0.344666
 30
0.000000
  0
SEQEND
  8
LAYER-1
  0
POLYLINE
  8
LAYER-1
 66
  1
 70
  0
 62
  0
 10
5.259117
 20
0.344577
 30
0.000000
  0
VERTEX
  8
LAYER-1
 10
5.259117
 20
0.344577
 30
0.000000
  0
VERTEX
  8
LAYER-1
 10
5.265933
 20
0.335509
 30
0.000000
  0
VERTEX
  8
LAYER-1
 10
5.279947
 20
0.333915
 30
0.000000
  0
VERTEX
  8
LAYER-1
 10
5.290984
 20
0.342698
 30
0.000000
  0
VERTEX
  8
LAYER-1
 10
5.294546
 20
0.344577
 30
0.000000
  0
SEQEND
  8
LAYER-1
  0
POLYLINE
  8
LAYER-1
 66
  1
 70
  0
 62
  0
 10
5.259118
 20
0.344577
 30
0.000000
  0
VERTEX
  8
LAYER-1
 10
5.259118
 20
0.344577
 30
0.000000
  0
VERTEX
  8
LAYER-1
 10
5.294546
 20
0.344577
 30
0.000000
  0
SEQEND
  8
LAYER-1
  0
POLYLINE
  8
LAYER-1
 66
  1
 70
  0
 62
  0
 10
4.051807
 20
0.616859
 30
0.000000
  0
VERTEX
  8
LAYER-1
 10
4.051807
 20
0.616859
 30
0.000000
  0
VERTEX
  8
LAYER-1
 10
4.037634
 20
0.627390
 30
0.000000
  0
VERTEX
  8
LAYER-1
 10
4.022950
 20
0.624815
 30
0.000000
  0
VERTEX
  8
LAYER-1
 10
4.018587
 20
0.616299
 30
0.000000
  0
SEQEND
  8
LAYER-1
  0
POLYLINE
  8
LAYER-1
 66
  1
 70
  0
 62
  0
 10
4.051807
 20
0.616859
 30
0.000000
  0
VERTEX
  8
LAYER-1
 10
4.051807
 20
0.616859
 30
0.000000
  0
VERTEX
  8
LAYER-1
 10
4.018587
 20
0.616299
 30
0.000000
  0
SEQEND
  8
LAYER-1
  0
POLYLINE
  8
LAYER-1
 66
  1
 70
  0
 62
  0
 10
4.090919
 20
0.616296
 30
0.000000
  0
VERTEX
  8
LAYER-1
 10
4.090919
 20
0.616296
 30
0.000000
  0
VERTEX
  8
LAYER-1
 10
4.073811
 20
0.627280
 30
0.000000
  0
VERTEX
  8
LAYER-1
 10
4.056731
 20
0.622949
 30
0.000000
  0
VERTEX
  8
LAYER-1
 10
4.054016
 20
0.616297
 30
0.000000
  0
SEQEND
  8
LAYER-1
  0
POLYLINE
  8
LAYER-1
 66
  1
 70
  0
 62
  0
 10
4.090918
 20
0.616297
 30
0.000000
  0
VERTEX
  8
LAYER-1
 10
4.090918
 20
0.616297
 30
0.000000
  0
VERTEX
  8
LAYER-1
 10
4.054017
 20
0.616299
 30
0.000000
  0
SEQEND
  8
LAYER-1
  0
POLYLINE
  8
LAYER-1
 66
  1
 70
  0
 62
  0
 10
4.457761
 20
0.616743
 30
0.000000
  0
VERTEX
  8
LAYER-1
 10
4.457761
 20
0.616743
 30
0.000000
  0
VERTEX
  8
LAYER-1
 10
4.438257
 20
0.626735
 30
0.000000
  0
VERTEX
  8
LAYER-1
 10
4.420184
 20
0.620010
 30
0.000000
  0
VERTEX
  8
LAYER-1
 10
4.420854
 20
0.616745
 30
0.000000
  0
SEQEND
  8
LAYER-1
  0
POLYLINE
  8
LAYER-1
 66
  1
 70
  0
 62
  0
 10
4.505002
 20
0.616743
 30
0.000000
  0
VERTEX
  8
LAYER-1
 10
4.505002
 20
0.616743
 30
0.000000
  0
VERTEX
  8
LAYER-1
 10
4.485499
 20
0.626735
 30
0.000000
  0
VERTEX
  8
LAYER-1
 10
4.467425
 20
0.620010
 30
0.000000
  0
VERTEX
  8
LAYER-1
 10
4.468095
 20
0.616745
 30
0.000000
  0
SEQEND
  8
LAYER-1
  0
POLYLINE
  8
LAYER-1
 66
  1
 70
  0
 62
  0
 10
4.477757
 20
0.616832
 30
0.000000
  0
VERTEX
  8
LAYER-1
 10
4.477757
 20
0.616832
 30
0.000000
  0
VERTEX
  8
LAYER-1
 10
4.467005
 20
0.629838
 30
0.000000
  0
VERTEX
  8
LAYER-1
 10
4.452989
 20
0.631432
 30
0.000000
  0
VERTEX
  8
LAYER-1
 10
4.441953
 20
0.622648
 30
0.000000
  0
VERTEX
  8
LAYER-1
 10
4.442327
 20
0.616832
 30
0.000000
  0
SEQEND
  8
LAYER-1
  0
POLYLINE
  8
LAYER-1
 66
  1
 70
  0
 62
  0
 10
4.442329
 20
0.616833
 30
0.000000
  0
VERTEX
  8
LAYER-1
 10
4.442329
 20
0.616833
 30
0.000000
  0
VERTEX
  8
LAYER-1
 10
4.477757
 20
0.616833
 30
0.000000
  0
SEQEND
  8
LAYER-1
  0
POLYLINE
  8
LAYER-1
 66
  1
 70
  0
 62
  0
 10
5.270316
 20
0.616743
 30
0.000000
  0
VERTEX
  8
LAYER-1
 10
5.270316
 20
0.616743
 30
0.000000
  0
VERTEX
  8
LAYER-1
 10
5.250812
 20
0.626735
 30
0.000000
  0
VERTEX
  8
LAYER-1
 10
5.232738
 20
0.620010
 30
0.000000
  0
VERTEX
  8
LAYER-1
 10
5.233409
 20
0.616745
 30
0.000000
  0
SEQEND
  8
LAYER-1
  0
POLYLINE
  8
LAYER-1
 66
  1
 70
  0
 62
  0
 10
5.318496
 20
0.616743
 30
0.000000
  0
VERTEX
  8
LAYER-1
 10
5.318496
 20
0.616743
 30
0.000000
  0
VERTEX
  8
LAYER-1
 10
5.298993
 20
0.626735
 30
0.000000
  0
VERTEX
  8
LAYER-1
 10
5.280919
 20
0.620010
 30
0.000000
  0
VERTEX
  8
LAYER-1
 10
5.281589
 20
0.616745
 30
0.000000
  0
SEQEND
  8
LAYER-1
  0
POLYLINE
  8
LAYER-1
 66
  1
 70
  0
 62
  0
 10
5.294541
 20
0.616832
 30
0.000000
  0
VERTEX
  8
LAYER-1
 10
5.294541
 20
0.616832
 30
0.000000
  0
VERTEX
  8
LAYER-1
 10
5.283788
 20
0.629838
 30
0.000000
  0
VERTEX
  8
LAYER-1
 10
5.269773
 20
0.631432
 30
0.000000
  0
VERTEX
  8
LAYER-1
 10
5.258737
 20
0.622648
 30
0.000000
  0
VERTEX
  8
LAYER-1
 10
5.259112
 20
0.616832
 30
0.000000
  0
SEQEND
  8
LAYER-1
  0
POLYLINE
  8
LAYER-1
 66
  1
 70
  0
 62
  0
 10
5.259112
 20
0.616833
 30
0.000000
  0
VERTEX
  8
LAYER-1
 10
5.259112
 20
0.616833
 30
0.000000
  0
VERTEX
  8
LAYER-1
 10
5.294540
 20
0.616833
 30
0.000000
  0
SEQEND
  8
LAYER-1
  0
POLYLINE
  8
LAYER-1
 66
  1
 70
  1
 62
  0
  0
VERTEX
  8
LAYER-1
 10
4.478301
 20
0.344643
 30
0.000000
  0
VERTEX
  8
LAYER-1
 10
4.442871
 20
0.344643
 30
0.000000
  0
VERTEX
  8
LAYER-1
 10
4.442871
 20
0.616272
 30
0.000000
  0
VERTEX
  8
LAYER-1
 10
4.478301
 20
0.616272
 30
0.000000
  0
SEQEND
  8
LAYER-1
  0
POLYLINE
  8
LAYER-1
 66
  1
 70
  1
 62
  0
  0
VERTEX
  8
LAYER-1
 10
5.294615
 20
0.344643
 30
0.000000
  0
VERTEX
  8
LAYER-1
 10
5.259185
 20
0.344643
 30
0.000000
  0
VERTEX
  8
LAYER-1
 10
5.259185
 20
0.616272
 30
0.000000
  0
VERTEX
  8
LAYER-1
 10
5.294615
 20
0.616272
 30
0.000000
  0
SEQEND
  8
LAYER-1
  0
POLYLINE
  8
LAYER-1
 66
  1
 70
  0
 62
  0
 10
4.442871
 20
0.412549
 30
0.000000
  0
VERTEX
  8
LAYER-1
 10
4.442871
 20
0.412549
 30
0.000000
  0
VERTEX
  8
LAYER-1
 10
4.478301
 20
0.412549
 30
0.000000
  0
SEQEND
  8
LAYER-1
  0
POLYLINE
  8
LAYER-1
 66
  1
 70
  0
 62
  0
 10
4.442871
 20
0.542458
 30
0.000000
  0
VERTEX
  8
LAYER-1
 10
4.442871
 20
0.542458
 30
0.000000
  0
VERTEX
  8
LAYER-1
 10
4.478301
 20
0.542458
 30
0.000000
  0
SEQEND
  8
LAYER-1
  0
POLYLINE
  8
LAYER-1
 66
  1
 70
  0
 62
  0
 10
5.259185
 20
0.412549
 30
0.000000
  0
VERTEX
  8
LAYER-1
 10
5.259185
 20
0.412549
 30
0.000000
  0
VERTEX
  8
LAYER-1
 10
5.294613
 20
0.412549
 30
0.000000
  0
SEQEND
  8
LAYER-1
  0
POLYLINE
  8
LAYER-1
 66
  1
 70
  0
 62
  0
 10
5.259185
 20
0.542458
 30
0.000000
  0
VERTEX
  8
LAYER-1
 10
5.259185
 20
0.542458
 30
0.000000
  0
VERTEX
  8
LAYER-1
 10
5.294613
 20
0.542458
 30
0.000000
  0
SEQEND
  8
LAYER-1
  0
POLYLINE
  8
LAYER-1
 66
  1
 70
  0
 62
  0
 10
4.240539
 20
0.345085
 30
0.000000
  0
VERTEX
  8
LAYER-1
 10
4.240539
 20
0.345085
 30
0.000000
  0
VERTEX
  8
LAYER-1
 10
4.250479
 20
0.338086
 30
0.000000
  0
VERTEX
  8
LAYER-1
 10
4.265242
 20
0.340163
 30
0.000000
  0
VERTEX
  8
LAYER-1
 10
4.273758
 20
0.344527
 30
0.000000
  0
SEQEND
  8
LAYER-1
  0
POLYLINE
  8
LAYER-1
 66
  1
 70
  0
 62
  0
 10
5.054032
 20
0.344703
 30
0.000000
  0
VERTEX
  8
LAYER-1
 10
5.054032
 20
0.344703
 30
0.000000
  0
VERTEX
  8
LAYER-1
 10
5.067204
 20
0.337658
 30
0.000000
  0
VERTEX
  8
LAYER-1
 10
5.084284
 20
0.341989
 30
0.000000
  0
VERTEX
  8
LAYER-1
 10
5.090937
 20
0.344705
 30
0.000000
  0
SEQEND
  8
LAYER-1
  0
POLYLINE
  8
LAYER-1
 66
  1
 70
  0
 62
  0
 10
4.866837
 20
0.616860
 30
0.000000
  0
VERTEX
  8
LAYER-1
 10
4.866837
 20
0.616860
 30
0.000000
  0
VERTEX
  8
LAYER-1
 10
4.852665
 20
0.627392
 30
0.000000
  0
VERTEX
  8
LAYER-1
 10
4.837980
 20
0.624817
 30
0.000000
  0
VERTEX
  8
LAYER-1
 10
4.833618
 20
0.616301
 30
0.000000
  0
SEQEND
  8
LAYER-1
  0
POLYLINE
  8
LAYER-1
 66
  1
 70
  0
 62
  0
 10
4.866836
 20
0.616860
 30
0.000000
  0
VERTEX
  8
LAYER-1
 10
4.866836
 20
0.616860
 30
0.000000
  0
VERTEX
  8
LAYER-1
 10
4.833618
 20
0.616301
 30
0.000000
  0
SEQEND
  8
LAYER-1
  0
POLYLINE
  8
LAYER-1
 66
  1
 70
  0
 62
  0
 10
4.905949
 20
0.616300
 30
0.000000
  0
VERTEX
  8
LAYER-1
 10
4.905949
 20
0.616300
 30
0.000000
  0
VERTEX
  8
LAYER-1
 10
4.888841
 20
0.627285
 30
0.000000
  0
VERTEX
  8
LAYER-1
 10
4.871761
 20
0.622953
 30
0.000000
  0
VERTEX
  8
LAYER-1
 10
4.869045
 20
0.616301
 30
0.000000
  0
SEQEND
  8
LAYER-1
  0
POLYLINE
  8
LAYER-1
 66
  1
 70
  0
 62
  0
 10
4.905949
 20
0.616299
 30
0.000000
  0
VERTEX
  8
LAYER-1
 10
4.905949
 20
0.616299
 30
0.000000
  0
VERTEX
  8
LAYER-1
 10
4.869046
 20
0.616301
 30
0.000000
  0
SEQEND
  8
LAYER-1
  0
POLYLINE
  8
LAYER-1
 66
  1
 70
  0
 62
  0
 10
4.904778
 20
0.344643
 30
0.000000
  0
VERTEX
  8
LAYER-1
 10
4.904778
 20
0.344643
 30
0.000000
  0
VERTEX
  8
LAYER-1
 10
4.904778
 20
0.616274
 30
0.000000
  0
SEQEND
  8
LAYER-1
  0
POLYLINE
  8
LAYER-1
 66
  1
 70
  0
 62
  0
 10
4.832444
 20
0.616270
 30
0.000000
  0
VERTEX
  8
LAYER-1
 10
4.832444
 20
0.616270
 30
0.000000
  0
VERTEX
  8
LAYER-1
 10
4.832444
 20
0.344642
 30
0.000000
  0
SEQEND
  8
LAYER-1
  0
POLYLINE
  8
LAYER-1
 66
  1
 70
  0
 62
  0
 10
4.867874
 20
0.344642
 30
0.000000
  0
VERTEX
  8
LAYER-1
 10
4.867874
 20
0.344642
 30
0.000000
  0
VERTEX
  8
LAYER-1
 10
4.867874
 20
0.616272
 30
0.000000
  0
SEQEND
  8
LAYER-1
  0
POLYLINE
  8
LAYER-1
 66
  1
 70
  0
 62
  0
 10
4.832749
 20
0.344783
 30
0.000000
  0
VERTEX
  8
LAYER-1
 10
4.832749
 20
0.344783
 30
0.000000
  0
VERTEX
  8
LAYER-1
 10
4.842689
 20
0.337784
 30
0.000000
  0
VERTEX
  8
LAYER-1
 10
4.857452
 20
0.339862
 30
0.000000
  0
VERTEX
  8
LAYER-1
 10
4.865968
 20
0.344225
 30
0.000000
  0
SEQEND
  8
LAYER-1
  0
POLYLINE
  8
LAYER-1
 66
  1
 70
  0
 62
  0
 10
4.865968
 20
0.344222
 30
0.000000
  0
VERTEX
  8
LAYER-1
 10
4.865968
 20
0.344222
 30
0.000000
  0
VERTEX
  8
LAYER-1
 10
4.832749
 20
0.344783
 30
0.000000
  0
SEQEND
  8
LAYER-1
  0
POLYLINE
  8
LAYER-1
 66
  1
 70
  0
 62
  0
 10
4.868178
 20
0.344783
 30
0.000000
  0
VERTEX
  8
LAYER-1
 10
4.868178
 20
0.344783
 30
0.000000
  0
VERTEX
  8
LAYER-1
 10
4.881349
 20
0.337737
 30
0.000000
  0
VERTEX
  8
LAYER-1
 10
4.898429
 20
0.342068
 30
0.000000
  0
VERTEX
  8
LAYER-1
 10
4.905081
 20
0.344785
 30
0.000000
  0
SEQEND
  8
LAYER-1
  0
POLYLINE
  8
LAYER-1
 66
  1
 70
  0
 62
  0
 10
4.905081
 20
0.344783
 30
0.000000
  0
VERTEX
  8
LAYER-1
 10
4.905081
 20
0.344783
 30
0.000000
  0
VERTEX
  8
LAYER-1
 10
4.868178
 20
0.344783
 30
0.000000
  0
SEQEND
  8
LAYER-1
  0
POLYLINE
  8
LAYER-1
 66
  1
 70
  0
 62
  0
 10
5.686836
 20
0.616860
 30
0.000000
  0
VERTEX
  8
LAYER-1
 10
5.686836
 20
0.616860
 30
0.000000
  0
VERTEX
  8
LAYER-1
 10
5.672664
 20
0.627392
 30
0.000000
  0
VERTEX
  8
LAYER-1
 10
5.657979
 20
0.624817
 30
0.000000
  0
VERTEX
  8
LAYER-1
 10
5.653617
 20
0.616301
 30
0.000000
  0
SEQEND
  8
LAYER-1
  0
POLYLINE
  8
LAYER-1
 66
  1
 70
  0
 62
  0
 10
5.686836
 20
0.616860
 30
0.000000
  0
VERTEX
  8
LAYER-1
 10
5.686836
 20
0.616860
 30
0.000000
  0
VERTEX
  8
LAYER-1
 10
5.653618
 20
0.616301
 30
0.000000
  0
SEQEND
  8
LAYER-1
  0
POLYLINE
  8
LAYER-1
 66
  1
 70
  0
 62
  0
 10
5.725949
 20
0.616300
 30
0.000000
  0
VERTEX
  8
LAYER-1
 10
5.725949
 20
0.616300
 30
0.000000
  0
VERTEX
  8
LAYER-1
 10
5.708841
 20
0.627285
 30
0.000000
  0
VERTEX
  8
LAYER-1
 10
5.691761
 20
0.622953
 30
0.000000
  0
VERTEX
  8
LAYER-1
 10
5.689045
 20
0.616301
 30
0.000000
  0
SEQEND
  8
LAYER-1
  0
POLYLINE
  8
LAYER-1
 66
  1
 70
  0
 62
  0
 10
5.725949
 20
0.616299
 30
0.000000
  0
VERTEX
  8
LAYER-1
 10
5.725949
 20
0.616299
 30
0.000000
  0
VERTEX
  8
LAYER-1
 10
5.689046
 20
0.616301
 30
0.000000
  0
SEQEND
  8
LAYER-1
  0
POLYLINE
  8
LAYER-1
 66
  1
 70
  0
 62
  0
 10
5.724778
 20
0.344643
 30
0.000000
  0
VERTEX
  8
LAYER-1
 10
5.724778
 20
0.344643
 30
0.000000
  0
VERTEX
  8
LAYER-1
 10
5.724778
 20
0.616274
 30
0.000000
  0
SEQEND
  8
LAYER-1
  0
POLYLINE
  8
LAYER-1
 66
  1
 70
  0
 62
  0
 10
5.652444
 20
0.616270
 30
0.000000
  0
VERTEX
  8
LAYER-1
 10
5.652444
 20
0.616270
 30
0.000000
  0
VERTEX
  8
LAYER-1
 10
5.652444
 20
0.344642
 30
0.000000
  0
SEQEND
  8
LAYER-1
  0
POLYLINE
  8
LAYER-1
 66
  1
 70
  0
 62
  0
 10
5.687874
 20
0.344642
 30
0.000000
  0
VERTEX
  8
LAYER-1
 10
5.687874
 20
0.344642
 30
0.000000
  0
VERTEX
  8
LAYER-1
 10
5.687874
 20
0.616272
 30
0.000000
  0
SEQEND
  8
LAYER-1
  0
POLYLINE
  8
LAYER-1
 66
  1
 70
  0
 62
  0
 10
5.652749
 20
0.344783
 30
0.000000
  0
VERTEX
  8
LAYER-1
 10
5.652749
 20
0.344783
 30
0.000000
  0
VERTEX
  8
LAYER-1
 10
5.662689
 20
0.337784
 30
0.000000
  0
VERTEX
  8
LAYER-1
 10
5.677452
 20
0.339862
 30
0.000000
  0
VERTEX
  8
LAYER-1
 10
5.685968
 20
0.344225
 30
0.000000
  0
SEQEND
  8
LAYER-1
  0
POLYLINE
  8
LAYER-1
 66
  1
 70
  0
 62
  0
 10
5.685968
 20
0.344222
 30
0.000000
  0
VERTEX
  8
LAYER-1
 10
5.685968
 20
0.344222
 30
0.000000
  0
VERTEX
  8
LAYER-1
 10
5.652749
 20
0.344783
 30
0.000000
  0
SEQEND
  8
LAYER-1
  0
POLYLINE
  8
LAYER-1
 66
  1
 70
  0
 62
  0
 10
5.688178
 20
0.344783
 30
0.000000
  0
VERTEX
  8
LAYER-1
 10
5.688178
 20
0.344783
 30
0.000000
  0
VERTEX
  8
LAYER-1
 10
5.701349
 20
0.337737
 30
0.000000
  0
VERTEX
  8
LAYER-1
 10
5.718429
 20
0.342068
 30
0.000000
  0
VERTEX
  8
LAYER-1
 10
5.725081
 20
0.344785
 30
0.000000
  0
SEQEND
  8
LAYER-1
  0
POLYLINE
  8
LAYER-1
 66
  1
 70
  0
 62
  0
 10
5.725081
 20
0.344783
 30
0.000000
  0
VERTEX
  8
LAYER-1
 10
5.725081
 20
0.344783
 30
0.000000
  0
VERTEX
  8
LAYER-1
 10
5.688178
 20
0.344783
 30
0.000000
  0
SEQEND
  8
LAYER-1
  0
POLYLINE
  8
LAYER-1
 66
  1
 70
  0
 62
  0
 10
6.000760
 20
4.433394
 30
0.000000
  0
VERTEX
  8
LAYER-1
 10
6.000760
 20
4.433394
 30
0.000000
  0
VERTEX
  8
LAYER-1
 10
5.725109
 20
4.301277
 30
0.000000
  0
SEQEND
  8
LAYER-1
  0
POLYLINE
  8
LAYER-1
 66
  1
 70
  1
 62
  0
  0
VERTEX
  8
LAYER-1
 10
5.707357
 20
4.292769
 30
0.000000
  0
VERTEX
  8
LAYER-1
 10
5.751971
 20
4.360358
 30
0.000000
  0
VERTEX
  8
LAYER-1
 10
5.769980
 20
4.322784
 30
0.000000
  0
VERTEX
  8
LAYER-1
 10
5.787989
 20
4.285210
 30
0.000000
  0
VERTEX
  8
LAYER-1
 10
5.707357
 20
4.292769
 30
0.000000
  0
SEQEND
  8
LAYER-1
  0
CIRCLE
  8
LAYER-1
 62
  0
 10
3.702666
 20
1.860231
 30
0.000000
 40
0.022565
  0
CIRCLE
  8
LAYER-1
 62
  0
 10
3.702666
 20
1.860231
 30
0.000000
 40
0.016522
  0
CIRCLE
  8
LAYER-1
 62
  0
 10
3.702666
 20
1.860231
 30
0.000000
 40
0.013746
  0
CIRCLE
  8
LAYER-1
 62
  0
 10
3.702666
 20
1.860231
 30
0.000000
 40
0.008860
  0
POLYLINE
  8
LAYER-1
 66
  1
 70
  0
 62
  0
 40
0.027778
 41
0.027778
 10
3.659334
 20
0.240700
 30
0.000000
  0
VERTEX
  8
LAYER-1
 10
3.659334
 20
0.240700
 30
0.000000
  0
VERTEX
  8
LAYER-1
 10
0.750760
 20
0.240700
 30
0.000000
  0
SEQEND
  8
LAYER-1
  0
POLYLINE
  8
LAYER-1
 66
  1
 70
  0
 62
  0
 40
0.027778
 41
0.027778
 10
3.752951
 20
0.240700
 30
0.000000
  0
VERTEX
  8
LAYER-1
 10
3.752951
 20
0.240700
 30
0.000000
  0
VERTEX
  8
LAYER-1
 10
6.743816
 20
0.240700
 30
0.000000
  0
SEQEND
  8
LAYER-1
  0
POLYLINE
  8
LAYER-1
 66
  1
 70
  0
 62
  0
 10
0.750845
 20
0.037543
 30
0.000000
  0
VERTEX
  8
LAYER-1
 10
0.750845
 20
0.037543
 30
0.000000
  0
VERTEX
  8
LAYER-1
 10
0.777358
 20
0.034088
 30
0.000000
  0
VERTEX
  8
LAYER-1
 10
0.796717
 20
0.034088
 30
0.000000
  0
VERTEX
  8
LAYER-1
 10
0.816075
 20
0.037560
 30
0.000000
  0
VERTEX
  8
LAYER-1
 10
0.835434
 20
0.037560
 30
0.000000
  0
VERTEX
  8
LAYER-1
 10
0.881894
 20
0.044504
 30
0.000000
  0
VERTEX
  8
LAYER-1
 10
0.916740
 20
0.054921
 30
0.000000
  0
VERTEX
  8
LAYER-1
 10
0.939002
 20
0.059261
 30
0.000000
  0
VERTEX
  8
LAYER-1
 10
0.960780
 20
0.060998
 30
0.000000
  0
VERTEX
  8
LAYER-1
 10
0.990302
 20
0.058394
 30
0.000000
  0
VERTEX
  8
LAYER-1
 10
1.021276
 20
0.054921
 30
0.000000
  0
VERTEX
  8
LAYER-1
 10
1.048378
 20
0.047977
 30
0.000000
  0
VERTEX
  8
LAYER-1
 10
1.067736
 20
0.044504
 30
0.000000
  0
VERTEX
  8
LAYER-1
 10
1.098710
 20
0.041033
 30
0.000000
  0
VERTEX
  8
LAYER-1
 10
1.118068
 20
0.037560
 30
0.000000
  0
VERTEX
  8
LAYER-1
 10
1.141299
 20
0.034088
 30
0.000000
  0
VERTEX
  8
LAYER-1
 10
1.168401
 20
0.034088
 30
0.000000
  0
VERTEX
  8
LAYER-1
 10
1.195503
 20
0.034088
 30
0.000000
  0
VERTEX
  8
LAYER-1
 10
1.218733
 20
0.034088
 30
0.000000
  0
VERTEX
  8
LAYER-1
 10
1.241963
 20
0.030616
 30
0.000000
  0
VERTEX
  8
LAYER-1
 10
1.280681
 20
0.030616
 30
0.000000
  0
VERTEX
  8
LAYER-1
 10
1.311654
 20
0.030616
 30
0.000000
  0
VERTEX
  8
LAYER-1
 10
1.331013
 20
0.027144
 30
0.000000
  0
VERTEX
  8
LAYER-1
 10
1.361987
 20
0.023671
 30
0.000000
  0
VERTEX
  8
LAYER-1
 10
1.392961
 20
0.020198
 30
0.000000
  0
VERTEX
  8
LAYER-1
 10
1.431678
 20
0.020198
 30
0.000000
  0
VERTEX
  8
LAYER-1
 10
1.462651
 20
0.020198
 30
0.000000
  0
VERTEX
  8
LAYER-1
 10
1.501369
 20
0.020198
 30
0.000000
  0
VERTEX
  8
LAYER-1
 10
1.532342
 20
0.027144
 30
0.000000
  0
VERTEX
  8
LAYER-1
 10
1.555572
 20
0.027144
 30
0.000000
  0
VERTEX
  8
LAYER-1
 10
1.574931
 20
0.030616
 30
0.000000
  0
VERTEX
  8
LAYER-1
 10
1.598161
 20
0.030616
 30
0.000000
  0
VERTEX
  8
LAYER-1
 10
1.617520
 20
0.030616
 30
0.000000
  0
VERTEX
  8
LAYER-1
 10
1.660109
 20
0.030616
 30
0.000000
  0
VERTEX
  8
LAYER-1
 10
1.706569
 20
0.023671
 30
0.000000
  0
VERTEX
  8
LAYER-1
 10
1.749158
 20
0.020198
 30
0.000000
  0
VERTEX
  8
LAYER-1
 10
1.811106
 20
0.013254
 30
0.000000
  0
VERTEX
  8
LAYER-1
 10
1.869181
 20
0.006310
 30
0.000000
  0
VERTEX
  8
LAYER-1
 10
1.919513
 20
0.006310
 30
0.000000
  0
VERTEX
  8
LAYER-1
 10
1.946615
 20
0.006310
 30
0.000000
  0
VERTEX
  8
LAYER-1
 10
1.981461
 20
0.006310
 30
0.000000
  0
VERTEX
  8
LAYER-1
 10
2.001787
 20
0.007178
 30
0.000000
  0
VERTEX
  8
LAYER-1
 10
2.039053
 20
0.009348
 30
0.000000
  0
VERTEX
  8
LAYER-1
 10
2.085997
 20
0.020198
 30
0.000000
  0
VERTEX
  8
LAYER-1
 10
2.128586
 20
0.034088
 30
0.000000
  0
VERTEX
  8
LAYER-1
 10
2.163431
 20
0.044504
 30
0.000000
  0
VERTEX
  8
LAYER-1
 10
2.190534
 20
0.054921
 30
0.000000
  0
VERTEX
  8
LAYER-1
 10
2.213763
 20
0.061866
 30
0.000000
  0
VERTEX
  8
LAYER-1
 10
2.236993
 20
0.061866
 30
0.000000
  0
VERTEX
  8
LAYER-1
 10
2.260224
 20
0.061866
 30
0.000000
  0
VERTEX
  8
LAYER-1
 10
2.283454
 20
0.061866
 30
0.000000
  0
VERTEX
  8
LAYER-1
 10
2.318300
 20
0.054921
 30
0.000000
  0
VERTEX
  8
LAYER-1
 10
2.349273
 20
0.047977
 30
0.000000
  0
VERTEX
  8
LAYER-1
 10
2.372503
 20
0.041033
 30
0.000000
  0
VERTEX
  8
LAYER-1
 10
2.391862
 20
0.037560
 30
0.000000
  0
VERTEX
  8
LAYER-1
 10
2.415092
 20
0.030616
 30
0.000000
  0
VERTEX
  8
LAYER-1
 10
2.434451
 20
0.023671
 30
0.000000
  0
VERTEX
  8
LAYER-1
 10
2.457681
 20
0.020198
 30
0.000000
  0
VERTEX
  8
LAYER-1
 10
2.477039
 20
0.020198
 30
0.000000
  0
VERTEX
  8
LAYER-1
 10
2.508014
 20
0.016727
 30
0.000000
  0
VERTEX
  8
LAYER-1
 10
2.535116
 20
0.016727
 30
0.000000
  0
VERTEX
  8
LAYER-1
 10
2.569961
 20
0.016727
 30
0.000000
  0
VERTEX
  8
LAYER-1
 10
2.597063
 20
0.020198
 30
0.000000
  0
VERTEX
  8
LAYER-1
 10
2.631908
 20
0.030616
 30
0.000000
  0
VERTEX
  8
LAYER-1
 10
2.651267
 20
0.030616
 30
0.000000
  0
VERTEX
  8
LAYER-1
 10
2.674497
 20
0.030616
 30
0.000000
  0
VERTEX
  8
LAYER-1
 10
2.693856
 20
0.030616
 30
0.000000
  0
VERTEX
  8
LAYER-1
 10
2.717086
 20
0.034088
 30
0.000000
  0
VERTEX
  8
LAYER-1
 10
2.740316
 20
0.037560
 30
0.000000
  0
VERTEX
  8
LAYER-1
 10
2.771290
 20
0.037560
 30
0.000000
  0
VERTEX
  8
LAYER-1
 10
2.802263
 20
0.037560
 30
0.000000
  0
VERTEX
  8
LAYER-1
 10
2.825494
 20
0.037560
 30
0.000000
  0
VERTEX
  8
LAYER-1
 10
2.848724
 20
0.037560
 30
0.000000
  0
VERTEX
  8
LAYER-1
 10
2.868083
 20
0.034088
 30
0.000000
  0
VERTEX
  8
LAYER-1
 10
2.887442
 20
0.030616
 30
0.000000
  0
VERTEX
  8
LAYER-1
 10
2.906800
 20
0.027144
 30
0.000000
  0
VERTEX
  8
LAYER-1
 10
2.926159
 20
0.023671
 30
0.000000
  0
VERTEX
  8
LAYER-1
 10
2.957132
 20
0.016727
 30
0.000000
  0
VERTEX
  8
LAYER-1
 10
2.980362
 20
0.013254
 30
0.000000
  0
VERTEX
  8
LAYER-1
 10
3.003593
 20
0.013254
 30
0.000000
  0
VERTEX
  8
LAYER-1
 10
3.022951
 20
0.013254
 30
0.000000
  0
VERTEX
  8
LAYER-1
 10
3.050053
 20
0.013254
 30
0.000000
  0
VERTEX
  8
LAYER-1
 10
3.081027
 20
0.016727
 30
0.000000
  0
VERTEX
  8
LAYER-1
 10
3.135231
 20
0.027144
 30
0.000000
  0
VERTEX
  8
LAYER-1
 10
3.181692
 20
0.037560
 30
0.000000
  0
VERTEX
  8
LAYER-1
 10
3.224280
 20
0.044504
 30
0.000000
  0
VERTEX
  8
LAYER-1
 10
3.255254
 20
0.047977
 30
0.000000
  0
VERTEX
  8
LAYER-1
 10
3.293971
 20
0.051448
 30
0.000000
  0
VERTEX
  8
LAYER-1
 10
3.324945
 20
0.054921
 30
0.000000
  0
VERTEX
  8
LAYER-1
 10
3.350595
 20
0.055790
 30
0.000000
  0
VERTEX
  8
LAYER-1
 10
3.368018
 20
0.053619
 30
0.000000
  0
VERTEX
  8
LAYER-1
 10
3.389312
 20
0.048845
 30
0.000000
  0
VERTEX
  8
LAYER-1
 10
3.410122
 20
0.037560
 30
0.000000
  0
VERTEX
  8
LAYER-1
 10
3.433353
 20
0.034088
 30
0.000000
  0
VERTEX
  8
LAYER-1
 10
3.452712
 20
0.034088
 30
0.000000
  0
VERTEX
  8
LAYER-1
 10
3.472069
 20
0.034088
 30
0.000000
  0
VERTEX
  8
LAYER-1
 10
3.491429
 20
0.034088
 30
0.000000
  0
VERTEX
  8
LAYER-1
 10
3.522404
 20
0.034088
 30
0.000000
  0
VERTEX
  8
LAYER-1
 10
3.545634
 20
0.034088
 30
0.000000
  0
VERTEX
  8
LAYER-1
 10
3.568864
 20
0.034088
 30
0.000000
  0
VERTEX
  8
LAYER-1
 10
3.588223
 20
0.034088
 30
0.000000
  0
VERTEX
  8
LAYER-1
 10
3.611453
 20
0.034088
 30
0.000000
  0
VERTEX
  8
LAYER-1
 10
3.634683
 20
0.034088
 30
0.000000
  0
VERTEX
  8
LAYER-1
 10
3.654043
 20
0.034088
 30
0.000000
  0
VERTEX
  8
LAYER-1
 10
3.681145
 20
0.034088
 30
0.000000
  0
VERTEX
  8
LAYER-1
 10
3.704374
 20
0.030616
 30
0.000000
  0
VERTEX
  8
LAYER-1
 10
3.726637
 20
0.022803
 30
0.000000
  0
VERTEX
  8
LAYER-1
 10
3.767290
 20
0.020198
 30
0.000000
  0
VERTEX
  8
LAYER-1
 10
3.805039
 20
0.023671
 30
0.000000
  0
VERTEX
  8
LAYER-1
 10
3.824397
 20
0.030616
 30
0.000000
  0
VERTEX
  8
LAYER-1
 10
3.847628
 20
0.037560
 30
0.000000
  0
VERTEX
  8
LAYER-1
 10
3.867471
 20
0.041467
 30
0.000000
  0
VERTEX
  8
LAYER-1
 10
3.890217
 20
0.047977
 30
0.000000
  0
VERTEX
  8
LAYER-1
 10
3.913446
 20
0.047977
 30
0.000000
  0
VERTEX
  8
LAYER-1
 10
3.936676
 20
0.044504
 30
0.000000
  0
VERTEX
  8
LAYER-1
 10
3.959908
 20
0.044504
 30
0.000000
  0
VERTEX
  8
LAYER-1
 10
3.983138
 20
0.044504
 30
0.000000
  0
VERTEX
  8
LAYER-1
 10
4.002497
 20
0.041033
 30
0.000000
  0
VERTEX
  8
LAYER-1
 10
4.029599
 20
0.041033
 30
0.000000
  0
VERTEX
  8
LAYER-1
 10
4.060572
 20
0.041033
 30
0.000000
  0
VERTEX
  8
LAYER-1
 10
4.091546
 20
0.047977
 30
0.000000
  0
VERTEX
  8
LAYER-1
 10
4.110905
 20
0.051448
 30
0.000000
  0
VERTEX
  8
LAYER-1
 10
4.138006
 20
0.051448
 30
0.000000
  0
VERTEX
  8
LAYER-1
 10
4.161237
 20
0.054921
 30
0.000000
  0
VERTEX
  8
LAYER-1
 10
4.192210
 20
0.058394
 30
0.000000
  0
VERTEX
  8
LAYER-1
 10
4.215441
 20
0.058394
 30
0.000000
  0
VERTEX
  8
LAYER-1
 10
4.246415
 20
0.054921
 30
0.000000
  0
VERTEX
  8
LAYER-1
 10
4.289004
 20
0.044504
 30
0.000000
  0
VERTEX
  8
LAYER-1
 10
4.319977
 20
0.034088
 30
0.000000
  0
VERTEX
  8
LAYER-1
 10
4.354822
 20
0.023671
 30
0.000000
  0
VERTEX
  8
LAYER-1
 10
4.397896
 20
0.016726
 30
0.000000
  0
VERTEX
  8
LAYER-1
 10
4.445324
 20
0.017594
 30
0.000000
  0
VERTEX
  8
LAYER-1
 10
4.500495
 20
0.020198
 30
0.000000
  0
VERTEX
  8
LAYER-1
 10
4.567766
 20
0.020198
 30
0.000000
  0
VERTEX
  8
LAYER-1
 10
4.613260
 20
0.008914
 30
0.000000
  0
VERTEX
  8
LAYER-1
 10
4.643265
 20
0.002837
 30
0.000000
  0
VERTEX
  8
LAYER-1
 10
4.666496
 20
0.001969
 30
0.000000
  0
VERTEX
  8
LAYER-1
 10
4.701341
 20
0.001970
 30
0.000000
  0
VERTEX
  8
LAYER-1
 10
4.726507
 20
0.006310
 30
0.000000
  0
VERTEX
  8
LAYER-1
 10
4.753609
 20
0.016727
 30
0.000000
  0
VERTEX
  8
LAYER-1
 10
4.788455
 20
0.023671
 30
0.000000
  0
VERTEX
  8
LAYER-1
 10
4.815556
 20
0.030616
 30
0.000000
  0
VERTEX
  8
LAYER-1
 10
4.838788
 20
0.034088
 30
0.000000
  0
VERTEX
  8
LAYER-1
 10
4.862016
 20
0.037560
 30
0.000000
  0
VERTEX
  8
LAYER-1
 10
4.889119
 20
0.041033
 30
0.000000
  0
VERTEX
  8
LAYER-1
 10
4.916220
 20
0.047977
 30
0.000000
  0
VERTEX
  8
LAYER-1
 10
4.935580
 20
0.051448
 30
0.000000
  0
VERTEX
  8
LAYER-1
 10
4.966553
 20
0.054921
 30
0.000000
  0
VERTEX
  8
LAYER-1
 10
4.989783
 20
0.061866
 30
0.000000
  0
VERTEX
  8
LAYER-1
 10
5.013497
 20
0.072717
 30
0.000000
  0
VERTEX
  8
LAYER-1
 10
5.036244
 20
0.079227
 30
0.000000
  0
VERTEX
  8
LAYER-1
 10
5.059475
 20
0.079227
 30
0.000000
  0
VERTEX
  8
LAYER-1
 10
5.086576
 20
0.079227
 30
0.000000
  0
VERTEX
  8
LAYER-1
 10
5.113678
 20
0.079227
 30
0.000000
  0
VERTEX
  8
LAYER-1
 10
5.152395
 20
0.075754
 30
0.000000
  0
VERTEX
  8
LAYER-1
 10
5.206600
 20
0.072283
 30
0.000000
  0
VERTEX
  8
LAYER-1
 10
5.249187
 20
0.072283
 30
0.000000
  0
VERTEX
  8
LAYER-1
 10
5.280161
 20
0.072283
 30
0.000000
  0
VERTEX
  8
LAYER-1
 10
5.303392
 20
0.072283
 30
0.000000
  0
VERTEX
  8
LAYER-1
 10
5.326622
 20
0.072283
 30
0.000000
  0
VERTEX
  8
LAYER-1
 10
5.357595
 20
0.075754
 30
0.000000
  0
VERTEX
  8
LAYER-1
 10
5.396313
 20
0.075754
 30
0.000000
  0
VERTEX
  8
LAYER-1
 10
5.427286
 20
0.075754
 30
0.000000
  0
VERTEX
  8
LAYER-1
 10
5.450516
 20
0.079227
 30
0.000000
  0
VERTEX
  8
LAYER-1
 10
5.481490
 20
0.079227
 30
0.000000
  0
VERTEX
  8
LAYER-1
 10
5.500849
 20
0.079227
 30
0.000000
  0
VERTEX
  8
LAYER-1
 10
5.531822
 20
0.070546
 30
0.000000
  0
VERTEX
  8
LAYER-1
 10
5.558924
 20
0.058394
 30
0.000000
  0
VERTEX
  8
LAYER-1
 10
5.593769
 20
0.044504
 30
0.000000
  0
VERTEX
  8
LAYER-1
 10
5.620872
 20
0.037560
 30
0.000000
  0
VERTEX
  8
LAYER-1
 10
5.651845
 20
0.030616
 30
0.000000
  0
VERTEX
  8
LAYER-1
 10
5.679431
 20
0.028446
 30
0.000000
  0
VERTEX
  8
LAYER-1
 10
5.706050
 20
0.027144
 30
0.000000
  0
VERTEX
  8
LAYER-1
 10
5.729279
 20
0.030616
 30
0.000000
  0
VERTEX
  8
LAYER-1
 10
5.752509
 20
0.037560
 30
0.000000
  0
VERTEX
  8
LAYER-1
 10
5.779612
 20
0.041033
 30
0.000000
  0
VERTEX
  8
LAYER-1
 10
5.802842
 20
0.044504
 30
0.000000
  0
VERTEX
  8
LAYER-1
 10
5.826072
 20
0.047977
 30
0.000000
  0
VERTEX
  8
LAYER-1
 10
5.845431
 20
0.051448
 30
0.000000
  0
VERTEX
  8
LAYER-1
 10
5.868662
 20
0.051448
 30
0.000000
  0
VERTEX
  8
LAYER-1
 10
5.895764
 20
0.051448
 30
0.000000
  0
VERTEX
  8
LAYER-1
 10
5.915606
 20
0.054053
 30
0.000000
  0
VERTEX
  8
LAYER-1
 10
5.942223
 20
0.058394
 30
0.000000
  0
VERTEX
  8
LAYER-1
 10
5.965454
 20
0.065338
 30
0.000000
  0
VERTEX
  8
LAYER-1
 10
5.996428
 20
0.065338
 30
0.000000
  0
VERTEX
  8
LAYER-1
 10
6.027401
 20
0.065338
 30
0.000000
  0
VERTEX
  8
LAYER-1
 10
6.046760
 20
0.065338
 30
0.000000
  0
VERTEX
  8
LAYER-1
 10
6.100964
 20
0.058394
 30
0.000000
  0
VERTEX
  8
LAYER-1
 10
6.131937
 20
0.051448
 30
0.000000
  0
VERTEX
  8
LAYER-1
 10
6.151296
 20
0.047977
 30
0.000000
  0
VERTEX
  8
LAYER-1
 10
6.186142
 20
0.047977
 30
0.000000
  0
VERTEX
  8
LAYER-1
 10
6.209856
 20
0.055355
 30
0.000000
  0
VERTEX
  8
LAYER-1
 10
6.231634
 20
0.056223
 30
0.000000
  0
VERTEX
  8
LAYER-1
 10
6.283418
 20
0.063167
 30
0.000000
  0
VERTEX
  8
LAYER-1
 10
6.331814
 20
0.073151
 30
0.000000
  0
VERTEX
  8
LAYER-1
 10
6.368112
 20
0.076623
 30
0.000000
  0
VERTEX
  8
LAYER-1
 10
6.401022
 20
0.077057
 30
0.000000
  0
VERTEX
  8
LAYER-1
 10
6.417960
 20
0.072283
 30
0.000000
  0
VERTEX
  8
LAYER-1
 10
6.436351
 20
0.068810
 30
0.000000
  0
VERTEX
  8
LAYER-1
 10
6.467325
 20
0.063602
 30
0.000000
  0
VERTEX
  8
LAYER-1
 10
6.507493
 20
0.071848
 30
0.000000
  0
VERTEX
  8
LAYER-1
 10
6.522981
 20
0.079227
 30
0.000000
  0
VERTEX
  8
LAYER-1
 10
6.546211
 20
0.079227
 30
0.000000
  0
VERTEX
  8
LAYER-1
 10
6.569441
 20
0.079227
 30
0.000000
  0
VERTEX
  8
LAYER-1
 10
6.596543
 20
0.072283
 30
0.000000
  0
VERTEX
  8
LAYER-1
 10
6.619773
 20
0.058394
 30
0.000000
  0
VERTEX
  8
LAYER-1
 10
6.646875
 20
0.047977
 30
0.000000
  0
VERTEX
  8
LAYER-1
 10
6.673977
 20
0.037560
 30
0.000000
  0
VERTEX
  8
LAYER-1
 10
6.697207
 20
0.037560
 30
0.000000
  0
VERTEX
  8
LAYER-1
 10
6.727269
 20
0.037543
 30
0.000000
  0
VERTEX
  8
LAYER-1
 10
6.751412
 20
0.047977
 30
0.000000
  0
SEQEND
  8
LAYER-1
  0
TEXT
  8
LAYER-1
 62
  0
 10
5.834094
 20
0.544505
 30
0.000000
 40
0.125000
  1
Vano
 72
  5
 11
6.292427
 21
0.544505
 31
0.000000
  0
TEXT
  8
LAYER-1
 62
  0
 10
5.834094
 20
0.350060
 30
0.000000
 40
0.125000
  1
antipolvere
 72
  5
 11
6.736871
 21
0.350060
 31
0.000000
  0
POLYLINE
  8
LAYER-1
 66
  1
 70
  0
 62
  0
 10
5.817601
 20
0.468115
 30
0.000000
  0
VERTEX
  8
LAYER-1
 10
5.817601
 20
0.468115
 30
0.000000
  0
VERTEX
  8
LAYER-1
 10
3.753735
 20
0.158535
 30
0.000000
  0
SEQEND
  8
LAYER-1
  0
POLYLINE
  8
LAYER-1
 66
  1
 70
  1
 62
  0
  0
VERTEX
  8
LAYER-1
 10
3.734267
 20
0.155615
 30
0.000000
  0
VERTEX
  8
LAYER-1
 10
3.796762
 20
0.207122
 30
0.000000
  0
VERTEX
  8
LAYER-1
 10
3.802943
 20
0.165916
 30
0.000000
  0
VERTEX
  8
LAYER-1
 10
3.809124
 20
0.124711
 30
0.000000
  0
VERTEX
  8
LAYER-1
 10
3.734267
 20
0.155615
 30
0.000000
  0
SEQEND
  8
LAYER-1
  0
TEXT
  8
LAYER-1
 62
  0
 10
1.778538
 20
8.461171
 30
0.000000
 40
0.125000
  1
APERTO
 72
  5
 11
2.514649
 21
8.461171
 31
0.000000
  0
LINE
  8
LAYER-1
 62
  0
 10
5.851452
 20
5.117839
 30
0.000000
 11
5.851452
 21
5.925285
 31
0.000000
  0
LINE
  8
LAYER-1
 62
  0
 10
5.770954
 20
5.117839
 30
0.000000
 11
5.976452
 21
5.117839
 31
0.000000
  0
LINE
  8
LAYER-1
 62
  0
 10
5.771389
 20
5.925285
 30
0.000000
 11
5.976452
 21
5.925285
 31
0.000000
  0
LINE
  8
LAYER-1
 62
  0
 10
5.851452
 20
5.732682
 30
0.000000
 11
5.851452
 21
5.117839
 31
0.000000
  0
LINE
  8
LAYER-1
 62
  0
 10
5.821989
 20
5.147302
 30
0.000000
 11
5.880914
 21
5.088376
 31
0.000000
  0
LINE
  8
LAYER-1
 62
  0
 10
5.821989
 20
5.954748
 30
0.000000
 11
5.880914
 21
5.895822
 31
0.000000
  0
TEXT
  8
LAYER-1
 62
  0
 10
6.006821
 20
5.453185
 30
0.000000
 40
0.125000
  1
      
 50
90.000000
  0
TEXT
  8
LAYER-1
 62
  0
 10
6.125760
 20
5.572283
 30
0.000000
 40
0.125000
  1
12"
 72
  5
 11
6.445205
 21
5.572283
 31
0.000000
  0
TEXT
  8
LAYER-1
 62
  0
 10
5.945205
 20
5.377838
 30
0.000000
 40
0.125000
  1
305mm
 72
  5
 11
6.611871
 21
5.377838
 31
0.000000
  0
LINE
  8
LAYER-1
 62
  0
 10
5.851454
 20
7.413239
 30
0.000000
 11
5.851454
 21
7.145199
 31
0.000000
  0
LINE
  8
LAYER-1
 62
  0
 10
5.768333
 20
7.413239
 30
0.000000
 11
5.976454
 21
7.413239
 31
0.000000
  0
LINE
  8
LAYER-1
 62
  0
 10
5.774196
 20
7.145199
 30
0.000000
 11
5.976454
 21
7.145199
 31
0.000000
  0
LINE
  8
LAYER-1
 62
  0
 10
5.880917
 20
7.383775
 30
0.000000
 11
5.821992
 21
7.442702
 31
0.000000
  0
LINE
  8
LAYER-1
 62
  0
 10
5.880917
 20
7.115736
 30
0.000000
 11
5.821992
 21
7.174662
 31
0.000000
  0
TEXT
  8
LAYER-1
 62
  0
 10
5.729570
 20
7.270855
 30
0.000000
 40
0.125000
  1
 
 50
90.000000
  0
TEXT
  8
LAYER-1
 62
  0
 10
6.167427
 20
7.294505
 30
0.000000
 40
0.125000
  1
4"
 72
  5
 11
6.389649
 21
7.294505
 31
0.000000
  0
TEXT
  8
LAYER-1
 62
  0
 10
5.945205
 20
7.100060
 30
0.000000
 40
0.125000
  1
102mm
 72
  5
 11
6.611871
 21
7.100060
 31
0.000000
  0
LINE
  8
LAYER-1
 62
  0
 10
4.458224
 20
7.676448
 30
0.000000
 11
4.867947
 21
7.676448
 31
0.000000
  0
LINE
  8
LAYER-1
 62
  0
 10
4.458224
 20
7.306658
 30
0.000000
 11
4.458224
 21
7.801448
 31
0.000000
  0
LINE
  8
LAYER-1
 62
  0
 10
4.867947
 20
7.304921
 30
0.000000
 11
4.867947
 21
7.801448
 31
0.000000
  0
LINE
  8
LAYER-1
 62
  0
 10
4.487687
 20
7.705911
 30
0.000000
 11
4.428762
 21
7.646986
 31
0.000000
  0
LINE
  8
LAYER-1
 62
  0
 10
4.897410
 20
7.705911
 30
0.000000
 11
4.838484
 21
7.646986
 31
0.000000
  0
TEXT
  8
LAYER-1
 62
  0
 10
4.654523
 20
7.799973
 30
0.000000
 40
0.125000
  1
 
  0
TEXT
  8
LAYER-1
 62
  0
 10
4.542427
 20
8.044505
 30
0.000000
 40
0.125000
  1
6"
 72
  5
 11
4.764649
 21
8.044505
 31
0.000000
  0
TEXT
  8
LAYER-1
 62
  0
 10
4.320205
 20
7.850060
 30
0.000000
 40
0.125000
  1
152mm
 72
  5
 11
4.986871
 21
7.850060
 31
0.000000
  0
ENDSEC
  0
EOF
