  0
SECTION
  2
HEADER
999
MacDraft 5.0\0
  9
$ACADVER
  1
AC1006
  9
$CLAYER
  8
ROLL-SHUTTER
  9
$EXTMIN
 10
0.000000
 20
0.000000
  9
$EXTMAX
 10
7.536363
 20
10.067022
  9
$FASTZOOM
 70
0
  9
$FILLMODE
 70
1
  0
ENDSEC
  0
SECTION
  2
TABLES
  0
TABLE
  2
LTYPE
 70
16
  0
LTYPE
  2
CONTINUOUS
 70
64
  3
Solid Line
 72
65
 73
0
 40
0.000000
  0
LTYPE
  2
LTYPE01
 70
64
  3
CUSTOM
 72
65
 73
2
 40
0.072727
 49
0.054545
 49
-0.018182
  0
LTYPE
  2
LTYPE02
 70
64
  3
CUSTOM
 72
65
 73
2
 40
0.127273
 49
0.109091
 49
-0.018182
  0
LTYPE
  2
LTYPE03
 70
64
  3
CUSTOM
 72
65
 73
2
 40
0.245455
 49
0.218182
 49
-0.027273
  0
LTYPE
  2
LTYPE04
 70
64
  3
CUSTOM
 72
65
 73
2
 40
0.472727
 49
0.436364
 49
-0.036364
  0
LTYPE
  2
LTYPE05
 70
64
  3
CUSTOM
 72
65
 73
4
 40
0.100000
 49
0.054545
 49
-0.018182
 49
0.009091
 49
-0.018182
  0
LTYPE
  2
LTYPE06
 70
64
  3
CUSTOM
 72
65
 73
4
 40
0.154545
 49
0.109091
 49
-0.018182
 49
0.009091
 49
-0.018182
  0
LTYPE
  2
LTYPE07
 70
64
  3
CUSTOM
 72
65
 73
4
 40
0.290909
 49
0.218182
 49
-0.027273
 49
0.018182
 49
-0.027273
  0
LTYPE
  2
LTYPE08
 70
64
  3
CUSTOM
 72
65
 73
4
 40
0.527273
 49
0.436364
 49
-0.036364
 49
0.018182
 49
-0.036364
  0
LTYPE
  2
LTYPE09
 70
64
  3
CUSTOM
 72
65
 73
6
 40
0.127273
 49
0.054545
 49
-0.018182
 49
0.009091
 49
-0.018182
 49
0.009091
 49
-0.018182
  0
LTYPE
  2
LTYPE10
 70
64
  3
CUSTOM
 72
65
 73
6
 40
0.181818
 49
0.109091
 49
-0.018182
 49
0.009091
 49
-0.018182
 49
0.009091
 49
-0.018182
  0
LTYPE
  2
LTYPE11
 70
64
  3
CUSTOM
 72
65
 73
6
 40
0.327273
 49
0.218182
 49
-0.027273
 49
0.018182
 49
-0.018182
 49
0.018182
 49
-0.027273
  0
LTYPE
  2
LTYPE12
 70
64
  3
CUSTOM
 72
65
 73
6
 40
0.563636
 49
0.436364
 49
-0.036364
 49
0.018182
 49
-0.018182
 49
0.018182
 49
-0.036364
  0
LTYPE
  2
LTYPE13
 70
64
  3
CUSTOM
 72
65
 73
8
 40
0.209091
 49
0.109091
 49
-0.018182
 49
0.009091
 49
-0.018182
 49
0.009091
 49
-0.018182
 49
0.009091
 49
-0.018182
  0
LTYPE
  2
LTYPE14
 70
64
  3
CUSTOM
 72
65
 73
8
 40
0.363636
 49
0.218182
 49
-0.027273
 49
0.018182
 49
-0.018182
 49
0.018182
 49
-0.018182
 49
0.018182
 49
-0.027273
  0
LTYPE
  2
LTYPE15
 70
64
  3
CUSTOM
 72
65
 73
8
 40
0.618182
 49
0.436364
 49
-0.036364
 49
0.018182
 49
-0.027273
 49
0.018182
 49
-0.027273
 49
0.018182
 49
-0.036364
  0
ENDTAB
  0
TABLE
  2
LAYER
 70
1
  0
LAYER
  2
ROLL-SHUTTER
 70
0
 62
7
  6
CONTINUOUS
  0
ENDTAB
  0
ENDSEC
  0
SECTION
  2
BLOCKS
  0
ENDSEC
  0
SECTION
  2
ENTITIES
  0
POLYLINE
  8
ROLL-SHUTTER
 66
  1
 70
  1
 62
  7
  0
VERTEX
  8
ROLL-SHUTTER
 10
0.969660
 20
2.545713
 30
0.000000
  0
VERTEX
  8
ROLL-SHUTTER
 10
6.567351
 20
2.545713
 30
0.000000
  0
VERTEX
  8
ROLL-SHUTTER
 10
6.567351
 20
2.359614
 30
0.000000
  0
VERTEX
  8
ROLL-SHUTTER
 10
0.969660
 20
2.359614
 30
0.000000
  0
SEQEND
  8
ROLL-SHUTTER
  0
POLYLINE
  8
ROLL-SHUTTER
 66
  1
 70
  1
 62
  7
  0
VERTEX
  8
ROLL-SHUTTER
 10
0.969660
 20
2.359088
 30
0.000000
  0
VERTEX
  8
ROLL-SHUTTER
 10
6.567351
 20
2.359088
 30
0.000000
  0
VERTEX
  8
ROLL-SHUTTER
 10
6.567351
 20
2.350988
 30
0.000000
  0
VERTEX
  8
ROLL-SHUTTER
 10
0.969660
 20
2.350988
 30
0.000000
  0
SEQEND
  8
ROLL-SHUTTER
  0
POLYLINE
  8
ROLL-SHUTTER
 66
  1
 70
  1
 62
255
  0
VERTEX
  8
ROLL-SHUTTER
 10
0.814219
 20
2.351023
 30
0.000000
  0
VERTEX
  8
ROLL-SHUTTER
 10
6.722203
 20
2.351023
 30
0.000000
  0
VERTEX
  8
ROLL-SHUTTER
 10
6.722203
 20
0.019108
 30
0.000000
  0
VERTEX
  8
ROLL-SHUTTER
 10
0.814219
 20
0.019108
 30
0.000000
  0
SEQEND
  8
ROLL-SHUTTER
  0
POLYLINE
  8
ROLL-SHUTTER
 66
  1
 70
  0
 62
  7
 10
5.762614
 20
6.939950
 30
0.000000
  0
VERTEX
  8
ROLL-SHUTTER
 10
5.762614
 20
6.939950
 30
0.000000
  0
VERTEX
  8
ROLL-SHUTTER
 10
5.760208
 20
7.003486
 30
0.000000
  0
VERTEX
  8
ROLL-SHUTTER
 10
5.752996
 20
7.066868
 30
0.000000
  0
VERTEX
  8
ROLL-SHUTTER
 10
5.740997
 20
7.129944
 30
0.000000
  0
VERTEX
  8
ROLL-SHUTTER
 10
5.724239
 20
7.192563
 30
0.000000
  0
VERTEX
  8
ROLL-SHUTTER
 10
5.702762
 20
7.254572
 30
0.000000
  0
VERTEX
  8
ROLL-SHUTTER
 10
5.676617
 20
7.315824
 30
0.000000
  0
VERTEX
  8
ROLL-SHUTTER
 10
5.645868
 20
7.376171
 30
0.000000
  0
VERTEX
  8
ROLL-SHUTTER
 10
5.610590
 20
7.435466
 30
0.000000
  0
VERTEX
  8
ROLL-SHUTTER
 10
5.570866
 20
7.493568
 30
0.000000
  0
VERTEX
  8
ROLL-SHUTTER
 10
5.526793
 20
7.550336
 30
0.000000
  0
VERTEX
  8
ROLL-SHUTTER
 10
5.478477
 20
7.605634
 30
0.000000
  0
VERTEX
  8
ROLL-SHUTTER
 10
5.426034
 20
7.659328
 30
0.000000
  0
VERTEX
  8
ROLL-SHUTTER
 10
5.369590
 20
7.711289
 30
0.000000
  0
VERTEX
  8
ROLL-SHUTTER
 10
5.309281
 20
7.761391
 30
0.000000
  0
VERTEX
  8
ROLL-SHUTTER
 10
5.245255
 20
7.809515
 30
0.000000
  0
VERTEX
  8
ROLL-SHUTTER
 10
5.177662
 20
7.855544
 30
0.000000
  0
VERTEX
  8
ROLL-SHUTTER
 10
5.106668
 20
7.899367
 30
0.000000
  0
VERTEX
  8
ROLL-SHUTTER
 10
5.032442
 20
7.940879
 30
0.000000
  0
VERTEX
  8
ROLL-SHUTTER
 10
4.955165
 20
7.979979
 30
0.000000
  0
VERTEX
  8
ROLL-SHUTTER
 10
4.875022
 20
8.016575
 30
0.000000
  0
VERTEX
  8
ROLL-SHUTTER
 10
4.792205
 20
8.050576
 30
0.000000
  0
VERTEX
  8
ROLL-SHUTTER
 10
4.706915
 20
8.081902
 30
0.000000
  0
VERTEX
  8
ROLL-SHUTTER
 10
4.619356
 20
8.110476
 30
0.000000
  0
VERTEX
  8
ROLL-SHUTTER
 10
4.529740
 20
8.136232
 30
0.000000
  0
VERTEX
  8
ROLL-SHUTTER
 10
4.438284
 20
8.159104
 30
0.000000
  0
VERTEX
  8
ROLL-SHUTTER
 10
4.345207
 20
8.179040
 30
0.000000
  0
VERTEX
  8
ROLL-SHUTTER
 10
4.250732
 20
8.195991
 30
0.000000
  0
VERTEX
  8
ROLL-SHUTTER
 10
4.155090
 20
8.209915
 30
0.000000
  0
VERTEX
  8
ROLL-SHUTTER
 10
4.058508
 20
8.220781
 30
0.000000
  0
VERTEX
  8
ROLL-SHUTTER
 10
3.961220
 20
8.228560
 30
0.000000
  0
VERTEX
  8
ROLL-SHUTTER
 10
3.863460
 20
8.233236
 30
0.000000
  0
VERTEX
  8
ROLL-SHUTTER
 10
3.765465
 20
8.234796
 30
0.000000
  0
VERTEX
  8
ROLL-SHUTTER
 10
3.667469
 20
8.233236
 30
0.000000
  0
VERTEX
  8
ROLL-SHUTTER
 10
3.569710
 20
8.228560
 30
0.000000
  0
VERTEX
  8
ROLL-SHUTTER
 10
3.472423
 20
8.220781
 30
0.000000
  0
VERTEX
  8
ROLL-SHUTTER
 10
3.375841
 20
8.209915
 30
0.000000
  0
VERTEX
  8
ROLL-SHUTTER
 10
3.280197
 20
8.195991
 30
0.000000
  0
VERTEX
  8
ROLL-SHUTTER
 10
3.185723
 20
8.179040
 30
0.000000
  0
VERTEX
  8
ROLL-SHUTTER
 10
3.092646
 20
8.159104
 30
0.000000
  0
VERTEX
  8
ROLL-SHUTTER
 10
3.001190
 20
8.136232
 30
0.000000
  0
VERTEX
  8
ROLL-SHUTTER
 10
2.911574
 20
8.110476
 30
0.000000
  0
VERTEX
  8
ROLL-SHUTTER
 10
2.824016
 20
8.081902
 30
0.000000
  0
VERTEX
  8
ROLL-SHUTTER
 10
2.738726
 20
8.050576
 30
0.000000
  0
VERTEX
  8
ROLL-SHUTTER
 10
2.655909
 20
8.016575
 30
0.000000
  0
VERTEX
  8
ROLL-SHUTTER
 10
2.575765
 20
7.979979
 30
0.000000
  0
VERTEX
  8
ROLL-SHUTTER
 10
2.498487
 20
7.940879
 30
0.000000
  0
VERTEX
  8
ROLL-SHUTTER
 10
2.424262
 20
7.899367
 30
0.000000
  0
VERTEX
  8
ROLL-SHUTTER
 10
2.353268
 20
7.855544
 30
0.000000
  0
VERTEX
  8
ROLL-SHUTTER
 10
2.285675
 20
7.809515
 30
0.000000
  0
VERTEX
  8
ROLL-SHUTTER
 10
2.221648
 20
7.761391
 30
0.000000
  0
VERTEX
  8
ROLL-SHUTTER
 10
2.161340
 20
7.711289
 30
0.000000
  0
VERTEX
  8
ROLL-SHUTTER
 10
2.104897
 20
7.659328
 30
0.000000
  0
VERTEX
  8
ROLL-SHUTTER
 10
2.052454
 20
7.605634
 30
0.000000
  0
VERTEX
  8
ROLL-SHUTTER
 10
2.004137
 20
7.550336
 30
0.000000
  0
VERTEX
  8
ROLL-SHUTTER
 10
1.960064
 20
7.493568
 30
0.000000
  0
VERTEX
  8
ROLL-SHUTTER
 10
1.920340
 20
7.435466
 30
0.000000
  0
VERTEX
  8
ROLL-SHUTTER
 10
1.885062
 20
7.376171
 30
0.000000
  0
VERTEX
  8
ROLL-SHUTTER
 10
1.854313
 20
7.315824
 30
0.000000
  0
VERTEX
  8
ROLL-SHUTTER
 10
1.828168
 20
7.254572
 30
0.000000
  0
VERTEX
  8
ROLL-SHUTTER
 10
1.806691
 20
7.192563
 30
0.000000
  0
VERTEX
  8
ROLL-SHUTTER
 10
1.789933
 20
7.129944
 30
0.000000
  0
VERTEX
  8
ROLL-SHUTTER
 10
1.777933
 20
7.066868
 30
0.000000
  0
VERTEX
  8
ROLL-SHUTTER
 10
1.770722
 20
7.003486
 30
0.000000
  0
VERTEX
  8
ROLL-SHUTTER
 10
1.768317
 20
6.939950
 30
0.000000
  0
VERTEX
  8
ROLL-SHUTTER
 10
1.770722
 20
6.876415
 30
0.000000
  0
VERTEX
  8
ROLL-SHUTTER
 10
1.777933
 20
6.813034
 30
0.000000
  0
VERTEX
  8
ROLL-SHUTTER
 10
1.789933
 20
6.749957
 30
0.000000
  0
VERTEX
  8
ROLL-SHUTTER
 10
1.806691
 20
6.687339
 30
0.000000
  0
VERTEX
  8
ROLL-SHUTTER
 10
1.828168
 20
6.625329
 30
0.000000
  0
VERTEX
  8
ROLL-SHUTTER
 10
1.854313
 20
6.564077
 30
0.000000
  0
VERTEX
  8
ROLL-SHUTTER
 10
1.885062
 20
6.503730
 30
0.000000
  0
VERTEX
  8
ROLL-SHUTTER
 10
1.920340
 20
6.444435
 30
0.000000
  0
VERTEX
  8
ROLL-SHUTTER
 10
1.960064
 20
6.386333
 30
0.000000
  0
VERTEX
  8
ROLL-SHUTTER
 10
2.004137
 20
6.329565
 30
0.000000
  0
VERTEX
  8
ROLL-SHUTTER
 10
2.052454
 20
6.274267
 30
0.000000
  0
VERTEX
  8
ROLL-SHUTTER
 10
2.104897
 20
6.220573
 30
0.000000
  0
VERTEX
  8
ROLL-SHUTTER
 10
2.161340
 20
6.168612
 30
0.000000
  0
VERTEX
  8
ROLL-SHUTTER
 10
2.221648
 20
6.118509
 30
0.000000
  0
VERTEX
  8
ROLL-SHUTTER
 10
2.285675
 20
6.070386
 30
0.000000
  0
VERTEX
  8
ROLL-SHUTTER
 10
2.353268
 20
6.024357
 30
0.000000
  0
VERTEX
  8
ROLL-SHUTTER
 10
2.424262
 20
5.980534
 30
0.000000
  0
VERTEX
  8
ROLL-SHUTTER
 10
2.498487
 20
5.939022
 30
0.000000
  0
VERTEX
  8
ROLL-SHUTTER
 10
2.575765
 20
5.899921
 30
0.000000
  0
VERTEX
  8
ROLL-SHUTTER
 10
2.655909
 20
5.863327
 30
0.000000
  0
VERTEX
  8
ROLL-SHUTTER
 10
2.738726
 20
5.829325
 30
0.000000
  0
VERTEX
  8
ROLL-SHUTTER
 10
2.824016
 20
5.797999
 30
0.000000
  0
VERTEX
  8
ROLL-SHUTTER
 10
2.911574
 20
5.769425
 30
0.000000
  0
VERTEX
  8
ROLL-SHUTTER
 10
3.001190
 20
5.743670
 30
0.000000
  0
VERTEX
  8
ROLL-SHUTTER
 10
3.092646
 20
5.720797
 30
0.000000
  0
VERTEX
  8
ROLL-SHUTTER
 10
3.185723
 20
5.700861
 30
0.000000
  0
VERTEX
  8
ROLL-SHUTTER
 10
3.280197
 20
5.683911
 30
0.000000
  0
VERTEX
  8
ROLL-SHUTTER
 10
3.375841
 20
5.669986
 30
0.000000
  0
VERTEX
  8
ROLL-SHUTTER
 10
3.472423
 20
5.659120
 30
0.000000
  0
VERTEX
  8
ROLL-SHUTTER
 10
3.569710
 20
5.651341
 30
0.000000
  0
VERTEX
  8
ROLL-SHUTTER
 10
3.667469
 20
5.646665
 30
0.000000
  0
VERTEX
  8
ROLL-SHUTTER
 10
3.765465
 20
5.645106
 30
0.000000
  0
VERTEX
  8
ROLL-SHUTTER
 10
3.863460
 20
5.646665
 30
0.000000
  0
VERTEX
  8
ROLL-SHUTTER
 10
3.961220
 20
5.651341
 30
0.000000
  0
VERTEX
  8
ROLL-SHUTTER
 10
4.058508
 20
5.659120
 30
0.000000
  0
VERTEX
  8
ROLL-SHUTTER
 10
4.155090
 20
5.669986
 30
0.000000
  0
VERTEX
  8
ROLL-SHUTTER
 10
4.250732
 20
5.683911
 30
0.000000
  0
VERTEX
  8
ROLL-SHUTTER
 10
4.345207
 20
5.700861
 30
0.000000
  0
VERTEX
  8
ROLL-SHUTTER
 10
4.438284
 20
5.720797
 30
0.000000
  0
VERTEX
  8
ROLL-SHUTTER
 10
4.529740
 20
5.743670
 30
0.000000
  0
VERTEX
  8
ROLL-SHUTTER
 10
4.619356
 20
5.769425
 30
0.000000
  0
VERTEX
  8
ROLL-SHUTTER
 10
4.706915
 20
5.797999
 30
0.000000
  0
VERTEX
  8
ROLL-SHUTTER
 10
4.792205
 20
5.829325
 30
0.000000
  0
VERTEX
  8
ROLL-SHUTTER
 10
4.875022
 20
5.863327
 30
0.000000
  0
VERTEX
  8
ROLL-SHUTTER
 10
4.955165
 20
5.899921
 30
0.000000
  0
VERTEX
  8
ROLL-SHUTTER
 10
5.032442
 20
5.939022
 30
0.000000
  0
VERTEX
  8
ROLL-SHUTTER
 10
5.106668
 20
5.980534
 30
0.000000
  0
VERTEX
  8
ROLL-SHUTTER
 10
5.177662
 20
6.024357
 30
0.000000
  0
VERTEX
  8
ROLL-SHUTTER
 10
5.245255
 20
6.070386
 30
0.000000
  0
VERTEX
  8
ROLL-SHUTTER
 10
5.309281
 20
6.118509
 30
0.000000
  0
VERTEX
  8
ROLL-SHUTTER
 10
5.369590
 20
6.168612
 30
0.000000
  0
VERTEX
  8
ROLL-SHUTTER
 10
5.426034
 20
6.220573
 30
0.000000
  0
VERTEX
  8
ROLL-SHUTTER
 10
5.478477
 20
6.274267
 30
0.000000
  0
VERTEX
  8
ROLL-SHUTTER
 10
5.526793
 20
6.329565
 30
0.000000
  0
VERTEX
  8
ROLL-SHUTTER
 10
5.570866
 20
6.386333
 30
0.000000
  0
VERTEX
  8
ROLL-SHUTTER
 10
5.610590
 20
6.444435
 30
0.000000
  0
VERTEX
  8
ROLL-SHUTTER
 10
5.645868
 20
6.503730
 30
0.000000
  0
VERTEX
  8
ROLL-SHUTTER
 10
5.676617
 20
6.564077
 30
0.000000
  0
VERTEX
  8
ROLL-SHUTTER
 10
5.702762
 20
6.625329
 30
0.000000
  0
VERTEX
  8
ROLL-SHUTTER
 10
5.724239
 20
6.687339
 30
0.000000
  0
VERTEX
  8
ROLL-SHUTTER
 10
5.740997
 20
6.749957
 30
0.000000
  0
VERTEX
  8
ROLL-SHUTTER
 10
5.752996
 20
6.813034
 30
0.000000
  0
VERTEX
  8
ROLL-SHUTTER
 10
5.760208
 20
6.876415
 30
0.000000
  0
VERTEX
  8
ROLL-SHUTTER
 10
5.762614
 20
6.939950
 30
0.000000
  0
SEQEND
  8
ROLL-SHUTTER
  0
POLYLINE
  8
ROLL-SHUTTER
 66
  1
 70
  1
 62
  7
  0
VERTEX
  8
ROLL-SHUTTER
 10
0.814219
 20
2.351023
 30
0.000000
  0
VERTEX
  8
ROLL-SHUTTER
 10
6.722202
 20
2.351023
 30
0.000000
  0
VERTEX
  8
ROLL-SHUTTER
 10
6.722202
 20
0.019108
 30
0.000000
  0
VERTEX
  8
ROLL-SHUTTER
 10
0.814219
 20
0.019108
 30
0.000000
  0
SEQEND
  8
ROLL-SHUTTER
  0
POLYLINE
  8
ROLL-SHUTTER
 66
  1
 70
  0
 62
  7
 40
0.018182
 41
0.018182
 10
0.018182
 20
0.018182
 30
0.000000
  0
VERTEX
  8
ROLL-SHUTTER
 10
0.018182
 20
0.018182
 30
0.000000
  0
VERTEX
  8
ROLL-SHUTTER
 10
7.518181
 20
0.018182
 30
0.000000
  0
SEQEND
  8
ROLL-SHUTTER
  0
POLYLINE
  8
ROLL-SHUTTER
 66
  1
 70
  0
 62
  7
 10
5.779069
 20
2.219864
 30
0.000000
  0
VERTEX
  8
ROLL-SHUTTER
 10
5.779069
 20
2.219864
 30
0.000000
  0
VERTEX
  8
ROLL-SHUTTER
 10
5.539274
 20
2.339274
 30
0.000000
  0
SEQEND
  8
ROLL-SHUTTER
  0
POLYLINE
  8
ROLL-SHUTTER
 66
  1
 70
  1
 62
  7
  0
VERTEX
  8
ROLL-SHUTTER
 10
5.521653
 20
2.348049
 30
0.000000
  0
VERTEX
  8
ROLL-SHUTTER
 10
5.574499
 20
2.352201
 30
0.000000
  0
VERTEX
  8
ROLL-SHUTTER
 10
5.562342
 20
2.327788
 30
0.000000
  0
VERTEX
  8
ROLL-SHUTTER
 10
5.550185
 20
2.303374
 30
0.000000
  0
VERTEX
  8
ROLL-SHUTTER
 10
5.521653
 20
2.348049
 30
0.000000
  0
SEQEND
  8
ROLL-SHUTTER
  0
POLYLINE
  8
ROLL-SHUTTER
 66
  1
 70
  1
 62
  7
  0
VERTEX
  8
ROLL-SHUTTER
 10
2.223063
 20
7.560416
 30
0.000000
  0
VERTEX
  8
ROLL-SHUTTER
 10
4.407649
 20
7.560416
 30
0.000000
  0
VERTEX
  8
ROLL-SHUTTER
 10
4.407649
 20
6.257095
 30
0.000000
  0
VERTEX
  8
ROLL-SHUTTER
 10
2.223063
 20
6.257095
 30
0.000000
  0
SEQEND
  8
ROLL-SHUTTER
  0
POLYLINE
  8
ROLL-SHUTTER
 66
  1
 70
  0
 62
  7
 10
2.223063
 20
7.463194
 30
0.000000
  0
VERTEX
  8
ROLL-SHUTTER
 10
2.223063
 20
7.463194
 30
0.000000
  0
VERTEX
  8
ROLL-SHUTTER
 10
4.407649
 20
7.463194
 30
0.000000
  0
SEQEND
  8
ROLL-SHUTTER
  0
POLYLINE
  8
ROLL-SHUTTER
 66
  1
 70
  0
 62
  7
 10
2.223386
 20
6.941144
 30
0.000000
  0
VERTEX
  8
ROLL-SHUTTER
 10
2.223386
 20
6.941144
 30
0.000000
  0
VERTEX
  8
ROLL-SHUTTER
 10
4.407481
 20
6.941144
 30
0.000000
  0
SEQEND
  8
ROLL-SHUTTER
  0
POLYLINE
  8
ROLL-SHUTTER
 66
  1
 70
  0
 62
  7
 10
2.223412
 20
6.935585
 30
0.000000
  0
VERTEX
  8
ROLL-SHUTTER
 10
2.223412
 20
6.935585
 30
0.000000
  0
VERTEX
  8
ROLL-SHUTTER
 10
4.407507
 20
6.935585
 30
0.000000
  0
SEQEND
  8
ROLL-SHUTTER
  0
POLYLINE
  8
ROLL-SHUTTER
 66
  1
 70
  0
 62
  7
 10
2.223063
 20
6.413345
 30
0.000000
  0
VERTEX
  8
ROLL-SHUTTER
 10
2.223063
 20
6.413345
 30
0.000000
  0
VERTEX
  8
ROLL-SHUTTER
 10
4.407649
 20
6.413345
 30
0.000000
  0
SEQEND
  8
ROLL-SHUTTER
  0
POLYLINE
  8
ROLL-SHUTTER
 66
  1
 70
  0
 62
  7
 10
2.223063
 20
7.469567
 30
0.000000
  0
VERTEX
  8
ROLL-SHUTTER
 10
2.223063
 20
7.469567
 30
0.000000
  0
VERTEX
  8
ROLL-SHUTTER
 10
4.407649
 20
7.469567
 30
0.000000
  0
SEQEND
  8
ROLL-SHUTTER
  0
POLYLINE
  8
ROLL-SHUTTER
 66
  1
 70
  0
 62
  7
 10
2.223063
 20
6.407067
 30
0.000000
  0
VERTEX
  8
ROLL-SHUTTER
 10
2.223063
 20
6.407067
 30
0.000000
  0
VERTEX
  8
ROLL-SHUTTER
 10
4.407649
 20
6.407067
 30
0.000000
  0
SEQEND
  8
ROLL-SHUTTER
  0
POLYLINE
  8
ROLL-SHUTTER
 66
  1
 70
  0
 62
  7
 10
3.936584
 20
2.205687
 30
0.000000
  0
VERTEX
  8
ROLL-SHUTTER
 10
3.936584
 20
2.205687
 30
0.000000
  0
VERTEX
  8
ROLL-SHUTTER
 10
3.791853
 20
2.384844
 30
0.000000
  0
SEQEND
  8
ROLL-SHUTTER
  0
POLYLINE
  8
ROLL-SHUTTER
 66
  1
 70
  1
 62
  7
  0
VERTEX
  8
ROLL-SHUTTER
 10
3.779483
 20
2.400156
 30
0.000000
  0
VERTEX
  8
ROLL-SHUTTER
 10
3.829262
 20
2.381937
 30
0.000000
  0
VERTEX
  8
ROLL-SHUTTER
 10
3.808047
 20
2.364798
 30
0.000000
  0
VERTEX
  8
ROLL-SHUTTER
 10
3.786832
 20
2.347660
 30
0.000000
  0
VERTEX
  8
ROLL-SHUTTER
 10
3.779483
 20
2.400156
 30
0.000000
  0
SEQEND
  8
ROLL-SHUTTER
  0
ARC
  8
ROLL-SHUTTER
 62
  7
 10
5.480676
 20
8.993874
 30
0.000000
 40
0.254425
 50
270.000000
 51
90.000000
  0
POLYLINE
  8
ROLL-SHUTTER
 66
  1
 70
  0
 62
  7
 10
5.480676
 20
9.248299
 30
0.000000
  0
VERTEX
  8
ROLL-SHUTTER
 10
5.480676
 20
9.248299
 30
0.000000
  0
VERTEX
  8
ROLL-SHUTTER
 10
1.815754
 20
9.248299
 30
0.000000
  0
SEQEND
  8
ROLL-SHUTTER
  0
POLYLINE
  8
ROLL-SHUTTER
 66
  1
 70
  0
 62
  7
 10
1.815754
 20
9.248299
 30
0.000000
  0
VERTEX
  8
ROLL-SHUTTER
 10
1.815754
 20
9.248299
 30
0.000000
  0
VERTEX
  8
ROLL-SHUTTER
 10
1.815754
 20
8.739450
 30
0.000000
  0
SEQEND
  8
ROLL-SHUTTER
  0
POLYLINE
  8
ROLL-SHUTTER
 66
  1
 70
  0
 62
  7
 10
5.480676
 20
8.739450
 30
0.000000
  0
VERTEX
  8
ROLL-SHUTTER
 10
5.480676
 20
8.739450
 30
0.000000
  0
VERTEX
  8
ROLL-SHUTTER
 10
1.815754
 20
8.739450
 30
0.000000
  0
SEQEND
  8
ROLL-SHUTTER
  0
TEXT
  8
ROLL-SHUTTER
 62
  7
 10
1.991414
 20
8.877017
 30
0.000000
 40
0.190909
  1
Elevation of Counter Shutter
 72
  5
 11
5.500505
 21
8.877017
 31
0.000000
  0
TEXT
  8
ROLL-SHUTTER
 62
  7
 10
3.609596
 20
9.549745
 30
0.000000
 40
0.340909
  1
MobilFlex
 72
  5
 11
5.818687
 21
9.549745
 31
0.000000
  0
POLYLINE
  8
ROLL-SHUTTER
 66
  1
 70
  1
 62
  7
  0
VERTEX
  8
ROLL-SHUTTER
 10
1.817258
 20
10.065931
 30
0.000000
  0
VERTEX
  8
ROLL-SHUTTER
 10
2.055105
 20
10.065931
 30
0.000000
  0
VERTEX
  8
ROLL-SHUTTER
 10
2.055105
 20
9.548987
 30
0.000000
  0
VERTEX
  8
ROLL-SHUTTER
 10
1.817258
 20
9.548987
 30
0.000000
  0
SEQEND
  8
ROLL-SHUTTER
  0
POLYLINE
  8
ROLL-SHUTTER
 66
  1
 70
  1
 62
  7
  0
VERTEX
  8
ROLL-SHUTTER
 10
2.129758
 20
10.065931
 30
0.000000
  0
VERTEX
  8
ROLL-SHUTTER
 10
2.367605
 20
10.065931
 30
0.000000
  0
VERTEX
  8
ROLL-SHUTTER
 10
2.367605
 20
9.548987
 30
0.000000
  0
VERTEX
  8
ROLL-SHUTTER
 10
2.129758
 20
9.548987
 30
0.000000
  0
SEQEND
  8
ROLL-SHUTTER
  0
POLYLINE
  8
ROLL-SHUTTER
 66
  1
 70
  1
 62
  7
  0
VERTEX
  8
ROLL-SHUTTER
 10
2.430105
 20
10.065931
 30
0.000000
  0
VERTEX
  8
ROLL-SHUTTER
 10
2.667952
 20
10.065931
 30
0.000000
  0
VERTEX
  8
ROLL-SHUTTER
 10
2.667952
 20
9.548987
 30
0.000000
  0
VERTEX
  8
ROLL-SHUTTER
 10
2.430105
 20
9.548987
 30
0.000000
  0
SEQEND
  8
ROLL-SHUTTER
  0
POLYLINE
  8
ROLL-SHUTTER
 66
  1
 70
  1
 62
  7
  0
VERTEX
  8
ROLL-SHUTTER
 10
2.733924
 20
10.065931
 30
0.000000
  0
VERTEX
  8
ROLL-SHUTTER
 10
2.971772
 20
10.065931
 30
0.000000
  0
VERTEX
  8
ROLL-SHUTTER
 10
2.971772
 20
9.548987
 30
0.000000
  0
VERTEX
  8
ROLL-SHUTTER
 10
2.733924
 20
9.548987
 30
0.000000
  0
SEQEND
  8
ROLL-SHUTTER
  0
POLYLINE
  8
ROLL-SHUTTER
 66
  1
 70
  1
 62
  7
  0
VERTEX
  8
ROLL-SHUTTER
 10
3.050765
 20
10.062016
 30
0.000000
  0
VERTEX
  8
ROLL-SHUTTER
 10
3.426199
 20
10.062016
 30
0.000000
  0
VERTEX
  8
ROLL-SHUTTER
 10
3.426199
 20
9.923996
 30
0.000000
  0
VERTEX
  8
ROLL-SHUTTER
 10
3.050765
 20
9.923996
 30
0.000000
  0
SEQEND
  8
ROLL-SHUTTER
  0
POLYLINE
  8
ROLL-SHUTTER
 66
  1
 70
  1
 62
  7
  0
VERTEX
  8
ROLL-SHUTTER
 10
3.050331
 20
9.834586
 30
0.000000
  0
VERTEX
  8
ROLL-SHUTTER
 10
3.358491
 20
9.834586
 30
0.000000
  0
VERTEX
  8
ROLL-SHUTTER
 10
3.358491
 20
9.700471
 30
0.000000
  0
VERTEX
  8
ROLL-SHUTTER
 10
3.050331
 20
9.700471
 30
0.000000
  0
SEQEND
  8
ROLL-SHUTTER
  0
POLYLINE
  8
ROLL-SHUTTER
 66
  1
 70
  1
 62
  7
  0
VERTEX
  8
ROLL-SHUTTER
 10
1.817258
 20
9.464360
 30
0.000000
  0
VERTEX
  8
ROLL-SHUTTER
 10
5.735661
 20
9.464360
 30
0.000000
  0
VERTEX
  8
ROLL-SHUTTER
 10
5.735661
 20
9.420957
 30
0.000000
  0
VERTEX
  8
ROLL-SHUTTER
 10
1.817258
 20
9.420957
 30
0.000000
  0
SEQEND
  8
ROLL-SHUTTER
  0
TEXT
  8
ROLL-SHUTTER
 62
  7
 10
3.345960
 20
7.904290
 30
0.000000
 40
0.150000
  1
full width
 72
  5
 11
4.164141
 21
7.904290
 31
0.000000
  0
TEXT
  8
ROLL-SHUTTER
 62
  7
 10
3.073232
 20
7.667927
 30
0.000000
 40
0.150000
  1
aluminum slats
 72
  5
 11
4.436869
 21
7.667927
 31
0.000000
  0
TEXT
  8
ROLL-SHUTTER
 62
  7
 10
1.800505
 20
8.558836
 30
0.000000
 40
0.115909
  1
OPAQUE, SOLID COUNTER OR CABINET SHUTTER
 72
  5
 11
5.391414
 21
8.558836
 31
0.000000
  0
POLYLINE
  8
ROLL-SHUTTER
 66
  1
 70
  0
 62
  7
 10
4.863177
 20
6.938674
 30
0.000000
  0
VERTEX
  8
ROLL-SHUTTER
 10
4.863177
 20
6.938674
 30
0.000000
  0
VERTEX
  8
ROLL-SHUTTER
 10
4.863177
 20
6.410898
 30
0.000000
  0
SEQEND
  8
ROLL-SHUTTER
  0
LINE
  8
ROLL-SHUTTER
 62
  7
 10
4.882462
 20
6.919390
 30
0.000000
 11
4.843892
 21
6.957959
 31
0.000000
  0
LINE
  8
ROLL-SHUTTER
 62
  7
 10
4.882462
 20
6.391614
 30
0.000000
 11
4.843892
 21
6.430182
 31
0.000000
  0
POLYLINE
  8
ROLL-SHUTTER
 66
  1
 70
  0
 62
  7
 10
4.785291
 20
6.938674
 30
0.000000
  0
VERTEX
  8
ROLL-SHUTTER
 10
4.785291
 20
6.938674
 30
0.000000
  0
VERTEX
  8
ROLL-SHUTTER
 10
4.893046
 20
6.938674
 30
0.000000
  0
SEQEND
  8
ROLL-SHUTTER
  0
POLYLINE
  8
ROLL-SHUTTER
 66
  1
 70
  0
 62
  7
 10
4.784423
 20
6.410898
 30
0.000000
  0
VERTEX
  8
ROLL-SHUTTER
 10
4.784423
 20
6.410898
 30
0.000000
  0
VERTEX
  8
ROLL-SHUTTER
 10
4.892929
 20
6.410898
 30
0.000000
  0
SEQEND
  8
ROLL-SHUTTER
  0
POLYLINE
  8
ROLL-SHUTTER
 66
  1
 70
  1
 62
  7
 10
4.620917
 20
7.557302
 30
0.000000
  0
VERTEX
  8
ROLL-SHUTTER
 10
4.620917
 20
7.557302
 30
0.000000
  0
VERTEX
  8
ROLL-SHUTTER
 10
4.614429
 20
7.552742
 30
0.000000
  0
VERTEX
  8
ROLL-SHUTTER
 10
4.607589
 20
7.563968
 30
0.000000
  0
VERTEX
  8
ROLL-SHUTTER
 10
4.602678
 20
7.557302
 30
0.000000
  0
VERTEX
  8
ROLL-SHUTTER
 10
4.601143
 20
7.547498
 30
0.000000
  0
VERTEX
  8
ROLL-SHUTTER
 10
4.598254
 20
7.539474
 30
0.000000
  0
VERTEX
  8
ROLL-SHUTTER
 10
4.592905
 20
7.528881
 30
0.000000
  0
VERTEX
  8
ROLL-SHUTTER
 10
4.584985
 20
7.519359
 30
0.000000
  0
VERTEX
  8
ROLL-SHUTTER
 10
4.576104
 20
7.511228
 30
0.000000
  0
VERTEX
  8
ROLL-SHUTTER
 10
4.563372
 20
7.502990
 30
0.000000
  0
VERTEX
  8
ROLL-SHUTTER
 10
4.560590
 20
7.499673
 30
0.000000
  0
VERTEX
  8
ROLL-SHUTTER
 10
4.559840
 20
7.494858
 30
0.000000
  0
VERTEX
  8
ROLL-SHUTTER
 10
4.560913
 20
7.490578
 30
0.000000
  0
VERTEX
  8
ROLL-SHUTTER
 10
4.567331
 20
7.480200
 30
0.000000
  0
VERTEX
  8
ROLL-SHUTTER
 10
4.567438
 20
7.475815
 30
0.000000
  0
VERTEX
  8
ROLL-SHUTTER
 10
4.563800
 20
7.468860
 30
0.000000
  0
VERTEX
  8
ROLL-SHUTTER
 10
4.551475
 20
7.468820
 30
0.000000
  0
VERTEX
  8
ROLL-SHUTTER
 10
4.545716
 20
7.467148
 30
0.000000
  0
VERTEX
  8
ROLL-SHUTTER
 10
4.539940
 20
7.464365
 30
0.000000
  0
VERTEX
  8
ROLL-SHUTTER
 10
4.535338
 20
7.461263
 30
0.000000
  0
VERTEX
  8
ROLL-SHUTTER
 10
4.530738
 20
7.457090
 30
0.000000
  0
VERTEX
  8
ROLL-SHUTTER
 10
4.527420
 20
7.452703
 30
0.000000
  0
VERTEX
  8
ROLL-SHUTTER
 10
4.525067
 20
7.447461
 30
0.000000
  0
VERTEX
  8
ROLL-SHUTTER
 10
4.523248
 20
7.441683
 30
0.000000
  0
VERTEX
  8
ROLL-SHUTTER
 10
4.522820
 20
7.435050
 30
0.000000
  0
VERTEX
  8
ROLL-SHUTTER
 10
4.523782
 20
7.427881
 30
0.000000
  0
VERTEX
  8
ROLL-SHUTTER
 10
4.525387
 20
7.422210
 30
0.000000
  0
VERTEX
  8
ROLL-SHUTTER
 10
4.527956
 20
7.417395
 30
0.000000
  0
VERTEX
  8
ROLL-SHUTTER
 10
4.532237
 20
7.417395
 30
0.000000
  0
VERTEX
  8
ROLL-SHUTTER
 10
4.539296
 20
7.429165
 30
0.000000
  0
VERTEX
  8
ROLL-SHUTTER
 10
4.539357
 20
7.432599
 30
0.000000
  0
VERTEX
  8
ROLL-SHUTTER
 10
4.539189
 20
7.436227
 30
0.000000
  0
VERTEX
  8
ROLL-SHUTTER
 10
4.540047
 20
7.440934
 30
0.000000
  0
VERTEX
  8
ROLL-SHUTTER
 10
4.542292
 20
7.445534
 30
0.000000
  0
VERTEX
  8
ROLL-SHUTTER
 10
4.546145
 20
7.449387
 30
0.000000
  0
VERTEX
  8
ROLL-SHUTTER
 10
4.549996
 20
7.451848
 30
0.000000
  0
VERTEX
  8
ROLL-SHUTTER
 10
4.554919
 20
7.452703
 30
0.000000
  0
VERTEX
  8
ROLL-SHUTTER
 10
4.559626
 20
7.452811
 30
0.000000
  0
VERTEX
  8
ROLL-SHUTTER
 10
4.564443
 20
7.451955
 30
0.000000
  0
VERTEX
  8
ROLL-SHUTTER
 10
4.567546
 20
7.449922
 30
0.000000
  0
VERTEX
  8
ROLL-SHUTTER
 10
4.571291
 20
7.445106
 30
0.000000
  0
VERTEX
  8
ROLL-SHUTTER
 10
4.573643
 20
7.440720
 30
0.000000
  0
VERTEX
  8
ROLL-SHUTTER
 10
4.574286
 20
7.434728
 30
0.000000
  0
VERTEX
  8
ROLL-SHUTTER
 10
4.572894
 20
7.429165
 30
0.000000
  0
VERTEX
  8
ROLL-SHUTTER
 10
4.570326
 20
7.424136
 30
0.000000
  0
VERTEX
  8
ROLL-SHUTTER
 10
4.566796
 20
7.420604
 30
0.000000
  0
VERTEX
  8
ROLL-SHUTTER
 10
4.562196
 20
7.417609
 30
0.000000
  0
VERTEX
  8
ROLL-SHUTTER
 10
4.554704
 20
7.404342
 30
0.000000
  0
VERTEX
  8
ROLL-SHUTTER
 10
4.557916
 20
7.402309
 30
0.000000
  0
VERTEX
  8
ROLL-SHUTTER
 10
4.562088
 20
7.402416
 30
0.000000
  0
VERTEX
  8
ROLL-SHUTTER
 10
4.567118
 20
7.403378
 30
0.000000
  0
VERTEX
  8
ROLL-SHUTTER
 10
4.572359
 20
7.406160
 30
0.000000
  0
VERTEX
  8
ROLL-SHUTTER
 10
4.578351
 20
7.410227
 30
0.000000
  0
VERTEX
  8
ROLL-SHUTTER
 10
4.583595
 20
7.415255
 30
0.000000
  0
VERTEX
  8
ROLL-SHUTTER
 10
4.587553
 20
7.420498
 30
0.000000
  0
VERTEX
  8
ROLL-SHUTTER
 10
4.589801
 20
7.427560
 30
0.000000
  0
VERTEX
  8
ROLL-SHUTTER
 10
4.590575
 20
7.436633
 30
0.000000
  0
VERTEX
  8
ROLL-SHUTTER
 10
4.589909
 20
7.442218
 30
0.000000
  0
VERTEX
  8
ROLL-SHUTTER
 10
4.586483
 20
7.451848
 30
0.000000
  0
VERTEX
  8
ROLL-SHUTTER
 10
4.582846
 20
7.456342
 30
0.000000
  0
VERTEX
  8
ROLL-SHUTTER
 10
4.582202
 20
7.458588
 30
0.000000
  0
VERTEX
  8
ROLL-SHUTTER
 10
4.582846
 20
7.461263
 30
0.000000
  0
VERTEX
  8
ROLL-SHUTTER
 10
4.587981
 20
7.468752
 30
0.000000
  0
VERTEX
  8
ROLL-SHUTTER
 10
4.602427
 20
7.468966
 30
0.000000
  0
VERTEX
  8
ROLL-SHUTTER
 10
4.606813
 20
7.470679
 30
0.000000
  0
VERTEX
  8
ROLL-SHUTTER
 10
4.610343
 20
7.475065
 30
0.000000
  0
VERTEX
  8
ROLL-SHUTTER
 10
4.611736
 20
7.479665
 30
0.000000
  0
VERTEX
  8
ROLL-SHUTTER
 10
4.615218
 20
7.507141
 30
0.000000
  0
VERTEX
  8
ROLL-SHUTTER
 10
4.618199
 20
7.531783
 30
0.000000
  0
SEQEND
  8
ROLL-SHUTTER
  0
POLYLINE
  8
ROLL-SHUTTER
 66
  1
 70
  1
 62
  7
 10
4.539145
 20
6.889936
 30
0.000000
  0
VERTEX
  8
ROLL-SHUTTER
 10
4.539145
 20
6.889936
 30
0.000000
  0
VERTEX
  8
ROLL-SHUTTER
 10
4.534864
 20
6.889936
 30
0.000000
  0
VERTEX
  8
ROLL-SHUTTER
 10
4.532296
 20
6.894750
 30
0.000000
  0
VERTEX
  8
ROLL-SHUTTER
 10
4.530691
 20
6.900421
 30
0.000000
  0
VERTEX
  8
ROLL-SHUTTER
 10
4.529729
 20
6.907589
 30
0.000000
  0
VERTEX
  8
ROLL-SHUTTER
 10
4.530156
 20
6.914223
 30
0.000000
  0
VERTEX
  8
ROLL-SHUTTER
 10
4.531976
 20
6.920001
 30
0.000000
  0
VERTEX
  8
ROLL-SHUTTER
 10
4.534328
 20
6.925245
 30
0.000000
  0
VERTEX
  8
ROLL-SHUTTER
 10
4.537646
 20
6.929630
 30
0.000000
  0
VERTEX
  8
ROLL-SHUTTER
 10
4.542247
 20
6.933802
 30
0.000000
  0
VERTEX
  8
ROLL-SHUTTER
 10
4.546848
 20
6.936906
 30
0.000000
  0
VERTEX
  8
ROLL-SHUTTER
 10
4.552627
 20
6.939687
 30
0.000000
  0
VERTEX
  8
ROLL-SHUTTER
 10
4.558297
 20
6.941185
 30
0.000000
  0
VERTEX
  8
ROLL-SHUTTER
 10
4.563646
 20
6.941507
 30
0.000000
  0
VERTEX
  8
ROLL-SHUTTER
 10
4.570709
 20
6.941400
 30
0.000000
  0
VERTEX
  8
ROLL-SHUTTER
 10
4.574347
 20
6.948354
 30
0.000000
  0
VERTEX
  8
ROLL-SHUTTER
 10
4.574240
 20
6.952741
 30
0.000000
  0
VERTEX
  8
ROLL-SHUTTER
 10
4.571887
 20
6.956913
 30
0.000000
  0
VERTEX
  8
ROLL-SHUTTER
 10
4.567822
 20
6.963119
 30
0.000000
  0
VERTEX
  8
ROLL-SHUTTER
 10
4.566750
 20
6.967399
 30
0.000000
  0
VERTEX
  8
ROLL-SHUTTER
 10
4.567500
 20
6.972214
 30
0.000000
  0
VERTEX
  8
ROLL-SHUTTER
 10
4.570281
 20
6.975530
 30
0.000000
  0
VERTEX
  8
ROLL-SHUTTER
 10
4.583013
 20
6.983769
 30
0.000000
  0
VERTEX
  8
ROLL-SHUTTER
 10
4.591896
 20
6.991901
 30
0.000000
  0
VERTEX
  8
ROLL-SHUTTER
 10
4.599815
 20
7.001423
 30
0.000000
  0
VERTEX
  8
ROLL-SHUTTER
 10
4.605165
 20
7.012016
 30
0.000000
  0
VERTEX
  8
ROLL-SHUTTER
 10
4.608052
 20
7.020040
 30
0.000000
  0
VERTEX
  8
ROLL-SHUTTER
 10
4.609977
 20
7.031489
 30
0.000000
  0
VERTEX
  8
ROLL-SHUTTER
 10
4.613402
 20
7.071397
 30
0.000000
  0
VERTEX
  8
ROLL-SHUTTER
 10
4.615862
 20
7.105529
 30
0.000000
  0
VERTEX
  8
ROLL-SHUTTER
 10
4.617146
 20
7.145224
 30
0.000000
  0
VERTEX
  8
ROLL-SHUTTER
 10
4.617468
 20
7.199683
 30
0.000000
  0
VERTEX
  8
ROLL-SHUTTER
 10
4.616506
 20
7.252644
 30
0.000000
  0
VERTEX
  8
ROLL-SHUTTER
 10
4.614365
 20
7.292126
 30
0.000000
  0
VERTEX
  8
ROLL-SHUTTER
 10
4.612010
 20
7.318554
 30
0.000000
  0
VERTEX
  8
ROLL-SHUTTER
 10
4.609230
 20
7.333639
 30
0.000000
  0
VERTEX
  8
ROLL-SHUTTER
 10
4.605912
 20
7.343269
 30
0.000000
  0
VERTEX
  8
ROLL-SHUTTER
 10
4.601096
 20
7.352792
 30
0.000000
  0
VERTEX
  8
ROLL-SHUTTER
 10
4.594571
 20
7.362100
 30
0.000000
  0
VERTEX
  8
ROLL-SHUTTER
 10
4.584726
 20
7.370552
 30
0.000000
  0
VERTEX
  8
ROLL-SHUTTER
 10
4.574882
 20
7.377400
 30
0.000000
  0
VERTEX
  8
ROLL-SHUTTER
 10
4.565252
 20
7.381894
 30
0.000000
  0
VERTEX
  8
ROLL-SHUTTER
 10
4.553589
 20
7.384248
 30
0.000000
  0
VERTEX
  8
ROLL-SHUTTER
 10
4.542675
 20
7.385960
 30
0.000000
  0
VERTEX
  8
ROLL-SHUTTER
 10
4.533579
 20
7.388848
 30
0.000000
  0
VERTEX
  8
ROLL-SHUTTER
 10
4.527053
 20
7.392593
 30
0.000000
  0
VERTEX
  8
ROLL-SHUTTER
 10
4.520420
 20
7.397514
 30
0.000000
  0
VERTEX
  8
ROLL-SHUTTER
 10
4.514000
 20
7.403078
 30
0.000000
  0
VERTEX
  8
ROLL-SHUTTER
 10
4.509614
 20
7.409712
 30
0.000000
  0
VERTEX
  8
ROLL-SHUTTER
 10
4.505869
 20
7.416881
 30
0.000000
  0
VERTEX
  8
ROLL-SHUTTER
 10
4.502446
 20
7.425547
 30
0.000000
  0
VERTEX
  8
ROLL-SHUTTER
 10
4.500199
 20
7.434535
 30
0.000000
  0
VERTEX
  8
ROLL-SHUTTER
 10
4.498487
 20
7.444486
 30
0.000000
  0
VERTEX
  8
ROLL-SHUTTER
 10
4.497843
 20
7.450691
 30
0.000000
  0
VERTEX
  8
ROLL-SHUTTER
 10
4.498272
 20
7.453045
 30
0.000000
  0
VERTEX
  8
ROLL-SHUTTER
 10
4.504050
 20
7.458608
 30
0.000000
  0
VERTEX
  8
ROLL-SHUTTER
 10
4.529194
 20
7.459678
 30
0.000000
  0
VERTEX
  8
ROLL-SHUTTER
 10
4.529301
 20
7.456041
 30
0.000000
  0
VERTEX
  8
ROLL-SHUTTER
 10
4.525021
 20
7.450156
 30
0.000000
  0
VERTEX
  8
ROLL-SHUTTER
 10
4.522346
 20
7.443415
 30
0.000000
  0
VERTEX
  8
ROLL-SHUTTER
 10
4.522132
 20
7.434857
 30
0.000000
  0
VERTEX
  8
ROLL-SHUTTER
 10
4.522560
 20
7.428223
 30
0.000000
  0
VERTEX
  8
ROLL-SHUTTER
 10
4.526197
 20
7.419664
 30
0.000000
  0
VERTEX
  8
ROLL-SHUTTER
 10
4.530799
 20
7.412494
 30
0.000000
  0
VERTEX
  8
ROLL-SHUTTER
 10
4.536361
 20
7.407252
 30
0.000000
  0
VERTEX
  8
ROLL-SHUTTER
 10
4.544388
 20
7.402971
 30
0.000000
  0
VERTEX
  8
ROLL-SHUTTER
 10
4.551235
 20
7.401153
 30
0.000000
  0
VERTEX
  8
ROLL-SHUTTER
 10
4.557870
 20
7.400297
 30
0.000000
  0
VERTEX
  8
ROLL-SHUTTER
 10
4.566109
 20
7.401367
 30
0.000000
  0
VERTEX
  8
ROLL-SHUTTER
 10
4.573063
 20
7.403935
 30
0.000000
  0
VERTEX
  8
ROLL-SHUTTER
 10
4.579592
 20
7.408107
 30
0.000000
  0
VERTEX
  8
ROLL-SHUTTER
 10
4.585046
 20
7.413885
 30
0.000000
  0
VERTEX
  8
ROLL-SHUTTER
 10
4.589007
 20
7.419983
 30
0.000000
  0
VERTEX
  8
ROLL-SHUTTER
 10
4.592430
 20
7.427901
 30
0.000000
  0
VERTEX
  8
ROLL-SHUTTER
 10
4.593072
 20
7.435604
 30
0.000000
  0
VERTEX
  8
ROLL-SHUTTER
 10
4.592430
 20
7.442238
 30
0.000000
  0
VERTEX
  8
ROLL-SHUTTER
 10
4.590717
 20
7.448443
 30
0.000000
  0
VERTEX
  8
ROLL-SHUTTER
 10
4.587187
 20
7.454436
 30
0.000000
  0
VERTEX
  8
ROLL-SHUTTER
 10
4.584834
 20
7.458073
 30
0.000000
  0
VERTEX
  8
ROLL-SHUTTER
 10
4.584834
 20
7.460748
 30
0.000000
  0
VERTEX
  8
ROLL-SHUTTER
 10
4.587508
 20
7.463210
 30
0.000000
  0
VERTEX
  8
ROLL-SHUTTER
 10
4.605485
 20
7.462995
 30
0.000000
  0
VERTEX
  8
ROLL-SHUTTER
 10
4.609015
 20
7.459999
 30
0.000000
  0
VERTEX
  8
ROLL-SHUTTER
 10
4.612010
 20
7.455505
 30
0.000000
  0
VERTEX
  8
ROLL-SHUTTER
 10
4.613614
 20
7.447374
 30
0.000000
  0
VERTEX
  8
ROLL-SHUTTER
 10
4.618858
 20
7.414206
 30
0.000000
  0
VERTEX
  8
ROLL-SHUTTER
 10
4.624528
 20
7.366165
 30
0.000000
  0
VERTEX
  8
ROLL-SHUTTER
 10
4.629663
 20
7.318874
 30
0.000000
  0
VERTEX
  8
ROLL-SHUTTER
 10
4.633623
 20
7.268909
 30
0.000000
  0
VERTEX
  8
ROLL-SHUTTER
 10
4.635014
 20
7.232316
 30
0.000000
  0
VERTEX
  8
ROLL-SHUTTER
 10
4.635763
 20
7.199576
 30
0.000000
  0
VERTEX
  8
ROLL-SHUTTER
 10
4.634800
 20
7.121149
 30
0.000000
  0
VERTEX
  8
ROLL-SHUTTER
 10
4.632661
 20
7.083917
 30
0.000000
  0
VERTEX
  8
ROLL-SHUTTER
 10
4.628916
 20
7.041224
 30
0.000000
  0
VERTEX
  8
ROLL-SHUTTER
 10
4.624743
 20
7.000675
 30
0.000000
  0
VERTEX
  8
ROLL-SHUTTER
 10
4.618645
 20
6.952206
 30
0.000000
  0
VERTEX
  8
ROLL-SHUTTER
 10
4.617254
 20
6.947605
 30
0.000000
  0
VERTEX
  8
ROLL-SHUTTER
 10
4.613722
 20
6.943218
 30
0.000000
  0
VERTEX
  8
ROLL-SHUTTER
 10
4.609337
 20
6.941507
 30
0.000000
  0
VERTEX
  8
ROLL-SHUTTER
 10
4.594890
 20
6.941293
 30
0.000000
  0
VERTEX
  8
ROLL-SHUTTER
 10
4.589755
 20
6.933802
 30
0.000000
  0
VERTEX
  8
ROLL-SHUTTER
 10
4.589112
 20
6.931128
 30
0.000000
  0
VERTEX
  8
ROLL-SHUTTER
 10
4.589755
 20
6.928882
 30
0.000000
  0
VERTEX
  8
ROLL-SHUTTER
 10
4.593393
 20
6.924389
 30
0.000000
  0
VERTEX
  8
ROLL-SHUTTER
 10
4.595213
 20
6.919894
 30
0.000000
  0
VERTEX
  8
ROLL-SHUTTER
 10
4.596818
 20
6.914758
 30
0.000000
  0
VERTEX
  8
ROLL-SHUTTER
 10
4.597245
 20
6.907910
 30
0.000000
  0
VERTEX
  8
ROLL-SHUTTER
 10
4.596711
 20
6.900101
 30
0.000000
  0
VERTEX
  8
ROLL-SHUTTER
 10
4.594464
 20
6.893039
 30
0.000000
  0
VERTEX
  8
ROLL-SHUTTER
 10
4.590505
 20
6.887795
 30
0.000000
  0
VERTEX
  8
ROLL-SHUTTER
 10
4.585261
 20
6.882768
 30
0.000000
  0
VERTEX
  8
ROLL-SHUTTER
 10
4.579269
 20
6.878701
 30
0.000000
  0
VERTEX
  8
ROLL-SHUTTER
 10
4.574027
 20
6.875919
 30
0.000000
  0
VERTEX
  8
ROLL-SHUTTER
 10
4.568997
 20
6.874958
 30
0.000000
  0
VERTEX
  8
ROLL-SHUTTER
 10
4.564824
 20
6.874850
 30
0.000000
  0
VERTEX
  8
ROLL-SHUTTER
 10
4.561613
 20
6.876883
 30
0.000000
  0
VERTEX
  8
ROLL-SHUTTER
 10
4.569105
 20
6.890149
 30
0.000000
  0
VERTEX
  8
ROLL-SHUTTER
 10
4.573705
 20
6.893145
 30
0.000000
  0
VERTEX
  8
ROLL-SHUTTER
 10
4.577237
 20
6.896676
 30
0.000000
  0
VERTEX
  8
ROLL-SHUTTER
 10
4.579803
 20
6.901706
 30
0.000000
  0
VERTEX
  8
ROLL-SHUTTER
 10
4.581196
 20
6.907269
 30
0.000000
  0
VERTEX
  8
ROLL-SHUTTER
 10
4.580554
 20
6.913260
 30
0.000000
  0
VERTEX
  8
ROLL-SHUTTER
 10
4.578200
 20
6.917646
 30
0.000000
  0
VERTEX
  8
ROLL-SHUTTER
 10
4.574455
 20
6.922462
 30
0.000000
  0
VERTEX
  8
ROLL-SHUTTER
 10
4.571352
 20
6.924496
 30
0.000000
  0
VERTEX
  8
ROLL-SHUTTER
 10
4.566537
 20
6.925351
 30
0.000000
  0
VERTEX
  8
ROLL-SHUTTER
 10
4.561828
 20
6.925245
 30
0.000000
  0
VERTEX
  8
ROLL-SHUTTER
 10
4.556905
 20
6.924389
 30
0.000000
  0
VERTEX
  8
ROLL-SHUTTER
 10
4.553055
 20
6.921927
 30
0.000000
  0
VERTEX
  8
ROLL-SHUTTER
 10
4.549200
 20
6.918075
 30
0.000000
  0
VERTEX
  8
ROLL-SHUTTER
 10
4.546956
 20
6.913473
 30
0.000000
  0
VERTEX
  8
ROLL-SHUTTER
 10
4.546098
 20
6.908767
 30
0.000000
  0
VERTEX
  8
ROLL-SHUTTER
 10
4.546205
 20
6.904379
 30
0.000000
  0
VERTEX
  8
ROLL-SHUTTER
 10
4.546205
 20
6.901706
 30
0.000000
  0
SEQEND
  8
ROLL-SHUTTER
  0
POLYLINE
  8
ROLL-SHUTTER
 66
  1
 70
  1
 62
  7
 10
4.541497
 20
6.404393
 30
0.000000
  0
VERTEX
  8
ROLL-SHUTTER
 10
4.541497
 20
6.404393
 30
0.000000
  0
VERTEX
  8
ROLL-SHUTTER
 10
4.516352
 20
6.403323
 30
0.000000
  0
VERTEX
  8
ROLL-SHUTTER
 10
4.510575
 20
6.397759
 30
0.000000
  0
VERTEX
  8
ROLL-SHUTTER
 10
4.510146
 20
6.395407
 30
0.000000
  0
VERTEX
  8
ROLL-SHUTTER
 10
4.510789
 20
6.389201
 30
0.000000
  0
VERTEX
  8
ROLL-SHUTTER
 10
4.512502
 20
6.379251
 30
0.000000
  0
VERTEX
  8
ROLL-SHUTTER
 10
4.514749
 20
6.370263
 30
0.000000
  0
VERTEX
  8
ROLL-SHUTTER
 10
4.518172
 20
6.361596
 30
0.000000
  0
VERTEX
  8
ROLL-SHUTTER
 10
4.521917
 20
6.354428
 30
0.000000
  0
VERTEX
  8
ROLL-SHUTTER
 10
4.526303
 20
6.347794
 30
0.000000
  0
VERTEX
  8
ROLL-SHUTTER
 10
4.532723
 20
6.342230
 30
0.000000
  0
VERTEX
  8
ROLL-SHUTTER
 10
4.539355
 20
6.337308
 30
0.000000
  0
VERTEX
  8
ROLL-SHUTTER
 10
4.545882
 20
6.333564
 30
0.000000
  0
VERTEX
  8
ROLL-SHUTTER
 10
4.554979
 20
6.330676
 30
0.000000
  0
VERTEX
  8
ROLL-SHUTTER
 10
4.565894
 20
6.328963
 30
0.000000
  0
VERTEX
  8
ROLL-SHUTTER
 10
4.577555
 20
6.326609
 30
0.000000
  0
VERTEX
  8
ROLL-SHUTTER
 10
4.587185
 20
6.322116
 30
0.000000
  0
VERTEX
  8
ROLL-SHUTTER
 10
4.597029
 20
6.315268
 30
0.000000
  0
VERTEX
  8
ROLL-SHUTTER
 10
4.606874
 20
6.306815
 30
0.000000
  0
VERTEX
  8
ROLL-SHUTTER
 10
4.613399
 20
6.297508
 30
0.000000
  0
VERTEX
  8
ROLL-SHUTTER
 10
4.618216
 20
6.287985
 30
0.000000
  0
VERTEX
  8
ROLL-SHUTTER
 10
4.621532
 20
6.278355
 30
0.000000
  0
VERTEX
  8
ROLL-SHUTTER
 10
4.624313
 20
6.263270
 30
0.000000
  0
VERTEX
  8
ROLL-SHUTTER
 10
4.624871
 20
6.257294
 30
0.000000
  0
VERTEX
  8
ROLL-SHUTTER
 10
4.631009
 20
6.262030
 30
0.000000
  0
VERTEX
  8
ROLL-SHUTTER
 10
4.639603
 20
6.251331
 30
0.000000
  0
VERTEX
  8
ROLL-SHUTTER
 10
4.642235
 20
6.257294
 30
0.000000
  0
VERTEX
  8
ROLL-SHUTTER
 10
4.641966
 20
6.263590
 30
0.000000
  0
VERTEX
  8
ROLL-SHUTTER
 10
4.636831
 20
6.310880
 30
0.000000
  0
VERTEX
  8
ROLL-SHUTTER
 10
4.631160
 20
6.358922
 30
0.000000
  0
VERTEX
  8
ROLL-SHUTTER
 10
4.625918
 20
6.392090
 30
0.000000
  0
VERTEX
  8
ROLL-SHUTTER
 10
4.624313
 20
6.400221
 30
0.000000
  0
VERTEX
  8
ROLL-SHUTTER
 10
4.621317
 20
6.404714
 30
0.000000
  0
VERTEX
  8
ROLL-SHUTTER
 10
4.617786
 20
6.407711
 30
0.000000
  0
VERTEX
  8
ROLL-SHUTTER
 10
4.599812
 20
6.407925
 30
0.000000
  0
VERTEX
  8
ROLL-SHUTTER
 10
4.597137
 20
6.405463
 30
0.000000
  0
VERTEX
  8
ROLL-SHUTTER
 10
4.597137
 20
6.402789
 30
0.000000
  0
VERTEX
  8
ROLL-SHUTTER
 10
4.599490
 20
6.399152
 30
0.000000
  0
VERTEX
  8
ROLL-SHUTTER
 10
4.603021
 20
6.393160
 30
0.000000
  0
VERTEX
  8
ROLL-SHUTTER
 10
4.604734
 20
6.386953
 30
0.000000
  0
VERTEX
  8
ROLL-SHUTTER
 10
4.605376
 20
6.380319
 30
0.000000
  0
VERTEX
  8
ROLL-SHUTTER
 10
4.604734
 20
6.372617
 30
0.000000
  0
VERTEX
  8
ROLL-SHUTTER
 10
4.601310
 20
6.364699
 30
0.000000
  0
VERTEX
  8
ROLL-SHUTTER
 10
4.597349
 20
6.358600
 30
0.000000
  0
VERTEX
  8
ROLL-SHUTTER
 10
4.591895
 20
6.352823
 30
0.000000
  0
VERTEX
  8
ROLL-SHUTTER
 10
4.585366
 20
6.348651
 30
0.000000
  0
VERTEX
  8
ROLL-SHUTTER
 10
4.578412
 20
6.346083
 30
0.000000
  0
VERTEX
  8
ROLL-SHUTTER
 10
4.570174
 20
6.345012
 30
0.000000
  0
VERTEX
  8
ROLL-SHUTTER
 10
4.563538
 20
6.345868
 30
0.000000
  0
VERTEX
  8
ROLL-SHUTTER
 10
4.556691
 20
6.347687
 30
0.000000
  0
VERTEX
  8
ROLL-SHUTTER
 10
4.547693
 20
6.352534
 30
0.000000
  0
VERTEX
  8
ROLL-SHUTTER
 10
4.543101
 20
6.357209
 30
0.000000
  0
VERTEX
  8
ROLL-SHUTTER
 10
4.538501
 20
6.364379
 30
0.000000
  0
VERTEX
  8
ROLL-SHUTTER
 10
4.534864
 20
6.372938
 30
0.000000
  0
VERTEX
  8
ROLL-SHUTTER
 10
4.534436
 20
6.379571
 30
0.000000
  0
VERTEX
  8
ROLL-SHUTTER
 10
4.534649
 20
6.388130
 30
0.000000
  0
VERTEX
  8
ROLL-SHUTTER
 10
4.537324
 20
6.394872
 30
0.000000
  0
VERTEX
  8
ROLL-SHUTTER
 10
4.541604
 20
6.400756
 30
0.000000
  0
SEQEND
  8
ROLL-SHUTTER
  0
POLYLINE
  8
ROLL-SHUTTER
 66
  1
 70
  1
 62
  7
 10
4.545164
 20
6.362568
 30
0.000000
  0
VERTEX
  8
ROLL-SHUTTER
 10
4.545164
 20
6.362568
 30
0.000000
  0
VERTEX
  8
ROLL-SHUTTER
 10
4.540884
 20
6.362568
 30
0.000000
  0
VERTEX
  8
ROLL-SHUTTER
 10
4.538315
 20
6.367382
 30
0.000000
  0
VERTEX
  8
ROLL-SHUTTER
 10
4.536711
 20
6.373054
 30
0.000000
  0
VERTEX
  8
ROLL-SHUTTER
 10
4.535749
 20
6.380222
 30
0.000000
  0
VERTEX
  8
ROLL-SHUTTER
 10
4.536176
 20
6.386855
 30
0.000000
  0
VERTEX
  8
ROLL-SHUTTER
 10
4.537996
 20
6.392633
 30
0.000000
  0
VERTEX
  8
ROLL-SHUTTER
 10
4.540348
 20
6.397877
 30
0.000000
  0
VERTEX
  8
ROLL-SHUTTER
 10
4.543666
 20
6.402262
 30
0.000000
  0
VERTEX
  8
ROLL-SHUTTER
 10
4.548267
 20
6.406434
 30
0.000000
  0
VERTEX
  8
ROLL-SHUTTER
 10
4.552869
 20
6.409538
 30
0.000000
  0
VERTEX
  8
ROLL-SHUTTER
 10
4.558646
 20
6.412320
 30
0.000000
  0
VERTEX
  8
ROLL-SHUTTER
 10
4.564317
 20
6.413817
 30
0.000000
  0
VERTEX
  8
ROLL-SHUTTER
 10
4.569665
 20
6.414139
 30
0.000000
  0
VERTEX
  8
ROLL-SHUTTER
 10
4.576729
 20
6.414031
 30
0.000000
  0
VERTEX
  8
ROLL-SHUTTER
 10
4.580367
 20
6.420987
 30
0.000000
  0
VERTEX
  8
ROLL-SHUTTER
 10
4.580260
 20
6.425374
 30
0.000000
  0
VERTEX
  8
ROLL-SHUTTER
 10
4.577906
 20
6.429545
 30
0.000000
  0
VERTEX
  8
ROLL-SHUTTER
 10
4.573840
 20
6.435752
 30
0.000000
  0
VERTEX
  8
ROLL-SHUTTER
 10
4.572769
 20
6.440031
 30
0.000000
  0
VERTEX
  8
ROLL-SHUTTER
 10
4.573519
 20
6.444846
 30
0.000000
  0
VERTEX
  8
ROLL-SHUTTER
 10
4.576301
 20
6.448162
 30
0.000000
  0
VERTEX
  8
ROLL-SHUTTER
 10
4.589033
 20
6.456401
 30
0.000000
  0
VERTEX
  8
ROLL-SHUTTER
 10
4.597915
 20
6.464533
 30
0.000000
  0
VERTEX
  8
ROLL-SHUTTER
 10
4.605833
 20
6.474056
 30
0.000000
  0
VERTEX
  8
ROLL-SHUTTER
 10
4.611183
 20
6.484648
 30
0.000000
  0
VERTEX
  8
ROLL-SHUTTER
 10
4.614072
 20
6.492672
 30
0.000000
  0
VERTEX
  8
ROLL-SHUTTER
 10
4.615997
 20
6.504120
 30
0.000000
  0
VERTEX
  8
ROLL-SHUTTER
 10
4.619421
 20
6.544030
 30
0.000000
  0
VERTEX
  8
ROLL-SHUTTER
 10
4.621882
 20
6.578161
 30
0.000000
  0
VERTEX
  8
ROLL-SHUTTER
 10
4.623165
 20
6.617856
 30
0.000000
  0
VERTEX
  8
ROLL-SHUTTER
 10
4.623487
 20
6.672314
 30
0.000000
  0
VERTEX
  8
ROLL-SHUTTER
 10
4.622525
 20
6.725277
 30
0.000000
  0
VERTEX
  8
ROLL-SHUTTER
 10
4.620384
 20
6.764759
 30
0.000000
  0
VERTEX
  8
ROLL-SHUTTER
 10
4.618029
 20
6.791187
 30
0.000000
  0
VERTEX
  8
ROLL-SHUTTER
 10
4.615249
 20
6.806271
 30
0.000000
  0
VERTEX
  8
ROLL-SHUTTER
 10
4.611931
 20
6.815901
 30
0.000000
  0
VERTEX
  8
ROLL-SHUTTER
 10
4.607116
 20
6.825424
 30
0.000000
  0
VERTEX
  8
ROLL-SHUTTER
 10
4.600590
 20
6.834732
 30
0.000000
  0
VERTEX
  8
ROLL-SHUTTER
 10
4.590746
 20
6.843185
 30
0.000000
  0
VERTEX
  8
ROLL-SHUTTER
 10
4.580902
 20
6.850032
 30
0.000000
  0
VERTEX
  8
ROLL-SHUTTER
 10
4.571271
 20
6.854525
 30
0.000000
  0
VERTEX
  8
ROLL-SHUTTER
 10
4.559609
 20
6.856880
 30
0.000000
  0
VERTEX
  8
ROLL-SHUTTER
 10
4.548695
 20
6.858592
 30
0.000000
  0
VERTEX
  8
ROLL-SHUTTER
 10
4.539598
 20
6.861480
 30
0.000000
  0
VERTEX
  8
ROLL-SHUTTER
 10
4.533072
 20
6.865225
 30
0.000000
  0
VERTEX
  8
ROLL-SHUTTER
 10
4.526440
 20
6.870147
 30
0.000000
  0
VERTEX
  8
ROLL-SHUTTER
 10
4.520020
 20
6.875711
 30
0.000000
  0
VERTEX
  8
ROLL-SHUTTER
 10
4.515633
 20
6.882345
 30
0.000000
  0
VERTEX
  8
ROLL-SHUTTER
 10
4.511889
 20
6.889513
 30
0.000000
  0
VERTEX
  8
ROLL-SHUTTER
 10
4.508464
 20
6.898179
 30
0.000000
  0
VERTEX
  8
ROLL-SHUTTER
 10
4.506218
 20
6.907168
 30
0.000000
  0
VERTEX
  8
ROLL-SHUTTER
 10
4.504506
 20
6.917118
 30
0.000000
  0
VERTEX
  8
ROLL-SHUTTER
 10
4.503862
 20
6.923323
 30
0.000000
  0
VERTEX
  8
ROLL-SHUTTER
 10
4.504292
 20
6.925677
 30
0.000000
  0
VERTEX
  8
ROLL-SHUTTER
 10
4.510069
 20
6.931241
 30
0.000000
  0
VERTEX
  8
ROLL-SHUTTER
 10
4.535213
 20
6.932311
 30
0.000000
  0
VERTEX
  8
ROLL-SHUTTER
 10
4.535321
 20
6.928673
 30
0.000000
  0
VERTEX
  8
ROLL-SHUTTER
 10
4.531040
 20
6.922788
 30
0.000000
  0
VERTEX
  8
ROLL-SHUTTER
 10
4.528365
 20
6.916047
 30
0.000000
  0
VERTEX
  8
ROLL-SHUTTER
 10
4.528152
 20
6.907488
 30
0.000000
  0
VERTEX
  8
ROLL-SHUTTER
 10
4.528581
 20
6.900854
 30
0.000000
  0
VERTEX
  8
ROLL-SHUTTER
 10
4.532218
 20
6.892296
 30
0.000000
  0
VERTEX
  8
ROLL-SHUTTER
 10
4.536819
 20
6.885126
 30
0.000000
  0
VERTEX
  8
ROLL-SHUTTER
 10
4.542380
 20
6.879884
 30
0.000000
  0
VERTEX
  8
ROLL-SHUTTER
 10
4.550407
 20
6.875604
 30
0.000000
  0
VERTEX
  8
ROLL-SHUTTER
 10
4.557253
 20
6.873785
 30
0.000000
  0
VERTEX
  8
ROLL-SHUTTER
 10
4.563889
 20
6.872929
 30
0.000000
  0
VERTEX
  8
ROLL-SHUTTER
 10
4.572129
 20
6.873999
 30
0.000000
  0
VERTEX
  8
ROLL-SHUTTER
 10
4.579082
 20
6.876567
 30
0.000000
  0
VERTEX
  8
ROLL-SHUTTER
 10
4.585610
 20
6.880740
 30
0.000000
  0
VERTEX
  8
ROLL-SHUTTER
 10
4.591066
 20
6.886517
 30
0.000000
  0
VERTEX
  8
ROLL-SHUTTER
 10
4.595027
 20
6.892616
 30
0.000000
  0
VERTEX
  8
ROLL-SHUTTER
 10
4.598450
 20
6.900534
 30
0.000000
  0
VERTEX
  8
ROLL-SHUTTER
 10
4.599092
 20
6.908236
 30
0.000000
  0
VERTEX
  8
ROLL-SHUTTER
 10
4.598450
 20
6.914870
 30
0.000000
  0
VERTEX
  8
ROLL-SHUTTER
 10
4.596737
 20
6.921075
 30
0.000000
  0
VERTEX
  8
ROLL-SHUTTER
 10
4.593206
 20
6.927068
 30
0.000000
  0
VERTEX
  8
ROLL-SHUTTER
 10
4.590854
 20
6.930706
 30
0.000000
  0
VERTEX
  8
ROLL-SHUTTER
 10
4.590854
 20
6.933380
 30
0.000000
  0
VERTEX
  8
ROLL-SHUTTER
 10
4.593529
 20
6.935842
 30
0.000000
  0
VERTEX
  8
ROLL-SHUTTER
 10
4.611503
 20
6.935628
 30
0.000000
  0
VERTEX
  8
ROLL-SHUTTER
 10
4.615034
 20
6.932632
 30
0.000000
  0
VERTEX
  8
ROLL-SHUTTER
 10
4.618029
 20
6.928137
 30
0.000000
  0
VERTEX
  8
ROLL-SHUTTER
 10
4.619634
 20
6.920007
 30
0.000000
  0
VERTEX
  8
ROLL-SHUTTER
 10
4.624876
 20
6.886837
 30
0.000000
  0
VERTEX
  8
ROLL-SHUTTER
 10
4.630548
 20
6.838798
 30
0.000000
  0
VERTEX
  8
ROLL-SHUTTER
 10
4.635683
 20
6.791507
 30
0.000000
  0
VERTEX
  8
ROLL-SHUTTER
 10
4.639643
 20
6.741541
 30
0.000000
  0
VERTEX
  8
ROLL-SHUTTER
 10
4.641034
 20
6.704948
 30
0.000000
  0
VERTEX
  8
ROLL-SHUTTER
 10
4.641783
 20
6.672208
 30
0.000000
  0
VERTEX
  8
ROLL-SHUTTER
 10
4.640819
 20
6.593782
 30
0.000000
  0
VERTEX
  8
ROLL-SHUTTER
 10
4.638680
 20
6.556549
 30
0.000000
  0
VERTEX
  8
ROLL-SHUTTER
 10
4.634935
 20
6.513856
 30
0.000000
  0
VERTEX
  8
ROLL-SHUTTER
 10
4.630763
 20
6.473307
 30
0.000000
  0
VERTEX
  8
ROLL-SHUTTER
 10
4.624665
 20
6.424838
 30
0.000000
  0
VERTEX
  8
ROLL-SHUTTER
 10
4.623272
 20
6.420237
 30
0.000000
  0
VERTEX
  8
ROLL-SHUTTER
 10
4.619741
 20
6.415850
 30
0.000000
  0
VERTEX
  8
ROLL-SHUTTER
 10
4.615356
 20
6.414139
 30
0.000000
  0
VERTEX
  8
ROLL-SHUTTER
 10
4.600911
 20
6.413925
 30
0.000000
  0
VERTEX
  8
ROLL-SHUTTER
 10
4.595775
 20
6.406434
 30
0.000000
  0
VERTEX
  8
ROLL-SHUTTER
 10
4.595132
 20
6.403761
 30
0.000000
  0
VERTEX
  8
ROLL-SHUTTER
 10
4.595775
 20
6.401513
 30
0.000000
  0
VERTEX
  8
ROLL-SHUTTER
 10
4.599412
 20
6.397020
 30
0.000000
  0
VERTEX
  8
ROLL-SHUTTER
 10
4.601232
 20
6.392526
 30
0.000000
  0
VERTEX
  8
ROLL-SHUTTER
 10
4.602838
 20
6.387391
 30
0.000000
  0
VERTEX
  8
ROLL-SHUTTER
 10
4.603265
 20
6.380542
 30
0.000000
  0
VERTEX
  8
ROLL-SHUTTER
 10
4.602731
 20
6.372733
 30
0.000000
  0
VERTEX
  8
ROLL-SHUTTER
 10
4.600483
 20
6.365670
 30
0.000000
  0
VERTEX
  8
ROLL-SHUTTER
 10
4.596524
 20
6.360428
 30
0.000000
  0
VERTEX
  8
ROLL-SHUTTER
 10
4.591280
 20
6.355399
 30
0.000000
  0
VERTEX
  8
ROLL-SHUTTER
 10
4.585288
 20
6.351333
 30
0.000000
  0
VERTEX
  8
ROLL-SHUTTER
 10
4.580046
 20
6.348551
 30
0.000000
  0
VERTEX
  8
ROLL-SHUTTER
 10
4.575017
 20
6.347590
 30
0.000000
  0
VERTEX
  8
ROLL-SHUTTER
 10
4.570844
 20
6.347482
 30
0.000000
  0
VERTEX
  8
ROLL-SHUTTER
 10
4.567633
 20
6.349515
 30
0.000000
  0
VERTEX
  8
ROLL-SHUTTER
 10
4.575124
 20
6.362781
 30
0.000000
  0
VERTEX
  8
ROLL-SHUTTER
 10
4.579724
 20
6.365777
 30
0.000000
  0
VERTEX
  8
ROLL-SHUTTER
 10
4.583255
 20
6.369309
 30
0.000000
  0
VERTEX
  8
ROLL-SHUTTER
 10
4.585823
 20
6.374337
 30
0.000000
  0
VERTEX
  8
ROLL-SHUTTER
 10
4.587215
 20
6.379901
 30
0.000000
  0
VERTEX
  8
ROLL-SHUTTER
 10
4.586572
 20
6.385892
 30
0.000000
  0
VERTEX
  8
ROLL-SHUTTER
 10
4.584220
 20
6.390279
 30
0.000000
  0
VERTEX
  8
ROLL-SHUTTER
 10
4.580475
 20
6.395094
 30
0.000000
  0
VERTEX
  8
ROLL-SHUTTER
 10
4.577371
 20
6.397128
 30
0.000000
  0
VERTEX
  8
ROLL-SHUTTER
 10
4.572555
 20
6.397983
 30
0.000000
  0
VERTEX
  8
ROLL-SHUTTER
 10
4.567848
 20
6.397877
 30
0.000000
  0
VERTEX
  8
ROLL-SHUTTER
 10
4.562924
 20
6.397020
 30
0.000000
  0
VERTEX
  8
ROLL-SHUTTER
 10
4.559074
 20
6.394559
 30
0.000000
  0
VERTEX
  8
ROLL-SHUTTER
 10
4.555220
 20
6.390707
 30
0.000000
  0
VERTEX
  8
ROLL-SHUTTER
 10
4.552975
 20
6.386105
 30
0.000000
  0
VERTEX
  8
ROLL-SHUTTER
 10
4.552117
 20
6.381399
 30
0.000000
  0
VERTEX
  8
ROLL-SHUTTER
 10
4.552224
 20
6.377011
 30
0.000000
  0
VERTEX
  8
ROLL-SHUTTER
 10
4.552224
 20
6.374337
 30
0.000000
  0
SEQEND
  8
ROLL-SHUTTER
  0
TEXT
  8
ROLL-SHUTTER
 62
  7
 10
4.982323
 20
6.695199
 30
0.000000
 40
0.150000
  1
1 
 72
  5
 11
5.191414
 21
6.695199
 31
0.000000
  0
TEXT
  8
ROLL-SHUTTER
 62
  7
 10
5.191414
 20
6.695199
 30
0.000000
 40
0.122727
  1
1/2
 72
  5
 11
5.464141
 21
6.695199
 31
0.000000
  0
TEXT
  8
ROLL-SHUTTER
 62
  7
 10
5.464141
 20
6.695199
 30
0.000000
 40
0.150000
  1
"
 72
  5
 11
5.582323
 21
6.695199
 31
0.000000
  0
TEXT
  8
ROLL-SHUTTER
 62
  7
 10
4.973232
 20
6.458836
 30
0.000000
 40
0.150000
  1
38
 72
  5
 11
5.236869
 21
6.458836
 31
0.000000
  0
TEXT
  8
ROLL-SHUTTER
 62
  7
 10
5.236869
 20
6.458836
 30
0.000000
 40
0.122727
  1
mm
 72
  5
 11
5.555051
 21
6.458836
 31
0.000000
  0
TEXT
  8
ROLL-SHUTTER
 62
  7
 10
4.936869
 20
7.077017
 30
0.000000
 40
0.150000
  1
height
 72
  5
 11
5.518687
 21
7.077017
 31
0.000000
  0
POLYLINE
  8
ROLL-SHUTTER
 66
  1
 70
  0
 62
  7
 10
0.809848
 20
1.948735
 30
0.000000
  0
VERTEX
  8
ROLL-SHUTTER
 10
0.809848
 20
1.948735
 30
0.000000
  0
VERTEX
  8
ROLL-SHUTTER
 10
6.726514
 20
1.948735
 30
0.000000
  0
SEQEND
  8
ROLL-SHUTTER
  0
POLYLINE
  8
ROLL-SHUTTER
 66
  1
 70
  1
 62
  7
  0
VERTEX
  8
ROLL-SHUTTER
 10
2.760006
 20
2.312884
 30
0.000000
  0
VERTEX
  8
ROLL-SHUTTER
 10
3.353756
 20
2.312884
 30
0.000000
  0
VERTEX
  8
ROLL-SHUTTER
 10
3.353756
 20
2.101946
 30
0.000000
  0
VERTEX
  8
ROLL-SHUTTER
 10
2.760006
 20
2.101946
 30
0.000000
  0
SEQEND
  8
ROLL-SHUTTER
  0
TEXT
  8
ROLL-SHUTTER
 62
  7
 10
2.782323
 20
2.177017
 30
0.000000
 40
0.122727
  1
Handle
 72
  5
 11
3.345960
 21
2.177017
 31
0.000000
  0
POLYLINE
  8
ROLL-SHUTTER
 66
  1
 70
  1
 62
  7
  0
VERTEX
  8
ROLL-SHUTTER
 10
3.932678
 20
2.316790
 30
0.000000
  0
VERTEX
  8
ROLL-SHUTTER
 10
4.952209
 20
2.316790
 30
0.000000
  0
VERTEX
  8
ROLL-SHUTTER
 10
4.952209
 20
2.105853
 30
0.000000
  0
VERTEX
  8
ROLL-SHUTTER
 10
3.932678
 20
2.105853
 30
0.000000
  0
SEQEND
  8
ROLL-SHUTTER
  0
POLYLINE
  8
ROLL-SHUTTER
 66
  1
 70
  1
 62
  7
  0
VERTEX
  8
ROLL-SHUTTER
 10
5.772522
 20
2.328509
 30
0.000000
  0
VERTEX
  8
ROLL-SHUTTER
 10
6.674866
 20
2.328509
 30
0.000000
  0
VERTEX
  8
ROLL-SHUTTER
 10
6.674866
 20
2.117571
 30
0.000000
  0
VERTEX
  8
ROLL-SHUTTER
 10
5.772522
 20
2.117571
 30
0.000000
  0
SEQEND
  8
ROLL-SHUTTER
  0
TEXT
  8
ROLL-SHUTTER
 62
  7
 10
3.945960
 20
2.177017
 30
0.000000
 40
0.122727
  1
Cylinder lock
 72
  5
 11
4.927778
 21
2.177017
 31
0.000000
  0
TEXT
  8
ROLL-SHUTTER
 62
  7
 10
5.800505
 20
2.177017
 30
0.000000
 40
0.122727
  1
Bottom bar
 72
  5
 11
6.645960
 21
2.177017
 31
0.000000
  0
POLYLINE
  8
ROLL-SHUTTER
 66
  1
 70
  0
 62
  7
 10
0.854492
 20
1.948735
 30
0.000000
  0
VERTEX
  8
ROLL-SHUTTER
 10
0.854492
 20
1.948735
 30
0.000000
  0
VERTEX
  8
ROLL-SHUTTER
 10
0.854492
 20
0.019108
 30
0.000000
  0
SEQEND
  8
ROLL-SHUTTER
  0
POLYLINE
  8
ROLL-SHUTTER
 66
  1
 70
  0
 62
  7
 10
6.681903
 20
0.019108
 30
0.000000
  0
VERTEX
  8
ROLL-SHUTTER
 10
6.681903
 20
0.019108
 30
0.000000
  0
VERTEX
  8
ROLL-SHUTTER
 10
6.681903
 20
1.948735
 30
0.000000
  0
SEQEND
  8
ROLL-SHUTTER
  0
POLYLINE
  8
ROLL-SHUTTER
 66
  1
 70
  0
 62
  7
 10
2.776842
 20
1.948735
 30
0.000000
  0
VERTEX
  8
ROLL-SHUTTER
 10
2.776842
 20
1.948735
 30
0.000000
  0
VERTEX
  8
ROLL-SHUTTER
 10
2.776842
 20
0.019108
 30
0.000000
  0
SEQEND
  8
ROLL-SHUTTER
  0
POLYLINE
  8
ROLL-SHUTTER
 66
  1
 70
  0
 62
  7
 10
4.719342
 20
1.948735
 30
0.000000
  0
VERTEX
  8
ROLL-SHUTTER
 10
4.719342
 20
1.948735
 30
0.000000
  0
VERTEX
  8
ROLL-SHUTTER
 10
4.719342
 20
0.019108
 30
0.000000
  0
SEQEND
  8
ROLL-SHUTTER
  0
POLYLINE
  8
ROLL-SHUTTER
 66
  1
 70
  0
 62
  7
 10
2.817142
 20
1.948735
 30
0.000000
  0
VERTEX
  8
ROLL-SHUTTER
 10
2.817142
 20
1.948735
 30
0.000000
  0
VERTEX
  8
ROLL-SHUTTER
 10
2.817142
 20
0.019108
 30
0.000000
  0
SEQEND
  8
ROLL-SHUTTER
  0
POLYLINE
  8
ROLL-SHUTTER
 66
  1
 70
  0
 62
  7
 10
4.759642
 20
1.948735
 30
0.000000
  0
VERTEX
  8
ROLL-SHUTTER
 10
4.759642
 20
1.948735
 30
0.000000
  0
VERTEX
  8
ROLL-SHUTTER
 10
4.759642
 20
0.019108
 30
0.000000
  0
SEQEND
  8
ROLL-SHUTTER
  0
POLYLINE
  8
ROLL-SHUTTER
 66
  1
 70
  1
 62
  7
 10
6.567414
 20
2.359088
 30
0.000000
  0
VERTEX
  8
ROLL-SHUTTER
 10
6.567414
 20
2.359088
 30
0.000000
  0
VERTEX
  8
ROLL-SHUTTER
 10
6.592396
 20
2.359608
 30
0.000000
  0
VERTEX
  8
ROLL-SHUTTER
 10
6.592396
 20
2.532168
 30
0.000000
  0
VERTEX
  8
ROLL-SHUTTER
 10
6.567414
 20
2.531503
 30
0.000000
  0
SEQEND
  8
ROLL-SHUTTER
  0
POLYLINE
  8
ROLL-SHUTTER
 66
  1
 70
  0
 62
  7
 10
6.571463
 20
2.531503
 30
0.000000
  0
VERTEX
  8
ROLL-SHUTTER
 10
6.571463
 20
2.531503
 30
0.000000
  0
VERTEX
  8
ROLL-SHUTTER
 10
6.571463
 20
2.359088
 30
0.000000
  0
SEQEND
  8
ROLL-SHUTTER
  0
POLYLINE
  8
ROLL-SHUTTER
 66
  1
 70
  1
 62
  7
 10
0.969087
 20
2.357952
 30
0.000000
  0
VERTEX
  8
ROLL-SHUTTER
 10
0.969087
 20
2.357952
 30
0.000000
  0
VERTEX
  8
ROLL-SHUTTER
 10
0.944106
 20
2.358475
 30
0.000000
  0
VERTEX
  8
ROLL-SHUTTER
 10
0.944106
 20
2.532169
 30
0.000000
  0
VERTEX
  8
ROLL-SHUTTER
 10
0.969087
 20
2.531499
 30
0.000000
  0
SEQEND
  8
ROLL-SHUTTER
  0
POLYLINE
  8
ROLL-SHUTTER
 66
  1
 70
  0
 62
  7
 10
0.965038
 20
2.531499
 30
0.000000
  0
VERTEX
  8
ROLL-SHUTTER
 10
0.965038
 20
2.531499
 30
0.000000
  0
VERTEX
  8
ROLL-SHUTTER
 10
0.965038
 20
2.357952
 30
0.000000
  0
SEQEND
  8
ROLL-SHUTTER
  0
POLYLINE
  8
ROLL-SHUTTER
 66
  1
 70
  1
 62
  7
  0
VERTEX
  8
ROLL-SHUTTER
 10
0.943719
 20
5.371704
 30
0.000000
  0
VERTEX
  8
ROLL-SHUTTER
 10
6.593104
 20
5.371704
 30
0.000000
  0
VERTEX
  8
ROLL-SHUTTER
 10
6.593104
 20
2.545713
 30
0.000000
  0
VERTEX
  8
ROLL-SHUTTER
 10
0.943719
 20
2.545713
 30
0.000000
  0
SEQEND
  8
ROLL-SHUTTER
  0
TEXT
  8
ROLL-SHUTTER
 62
  7
 10
5.791414
 20
5.440654
 30
0.000000
 40
0.122727
  1
Guide
 72
  5
 11
6.273232
 21
5.440654
 31
0.000000
  0
POLYLINE
  8
ROLL-SHUTTER
 66
  1
 70
  0
 62
  7
 10
6.328697
 20
5.537084
 30
0.000000
  0
VERTEX
  8
ROLL-SHUTTER
 10
6.328697
 20
5.537084
 30
0.000000
  0
VERTEX
  8
ROLL-SHUTTER
 10
6.566020
 20
5.386461
 30
0.000000
  0
SEQEND
  8
ROLL-SHUTTER
  0
POLYLINE
  8
ROLL-SHUTTER
 66
  1
 70
  1
 62
  7
  0
VERTEX
  8
ROLL-SHUTTER
 10
6.582640
 20
5.375913
 30
0.000000
  0
VERTEX
  8
ROLL-SHUTTER
 10
6.529648
 20
5.377244
 30
0.000000
  0
VERTEX
  8
ROLL-SHUTTER
 10
6.544262
 20
5.400270
 30
0.000000
  0
VERTEX
  8
ROLL-SHUTTER
 10
6.558877
 20
5.423297
 30
0.000000
  0
VERTEX
  8
ROLL-SHUTTER
 10
6.582640
 20
5.375913
 30
0.000000
  0
SEQEND
  8
ROLL-SHUTTER
  0
POLYLINE
  8
ROLL-SHUTTER
 66
  1
 70
  0
 62
  7
 10
0.943746
 20
2.553773
 30
0.000000
  0
VERTEX
  8
ROLL-SHUTTER
 10
0.943746
 20
2.553773
 30
0.000000
  0
VERTEX
  8
ROLL-SHUTTER
 10
6.592703
 20
2.553773
 30
0.000000
  0
SEQEND
  8
ROLL-SHUTTER
  0
POLYLINE
  8
ROLL-SHUTTER
 66
  1
 70
  1
 62
  7
 10
3.344268
 20
2.550079
 30
0.000000
  0
VERTEX
  8
ROLL-SHUTTER
 10
3.344268
 20
2.550079
 30
0.000000
  0
VERTEX
  8
ROLL-SHUTTER
 10
3.603309
 20
2.550079
 30
0.000000
  0
VERTEX
  8
ROLL-SHUTTER
 10
3.603309
 20
2.455848
 30
0.000000
  0
VERTEX
  8
ROLL-SHUTTER
 10
3.344268
 20
2.455848
 30
0.000000
  0
SEQEND
  8
ROLL-SHUTTER
  0
POLYLINE
  8
ROLL-SHUTTER
 66
  1
 70
  0
 62
  7
 10
3.603309
 20
2.501251
 30
0.000000
  0
VERTEX
  8
ROLL-SHUTTER
 10
3.603309
 20
2.501251
 30
0.000000
  0
VERTEX
  8
ROLL-SHUTTER
 10
3.344268
 20
2.501445
 30
0.000000
  0
SEQEND
  8
ROLL-SHUTTER
  0
POLYLINE
  8
ROLL-SHUTTER
 66
  1
 70
  0
 62
  7
 10
3.603309
 20
2.488947
 30
0.000000
  0
VERTEX
  8
ROLL-SHUTTER
 10
3.603309
 20
2.488947
 30
0.000000
  0
VERTEX
  8
ROLL-SHUTTER
 10
3.344268
 20
2.489141
 30
0.000000
  0
SEQEND
  8
ROLL-SHUTTER
  0
CIRCLE
  8
ROLL-SHUTTER
 62
  7
 10
3.392725
 20
2.521956
 30
0.000000
 40
0.004385
  0
CIRCLE
  8
ROLL-SHUTTER
 62
  7
 10
3.392725
 20
2.521956
 30
0.000000
 40
0.009388
  0
CIRCLE
  8
ROLL-SHUTTER
 62
  7
 10
3.554624
 20
2.521956
 30
0.000000
 40
0.004385
  0
CIRCLE
  8
ROLL-SHUTTER
 62
  7
 10
3.554624
 20
2.521956
 30
0.000000
 40
0.009388
  0
POLYLINE
  8
ROLL-SHUTTER
 66
  1
 70
  1
 62
  7
  0
VERTEX
  8
ROLL-SHUTTER
 10
3.752391
 20
2.466944
 30
0.000000
  0
VERTEX
  8
ROLL-SHUTTER
 10
3.798107
 20
2.466944
 30
0.000000
  0
VERTEX
  8
ROLL-SHUTTER
 10
3.798107
 20
2.454752
 30
0.000000
  0
VERTEX
  8
ROLL-SHUTTER
 10
3.752391
 20
2.454752
 30
0.000000
  0
SEQEND
  8
ROLL-SHUTTER
  0
CIRCLE
  8
ROLL-SHUTTER
 62
  7
 10
3.767133
 20
2.461847
 30
0.000000
 40
0.064283
  0
CIRCLE
  8
ROLL-SHUTTER
 62
  7
 10
3.767373
 20
2.461847
 30
0.000000
 40
0.047124
  0
CIRCLE
  8
ROLL-SHUTTER
 62
  7
 10
3.767373
 20
2.461847
 30
0.000000
 40
0.042287
  0
CIRCLE
  8
ROLL-SHUTTER
 62
  7
 10
3.784169
 20
2.461847
 30
0.000000
 40
0.018794
  0
CIRCLE
  8
ROLL-SHUTTER
 62
  7
 10
3.792205
 20
2.461847
 30
0.000000
 40
0.008035
  0
TEXT
  8
ROLL-SHUTTER
 62
  7
 10
3.745960
 20
2.431563
 30
0.000000
 40
0.006818
  1
MobilFlex
 50
90.000000
 72
  5
 11
3.745960
 21
2.531563
 31
0.000000
  0
POLYLINE
  8
ROLL-SHUTTER
 66
  1
 70
  1
 62
  7
 10
3.802415
 20
2.458221
 30
0.000000
  0
VERTEX
  8
ROLL-SHUTTER
 10
3.802415
 20
2.458221
 30
0.000000
  0
VERTEX
  8
ROLL-SHUTTER
 10
3.793715
 20
2.458221
 30
0.000000
  0
VERTEX
  8
ROLL-SHUTTER
 10
3.793715
 20
2.461605
 30
0.000000
  0
VERTEX
  8
ROLL-SHUTTER
 10
3.790331
 20
2.461605
 30
0.000000
  0
VERTEX
  8
ROLL-SHUTTER
 10
3.786707
 20
2.457981
 30
0.000000
  0
VERTEX
  8
ROLL-SHUTTER
 10
3.784290
 20
2.457981
 30
0.000000
  0
VERTEX
  8
ROLL-SHUTTER
 10
3.777040
 20
2.460398
 30
0.000000
  0
VERTEX
  8
ROLL-SHUTTER
 10
3.777040
 20
2.463539
 30
0.000000
  0
VERTEX
  8
ROLL-SHUTTER
 10
3.782358
 20
2.462814
 30
0.000000
  0
VERTEX
  8
ROLL-SHUTTER
 10
3.784290
 20
2.463057
 30
0.000000
  0
VERTEX
  8
ROLL-SHUTTER
 10
3.784290
 20
2.464506
 30
0.000000
  0
VERTEX
  8
ROLL-SHUTTER
 10
3.796615
 20
2.464506
 30
0.000000
  0
VERTEX
  8
ROLL-SHUTTER
 10
3.797824
 20
2.461847
 30
0.000000
  0
VERTEX
  8
ROLL-SHUTTER
 10
3.800240
 20
2.461847
 30
0.000000
  0
VERTEX
  8
ROLL-SHUTTER
 10
3.800724
 20
2.464506
 30
0.000000
  0
VERTEX
  8
ROLL-SHUTTER
 10
3.802415
 20
2.464506
 30
0.000000
  0
SEQEND
  8
ROLL-SHUTTER
  0
POLYLINE
  8
ROLL-SHUTTER
 66
  1
 70
  1
 62
  7
  0
VERTEX
  8
ROLL-SHUTTER
 10
3.939030
 20
2.509779
 30
0.000000
  0
VERTEX
  8
ROLL-SHUTTER
 10
4.344499
 20
2.509779
 30
0.000000
  0
VERTEX
  8
ROLL-SHUTTER
 10
4.344499
 20
2.383220
 30
0.000000
  0
VERTEX
  8
ROLL-SHUTTER
 10
3.939030
 20
2.383220
 30
0.000000
  0
SEQEND
  8
ROLL-SHUTTER
  0
POLYLINE
  8
ROLL-SHUTTER
 66
  1
 70
  1
 62
  7
  0
VERTEX
  8
ROLL-SHUTTER
 10
3.951920
 20
2.490912
 30
0.000000
  0
VERTEX
  8
ROLL-SHUTTER
 10
3.967507
 20
2.490912
 30
0.000000
  0
VERTEX
  8
ROLL-SHUTTER
 10
3.967507
 20
2.457045
 30
0.000000
  0
VERTEX
  8
ROLL-SHUTTER
 10
3.951920
 20
2.457045
 30
0.000000
  0
SEQEND
  8
ROLL-SHUTTER
  0
POLYLINE
  8
ROLL-SHUTTER
 66
  1
 70
  1
 62
  7
  0
VERTEX
  8
ROLL-SHUTTER
 10
3.972780
 20
2.490912
 30
0.000000
  0
VERTEX
  8
ROLL-SHUTTER
 10
3.988132
 20
2.490912
 30
0.000000
  0
VERTEX
  8
ROLL-SHUTTER
 10
3.988132
 20
2.457045
 30
0.000000
  0
VERTEX
  8
ROLL-SHUTTER
 10
3.972780
 20
2.457045
 30
0.000000
  0
SEQEND
  8
ROLL-SHUTTER
  0
POLYLINE
  8
ROLL-SHUTTER
 66
  1
 70
  1
 62
  7
  0
VERTEX
  8
ROLL-SHUTTER
 10
3.992585
 20
2.490912
 30
0.000000
  0
VERTEX
  8
ROLL-SHUTTER
 10
4.007936
 20
2.490912
 30
0.000000
  0
VERTEX
  8
ROLL-SHUTTER
 10
4.007936
 20
2.457045
 30
0.000000
  0
VERTEX
  8
ROLL-SHUTTER
 10
3.992585
 20
2.457045
 30
0.000000
  0
SEQEND
  8
ROLL-SHUTTER
  0
POLYLINE
  8
ROLL-SHUTTER
 66
  1
 70
  1
 62
  7
  0
VERTEX
  8
ROLL-SHUTTER
 10
4.012976
 20
2.490912
 30
0.000000
  0
VERTEX
  8
ROLL-SHUTTER
 10
4.028327
 20
2.490912
 30
0.000000
  0
VERTEX
  8
ROLL-SHUTTER
 10
4.028327
 20
2.457045
 30
0.000000
  0
VERTEX
  8
ROLL-SHUTTER
 10
4.012976
 20
2.457045
 30
0.000000
  0
SEQEND
  8
ROLL-SHUTTER
  0
POLYLINE
  8
ROLL-SHUTTER
 66
  1
 70
  1
 62
  7
  0
VERTEX
  8
ROLL-SHUTTER
 10
4.033835
 20
2.481654
 30
0.000000
  0
VERTEX
  8
ROLL-SHUTTER
 10
4.033835
 20
2.490444
 30
0.000000
  0
VERTEX
  8
ROLL-SHUTTER
 10
4.058796
 20
2.490444
 30
0.000000
  0
VERTEX
  8
ROLL-SHUTTER
 10
4.058796
 20
2.481654
 30
0.000000
  0
SEQEND
  8
ROLL-SHUTTER
  0
POLYLINE
  8
ROLL-SHUTTER
 66
  1
 70
  1
 62
  7
  0
VERTEX
  8
ROLL-SHUTTER
 10
4.033835
 20
2.466771
 30
0.000000
  0
VERTEX
  8
ROLL-SHUTTER
 10
4.033835
 20
2.475560
 30
0.000000
  0
VERTEX
  8
ROLL-SHUTTER
 10
4.054226
 20
2.475560
 30
0.000000
  0
VERTEX
  8
ROLL-SHUTTER
 10
4.054226
 20
2.466771
 30
0.000000
  0
SEQEND
  8
ROLL-SHUTTER
  0
POLYLINE
  8
ROLL-SHUTTER
 66
  1
 70
  0
 62
  7
 10
3.951920
 20
2.446498
 30
0.000000
  0
VERTEX
  8
ROLL-SHUTTER
 10
3.951920
 20
2.446498
 30
0.000000
  0
VERTEX
  8
ROLL-SHUTTER
 10
4.339167
 20
2.446381
 30
0.000000
  0
SEQEND
  8
ROLL-SHUTTER
  0
TEXT
  8
ROLL-SHUTTER
 62
  7
 10
4.127778
 20
2.467927
 30
0.000000
 40
0.020455
  1
mobilflex.com
 72
  5
 11
4.382323
 21
2.467927
 31
0.000000
  0
TEXT
  8
ROLL-SHUTTER
 62
  7
 10
3.945960
 20
2.395199
 30
0.000000
 40
0.040909
  1
MobilFlex
 72
  5
 11
4.209596
 21
2.395199
 31
0.000000
  0
POLYLINE
  8
ROLL-SHUTTER
 66
  1
 70
  0
 62
  7
 10
0.943717
 20
2.651781
 30
0.000000
  0
VERTEX
  8
ROLL-SHUTTER
 10
0.943717
 20
2.651781
 30
0.000000
  0
VERTEX
  8
ROLL-SHUTTER
 10
6.592537
 20
2.651781
 30
0.000000
  0
SEQEND
  8
ROLL-SHUTTER
  0
POLYLINE
  8
ROLL-SHUTTER
 66
  1
 70
  0
 62
  7
 10
0.943717
 20
2.748921
 30
0.000000
  0
VERTEX
  8
ROLL-SHUTTER
 10
0.943717
 20
2.748921
 30
0.000000
  0
VERTEX
  8
ROLL-SHUTTER
 10
6.592537
 20
2.748921
 30
0.000000
  0
SEQEND
  8
ROLL-SHUTTER
  0
POLYLINE
  8
ROLL-SHUTTER
 66
  1
 70
  0
 62
  7
 10
0.943717
 20
2.846061
 30
0.000000
  0
VERTEX
  8
ROLL-SHUTTER
 10
0.943717
 20
2.846061
 30
0.000000
  0
VERTEX
  8
ROLL-SHUTTER
 10
6.592537
 20
2.846061
 30
0.000000
  0
SEQEND
  8
ROLL-SHUTTER
  0
POLYLINE
  8
ROLL-SHUTTER
 66
  1
 70
  0
 62
  7
 10
0.943717
 20
2.943201
 30
0.000000
  0
VERTEX
  8
ROLL-SHUTTER
 10
0.943717
 20
2.943201
 30
0.000000
  0
VERTEX
  8
ROLL-SHUTTER
 10
6.592537
 20
2.943201
 30
0.000000
  0
SEQEND
  8
ROLL-SHUTTER
  0
POLYLINE
  8
ROLL-SHUTTER
 66
  1
 70
  0
 62
  7
 10
0.943717
 20
3.040341
 30
0.000000
  0
VERTEX
  8
ROLL-SHUTTER
 10
0.943717
 20
3.040341
 30
0.000000
  0
VERTEX
  8
ROLL-SHUTTER
 10
6.592537
 20
3.040341
 30
0.000000
  0
SEQEND
  8
ROLL-SHUTTER
  0
POLYLINE
  8
ROLL-SHUTTER
 66
  1
 70
  0
 62
  7
 10
0.943717
 20
3.137481
 30
0.000000
  0
VERTEX
  8
ROLL-SHUTTER
 10
0.943717
 20
3.137481
 30
0.000000
  0
VERTEX
  8
ROLL-SHUTTER
 10
6.592537
 20
3.137481
 30
0.000000
  0
SEQEND
  8
ROLL-SHUTTER
  0
POLYLINE
  8
ROLL-SHUTTER
 66
  1
 70
  0
 62
  7
 10
0.943717
 20
3.234621
 30
0.000000
  0
VERTEX
  8
ROLL-SHUTTER
 10
0.943717
 20
3.234621
 30
0.000000
  0
VERTEX
  8
ROLL-SHUTTER
 10
6.592537
 20
3.234621
 30
0.000000
  0
SEQEND
  8
ROLL-SHUTTER
  0
POLYLINE
  8
ROLL-SHUTTER
 66
  1
 70
  0
 62
  7
 10
0.943717
 20
3.331762
 30
0.000000
  0
VERTEX
  8
ROLL-SHUTTER
 10
0.943717
 20
3.331762
 30
0.000000
  0
VERTEX
  8
ROLL-SHUTTER
 10
6.592537
 20
3.331762
 30
0.000000
  0
SEQEND
  8
ROLL-SHUTTER
  0
POLYLINE
  8
ROLL-SHUTTER
 66
  1
 70
  0
 62
  7
 10
0.943717
 20
3.428902
 30
0.000000
  0
VERTEX
  8
ROLL-SHUTTER
 10
0.943717
 20
3.428902
 30
0.000000
  0
VERTEX
  8
ROLL-SHUTTER
 10
6.592537
 20
3.428902
 30
0.000000
  0
SEQEND
  8
ROLL-SHUTTER
  0
POLYLINE
  8
ROLL-SHUTTER
 66
  1
 70
  0
 62
  7
 10
0.943717
 20
3.526043
 30
0.000000
  0
VERTEX
  8
ROLL-SHUTTER
 10
0.943717
 20
3.526043
 30
0.000000
  0
VERTEX
  8
ROLL-SHUTTER
 10
6.592537
 20
3.526043
 30
0.000000
  0
SEQEND
  8
ROLL-SHUTTER
  0
POLYLINE
  8
ROLL-SHUTTER
 66
  1
 70
  0
 62
  7
 10
0.943717
 20
3.623183
 30
0.000000
  0
VERTEX
  8
ROLL-SHUTTER
 10
0.943717
 20
3.623183
 30
0.000000
  0
VERTEX
  8
ROLL-SHUTTER
 10
6.592537
 20
3.623183
 30
0.000000
  0
SEQEND
  8
ROLL-SHUTTER
  0
POLYLINE
  8
ROLL-SHUTTER
 66
  1
 70
  0
 62
  7
 10
0.943717
 20
3.720323
 30
0.000000
  0
VERTEX
  8
ROLL-SHUTTER
 10
0.943717
 20
3.720323
 30
0.000000
  0
VERTEX
  8
ROLL-SHUTTER
 10
6.592537
 20
3.720323
 30
0.000000
  0
SEQEND
  8
ROLL-SHUTTER
  0
POLYLINE
  8
ROLL-SHUTTER
 66
  1
 70
  0
 62
  7
 10
0.943717
 20
3.817462
 30
0.000000
  0
VERTEX
  8
ROLL-SHUTTER
 10
0.943717
 20
3.817462
 30
0.000000
  0
VERTEX
  8
ROLL-SHUTTER
 10
6.592537
 20
3.817462
 30
0.000000
  0
SEQEND
  8
ROLL-SHUTTER
  0
POLYLINE
  8
ROLL-SHUTTER
 66
  1
 70
  0
 62
  7
 10
0.943717
 20
3.914602
 30
0.000000
  0
VERTEX
  8
ROLL-SHUTTER
 10
0.943717
 20
3.914602
 30
0.000000
  0
VERTEX
  8
ROLL-SHUTTER
 10
6.592537
 20
3.914602
 30
0.000000
  0
SEQEND
  8
ROLL-SHUTTER
  0
POLYLINE
  8
ROLL-SHUTTER
 66
  1
 70
  0
 62
  7
 10
0.943717
 20
4.011742
 30
0.000000
  0
VERTEX
  8
ROLL-SHUTTER
 10
0.943717
 20
4.011742
 30
0.000000
  0
VERTEX
  8
ROLL-SHUTTER
 10
6.592537
 20
4.011742
 30
0.000000
  0
SEQEND
  8
ROLL-SHUTTER
  0
POLYLINE
  8
ROLL-SHUTTER
 66
  1
 70
  0
 62
  7
 10
0.943717
 20
4.108882
 30
0.000000
  0
VERTEX
  8
ROLL-SHUTTER
 10
0.943717
 20
4.108882
 30
0.000000
  0
VERTEX
  8
ROLL-SHUTTER
 10
6.592537
 20
4.108882
 30
0.000000
  0
SEQEND
  8
ROLL-SHUTTER
  0
POLYLINE
  8
ROLL-SHUTTER
 66
  1
 70
  0
 62
  7
 10
0.943717
 20
4.206023
 30
0.000000
  0
VERTEX
  8
ROLL-SHUTTER
 10
0.943717
 20
4.206023
 30
0.000000
  0
VERTEX
  8
ROLL-SHUTTER
 10
6.592537
 20
4.206023
 30
0.000000
  0
SEQEND
  8
ROLL-SHUTTER
  0
POLYLINE
  8
ROLL-SHUTTER
 66
  1
 70
  0
 62
  7
 10
0.943717
 20
4.303163
 30
0.000000
  0
VERTEX
  8
ROLL-SHUTTER
 10
0.943717
 20
4.303163
 30
0.000000
  0
VERTEX
  8
ROLL-SHUTTER
 10
6.592537
 20
4.303163
 30
0.000000
  0
SEQEND
  8
ROLL-SHUTTER
  0
POLYLINE
  8
ROLL-SHUTTER
 66
  1
 70
  0
 62
  7
 10
0.943717
 20
4.400304
 30
0.000000
  0
VERTEX
  8
ROLL-SHUTTER
 10
0.943717
 20
4.400304
 30
0.000000
  0
VERTEX
  8
ROLL-SHUTTER
 10
6.592537
 20
4.400304
 30
0.000000
  0
SEQEND
  8
ROLL-SHUTTER
  0
POLYLINE
  8
ROLL-SHUTTER
 66
  1
 70
  0
 62
  7
 10
0.943717
 20
4.497443
 30
0.000000
  0
VERTEX
  8
ROLL-SHUTTER
 10
0.943717
 20
4.497443
 30
0.000000
  0
VERTEX
  8
ROLL-SHUTTER
 10
6.592537
 20
4.497443
 30
0.000000
  0
SEQEND
  8
ROLL-SHUTTER
  0
POLYLINE
  8
ROLL-SHUTTER
 66
  1
 70
  0
 62
  7
 10
0.943717
 20
4.594583
 30
0.000000
  0
VERTEX
  8
ROLL-SHUTTER
 10
0.943717
 20
4.594583
 30
0.000000
  0
VERTEX
  8
ROLL-SHUTTER
 10
6.592537
 20
4.594583
 30
0.000000
  0
SEQEND
  8
ROLL-SHUTTER
  0
POLYLINE
  8
ROLL-SHUTTER
 66
  1
 70
  0
 62
  7
 10
0.943717
 20
4.691723
 30
0.000000
  0
VERTEX
  8
ROLL-SHUTTER
 10
0.943717
 20
4.691723
 30
0.000000
  0
VERTEX
  8
ROLL-SHUTTER
 10
6.592537
 20
4.691723
 30
0.000000
  0
SEQEND
  8
ROLL-SHUTTER
  0
POLYLINE
  8
ROLL-SHUTTER
 66
  1
 70
  0
 62
  7
 10
0.943717
 20
4.788863
 30
0.000000
  0
VERTEX
  8
ROLL-SHUTTER
 10
0.943717
 20
4.788863
 30
0.000000
  0
VERTEX
  8
ROLL-SHUTTER
 10
6.592537
 20
4.788863
 30
0.000000
  0
SEQEND
  8
ROLL-SHUTTER
  0
POLYLINE
  8
ROLL-SHUTTER
 66
  1
 70
  0
 62
  7
 10
0.943717
 20
4.886003
 30
0.000000
  0
VERTEX
  8
ROLL-SHUTTER
 10
0.943717
 20
4.886003
 30
0.000000
  0
VERTEX
  8
ROLL-SHUTTER
 10
6.592537
 20
4.886003
 30
0.000000
  0
SEQEND
  8
ROLL-SHUTTER
  0
POLYLINE
  8
ROLL-SHUTTER
 66
  1
 70
  0
 62
  7
 10
0.943717
 20
4.983143
 30
0.000000
  0
VERTEX
  8
ROLL-SHUTTER
 10
0.943717
 20
4.983143
 30
0.000000
  0
VERTEX
  8
ROLL-SHUTTER
 10
6.592537
 20
4.983143
 30
0.000000
  0
SEQEND
  8
ROLL-SHUTTER
  0
POLYLINE
  8
ROLL-SHUTTER
 66
  1
 70
  0
 62
  7
 10
0.943717
 20
5.080283
 30
0.000000
  0
VERTEX
  8
ROLL-SHUTTER
 10
0.943717
 20
5.080283
 30
0.000000
  0
VERTEX
  8
ROLL-SHUTTER
 10
6.592537
 20
5.080283
 30
0.000000
  0
SEQEND
  8
ROLL-SHUTTER
  0
POLYLINE
  8
ROLL-SHUTTER
 66
  1
 70
  0
 62
  7
 10
0.943717
 20
5.177424
 30
0.000000
  0
VERTEX
  8
ROLL-SHUTTER
 10
0.943717
 20
5.177424
 30
0.000000
  0
VERTEX
  8
ROLL-SHUTTER
 10
6.592537
 20
5.177424
 30
0.000000
  0
SEQEND
  8
ROLL-SHUTTER
  0
POLYLINE
  8
ROLL-SHUTTER
 66
  1
 70
  0
 62
  7
 10
0.943717
 20
5.274563
 30
0.000000
  0
VERTEX
  8
ROLL-SHUTTER
 10
0.943717
 20
5.274563
 30
0.000000
  0
VERTEX
  8
ROLL-SHUTTER
 10
6.592537
 20
5.274563
 30
0.000000
  0
SEQEND
  8
ROLL-SHUTTER
  0
POLYLINE
  8
ROLL-SHUTTER
 66
  1
 70
  0
 62
  7
 10
0.943717
 20
5.371704
 30
0.000000
  0
VERTEX
  8
ROLL-SHUTTER
 10
0.943717
 20
5.371704
 30
0.000000
  0
VERTEX
  8
ROLL-SHUTTER
 10
6.592537
 20
5.371704
 30
0.000000
  0
SEQEND
  8
ROLL-SHUTTER
  0
POLYLINE
  8
ROLL-SHUTTER
 66
  1
 70
  1
 62
  7
  0
VERTEX
  8
ROLL-SHUTTER
 10
0.814219
 20
5.371704
 30
0.000000
  0
VERTEX
  8
ROLL-SHUTTER
 10
0.943719
 20
5.371704
 30
0.000000
  0
VERTEX
  8
ROLL-SHUTTER
 10
0.943719
 20
2.351673
 30
0.000000
  0
VERTEX
  8
ROLL-SHUTTER
 10
0.814219
 20
2.351673
 30
0.000000
  0
SEQEND
  8
ROLL-SHUTTER
  0
POLYLINE
  8
ROLL-SHUTTER
 66
  1
 70
  1
 62
  7
  0
VERTEX
  8
ROLL-SHUTTER
 10
6.592703
 20
5.371704
 30
0.000000
  0
VERTEX
  8
ROLL-SHUTTER
 10
6.722202
 20
5.371704
 30
0.000000
  0
VERTEX
  8
ROLL-SHUTTER
 10
6.722202
 20
2.351973
 30
0.000000
  0
VERTEX
  8
ROLL-SHUTTER
 10
6.592703
 20
2.351973
 30
0.000000
  0
SEQEND
  8
ROLL-SHUTTER
  0
POLYLINE
  8
ROLL-SHUTTER
 66
  1
 70
  0
 62
  7
 10
3.365909
 20
2.226521
 30
0.000000
  0
VERTEX
  8
ROLL-SHUTTER
 10
3.365909
 20
2.226521
 30
0.000000
  0
VERTEX
  8
ROLL-SHUTTER
 10
3.532770
 20
2.441979
 30
0.000000
  0
SEQEND
  8
ROLL-SHUTTER
  0
POLYLINE
  8
ROLL-SHUTTER
 66
  1
 70
  1
 62
  7
  0
VERTEX
  8
ROLL-SHUTTER
 10
3.544823
 20
2.457542
 30
0.000000
  0
VERTEX
  8
ROLL-SHUTTER
 10
3.538554
 20
2.404906
 30
0.000000
  0
VERTEX
  8
ROLL-SHUTTER
 10
3.516991
 20
2.421605
 30
0.000000
  0
VERTEX
  8
ROLL-SHUTTER
 10
3.495429
 20
2.438304
 30
0.000000
  0
VERTEX
  8
ROLL-SHUTTER
 10
3.544823
 20
2.457542
 30
0.000000
  0
SEQEND
  8
ROLL-SHUTTER
  0
ENDSEC
  0
EOF
