  0
SECTION
  2
HEADER
999
MacDraft 5.0\0
  9
$ACADVER
  1
AC1006
  9
$CLAYER
  8
MERGEDLAYER-2
  9
$EXTMIN
 10
0.000000
 20
0.000000
  9
$EXTMAX
 10
7.555556
 20
10.063307
  9
$FASTZOOM
 70
0
  9
$FILLMODE
 70
1
  0
ENDSEC
  0
SECTION
  2
TABLES
  0
TABLE
  2
LTYPE
 70
16
  0
LTYPE
  2
CONTINUOUS
 70
64
  3
Solid Line
 72
65
 73
0
 40
0.000000
  0
LTYPE
  2
LTYPE01
 70
64
  3
CUSTOM
 72
65
 73
2
 40
0.111111
 49
0.083333
 49
-0.027778
  0
LTYPE
  2
LTYPE02
 70
64
  3
CUSTOM
 72
65
 73
2
 40
0.194444
 49
0.166667
 49
-0.027778
  0
LTYPE
  2
LTYPE03
 70
64
  3
CUSTOM
 72
65
 73
2
 40
0.375000
 49
0.333333
 49
-0.041667
  0
LTYPE
  2
LTYPE04
 70
64
  3
CUSTOM
 72
65
 73
2
 40
0.722222
 49
0.666667
 49
-0.055556
  0
LTYPE
  2
LTYPE05
 70
64
  3
CUSTOM
 72
65
 73
4
 40
0.152778
 49
0.083333
 49
-0.027778
 49
0.013889
 49
-0.027778
  0
LTYPE
  2
LTYPE06
 70
64
  3
CUSTOM
 72
65
 73
4
 40
0.236111
 49
0.166667
 49
-0.027778
 49
0.013889
 49
-0.027778
  0
LTYPE
  2
LTYPE07
 70
64
  3
CUSTOM
 72
65
 73
4
 40
0.444444
 49
0.333333
 49
-0.041667
 49
0.027778
 49
-0.041667
  0
LTYPE
  2
LTYPE08
 70
64
  3
CUSTOM
 72
65
 73
4
 40
0.805556
 49
0.666667
 49
-0.055556
 49
0.027778
 49
-0.055556
  0
LTYPE
  2
LTYPE09
 70
64
  3
CUSTOM
 72
65
 73
6
 40
0.194444
 49
0.083333
 49
-0.027778
 49
0.013889
 49
-0.027778
 49
0.013889
 49
-0.027778
  0
LTYPE
  2
LTYPE10
 70
64
  3
CUSTOM
 72
65
 73
6
 40
0.277778
 49
0.166667
 49
-0.027778
 49
0.013889
 49
-0.027778
 49
0.013889
 49
-0.027778
  0
LTYPE
  2
LTYPE11
 70
64
  3
CUSTOM
 72
65
 73
6
 40
0.500000
 49
0.333333
 49
-0.041667
 49
0.027778
 49
-0.027778
 49
0.027778
 49
-0.041667
  0
LTYPE
  2
LTYPE12
 70
64
  3
CUSTOM
 72
65
 73
6
 40
0.861111
 49
0.666667
 49
-0.055556
 49
0.027778
 49
-0.027778
 49
0.027778
 49
-0.055556
  0
LTYPE
  2
LTYPE13
 70
64
  3
CUSTOM
 72
65
 73
8
 40
0.319444
 49
0.166667
 49
-0.027778
 49
0.013889
 49
-0.027778
 49
0.013889
 49
-0.027778
 49
0.013889
 49
-0.027778
  0
LTYPE
  2
LTYPE14
 70
64
  3
CUSTOM
 72
65
 73
8
 40
0.555556
 49
0.333333
 49
-0.041667
 49
0.027778
 49
-0.027778
 49
0.027778
 49
-0.027778
 49
0.027778
 49
-0.041667
  0
LTYPE
  2
LTYPE15
 70
64
  3
CUSTOM
 72
65
 73
8
 40
0.944444
 49
0.666667
 49
-0.055556
 49
0.027778
 49
-0.041667
 49
0.027778
 49
-0.041667
 49
0.027778
 49
-0.055556
  0
ENDTAB
  0
TABLE
  2
LAYER
 70
1
  0
LAYER
  2
MERGEDLAYER-2
 70
0
 62
7
  6
CONTINUOUS
  0
ENDTAB
  0
ENDSEC
  0
SECTION
  2
BLOCKS
  0
ENDSEC
  0
SECTION
  2
ENTITIES
  0
ARC
  8
MERGEDLAYER-2
 62
  0
 10
5.469439
 20
8.992622
 30
0.000000
 40
0.254425
 50
270.000000
 51
90.000000
  0
POLYLINE
  8
MERGEDLAYER-2
 66
  1
 70
  0
 62
  0
 10
5.469439
 20
9.247047
 30
0.000000
  0
VERTEX
  8
MERGEDLAYER-2
 10
5.469439
 20
9.247047
 30
0.000000
  0
VERTEX
  8
MERGEDLAYER-2
 10
1.804517
 20
9.247047
 30
0.000000
  0
SEQEND
  8
MERGEDLAYER-2
  0
POLYLINE
  8
MERGEDLAYER-2
 66
  1
 70
  0
 62
  0
 10
1.804517
 20
9.247047
 30
0.000000
  0
VERTEX
  8
MERGEDLAYER-2
 10
1.804517
 20
9.247047
 30
0.000000
  0
VERTEX
  8
MERGEDLAYER-2
 10
1.804517
 20
8.738197
 30
0.000000
  0
SEQEND
  8
MERGEDLAYER-2
  0
POLYLINE
  8
MERGEDLAYER-2
 66
  1
 70
  0
 62
  0
 10
5.469439
 20
8.738197
 30
0.000000
  0
VERTEX
  8
MERGEDLAYER-2
 10
5.469439
 20
8.738197
 30
0.000000
  0
VERTEX
  8
MERGEDLAYER-2
 10
1.804517
 20
8.738197
 30
0.000000
  0
SEQEND
  8
MERGEDLAYER-2
  0
TEXT
  8
MERGEDLAYER-2
 62
  0
 10
3.611111
 20
9.541667
 30
0.000000
 40
0.333333
  1
MobilFlex
 72
  5
 11
5.763889
 21
9.541667
 31
0.000000
  0
POLYLINE
  8
MERGEDLAYER-2
 66
  1
 70
  1
 62
  0
  0
VERTEX
  8
MERGEDLAYER-2
 10
1.806020
 20
10.061640
 30
0.000000
  0
VERTEX
  8
MERGEDLAYER-2
 10
2.043868
 20
10.061640
 30
0.000000
  0
VERTEX
  8
MERGEDLAYER-2
 10
2.043868
 20
9.544696
 30
0.000000
  0
VERTEX
  8
MERGEDLAYER-2
 10
1.806020
 20
9.544696
 30
0.000000
  0
SEQEND
  8
MERGEDLAYER-2
  0
POLYLINE
  8
MERGEDLAYER-2
 66
  1
 70
  1
 62
  0
  0
VERTEX
  8
MERGEDLAYER-2
 10
2.118520
 20
10.061640
 30
0.000000
  0
VERTEX
  8
MERGEDLAYER-2
 10
2.356368
 20
10.061640
 30
0.000000
  0
VERTEX
  8
MERGEDLAYER-2
 10
2.356368
 20
9.544696
 30
0.000000
  0
VERTEX
  8
MERGEDLAYER-2
 10
2.118520
 20
9.544696
 30
0.000000
  0
SEQEND
  8
MERGEDLAYER-2
  0
POLYLINE
  8
MERGEDLAYER-2
 66
  1
 70
  1
 62
  0
  0
VERTEX
  8
MERGEDLAYER-2
 10
2.418868
 20
10.061640
 30
0.000000
  0
VERTEX
  8
MERGEDLAYER-2
 10
2.656715
 20
10.061640
 30
0.000000
  0
VERTEX
  8
MERGEDLAYER-2
 10
2.656715
 20
9.544696
 30
0.000000
  0
VERTEX
  8
MERGEDLAYER-2
 10
2.418868
 20
9.544696
 30
0.000000
  0
SEQEND
  8
MERGEDLAYER-2
  0
POLYLINE
  8
MERGEDLAYER-2
 66
  1
 70
  1
 62
  0
  0
VERTEX
  8
MERGEDLAYER-2
 10
2.722687
 20
10.061640
 30
0.000000
  0
VERTEX
  8
MERGEDLAYER-2
 10
2.960534
 20
10.061640
 30
0.000000
  0
VERTEX
  8
MERGEDLAYER-2
 10
2.960534
 20
9.544696
 30
0.000000
  0
VERTEX
  8
MERGEDLAYER-2
 10
2.722687
 20
9.544696
 30
0.000000
  0
SEQEND
  8
MERGEDLAYER-2
  0
POLYLINE
  8
MERGEDLAYER-2
 66
  1
 70
  1
 62
  0
  0
VERTEX
  8
MERGEDLAYER-2
 10
3.039527
 20
10.057726
 30
0.000000
  0
VERTEX
  8
MERGEDLAYER-2
 10
3.414961
 20
10.057726
 30
0.000000
  0
VERTEX
  8
MERGEDLAYER-2
 10
3.414961
 20
9.919705
 30
0.000000
  0
VERTEX
  8
MERGEDLAYER-2
 10
3.039527
 20
9.919705
 30
0.000000
  0
SEQEND
  8
MERGEDLAYER-2
  0
POLYLINE
  8
MERGEDLAYER-2
 66
  1
 70
  1
 62
  0
  0
VERTEX
  8
MERGEDLAYER-2
 10
3.039093
 20
9.830295
 30
0.000000
  0
VERTEX
  8
MERGEDLAYER-2
 10
3.347253
 20
9.830295
 30
0.000000
  0
VERTEX
  8
MERGEDLAYER-2
 10
3.347253
 20
9.696181
 30
0.000000
  0
VERTEX
  8
MERGEDLAYER-2
 10
3.039093
 20
9.696181
 30
0.000000
  0
SEQEND
  8
MERGEDLAYER-2
  0
POLYLINE
  8
MERGEDLAYER-2
 66
  1
 70
  1
 62
  0
  0
VERTEX
  8
MERGEDLAYER-2
 10
1.806020
 20
9.460069
 30
0.000000
  0
VERTEX
  8
MERGEDLAYER-2
 10
5.724423
 20
9.460069
 30
0.000000
  0
VERTEX
  8
MERGEDLAYER-2
 10
5.724423
 20
9.416667
 30
0.000000
  0
VERTEX
  8
MERGEDLAYER-2
 10
1.806020
 20
9.416667
 30
0.000000
  0
SEQEND
  8
MERGEDLAYER-2
  0
POLYLINE
  8
MERGEDLAYER-2
 66
  1
 70
  0
 62
  0
 10
5.765264
 20
6.977327
 30
0.000000
  0
VERTEX
  8
MERGEDLAYER-2
 10
5.765264
 20
6.977327
 30
0.000000
  0
VERTEX
  8
MERGEDLAYER-2
 10
5.755647
 20
7.104244
 30
0.000000
  0
VERTEX
  8
MERGEDLAYER-2
 10
5.726890
 20
7.229939
 30
0.000000
  0
VERTEX
  8
MERGEDLAYER-2
 10
5.679268
 20
7.353200
 30
0.000000
  0
VERTEX
  8
MERGEDLAYER-2
 10
5.613240
 20
7.472843
 30
0.000000
  0
VERTEX
  8
MERGEDLAYER-2
 10
5.529444
 20
7.587713
 30
0.000000
  0
VERTEX
  8
MERGEDLAYER-2
 10
5.428684
 20
7.696704
 30
0.000000
  0
VERTEX
  8
MERGEDLAYER-2
 10
5.311932
 20
7.798768
 30
0.000000
  0
VERTEX
  8
MERGEDLAYER-2
 10
5.180313
 20
7.892921
 30
0.000000
  0
VERTEX
  8
MERGEDLAYER-2
 10
5.035093
 20
7.978256
 30
0.000000
  0
VERTEX
  8
MERGEDLAYER-2
 10
4.877672
 20
8.053952
 30
0.000000
  0
VERTEX
  8
MERGEDLAYER-2
 10
4.709565
 20
8.119279
 30
0.000000
  0
VERTEX
  8
MERGEDLAYER-2
 10
4.532391
 20
8.173608
 30
0.000000
  0
VERTEX
  8
MERGEDLAYER-2
 10
4.347858
 20
8.216416
 30
0.000000
  0
VERTEX
  8
MERGEDLAYER-2
 10
4.157740
 20
8.247292
 30
0.000000
  0
VERTEX
  8
MERGEDLAYER-2
 10
3.963871
 20
8.265937
 30
0.000000
  0
VERTEX
  8
MERGEDLAYER-2
 10
3.768116
 20
8.272172
 30
0.000000
  0
VERTEX
  8
MERGEDLAYER-2
 10
3.572361
 20
8.265937
 30
0.000000
  0
VERTEX
  8
MERGEDLAYER-2
 10
3.378491
 20
8.247292
 30
0.000000
  0
VERTEX
  8
MERGEDLAYER-2
 10
3.188374
 20
8.216416
 30
0.000000
  0
VERTEX
  8
MERGEDLAYER-2
 10
3.003840
 20
8.173608
 30
0.000000
  0
VERTEX
  8
MERGEDLAYER-2
 10
2.826666
 20
8.119279
 30
0.000000
  0
VERTEX
  8
MERGEDLAYER-2
 10
2.658559
 20
8.053952
 30
0.000000
  0
VERTEX
  8
MERGEDLAYER-2
 10
2.501138
 20
7.978256
 30
0.000000
  0
VERTEX
  8
MERGEDLAYER-2
 10
2.355918
 20
7.892921
 30
0.000000
  0
VERTEX
  8
MERGEDLAYER-2
 10
2.224299
 20
7.798768
 30
0.000000
  0
VERTEX
  8
MERGEDLAYER-2
 10
2.107547
 20
7.696704
 30
0.000000
  0
VERTEX
  8
MERGEDLAYER-2
 10
2.006788
 20
7.587713
 30
0.000000
  0
VERTEX
  8
MERGEDLAYER-2
 10
1.922991
 20
7.472843
 30
0.000000
  0
VERTEX
  8
MERGEDLAYER-2
 10
1.856964
 20
7.353200
 30
0.000000
  0
VERTEX
  8
MERGEDLAYER-2
 10
1.809342
 20
7.229939
 30
0.000000
  0
VERTEX
  8
MERGEDLAYER-2
 10
1.780584
 20
7.104244
 30
0.000000
  0
VERTEX
  8
MERGEDLAYER-2
 10
1.770967
 20
6.977327
 30
0.000000
  0
VERTEX
  8
MERGEDLAYER-2
 10
1.780584
 20
6.850410
 30
0.000000
  0
VERTEX
  8
MERGEDLAYER-2
 10
1.809342
 20
6.724715
 30
0.000000
  0
VERTEX
  8
MERGEDLAYER-2
 10
1.856964
 20
6.601453
 30
0.000000
  0
VERTEX
  8
MERGEDLAYER-2
 10
1.922991
 20
6.481812
 30
0.000000
  0
VERTEX
  8
MERGEDLAYER-2
 10
2.006788
 20
6.366941
 30
0.000000
  0
VERTEX
  8
MERGEDLAYER-2
 10
2.107547
 20
6.257950
 30
0.000000
  0
VERTEX
  8
MERGEDLAYER-2
 10
2.224299
 20
6.155886
 30
0.000000
  0
VERTEX
  8
MERGEDLAYER-2
 10
2.355918
 20
6.061733
 30
0.000000
  0
VERTEX
  8
MERGEDLAYER-2
 10
2.501138
 20
5.976398
 30
0.000000
  0
VERTEX
  8
MERGEDLAYER-2
 10
2.658559
 20
5.900703
 30
0.000000
  0
VERTEX
  8
MERGEDLAYER-2
 10
2.826666
 20
5.835375
 30
0.000000
  0
VERTEX
  8
MERGEDLAYER-2
 10
3.003840
 20
5.781046
 30
0.000000
  0
VERTEX
  8
MERGEDLAYER-2
 10
3.188374
 20
5.738237
 30
0.000000
  0
VERTEX
  8
MERGEDLAYER-2
 10
3.378491
 20
5.707362
 30
0.000000
  0
VERTEX
  8
MERGEDLAYER-2
 10
3.572361
 20
5.688717
 30
0.000000
  0
VERTEX
  8
MERGEDLAYER-2
 10
3.768116
 20
5.682482
 30
0.000000
  0
VERTEX
  8
MERGEDLAYER-2
 10
3.963871
 20
5.688717
 30
0.000000
  0
VERTEX
  8
MERGEDLAYER-2
 10
4.157740
 20
5.707362
 30
0.000000
  0
VERTEX
  8
MERGEDLAYER-2
 10
4.347858
 20
5.738237
 30
0.000000
  0
VERTEX
  8
MERGEDLAYER-2
 10
4.532391
 20
5.781046
 30
0.000000
  0
VERTEX
  8
MERGEDLAYER-2
 10
4.709565
 20
5.835375
 30
0.000000
  0
VERTEX
  8
MERGEDLAYER-2
 10
4.877672
 20
5.900703
 30
0.000000
  0
VERTEX
  8
MERGEDLAYER-2
 10
5.035093
 20
5.976398
 30
0.000000
  0
VERTEX
  8
MERGEDLAYER-2
 10
5.180313
 20
6.061733
 30
0.000000
  0
VERTEX
  8
MERGEDLAYER-2
 10
5.311932
 20
6.155886
 30
0.000000
  0
VERTEX
  8
MERGEDLAYER-2
 10
5.428684
 20
6.257950
 30
0.000000
  0
VERTEX
  8
MERGEDLAYER-2
 10
5.529444
 20
6.366941
 30
0.000000
  0
VERTEX
  8
MERGEDLAYER-2
 10
5.613240
 20
6.481812
 30
0.000000
  0
VERTEX
  8
MERGEDLAYER-2
 10
5.679268
 20
6.601453
 30
0.000000
  0
VERTEX
  8
MERGEDLAYER-2
 10
5.726890
 20
6.724715
 30
0.000000
  0
VERTEX
  8
MERGEDLAYER-2
 10
5.755647
 20
6.850410
 30
0.000000
  0
VERTEX
  8
MERGEDLAYER-2
 10
5.765264
 20
6.977327
 30
0.000000
  0
SEQEND
  8
MERGEDLAYER-2
  0
POLYLINE
  8
MERGEDLAYER-2
 66
  1
 70
  0
 62
  0
 10
2.215683
 20
6.906793
 30
0.000000
  0
VERTEX
  8
MERGEDLAYER-2
 10
2.215683
 20
6.906793
 30
0.000000
  0
VERTEX
  8
MERGEDLAYER-2
 10
2.215683
 20
7.404653
 30
0.000000
  0
SEQEND
  8
MERGEDLAYER-2
  0
POLYLINE
  8
MERGEDLAYER-2
 66
  1
 70
  0
 62
  0
 10
2.276377
 20
7.465346
 30
0.000000
  0
VERTEX
  8
MERGEDLAYER-2
 10
2.276377
 20
7.465346
 30
0.000000
  0
VERTEX
  8
MERGEDLAYER-2
 10
2.276377
 20
7.465346
 30
0.000000
  0
SEQEND
  8
MERGEDLAYER-2
  0
POLYLINE
  8
MERGEDLAYER-2
 66
  1
 70
  0
 62
  0
 10
2.337070
 20
7.404653
 30
0.000000
  0
VERTEX
  8
MERGEDLAYER-2
 10
2.337070
 20
7.404653
 30
0.000000
  0
VERTEX
  8
MERGEDLAYER-2
 10
2.337070
 20
6.906793
 30
0.000000
  0
SEQEND
  8
MERGEDLAYER-2
  0
POLYLINE
  8
MERGEDLAYER-2
 66
  1
 70
  0
 62
  0
 10
2.276377
 20
6.846099
 30
0.000000
  0
VERTEX
  8
MERGEDLAYER-2
 10
2.276377
 20
6.846099
 30
0.000000
  0
VERTEX
  8
MERGEDLAYER-2
 10
2.276377
 20
6.846099
 30
0.000000
  0
SEQEND
  8
MERGEDLAYER-2
  0
ARC
  8
MERGEDLAYER-2
 62
  0
 10
2.276377
 20
6.906793
 30
0.000000
 40
0.060693
 50
180.000000
 51
270.000000
  0
ARC
  8
MERGEDLAYER-2
 62
  0
 10
2.276377
 20
6.906793
 30
0.000000
 40
0.060693
 50
270.000000
 51
0.000000
  0
ARC
  8
MERGEDLAYER-2
 62
  0
 10
2.276377
 20
7.404653
 30
0.000000
 40
0.060693
 50
0.000000
 51
90.000000
  0
ARC
  8
MERGEDLAYER-2
 62
  0
 10
2.276377
 20
7.404653
 30
0.000000
 40
0.060693
 50
90.000000
 51
180.000000
  0
CIRCLE
  8
MERGEDLAYER-2
 62
  0
 10
2.276377
 20
7.398504
 30
0.000000
 40
0.032370
  0
CIRCLE
  8
MERGEDLAYER-2
 62
  0
 10
2.276377
 20
6.912958
 30
0.000000
 40
0.033044
  0
POLYLINE
  8
MERGEDLAYER-2
 66
  1
 70
  0
 62
  0
 10
2.215988
 20
6.422540
 30
0.000000
  0
VERTEX
  8
MERGEDLAYER-2
 10
2.215988
 20
6.422540
 30
0.000000
  0
VERTEX
  8
MERGEDLAYER-2
 10
2.215988
 20
6.920401
 30
0.000000
  0
SEQEND
  8
MERGEDLAYER-2
  0
POLYLINE
  8
MERGEDLAYER-2
 66
  1
 70
  0
 62
  0
 10
2.276681
 20
6.981094
 30
0.000000
  0
VERTEX
  8
MERGEDLAYER-2
 10
2.276681
 20
6.981094
 30
0.000000
  0
VERTEX
  8
MERGEDLAYER-2
 10
2.276681
 20
6.981094
 30
0.000000
  0
SEQEND
  8
MERGEDLAYER-2
  0
POLYLINE
  8
MERGEDLAYER-2
 66
  1
 70
  0
 62
  0
 10
2.337374
 20
6.920401
 30
0.000000
  0
VERTEX
  8
MERGEDLAYER-2
 10
2.337374
 20
6.920401
 30
0.000000
  0
VERTEX
  8
MERGEDLAYER-2
 10
2.337374
 20
6.422540
 30
0.000000
  0
SEQEND
  8
MERGEDLAYER-2
  0
POLYLINE
  8
MERGEDLAYER-2
 66
  1
 70
  0
 62
  0
 10
2.276681
 20
6.361847
 30
0.000000
  0
VERTEX
  8
MERGEDLAYER-2
 10
2.276681
 20
6.361847
 30
0.000000
  0
VERTEX
  8
MERGEDLAYER-2
 10
2.276681
 20
6.361847
 30
0.000000
  0
SEQEND
  8
MERGEDLAYER-2
  0
ARC
  8
MERGEDLAYER-2
 62
  0
 10
2.276681
 20
6.422540
 30
0.000000
 40
0.060693
 50
180.000000
 51
270.000000
  0
ARC
  8
MERGEDLAYER-2
 62
  0
 10
2.276681
 20
6.422540
 30
0.000000
 40
0.060693
 50
270.000000
 51
0.000000
  0
ARC
  8
MERGEDLAYER-2
 62
  0
 10
2.276681
 20
6.920401
 30
0.000000
 40
0.060693
 50
0.000000
 51
90.000000
  0
ARC
  8
MERGEDLAYER-2
 62
  0
 10
2.276681
 20
6.920401
 30
0.000000
 40
0.060693
 50
90.000000
 51
180.000000
  0
CIRCLE
  8
MERGEDLAYER-2
 62
  0
 10
2.276681
 20
6.914252
 30
0.000000
 40
0.032370
  0
CIRCLE
  8
MERGEDLAYER-2
 62
  0
 10
2.276681
 20
6.428706
 30
0.000000
 40
0.033044
  0
CIRCLE
  8
MERGEDLAYER-2
 62
  0
 10
2.276681
 20
6.914252
 30
0.000000
 40
0.042862
  0
CIRCLE
  8
MERGEDLAYER-2
 62
  0
 10
2.276681
 20
6.914252
 30
0.000000
 40
0.029283
  0
CIRCLE
  8
MERGEDLAYER-2
 62
  0
 10
2.276752
 20
7.401147
 30
0.000000
 40
0.042862
  0
CIRCLE
  8
MERGEDLAYER-2
 62
  0
 10
2.276752
 20
7.401147
 30
0.000000
 40
0.029283
  0
CIRCLE
  8
MERGEDLAYER-2
 62
  0
 10
2.276681
 20
6.427128
 30
0.000000
 40
0.042862
  0
CIRCLE
  8
MERGEDLAYER-2
 62
  0
 10
2.276681
 20
6.427128
 30
0.000000
 40
0.029283
  0
POLYLINE
  8
MERGEDLAYER-2
 66
  1
 70
  1
 62
  0
  0
VERTEX
  8
MERGEDLAYER-2
 10
0.986542
 20
5.271452
 30
0.000000
  0
VERTEX
  8
MERGEDLAYER-2
 10
6.571757
 20
5.271452
 30
0.000000
  0
VERTEX
  8
MERGEDLAYER-2
 10
6.571757
 20
5.244609
 30
0.000000
  0
VERTEX
  8
MERGEDLAYER-2
 10
0.986542
 20
5.244609
 30
0.000000
  0
SEQEND
  8
MERGEDLAYER-2
  0
POLYLINE
  8
MERGEDLAYER-2
 66
  1
 70
  1
 62
  0
  0
VERTEX
  8
MERGEDLAYER-2
 10
0.986542
 20
5.118052
 30
0.000000
  0
VERTEX
  8
MERGEDLAYER-2
 10
6.571757
 20
5.118052
 30
0.000000
  0
VERTEX
  8
MERGEDLAYER-2
 10
6.571757
 20
5.091209
 30
0.000000
  0
VERTEX
  8
MERGEDLAYER-2
 10
0.986542
 20
5.091209
 30
0.000000
  0
SEQEND
  8
MERGEDLAYER-2
  0
POLYLINE
  8
MERGEDLAYER-2
 66
  1
 70
  1
 62
  0
  0
VERTEX
  8
MERGEDLAYER-2
 10
0.986542
 20
4.964652
 30
0.000000
  0
VERTEX
  8
MERGEDLAYER-2
 10
6.571757
 20
4.964652
 30
0.000000
  0
VERTEX
  8
MERGEDLAYER-2
 10
6.571757
 20
4.937809
 30
0.000000
  0
VERTEX
  8
MERGEDLAYER-2
 10
0.986542
 20
4.937809
 30
0.000000
  0
SEQEND
  8
MERGEDLAYER-2
  0
POLYLINE
  8
MERGEDLAYER-2
 66
  1
 70
  1
 62
  0
  0
VERTEX
  8
MERGEDLAYER-2
 10
0.986542
 20
4.812120
 30
0.000000
  0
VERTEX
  8
MERGEDLAYER-2
 10
6.571757
 20
4.812120
 30
0.000000
  0
VERTEX
  8
MERGEDLAYER-2
 10
6.571757
 20
4.785277
 30
0.000000
  0
VERTEX
  8
MERGEDLAYER-2
 10
0.986542
 20
4.785277
 30
0.000000
  0
SEQEND
  8
MERGEDLAYER-2
  0
POLYLINE
  8
MERGEDLAYER-2
 66
  1
 70
  1
 62
  0
  0
VERTEX
  8
MERGEDLAYER-2
 10
0.986542
 20
4.658719
 30
0.000000
  0
VERTEX
  8
MERGEDLAYER-2
 10
6.571757
 20
4.658719
 30
0.000000
  0
VERTEX
  8
MERGEDLAYER-2
 10
6.571757
 20
4.631877
 30
0.000000
  0
VERTEX
  8
MERGEDLAYER-2
 10
0.986542
 20
4.631877
 30
0.000000
  0
SEQEND
  8
MERGEDLAYER-2
  0
POLYLINE
  8
MERGEDLAYER-2
 66
  1
 70
  1
 62
  0
  0
VERTEX
  8
MERGEDLAYER-2
 10
0.986542
 20
4.505753
 30
0.000000
  0
VERTEX
  8
MERGEDLAYER-2
 10
6.571757
 20
4.505753
 30
0.000000
  0
VERTEX
  8
MERGEDLAYER-2
 10
6.571757
 20
4.478910
 30
0.000000
  0
VERTEX
  8
MERGEDLAYER-2
 10
0.986542
 20
4.478910
 30
0.000000
  0
SEQEND
  8
MERGEDLAYER-2
  0
POLYLINE
  8
MERGEDLAYER-2
 66
  1
 70
  1
 62
  0
  0
VERTEX
  8
MERGEDLAYER-2
 10
0.986542
 20
4.352353
 30
0.000000
  0
VERTEX
  8
MERGEDLAYER-2
 10
6.571757
 20
4.352353
 30
0.000000
  0
VERTEX
  8
MERGEDLAYER-2
 10
6.571757
 20
4.325510
 30
0.000000
  0
VERTEX
  8
MERGEDLAYER-2
 10
0.986542
 20
4.325510
 30
0.000000
  0
SEQEND
  8
MERGEDLAYER-2
  0
POLYLINE
  8
MERGEDLAYER-2
 66
  1
 70
  1
 62
  0
  0
VERTEX
  8
MERGEDLAYER-2
 10
0.986542
 20
4.199387
 30
0.000000
  0
VERTEX
  8
MERGEDLAYER-2
 10
6.571757
 20
4.199387
 30
0.000000
  0
VERTEX
  8
MERGEDLAYER-2
 10
6.571757
 20
4.172544
 30
0.000000
  0
VERTEX
  8
MERGEDLAYER-2
 10
0.986542
 20
4.172544
 30
0.000000
  0
SEQEND
  8
MERGEDLAYER-2
  0
POLYLINE
  8
MERGEDLAYER-2
 66
  1
 70
  1
 62
  0
  0
VERTEX
  8
MERGEDLAYER-2
 10
0.986542
 20
4.045987
 30
0.000000
  0
VERTEX
  8
MERGEDLAYER-2
 10
6.571757
 20
4.045987
 30
0.000000
  0
VERTEX
  8
MERGEDLAYER-2
 10
6.571757
 20
4.019144
 30
0.000000
  0
VERTEX
  8
MERGEDLAYER-2
 10
0.986542
 20
4.019144
 30
0.000000
  0
SEQEND
  8
MERGEDLAYER-2
  0
POLYLINE
  8
MERGEDLAYER-2
 66
  1
 70
  1
 62
  0
  0
VERTEX
  8
MERGEDLAYER-2
 10
0.986542
 20
3.893021
 30
0.000000
  0
VERTEX
  8
MERGEDLAYER-2
 10
6.571757
 20
3.893021
 30
0.000000
  0
VERTEX
  8
MERGEDLAYER-2
 10
6.571757
 20
3.866178
 30
0.000000
  0
VERTEX
  8
MERGEDLAYER-2
 10
0.986542
 20
3.866178
 30
0.000000
  0
SEQEND
  8
MERGEDLAYER-2
  0
POLYLINE
  8
MERGEDLAYER-2
 66
  1
 70
  1
 62
  0
  0
VERTEX
  8
MERGEDLAYER-2
 10
0.986542
 20
3.739621
 30
0.000000
  0
VERTEX
  8
MERGEDLAYER-2
 10
6.571757
 20
3.739621
 30
0.000000
  0
VERTEX
  8
MERGEDLAYER-2
 10
6.571757
 20
3.712778
 30
0.000000
  0
VERTEX
  8
MERGEDLAYER-2
 10
0.986542
 20
3.712778
 30
0.000000
  0
SEQEND
  8
MERGEDLAYER-2
  0
POLYLINE
  8
MERGEDLAYER-2
 66
  1
 70
  1
 62
  0
  0
VERTEX
  8
MERGEDLAYER-2
 10
0.986542
 20
3.586655
 30
0.000000
  0
VERTEX
  8
MERGEDLAYER-2
 10
6.571757
 20
3.586655
 30
0.000000
  0
VERTEX
  8
MERGEDLAYER-2
 10
6.571757
 20
3.559812
 30
0.000000
  0
VERTEX
  8
MERGEDLAYER-2
 10
0.986542
 20
3.559812
 30
0.000000
  0
SEQEND
  8
MERGEDLAYER-2
  0
POLYLINE
  8
MERGEDLAYER-2
 66
  1
 70
  1
 62
  0
  0
VERTEX
  8
MERGEDLAYER-2
 10
0.986542
 20
3.433689
 30
0.000000
  0
VERTEX
  8
MERGEDLAYER-2
 10
6.571757
 20
3.433689
 30
0.000000
  0
VERTEX
  8
MERGEDLAYER-2
 10
6.571757
 20
3.406846
 30
0.000000
  0
VERTEX
  8
MERGEDLAYER-2
 10
0.986542
 20
3.406846
 30
0.000000
  0
SEQEND
  8
MERGEDLAYER-2
  0
POLYLINE
  8
MERGEDLAYER-2
 66
  1
 70
  1
 62
  0
  0
VERTEX
  8
MERGEDLAYER-2
 10
0.986542
 20
3.279855
 30
0.000000
  0
VERTEX
  8
MERGEDLAYER-2
 10
6.571757
 20
3.279855
 30
0.000000
  0
VERTEX
  8
MERGEDLAYER-2
 10
6.571757
 20
3.253012
 30
0.000000
  0
VERTEX
  8
MERGEDLAYER-2
 10
0.986542
 20
3.253012
 30
0.000000
  0
SEQEND
  8
MERGEDLAYER-2
  0
POLYLINE
  8
MERGEDLAYER-2
 66
  1
 70
  1
 62
  0
  0
VERTEX
  8
MERGEDLAYER-2
 10
0.986542
 20
3.126455
 30
0.000000
  0
VERTEX
  8
MERGEDLAYER-2
 10
6.571757
 20
3.126455
 30
0.000000
  0
VERTEX
  8
MERGEDLAYER-2
 10
6.571757
 20
3.099611
 30
0.000000
  0
VERTEX
  8
MERGEDLAYER-2
 10
0.986542
 20
3.099611
 30
0.000000
  0
SEQEND
  8
MERGEDLAYER-2
  0
POLYLINE
  8
MERGEDLAYER-2
 66
  1
 70
  1
 62
  0
  0
VERTEX
  8
MERGEDLAYER-2
 10
0.986542
 20
2.973055
 30
0.000000
  0
VERTEX
  8
MERGEDLAYER-2
 10
6.571757
 20
2.973055
 30
0.000000
  0
VERTEX
  8
MERGEDLAYER-2
 10
6.571757
 20
2.946211
 30
0.000000
  0
VERTEX
  8
MERGEDLAYER-2
 10
0.986542
 20
2.946211
 30
0.000000
  0
SEQEND
  8
MERGEDLAYER-2
  0
POLYLINE
  8
MERGEDLAYER-2
 66
  1
 70
  1
 62
  0
  0
VERTEX
  8
MERGEDLAYER-2
 10
0.986542
 20
2.819654
 30
0.000000
  0
VERTEX
  8
MERGEDLAYER-2
 10
6.571757
 20
2.819654
 30
0.000000
  0
VERTEX
  8
MERGEDLAYER-2
 10
6.571757
 20
2.792811
 30
0.000000
  0
VERTEX
  8
MERGEDLAYER-2
 10
0.986542
 20
2.792811
 30
0.000000
  0
SEQEND
  8
MERGEDLAYER-2
  0
POLYLINE
  8
MERGEDLAYER-2
 66
  1
 70
  1
 62
  0
  0
VERTEX
  8
MERGEDLAYER-2
 10
0.986542
 20
2.666688
 30
0.000000
  0
VERTEX
  8
MERGEDLAYER-2
 10
6.571757
 20
2.666688
 30
0.000000
  0
VERTEX
  8
MERGEDLAYER-2
 10
6.571757
 20
2.639845
 30
0.000000
  0
VERTEX
  8
MERGEDLAYER-2
 10
0.986542
 20
2.639845
 30
0.000000
  0
SEQEND
  8
MERGEDLAYER-2
  0
POLYLINE
  8
MERGEDLAYER-2
 66
  1
 70
  1
 62
  0
  0
VERTEX
  8
MERGEDLAYER-2
 10
0.986542
 20
2.512854
 30
0.000000
  0
VERTEX
  8
MERGEDLAYER-2
 10
6.571757
 20
2.512854
 30
0.000000
  0
VERTEX
  8
MERGEDLAYER-2
 10
6.571757
 20
2.486011
 30
0.000000
  0
VERTEX
  8
MERGEDLAYER-2
 10
0.986542
 20
2.486011
 30
0.000000
  0
SEQEND
  8
MERGEDLAYER-2
  0
POLYLINE
  8
MERGEDLAYER-2
 66
  1
 70
  1
 62
  0
  0
VERTEX
  8
MERGEDLAYER-2
 10
0.986542
 20
2.359891
 30
0.000000
  0
VERTEX
  8
MERGEDLAYER-2
 10
6.571757
 20
2.359891
 30
0.000000
  0
VERTEX
  8
MERGEDLAYER-2
 10
6.571757
 20
2.333049
 30
0.000000
  0
VERTEX
  8
MERGEDLAYER-2
 10
0.986542
 20
2.333049
 30
0.000000
  0
SEQEND
  8
MERGEDLAYER-2
  0
POLYLINE
  8
MERGEDLAYER-2
 66
  1
 70
  1
 62
  0
  0
VERTEX
  8
MERGEDLAYER-2
 10
0.986542
 20
2.206491
 30
0.000000
  0
VERTEX
  8
MERGEDLAYER-2
 10
6.571757
 20
2.206491
 30
0.000000
  0
VERTEX
  8
MERGEDLAYER-2
 10
6.571757
 20
2.179649
 30
0.000000
  0
VERTEX
  8
MERGEDLAYER-2
 10
0.986542
 20
2.179649
 30
0.000000
  0
SEQEND
  8
MERGEDLAYER-2
  0
POLYLINE
  8
MERGEDLAYER-2
 66
  1
 70
  1
 62
  0
  0
VERTEX
  8
MERGEDLAYER-2
 10
0.986542
 20
2.053091
 30
0.000000
  0
VERTEX
  8
MERGEDLAYER-2
 10
6.571757
 20
2.053091
 30
0.000000
  0
VERTEX
  8
MERGEDLAYER-2
 10
6.571757
 20
2.026249
 30
0.000000
  0
VERTEX
  8
MERGEDLAYER-2
 10
0.986542
 20
2.026249
 30
0.000000
  0
SEQEND
  8
MERGEDLAYER-2
  0
POLYLINE
  8
MERGEDLAYER-2
 66
  1
 70
  1
 62
  0
  0
VERTEX
  8
MERGEDLAYER-2
 10
0.986542
 20
1.899691
 30
0.000000
  0
VERTEX
  8
MERGEDLAYER-2
 10
6.571757
 20
1.899691
 30
0.000000
  0
VERTEX
  8
MERGEDLAYER-2
 10
6.571757
 20
1.872848
 30
0.000000
  0
VERTEX
  8
MERGEDLAYER-2
 10
0.986542
 20
1.872848
 30
0.000000
  0
SEQEND
  8
MERGEDLAYER-2
  0
POLYLINE
  8
MERGEDLAYER-2
 66
  1
 70
  1
 62
  0
  0
VERTEX
  8
MERGEDLAYER-2
 10
0.986542
 20
1.746291
 30
0.000000
  0
VERTEX
  8
MERGEDLAYER-2
 10
6.571757
 20
1.746291
 30
0.000000
  0
VERTEX
  8
MERGEDLAYER-2
 10
6.571757
 20
1.719448
 30
0.000000
  0
VERTEX
  8
MERGEDLAYER-2
 10
0.986542
 20
1.719448
 30
0.000000
  0
SEQEND
  8
MERGEDLAYER-2
  0
POLYLINE
  8
MERGEDLAYER-2
 66
  1
 70
  1
 62
  0
  0
VERTEX
  8
MERGEDLAYER-2
 10
0.986542
 20
1.592890
 30
0.000000
  0
VERTEX
  8
MERGEDLAYER-2
 10
6.571757
 20
1.592890
 30
0.000000
  0
VERTEX
  8
MERGEDLAYER-2
 10
6.571757
 20
1.566048
 30
0.000000
  0
VERTEX
  8
MERGEDLAYER-2
 10
0.986542
 20
1.566048
 30
0.000000
  0
SEQEND
  8
MERGEDLAYER-2
  0
POLYLINE
  8
MERGEDLAYER-2
 66
  1
 70
  1
 62
  0
  0
VERTEX
  8
MERGEDLAYER-2
 10
0.986542
 20
1.439490
 30
0.000000
  0
VERTEX
  8
MERGEDLAYER-2
 10
6.571757
 20
1.439490
 30
0.000000
  0
VERTEX
  8
MERGEDLAYER-2
 10
6.571757
 20
1.412648
 30
0.000000
  0
VERTEX
  8
MERGEDLAYER-2
 10
0.986542
 20
1.412648
 30
0.000000
  0
SEQEND
  8
MERGEDLAYER-2
  0
POLYLINE
  8
MERGEDLAYER-2
 66
  1
 70
  1
 62
  0
  0
VERTEX
  8
MERGEDLAYER-2
 10
0.986542
 20
1.286090
 30
0.000000
  0
VERTEX
  8
MERGEDLAYER-2
 10
6.571757
 20
1.286090
 30
0.000000
  0
VERTEX
  8
MERGEDLAYER-2
 10
6.571757
 20
1.259248
 30
0.000000
  0
VERTEX
  8
MERGEDLAYER-2
 10
0.986542
 20
1.259248
 30
0.000000
  0
SEQEND
  8
MERGEDLAYER-2
  0
POLYLINE
  8
MERGEDLAYER-2
 66
  1
 70
  1
 62
  0
  0
VERTEX
  8
MERGEDLAYER-2
 10
0.986542
 20
1.132690
 30
0.000000
  0
VERTEX
  8
MERGEDLAYER-2
 10
6.571757
 20
1.132690
 30
0.000000
  0
VERTEX
  8
MERGEDLAYER-2
 10
6.571757
 20
1.105848
 30
0.000000
  0
VERTEX
  8
MERGEDLAYER-2
 10
0.986542
 20
1.105848
 30
0.000000
  0
SEQEND
  8
MERGEDLAYER-2
  0
POLYLINE
  8
MERGEDLAYER-2
 66
  1
 70
  1
 62
  0
  0
VERTEX
  8
MERGEDLAYER-2
 10
0.986542
 20
0.979290
 30
0.000000
  0
VERTEX
  8
MERGEDLAYER-2
 10
6.571757
 20
0.979290
 30
0.000000
  0
VERTEX
  8
MERGEDLAYER-2
 10
6.571757
 20
0.952448
 30
0.000000
  0
VERTEX
  8
MERGEDLAYER-2
 10
0.986542
 20
0.952448
 30
0.000000
  0
SEQEND
  8
MERGEDLAYER-2
  0
POLYLINE
  8
MERGEDLAYER-2
 66
  1
 70
  1
 62
  0
  0
VERTEX
  8
MERGEDLAYER-2
 10
0.986542
 20
0.825890
 30
0.000000
  0
VERTEX
  8
MERGEDLAYER-2
 10
6.571757
 20
0.825890
 30
0.000000
  0
VERTEX
  8
MERGEDLAYER-2
 10
6.571757
 20
0.799048
 30
0.000000
  0
VERTEX
  8
MERGEDLAYER-2
 10
0.986542
 20
0.799048
 30
0.000000
  0
SEQEND
  8
MERGEDLAYER-2
  0
POLYLINE
  8
MERGEDLAYER-2
 66
  1
 70
  1
 62
  0
  0
VERTEX
  8
MERGEDLAYER-2
 10
0.986542
 20
0.672490
 30
0.000000
  0
VERTEX
  8
MERGEDLAYER-2
 10
6.571757
 20
0.672490
 30
0.000000
  0
VERTEX
  8
MERGEDLAYER-2
 10
6.571757
 20
0.645647
 30
0.000000
  0
VERTEX
  8
MERGEDLAYER-2
 10
0.986542
 20
0.645647
 30
0.000000
  0
SEQEND
  8
MERGEDLAYER-2
  0
POLYLINE
  8
MERGEDLAYER-2
 66
  1
 70
  1
 62
  0
  0
VERTEX
  8
MERGEDLAYER-2
 10
0.998683
 20
0.513479
 30
0.000000
  0
VERTEX
  8
MERGEDLAYER-2
 10
6.558483
 20
0.513479
 30
0.000000
  0
VERTEX
  8
MERGEDLAYER-2
 10
6.558483
 20
0.277779
 30
0.000000
  0
VERTEX
  8
MERGEDLAYER-2
 10
0.998683
 20
0.277779
 30
0.000000
  0
SEQEND
  8
MERGEDLAYER-2
  0
POLYLINE
  8
MERGEDLAYER-2
 66
  1
 70
  0
 62
  0
 10
0.999618
 20
0.343425
 30
0.000000
  0
VERTEX
  8
MERGEDLAYER-2
 10
0.999618
 20
0.343425
 30
0.000000
  0
VERTEX
  8
MERGEDLAYER-2
 10
6.558929
 20
0.343425
 30
0.000000
  0
SEQEND
  8
MERGEDLAYER-2
  0
POLYLINE
  8
MERGEDLAYER-2
 66
  1
 70
  0
 62
  0
 10
0.999618
 20
0.322122
 30
0.000000
  0
VERTEX
  8
MERGEDLAYER-2
 10
0.999618
 20
0.322122
 30
0.000000
  0
VERTEX
  8
MERGEDLAYER-2
 10
6.558929
 20
0.322122
 30
0.000000
  0
SEQEND
  8
MERGEDLAYER-2
  0
POLYLINE
  8
MERGEDLAYER-2
 66
  1
 70
  0
 62
  0
 10
0.998683
 20
0.498135
 30
0.000000
  0
VERTEX
  8
MERGEDLAYER-2
 10
0.998683
 20
0.498135
 30
0.000000
  0
VERTEX
  8
MERGEDLAYER-2
 10
6.557738
 20
0.498135
 30
0.000000
  0
SEQEND
  8
MERGEDLAYER-2
  0
TEXT
  8
MERGEDLAYER-2
 62
  7
 10
2.041667
 20
8.861111
 30
0.000000
 40
0.187500
  1
Elevation model Roll-126
 72
  5
 11
5.069444
 21
8.861111
 31
0.000000
  0
POLYLINE
  8
MERGEDLAYER-2
 66
  1
 70
  1
 62
  0
  0
VERTEX
  8
MERGEDLAYER-2
 10
6.569915
 20
5.271120
 30
0.000000
  0
VERTEX
  8
MERGEDLAYER-2
 10
6.731799
 20
5.271120
 30
0.000000
  0
VERTEX
  8
MERGEDLAYER-2
 10
6.731799
 20
0.279016
 30
0.000000
  0
VERTEX
  8
MERGEDLAYER-2
 10
6.569915
 20
0.279016
 30
0.000000
  0
SEQEND
  8
MERGEDLAYER-2
  0
POLYLINE
  8
MERGEDLAYER-2
 66
  1
 70
  1
 62
  0
  0
VERTEX
  8
MERGEDLAYER-2
 10
0.823815
 20
5.271695
 30
0.000000
  0
VERTEX
  8
MERGEDLAYER-2
 10
0.985699
 20
5.271695
 30
0.000000
  0
VERTEX
  8
MERGEDLAYER-2
 10
0.985699
 20
0.279684
 30
0.000000
  0
VERTEX
  8
MERGEDLAYER-2
 10
0.823815
 20
0.279684
 30
0.000000
  0
SEQEND
  8
MERGEDLAYER-2
  0
POLYLINE
  8
MERGEDLAYER-2
 66
  1
 70
  0
 62
  0
 10
3.665080
 20
0.406315
 30
0.000000
  0
VERTEX
  8
MERGEDLAYER-2
 10
3.665080
 20
0.406315
 30
0.000000
  0
VERTEX
  8
MERGEDLAYER-2
 10
3.657874
 20
0.423470
 30
0.000000
  0
VERTEX
  8
MERGEDLAYER-2
 10
3.637353
 20
0.438015
 30
0.000000
  0
VERTEX
  8
MERGEDLAYER-2
 10
3.606642
 20
0.447733
 30
0.000000
  0
VERTEX
  8
MERGEDLAYER-2
 10
3.570415
 20
0.451145
 30
0.000000
  0
VERTEX
  8
MERGEDLAYER-2
 10
3.534188
 20
0.447733
 30
0.000000
  0
VERTEX
  8
MERGEDLAYER-2
 10
3.503476
 20
0.438015
 30
0.000000
  0
VERTEX
  8
MERGEDLAYER-2
 10
3.482955
 20
0.423470
 30
0.000000
  0
VERTEX
  8
MERGEDLAYER-2
 10
3.475749
 20
0.406315
 30
0.000000
  0
VERTEX
  8
MERGEDLAYER-2
 10
3.482955
 20
0.389160
 30
0.000000
  0
VERTEX
  8
MERGEDLAYER-2
 10
3.503476
 20
0.374617
 30
0.000000
  0
VERTEX
  8
MERGEDLAYER-2
 10
3.534188
 20
0.364898
 30
0.000000
  0
VERTEX
  8
MERGEDLAYER-2
 10
3.570415
 20
0.361486
 30
0.000000
  0
VERTEX
  8
MERGEDLAYER-2
 10
3.606642
 20
0.364898
 30
0.000000
  0
VERTEX
  8
MERGEDLAYER-2
 10
3.637353
 20
0.374617
 30
0.000000
  0
VERTEX
  8
MERGEDLAYER-2
 10
3.657874
 20
0.389160
 30
0.000000
  0
VERTEX
  8
MERGEDLAYER-2
 10
3.665080
 20
0.406315
 30
0.000000
  0
SEQEND
  8
MERGEDLAYER-2
  0
POLYLINE
  8
MERGEDLAYER-2
 66
  1
 70
  0
 62
  0
 10
3.352217
 20
0.394352
 30
0.000000
  0
VERTEX
  8
MERGEDLAYER-2
 10
3.352217
 20
0.394352
 30
0.000000
  0
VERTEX
  8
MERGEDLAYER-2
 10
3.572611
 20
0.381592
 30
0.000000
  0
SEQEND
  8
MERGEDLAYER-2
  0
POLYLINE
  8
MERGEDLAYER-2
 66
  1
 70
  0
 62
  0
 10
3.352195
 20
0.414342
 30
0.000000
  0
VERTEX
  8
MERGEDLAYER-2
 10
3.352195
 20
0.414342
 30
0.000000
  0
VERTEX
  8
MERGEDLAYER-2
 10
3.340821
 20
0.405726
 30
0.000000
  0
VERTEX
  8
MERGEDLAYER-2
 10
3.352215
 20
0.394351
 30
0.000000
  0
SEQEND
  8
MERGEDLAYER-2
  0
POLYLINE
  8
MERGEDLAYER-2
 66
  1
 70
  0
 62
  0
 10
3.352193
 20
0.414343
 30
0.000000
  0
VERTEX
  8
MERGEDLAYER-2
 10
3.352193
 20
0.414343
 30
0.000000
  0
VERTEX
  8
MERGEDLAYER-2
 10
3.572383
 20
0.427102
 30
0.000000
  0
SEQEND
  8
MERGEDLAYER-2
  0
POLYLINE
  8
MERGEDLAYER-2
 66
  1
 70
  0
 62
  0
 10
3.572611
 20
0.381592
 30
0.000000
  0
VERTEX
  8
MERGEDLAYER-2
 10
3.572611
 20
0.381592
 30
0.000000
  0
VERTEX
  8
MERGEDLAYER-2
 10
3.586666
 20
0.390386
 30
0.000000
  0
VERTEX
  8
MERGEDLAYER-2
 10
3.593170
 20
0.406543
 30
0.000000
  0
VERTEX
  8
MERGEDLAYER-2
 10
3.586344
 20
0.422566
 30
0.000000
  0
VERTEX
  8
MERGEDLAYER-2
 10
3.572383
 20
0.427103
 30
0.000000
  0
SEQEND
  8
MERGEDLAYER-2
  0
POLYLINE
  8
MERGEDLAYER-2
 66
  1
 70
  1
 62
  0
  0
VERTEX
  8
MERGEDLAYER-2
 10
3.761987
 20
0.426017
 30
0.000000
  0
VERTEX
  8
MERGEDLAYER-2
 10
3.807703
 20
0.426017
 30
0.000000
  0
VERTEX
  8
MERGEDLAYER-2
 10
3.807703
 20
0.413824
 30
0.000000
  0
VERTEX
  8
MERGEDLAYER-2
 10
3.761987
 20
0.413824
 30
0.000000
  0
SEQEND
  8
MERGEDLAYER-2
  0
TEXT
  8
MERGEDLAYER-2
 62
  0
 10
3.180556
 20
7.916667
 30
0.000000
 40
0.145833
  1
9" (229
 72
  5
 11
3.888889
 21
7.916667
 31
0.000000
  0
TEXT
  8
MERGEDLAYER-2
 62
  0
 10
3.888889
 20
7.916667
 30
0.000000
 40
0.125000
  1
mm
 72
  5
 11
4.263889
 21
7.916667
 31
0.000000
  0
TEXT
  8
MERGEDLAYER-2
 62
  0
 10
4.263889
 20
7.916667
 30
0.000000
 40
0.145833
  1
)
 72
  5
 11
4.402778
 21
7.916667
 31
0.000000
  0
TEXT
  8
MERGEDLAYER-2
 62
  0
 10
3.041667
 20
7.694444
 30
0.000000
 40
0.145833
  1
aluminum tube
 72
  5
 11
4.416667
 21
7.694444
 31
0.000000
  0
TEXT
  8
MERGEDLAYER-2
 62
  0
 10
2.944444
 20
7.472222
 30
0.000000
 40
0.125000
  1
7/16
 72
  5
 11
3.347222
 21
7.472222
 31
0.000000
  0
TEXT
  8
MERGEDLAYER-2
 62
  0
 10
3.347222
 20
7.472222
 30
0.000000
 40
0.145833
  1
" (11
 72
  5
 11
3.833333
 21
7.472222
 31
0.000000
  0
TEXT
  8
MERGEDLAYER-2
 62
  0
 10
3.833333
 20
7.472222
 30
0.000000
 40
0.125000
  1
mm)
 72
  5
 11
4.263889
 21
7.472222
 31
0.000000
  0
TEXT
  8
MERGEDLAYER-2
 62
  0
 10
4.263889
 20
7.472222
 30
0.000000
 40
0.145833
  1
 dia.
 72
  5
 11
4.708333
 21
7.472222
 31
0.000000
  0
POLYLINE
  8
MERGEDLAYER-2
 66
  1
 70
  0
 62
  0
 10
2.662730
 20
6.384564
 30
0.000000
  0
VERTEX
  8
MERGEDLAYER-2
 10
2.662730
 20
6.384564
 30
0.000000
  0
VERTEX
  8
MERGEDLAYER-2
 10
4.627187
 20
6.384564
 30
0.000000
  0
SEQEND
  8
MERGEDLAYER-2
  0
POLYLINE
  8
MERGEDLAYER-2
 66
  1
 70
  0
 62
  0
 10
2.662730
 20
6.469596
 30
0.000000
  0
VERTEX
  8
MERGEDLAYER-2
 10
2.662730
 20
6.469596
 30
0.000000
  0
VERTEX
  8
MERGEDLAYER-2
 10
4.627187
 20
6.469596
 30
0.000000
  0
SEQEND
  8
MERGEDLAYER-2
  0
POLYLINE
  8
MERGEDLAYER-2
 66
  1
 70
  0
 62
  0
 10
2.662730
 20
6.870435
 30
0.000000
  0
VERTEX
  8
MERGEDLAYER-2
 10
2.662730
 20
6.870435
 30
0.000000
  0
VERTEX
  8
MERGEDLAYER-2
 10
4.627187
 20
6.870435
 30
0.000000
  0
SEQEND
  8
MERGEDLAYER-2
  0
POLYLINE
  8
MERGEDLAYER-2
 66
  1
 70
  0
 62
  0
 10
2.662730
 20
6.955467
 30
0.000000
  0
VERTEX
  8
MERGEDLAYER-2
 10
2.662730
 20
6.955467
 30
0.000000
  0
VERTEX
  8
MERGEDLAYER-2
 10
4.627187
 20
6.955467
 30
0.000000
  0
SEQEND
  8
MERGEDLAYER-2
  0
POLYLINE
  8
MERGEDLAYER-2
 66
  1
 70
  0
 62
  0
 10
2.662730
 20
7.356301
 30
0.000000
  0
VERTEX
  8
MERGEDLAYER-2
 10
2.662730
 20
7.356301
 30
0.000000
  0
VERTEX
  8
MERGEDLAYER-2
 10
4.627187
 20
7.356301
 30
0.000000
  0
SEQEND
  8
MERGEDLAYER-2
  0
POLYLINE
  8
MERGEDLAYER-2
 66
  1
 70
  0
 62
  0
 10
2.662730
 20
7.441335
 30
0.000000
  0
VERTEX
  8
MERGEDLAYER-2
 10
2.662730
 20
7.441335
 30
0.000000
  0
VERTEX
  8
MERGEDLAYER-2
 10
4.627187
 20
7.441335
 30
0.000000
  0
SEQEND
  8
MERGEDLAYER-2
  0
POLYLINE
  8
MERGEDLAYER-2
 66
  1
 70
  1
 62
  0
  0
VERTEX
  8
MERGEDLAYER-2
 10
2.854924
 20
6.978905
 30
0.000000
  0
VERTEX
  8
MERGEDLAYER-2
 10
2.879227
 20
6.978905
 30
0.000000
  0
VERTEX
  8
MERGEDLAYER-2
 10
2.879227
 20
6.362863
 30
0.000000
  0
VERTEX
  8
MERGEDLAYER-2
 10
2.854924
 20
6.362863
 30
0.000000
  0
SEQEND
  8
MERGEDLAYER-2
  0
POLYLINE
  8
MERGEDLAYER-2
 66
  1
 70
  1
 62
  0
  0
VERTEX
  8
MERGEDLAYER-2
 10
2.830630
 20
7.465641
 30
0.000000
  0
VERTEX
  8
MERGEDLAYER-2
 10
2.854924
 20
7.465641
 30
0.000000
  0
VERTEX
  8
MERGEDLAYER-2
 10
2.854924
 20
6.846998
 30
0.000000
  0
VERTEX
  8
MERGEDLAYER-2
 10
2.830630
 20
6.846998
 30
0.000000
  0
SEQEND
  8
MERGEDLAYER-2
  0
POLYLINE
  8
MERGEDLAYER-2
 66
  1
 70
  0
 62
  0
 10
4.624035
 20
7.368316
 30
0.000000
  0
VERTEX
  8
MERGEDLAYER-2
 10
4.624035
 20
7.368316
 30
0.000000
  0
VERTEX
  8
MERGEDLAYER-2
 10
5.201233
 20
7.368429
 30
0.000000
  0
SEQEND
  8
MERGEDLAYER-2
  0
POLYLINE
  8
MERGEDLAYER-2
 66
  1
 70
  0
 62
  0
 10
4.624035
 20
7.429053
 30
0.000000
  0
VERTEX
  8
MERGEDLAYER-2
 10
4.624035
 20
7.429053
 30
0.000000
  0
VERTEX
  8
MERGEDLAYER-2
 10
5.201233
 20
7.429053
 30
0.000000
  0
SEQEND
  8
MERGEDLAYER-2
  0
POLYLINE
  8
MERGEDLAYER-2
 66
  1
 70
  0
 62
  0
 10
4.650412
 20
6.883799
 30
0.000000
  0
VERTEX
  8
MERGEDLAYER-2
 10
4.650412
 20
6.883799
 30
0.000000
  0
VERTEX
  8
MERGEDLAYER-2
 10
5.202620
 20
6.883799
 30
0.000000
  0
SEQEND
  8
MERGEDLAYER-2
  0
POLYLINE
  8
MERGEDLAYER-2
 66
  1
 70
  0
 62
  0
 10
4.650412
 20
6.944536
 30
0.000000
  0
VERTEX
  8
MERGEDLAYER-2
 10
4.650412
 20
6.944536
 30
0.000000
  0
VERTEX
  8
MERGEDLAYER-2
 10
5.202620
 20
6.944536
 30
0.000000
  0
SEQEND
  8
MERGEDLAYER-2
  0
POLYLINE
  8
MERGEDLAYER-2
 66
  1
 70
  0
 62
  0
 10
4.650412
 20
6.397928
 30
0.000000
  0
VERTEX
  8
MERGEDLAYER-2
 10
4.650412
 20
6.397928
 30
0.000000
  0
VERTEX
  8
MERGEDLAYER-2
 10
5.200989
 20
6.397928
 30
0.000000
  0
SEQEND
  8
MERGEDLAYER-2
  0
POLYLINE
  8
MERGEDLAYER-2
 66
  1
 70
  0
 62
  0
 10
4.650412
 20
6.458665
 30
0.000000
  0
VERTEX
  8
MERGEDLAYER-2
 10
4.650412
 20
6.458665
 30
0.000000
  0
VERTEX
  8
MERGEDLAYER-2
 10
5.200989
 20
6.458665
 30
0.000000
  0
SEQEND
  8
MERGEDLAYER-2
  0
LINE
  8
MERGEDLAYER-2
 62
  0
 10
2.854924
 20
7.788587
 30
0.000000
 11
4.604046
 21
7.788587
 31
0.000000
  0
LINE
  8
MERGEDLAYER-2
 62
  0
 10
2.854924
 20
7.503835
 30
0.000000
 11
2.854924
 21
7.913587
 31
0.000000
  0
LINE
  8
MERGEDLAYER-2
 62
  0
 10
4.604046
 20
7.503835
 30
0.000000
 11
4.604046
 21
7.913587
 31
0.000000
  0
LINE
  8
MERGEDLAYER-2
 62
  0
 10
2.884386
 20
7.818050
 30
0.000000
 11
2.825461
 21
7.759124
 31
0.000000
  0
LINE
  8
MERGEDLAYER-2
 62
  0
 10
4.633509
 20
7.818050
 30
0.000000
 11
4.574583
 21
7.759124
 31
0.000000
  0
TEXT
  8
MERGEDLAYER-2
 62
  0
 10
3.547682
 20
7.767935
 30
0.000000
 40
0.093750
  1
                              
  0
POLYLINE
  8
MERGEDLAYER-2
 66
  1
 70
  1
 62
  0
  0
VERTEX
  8
MERGEDLAYER-2
 10
4.628351
 20
6.978037
 30
0.000000
  0
VERTEX
  8
MERGEDLAYER-2
 10
4.652633
 20
6.978037
 30
0.000000
  0
VERTEX
  8
MERGEDLAYER-2
 10
4.652633
 20
6.362862
 30
0.000000
  0
VERTEX
  8
MERGEDLAYER-2
 10
4.628351
 20
6.362862
 30
0.000000
  0
SEQEND
  8
MERGEDLAYER-2
  0
POLYLINE
  8
MERGEDLAYER-2
 66
  1
 70
  1
 62
  0
  0
VERTEX
  8
MERGEDLAYER-2
 10
4.604046
 20
7.465640
 30
0.000000
  0
VERTEX
  8
MERGEDLAYER-2
 10
4.628351
 20
7.465640
 30
0.000000
  0
VERTEX
  8
MERGEDLAYER-2
 10
4.628351
 20
6.846998
 30
0.000000
  0
VERTEX
  8
MERGEDLAYER-2
 10
4.604046
 20
6.846998
 30
0.000000
  0
SEQEND
  8
MERGEDLAYER-2
  0
POLYLINE
  8
MERGEDLAYER-2
 66
  1
 70
  0
 62
  0
 10
5.210598
 20
7.400708
 30
0.000000
  0
VERTEX
  8
MERGEDLAYER-2
 10
5.210598
 20
7.400708
 30
0.000000
  0
VERTEX
  8
MERGEDLAYER-2
 10
5.207279
 20
7.422142
 30
0.000000
  0
VERTEX
  8
MERGEDLAYER-2
 10
5.199265
 20
7.431020
 30
0.000000
  0
VERTEX
  8
MERGEDLAYER-2
 10
5.191251
 20
7.422142
 30
0.000000
  0
VERTEX
  8
MERGEDLAYER-2
 10
5.187931
 20
7.400708
 30
0.000000
  0
VERTEX
  8
MERGEDLAYER-2
 10
5.191251
 20
7.379274
 30
0.000000
  0
VERTEX
  8
MERGEDLAYER-2
 10
5.199265
 20
7.370395
 30
0.000000
  0
VERTEX
  8
MERGEDLAYER-2
 10
5.207279
 20
7.379274
 30
0.000000
  0
VERTEX
  8
MERGEDLAYER-2
 10
5.210598
 20
7.400708
 30
0.000000
  0
SEQEND
  8
MERGEDLAYER-2
  0
POLYLINE
  8
MERGEDLAYER-2
 66
  1
 70
  0
 62
  0
 10
5.210367
 20
6.916091
 30
0.000000
  0
VERTEX
  8
MERGEDLAYER-2
 10
5.210367
 20
6.916091
 30
0.000000
  0
VERTEX
  8
MERGEDLAYER-2
 10
5.207047
 20
6.937525
 30
0.000000
  0
VERTEX
  8
MERGEDLAYER-2
 10
5.199034
 20
6.946404
 30
0.000000
  0
VERTEX
  8
MERGEDLAYER-2
 10
5.191020
 20
6.937525
 30
0.000000
  0
VERTEX
  8
MERGEDLAYER-2
 10
5.187700
 20
6.916091
 30
0.000000
  0
VERTEX
  8
MERGEDLAYER-2
 10
5.191020
 20
6.894657
 30
0.000000
  0
VERTEX
  8
MERGEDLAYER-2
 10
5.199034
 20
6.885779
 30
0.000000
  0
VERTEX
  8
MERGEDLAYER-2
 10
5.207047
 20
6.894657
 30
0.000000
  0
VERTEX
  8
MERGEDLAYER-2
 10
5.210367
 20
6.916091
 30
0.000000
  0
SEQEND
  8
MERGEDLAYER-2
  0
POLYLINE
  8
MERGEDLAYER-2
 66
  1
 70
  0
 62
  0
 10
5.210367
 20
6.430186
 30
0.000000
  0
VERTEX
  8
MERGEDLAYER-2
 10
5.210367
 20
6.430186
 30
0.000000
  0
VERTEX
  8
MERGEDLAYER-2
 10
5.207047
 20
6.451621
 30
0.000000
  0
VERTEX
  8
MERGEDLAYER-2
 10
5.199034
 20
6.460498
 30
0.000000
  0
VERTEX
  8
MERGEDLAYER-2
 10
5.191020
 20
6.451621
 30
0.000000
  0
VERTEX
  8
MERGEDLAYER-2
 10
5.187700
 20
6.430186
 30
0.000000
  0
VERTEX
  8
MERGEDLAYER-2
 10
5.191020
 20
6.408752
 30
0.000000
  0
VERTEX
  8
MERGEDLAYER-2
 10
5.199034
 20
6.399874
 30
0.000000
  0
VERTEX
  8
MERGEDLAYER-2
 10
5.207047
 20
6.408752
 30
0.000000
  0
VERTEX
  8
MERGEDLAYER-2
 10
5.210367
 20
6.430186
 30
0.000000
  0
SEQEND
  8
MERGEDLAYER-2
  0
POLYLINE
  8
MERGEDLAYER-2
 66
  1
 70
  0
 62
  0
 10
2.662729
 20
7.441335
 30
0.000000
  0
VERTEX
  8
MERGEDLAYER-2
 10
2.662729
 20
7.441335
 30
0.000000
  0
VERTEX
  8
MERGEDLAYER-2
 10
2.649492
 20
7.414922
 30
0.000000
  0
VERTEX
  8
MERGEDLAYER-2
 10
2.649942
 20
7.384388
 30
0.000000
  0
VERTEX
  8
MERGEDLAYER-2
 10
2.662729
 20
7.356301
 30
0.000000
  0
SEQEND
  8
MERGEDLAYER-2
  0
POLYLINE
  8
MERGEDLAYER-2
 66
  1
 70
  0
 62
  0
 10
2.662728
 20
6.955468
 30
0.000000
  0
VERTEX
  8
MERGEDLAYER-2
 10
2.662728
 20
6.955468
 30
0.000000
  0
VERTEX
  8
MERGEDLAYER-2
 10
2.649516
 20
6.928933
 30
0.000000
  0
VERTEX
  8
MERGEDLAYER-2
 10
2.650035
 20
6.898296
 30
0.000000
  0
VERTEX
  8
MERGEDLAYER-2
 10
2.662728
 20
6.870436
 30
0.000000
  0
SEQEND
  8
MERGEDLAYER-2
  0
POLYLINE
  8
MERGEDLAYER-2
 66
  1
 70
  0
 62
  0
 10
2.662729
 20
6.469595
 30
0.000000
  0
VERTEX
  8
MERGEDLAYER-2
 10
2.662729
 20
6.469595
 30
0.000000
  0
VERTEX
  8
MERGEDLAYER-2
 10
2.649515
 20
6.443069
 30
0.000000
  0
VERTEX
  8
MERGEDLAYER-2
 10
2.650028
 20
6.412440
 30
0.000000
  0
VERTEX
  8
MERGEDLAYER-2
 10
2.662729
 20
6.384562
 30
0.000000
  0
SEQEND
  8
MERGEDLAYER-2
  0
POLYLINE
  8
MERGEDLAYER-2
 66
  1
 70
  0
 62
  0
 10
4.821818
 20
7.405153
 30
0.000000
  0
VERTEX
  8
MERGEDLAYER-2
 10
4.821818
 20
7.405153
 30
0.000000
  0
VERTEX
  8
MERGEDLAYER-2
 10
4.823743
 20
6.917466
 30
0.000000
  0
SEQEND
  8
MERGEDLAYER-2
  0
LINE
  8
MERGEDLAYER-2
 62
  0
 10
4.851397
 20
7.375806
 30
0.000000
 11
4.792239
 21
7.434499
 31
0.000000
  0
LINE
  8
MERGEDLAYER-2
 62
  0
 10
4.853322
 20
6.888120
 30
0.000000
 11
4.794164
 21
6.946813
 31
0.000000
  0
POLYLINE
  8
MERGEDLAYER-2
  6
LTYPE05
 66
  1
 70
  0
 62
  0
  6
LTYPE05
 10
4.122458
 20
7.401736
 30
0.000000
  0
VERTEX
  8
MERGEDLAYER-2
  6
LTYPE05
 10
4.122458
 20
7.401736
 30
0.000000
  0
VERTEX
  8
MERGEDLAYER-2
  6
LTYPE05
 10
5.283836
 20
7.401736
 30
0.000000
  0
SEQEND
  8
MERGEDLAYER-2
  0
POLYLINE
  8
MERGEDLAYER-2
  6
LTYPE05
 66
  1
 70
  0
 62
  0
  6
LTYPE05
 10
4.125871
 20
6.916209
 30
0.000000
  0
VERTEX
  8
MERGEDLAYER-2
  6
LTYPE05
 10
4.125871
 20
6.916209
 30
0.000000
  0
VERTEX
  8
MERGEDLAYER-2
  6
LTYPE05
 10
5.287253
 20
6.916209
 30
0.000000
  0
SEQEND
  8
MERGEDLAYER-2
  0
TEXT
  8
MERGEDLAYER-2
 62
  0
 10
4.888889
 20
7.152778
 30
0.000000
 40
0.145833
  1
2 
 72
  5
 11
5.125000
 21
7.152778
 31
0.000000
  0
TEXT
  8
MERGEDLAYER-2
 62
  0
 10
5.125000
 20
7.152778
 30
0.000000
 40
0.125000
  1
1/2
 72
  5
 11
5.430556
 21
7.152778
 31
0.000000
  0
TEXT
  8
MERGEDLAYER-2
 62
  0
 10
5.430556
 20
7.152778
 30
0.000000
 40
0.145833
  1
"
 72
  5
 11
5.569444
 21
7.152778
 31
0.000000
  0
POLYLINE
  8
MERGEDLAYER-2
 66
  1
 70
  0
 62
  0
 10
2.989584
 20
6.097222
 30
0.000000
  0
VERTEX
  8
MERGEDLAYER-2
 10
2.989584
 20
6.097222
 30
0.000000
  0
VERTEX
  8
MERGEDLAYER-2
 10
2.353598
 20
6.486256
 30
0.000000
  0
SEQEND
  8
MERGEDLAYER-2
  0
POLYLINE
  8
MERGEDLAYER-2
 66
  1
 70
  1
 62
  0
  0
VERTEX
  8
MERGEDLAYER-2
 10
2.336806
 20
6.496528
 30
0.000000
  0
VERTEX
  8
MERGEDLAYER-2
 10
2.417788
 20
6.495834
 30
0.000000
  0
VERTEX
  8
MERGEDLAYER-2
 10
2.396046
 20
6.460290
 30
0.000000
  0
VERTEX
  8
MERGEDLAYER-2
 10
2.374303
 20
6.424746
 30
0.000000
  0
VERTEX
  8
MERGEDLAYER-2
 10
2.336806
 20
6.496528
 30
0.000000
  0
SEQEND
  8
MERGEDLAYER-2
  0
POLYLINE
  8
MERGEDLAYER-2
 66
  1
 70
  0
 62
  0
 10
3.354283
 20
6.870701
 30
0.000000
  0
VERTEX
  8
MERGEDLAYER-2
 10
3.354283
 20
6.870701
 30
0.000000
  0
VERTEX
  8
MERGEDLAYER-2
 10
3.354283
 20
6.467490
 30
0.000000
  0
SEQEND
  8
MERGEDLAYER-2
  0
LINE
  8
MERGEDLAYER-2
 62
  0
 10
3.383746
 20
6.841238
 30
0.000000
 11
3.324820
 21
6.900163
 31
0.000000
  0
LINE
  8
MERGEDLAYER-2
 62
  0
 10
3.383746
 20
6.438027
 30
0.000000
 11
3.324820
 21
6.496952
 31
0.000000
  0
TEXT
  8
MERGEDLAYER-2
 62
  0
 10
4.972222
 20
7.000000
 30
0.000000
 40
0.145833
  1
64
 72
  5
 11
5.263889
 21
7.000000
 31
0.000000
  0
TEXT
  8
MERGEDLAYER-2
 62
  0
 10
5.263889
 20
7.000000
 30
0.000000
 40
0.125000
  1
mm
 72
  5
 11
5.638889
 21
7.000000
 31
0.000000
  0
TEXT
  8
MERGEDLAYER-2
 62
  0
 10
3.375000
 20
6.652778
 30
0.000000
 40
0.145833
  1
2
 72
  5
 11
3.555556
 21
6.652778
 31
0.000000
  0
TEXT
  8
MERGEDLAYER-2
 62
  0
 10
3.555556
 20
6.652778
 30
0.000000
 40
0.156250
  1
 
 72
  5
 11
3.680556
 21
6.652778
 31
0.000000
  0
TEXT
  8
MERGEDLAYER-2
 62
  0
 10
3.680556
 20
6.652778
 30
0.000000
 40
0.125000
  1
1/16
 72
  5
 11
4.083333
 21
6.652778
 31
0.000000
  0
TEXT
  8
MERGEDLAYER-2
 62
  0
 10
4.083333
 20
6.652778
 30
0.000000
 40
0.145833
  1
"
 72
  5
 11
4.222222
 21
6.652778
 31
0.000000
  0
TEXT
  8
MERGEDLAYER-2
 62
  0
 10
3.486111
 20
6.500000
 30
0.000000
 40
0.145833
  1
52
 72
  5
 11
3.777778
 21
6.500000
 31
0.000000
  0
TEXT
  8
MERGEDLAYER-2
 62
  0
 10
3.777778
 20
6.500000
 30
0.000000
 40
0.125000
  1
mm
 72
  5
 11
4.152778
 21
6.500000
 31
0.000000
  0
POLYLINE
  8
MERGEDLAYER-2
 66
  1
 70
  0
 62
  0
 40
0.027778
 41
0.027778
 10
0.027778
 20
0.277781
 30
0.000000
  0
VERTEX
  8
MERGEDLAYER-2
 10
0.027778
 20
0.277781
 30
0.000000
  0
VERTEX
  8
MERGEDLAYER-2
 10
7.527778
 20
0.277781
 30
0.000000
  0
SEQEND
  8
MERGEDLAYER-2
  0
POLYLINE
  8
MERGEDLAYER-2
 66
  1
 70
  1
 62
  0
  0
VERTEX
  8
MERGEDLAYER-2
 10
1.538467
 20
3.593130
 30
0.000000
  0
VERTEX
  8
MERGEDLAYER-2
 10
1.546139
 20
3.593130
 30
0.000000
  0
VERTEX
  8
MERGEDLAYER-2
 10
1.546139
 20
3.400291
 30
0.000000
  0
VERTEX
  8
MERGEDLAYER-2
 10
1.538467
 20
3.400291
 30
0.000000
  0
SEQEND
  8
MERGEDLAYER-2
  0
POLYLINE
  8
MERGEDLAYER-2
 66
  1
 70
  1
 62
  0
  0
VERTEX
  8
MERGEDLAYER-2
 10
1.530800
 20
3.746509
 30
0.000000
  0
VERTEX
  8
MERGEDLAYER-2
 10
1.538467
 20
3.746509
 30
0.000000
  0
VERTEX
  8
MERGEDLAYER-2
 10
1.538467
 20
3.553682
 30
0.000000
  0
VERTEX
  8
MERGEDLAYER-2
 10
1.530800
 20
3.553682
 30
0.000000
  0
SEQEND
  8
MERGEDLAYER-2
  0
POLYLINE
  8
MERGEDLAYER-2
 66
  1
 70
  1
 62
  0
  0
VERTEX
  8
MERGEDLAYER-2
 10
1.530800
 20
0.678709
 30
0.000000
  0
VERTEX
  8
MERGEDLAYER-2
 10
1.538467
 20
0.678709
 30
0.000000
  0
VERTEX
  8
MERGEDLAYER-2
 10
1.538467
 20
0.498105
 30
0.000000
  0
VERTEX
  8
MERGEDLAYER-2
 10
1.530800
 20
0.498105
 30
0.000000
  0
SEQEND
  8
MERGEDLAYER-2
  0
POLYLINE
  8
MERGEDLAYER-2
 66
  1
 70
  1
 62
  0
  0
VERTEX
  8
MERGEDLAYER-2
 10
1.538467
 20
0.832301
 30
0.000000
  0
VERTEX
  8
MERGEDLAYER-2
 10
1.546139
 20
0.832301
 30
0.000000
  0
VERTEX
  8
MERGEDLAYER-2
 10
1.546139
 20
0.639462
 30
0.000000
  0
VERTEX
  8
MERGEDLAYER-2
 10
1.538467
 20
0.639462
 30
0.000000
  0
SEQEND
  8
MERGEDLAYER-2
  0
POLYLINE
  8
MERGEDLAYER-2
 66
  1
 70
  1
 62
  0
  0
VERTEX
  8
MERGEDLAYER-2
 10
1.530800
 20
0.985680
 30
0.000000
  0
VERTEX
  8
MERGEDLAYER-2
 10
1.538467
 20
0.985680
 30
0.000000
  0
VERTEX
  8
MERGEDLAYER-2
 10
1.538467
 20
0.792842
 30
0.000000
  0
VERTEX
  8
MERGEDLAYER-2
 10
1.530800
 20
0.792842
 30
0.000000
  0
SEQEND
  8
MERGEDLAYER-2
  0
POLYLINE
  8
MERGEDLAYER-2
 66
  1
 70
  1
 62
  0
  0
VERTEX
  8
MERGEDLAYER-2
 10
1.538467
 20
1.139060
 30
0.000000
  0
VERTEX
  8
MERGEDLAYER-2
 10
1.546139
 20
1.139060
 30
0.000000
  0
VERTEX
  8
MERGEDLAYER-2
 10
1.546139
 20
0.946222
 30
0.000000
  0
VERTEX
  8
MERGEDLAYER-2
 10
1.538467
 20
0.946222
 30
0.000000
  0
SEQEND
  8
MERGEDLAYER-2
  0
POLYLINE
  8
MERGEDLAYER-2
 66
  1
 70
  1
 62
  0
  0
VERTEX
  8
MERGEDLAYER-2
 10
1.530800
 20
1.292438
 30
0.000000
  0
VERTEX
  8
MERGEDLAYER-2
 10
1.538467
 20
1.292438
 30
0.000000
  0
VERTEX
  8
MERGEDLAYER-2
 10
1.538467
 20
1.099602
 30
0.000000
  0
VERTEX
  8
MERGEDLAYER-2
 10
1.530800
 20
1.099602
 30
0.000000
  0
SEQEND
  8
MERGEDLAYER-2
  0
POLYLINE
  8
MERGEDLAYER-2
 66
  1
 70
  1
 62
  0
  0
VERTEX
  8
MERGEDLAYER-2
 10
1.538467
 20
1.445821
 30
0.000000
  0
VERTEX
  8
MERGEDLAYER-2
 10
1.546139
 20
1.445821
 30
0.000000
  0
VERTEX
  8
MERGEDLAYER-2
 10
1.546139
 20
1.252979
 30
0.000000
  0
VERTEX
  8
MERGEDLAYER-2
 10
1.538467
 20
1.252979
 30
0.000000
  0
SEQEND
  8
MERGEDLAYER-2
  0
POLYLINE
  8
MERGEDLAYER-2
 66
  1
 70
  1
 62
  0
  0
VERTEX
  8
MERGEDLAYER-2
 10
1.530800
 20
1.599198
 30
0.000000
  0
VERTEX
  8
MERGEDLAYER-2
 10
1.538467
 20
1.599198
 30
0.000000
  0
VERTEX
  8
MERGEDLAYER-2
 10
1.538467
 20
1.406360
 30
0.000000
  0
VERTEX
  8
MERGEDLAYER-2
 10
1.530800
 20
1.406360
 30
0.000000
  0
SEQEND
  8
MERGEDLAYER-2
  0
POLYLINE
  8
MERGEDLAYER-2
 66
  1
 70
  1
 62
  0
  0
VERTEX
  8
MERGEDLAYER-2
 10
1.538467
 20
1.752579
 30
0.000000
  0
VERTEX
  8
MERGEDLAYER-2
 10
1.546139
 20
1.752579
 30
0.000000
  0
VERTEX
  8
MERGEDLAYER-2
 10
1.546139
 20
1.559736
 30
0.000000
  0
VERTEX
  8
MERGEDLAYER-2
 10
1.538467
 20
1.559736
 30
0.000000
  0
SEQEND
  8
MERGEDLAYER-2
  0
POLYLINE
  8
MERGEDLAYER-2
 66
  1
 70
  1
 62
  0
  0
VERTEX
  8
MERGEDLAYER-2
 10
1.530800
 20
1.905959
 30
0.000000
  0
VERTEX
  8
MERGEDLAYER-2
 10
1.538467
 20
1.905959
 30
0.000000
  0
VERTEX
  8
MERGEDLAYER-2
 10
1.538467
 20
1.713119
 30
0.000000
  0
VERTEX
  8
MERGEDLAYER-2
 10
1.530800
 20
1.713119
 30
0.000000
  0
SEQEND
  8
MERGEDLAYER-2
  0
POLYLINE
  8
MERGEDLAYER-2
 66
  1
 70
  1
 62
  0
  0
VERTEX
  8
MERGEDLAYER-2
 10
1.538467
 20
2.059335
 30
0.000000
  0
VERTEX
  8
MERGEDLAYER-2
 10
1.546139
 20
2.059335
 30
0.000000
  0
VERTEX
  8
MERGEDLAYER-2
 10
1.546139
 20
1.866497
 30
0.000000
  0
VERTEX
  8
MERGEDLAYER-2
 10
1.538467
 20
1.866497
 30
0.000000
  0
SEQEND
  8
MERGEDLAYER-2
  0
POLYLINE
  8
MERGEDLAYER-2
 66
  1
 70
  1
 62
  0
  0
VERTEX
  8
MERGEDLAYER-2
 10
1.530800
 20
2.212717
 30
0.000000
  0
VERTEX
  8
MERGEDLAYER-2
 10
1.538467
 20
2.212717
 30
0.000000
  0
VERTEX
  8
MERGEDLAYER-2
 10
1.538467
 20
2.019875
 30
0.000000
  0
VERTEX
  8
MERGEDLAYER-2
 10
1.530800
 20
2.019875
 30
0.000000
  0
SEQEND
  8
MERGEDLAYER-2
  0
POLYLINE
  8
MERGEDLAYER-2
 66
  1
 70
  1
 62
  0
  0
VERTEX
  8
MERGEDLAYER-2
 10
1.538467
 20
2.366095
 30
0.000000
  0
VERTEX
  8
MERGEDLAYER-2
 10
1.546139
 20
2.366095
 30
0.000000
  0
VERTEX
  8
MERGEDLAYER-2
 10
1.546139
 20
2.173255
 30
0.000000
  0
VERTEX
  8
MERGEDLAYER-2
 10
1.538467
 20
2.173255
 30
0.000000
  0
SEQEND
  8
MERGEDLAYER-2
  0
POLYLINE
  8
MERGEDLAYER-2
 66
  1
 70
  1
 62
  0
  0
VERTEX
  8
MERGEDLAYER-2
 10
1.530800
 20
2.519476
 30
0.000000
  0
VERTEX
  8
MERGEDLAYER-2
 10
1.538467
 20
2.519476
 30
0.000000
  0
VERTEX
  8
MERGEDLAYER-2
 10
1.538467
 20
2.326636
 30
0.000000
  0
VERTEX
  8
MERGEDLAYER-2
 10
1.530800
 20
2.326636
 30
0.000000
  0
SEQEND
  8
MERGEDLAYER-2
  0
POLYLINE
  8
MERGEDLAYER-2
 66
  1
 70
  1
 62
  0
  0
VERTEX
  8
MERGEDLAYER-2
 10
1.538467
 20
2.672853
 30
0.000000
  0
VERTEX
  8
MERGEDLAYER-2
 10
1.546139
 20
2.672853
 30
0.000000
  0
VERTEX
  8
MERGEDLAYER-2
 10
1.546139
 20
2.480017
 30
0.000000
  0
VERTEX
  8
MERGEDLAYER-2
 10
1.538467
 20
2.480017
 30
0.000000
  0
SEQEND
  8
MERGEDLAYER-2
  0
POLYLINE
  8
MERGEDLAYER-2
 66
  1
 70
  1
 62
  0
  0
VERTEX
  8
MERGEDLAYER-2
 10
1.530800
 20
2.826232
 30
0.000000
  0
VERTEX
  8
MERGEDLAYER-2
 10
1.538467
 20
2.826232
 30
0.000000
  0
VERTEX
  8
MERGEDLAYER-2
 10
1.538467
 20
2.633396
 30
0.000000
  0
VERTEX
  8
MERGEDLAYER-2
 10
1.530800
 20
2.633396
 30
0.000000
  0
SEQEND
  8
MERGEDLAYER-2
  0
POLYLINE
  8
MERGEDLAYER-2
 66
  1
 70
  1
 62
  0
  0
VERTEX
  8
MERGEDLAYER-2
 10
1.538467
 20
2.979612
 30
0.000000
  0
VERTEX
  8
MERGEDLAYER-2
 10
1.546139
 20
2.979612
 30
0.000000
  0
VERTEX
  8
MERGEDLAYER-2
 10
1.546139
 20
2.786773
 30
0.000000
  0
VERTEX
  8
MERGEDLAYER-2
 10
1.538467
 20
2.786773
 30
0.000000
  0
SEQEND
  8
MERGEDLAYER-2
  0
POLYLINE
  8
MERGEDLAYER-2
 66
  1
 70
  1
 62
  0
  0
VERTEX
  8
MERGEDLAYER-2
 10
1.530800
 20
3.132991
 30
0.000000
  0
VERTEX
  8
MERGEDLAYER-2
 10
1.538467
 20
3.132991
 30
0.000000
  0
VERTEX
  8
MERGEDLAYER-2
 10
1.538467
 20
2.940152
 30
0.000000
  0
VERTEX
  8
MERGEDLAYER-2
 10
1.530800
 20
2.940152
 30
0.000000
  0
SEQEND
  8
MERGEDLAYER-2
  0
POLYLINE
  8
MERGEDLAYER-2
 66
  1
 70
  1
 62
  0
  0
VERTEX
  8
MERGEDLAYER-2
 10
1.538467
 20
3.286370
 30
0.000000
  0
VERTEX
  8
MERGEDLAYER-2
 10
1.546139
 20
3.286370
 30
0.000000
  0
VERTEX
  8
MERGEDLAYER-2
 10
1.546139
 20
3.093532
 30
0.000000
  0
VERTEX
  8
MERGEDLAYER-2
 10
1.538467
 20
3.093532
 30
0.000000
  0
SEQEND
  8
MERGEDLAYER-2
  0
POLYLINE
  8
MERGEDLAYER-2
 66
  1
 70
  1
 62
  0
  0
VERTEX
  8
MERGEDLAYER-2
 10
1.530800
 20
3.439750
 30
0.000000
  0
VERTEX
  8
MERGEDLAYER-2
 10
1.538467
 20
3.439750
 30
0.000000
  0
VERTEX
  8
MERGEDLAYER-2
 10
1.538467
 20
3.246912
 30
0.000000
  0
VERTEX
  8
MERGEDLAYER-2
 10
1.530800
 20
3.246912
 30
0.000000
  0
SEQEND
  8
MERGEDLAYER-2
  0
POLYLINE
  8
MERGEDLAYER-2
 66
  1
 70
  1
 62
  0
  0
VERTEX
  8
MERGEDLAYER-2
 10
1.538467
 20
3.899415
 30
0.000000
  0
VERTEX
  8
MERGEDLAYER-2
 10
1.546139
 20
3.899415
 30
0.000000
  0
VERTEX
  8
MERGEDLAYER-2
 10
1.546139
 20
3.706577
 30
0.000000
  0
VERTEX
  8
MERGEDLAYER-2
 10
1.538467
 20
3.706577
 30
0.000000
  0
SEQEND
  8
MERGEDLAYER-2
  0
POLYLINE
  8
MERGEDLAYER-2
 66
  1
 70
  1
 62
  0
  0
VERTEX
  8
MERGEDLAYER-2
 10
1.530800
 20
4.052794
 30
0.000000
  0
VERTEX
  8
MERGEDLAYER-2
 10
1.538467
 20
4.052794
 30
0.000000
  0
VERTEX
  8
MERGEDLAYER-2
 10
1.538467
 20
3.859967
 30
0.000000
  0
VERTEX
  8
MERGEDLAYER-2
 10
1.530800
 20
3.859967
 30
0.000000
  0
SEQEND
  8
MERGEDLAYER-2
  0
POLYLINE
  8
MERGEDLAYER-2
 66
  1
 70
  1
 62
  0
  0
VERTEX
  8
MERGEDLAYER-2
 10
1.538467
 20
4.205700
 30
0.000000
  0
VERTEX
  8
MERGEDLAYER-2
 10
1.546139
 20
4.205700
 30
0.000000
  0
VERTEX
  8
MERGEDLAYER-2
 10
1.546139
 20
4.012862
 30
0.000000
  0
VERTEX
  8
MERGEDLAYER-2
 10
1.538467
 20
4.012862
 30
0.000000
  0
SEQEND
  8
MERGEDLAYER-2
  0
POLYLINE
  8
MERGEDLAYER-2
 66
  1
 70
  1
 62
  0
  0
VERTEX
  8
MERGEDLAYER-2
 10
1.530800
 20
4.359080
 30
0.000000
  0
VERTEX
  8
MERGEDLAYER-2
 10
1.538467
 20
4.359080
 30
0.000000
  0
VERTEX
  8
MERGEDLAYER-2
 10
1.538467
 20
4.166252
 30
0.000000
  0
VERTEX
  8
MERGEDLAYER-2
 10
1.530800
 20
4.166252
 30
0.000000
  0
SEQEND
  8
MERGEDLAYER-2
  0
POLYLINE
  8
MERGEDLAYER-2
 66
  1
 70
  1
 62
  0
  0
VERTEX
  8
MERGEDLAYER-2
 10
1.538467
 20
4.511986
 30
0.000000
  0
VERTEX
  8
MERGEDLAYER-2
 10
1.546139
 20
4.511986
 30
0.000000
  0
VERTEX
  8
MERGEDLAYER-2
 10
1.546139
 20
4.319149
 30
0.000000
  0
VERTEX
  8
MERGEDLAYER-2
 10
1.538467
 20
4.319149
 30
0.000000
  0
SEQEND
  8
MERGEDLAYER-2
  0
POLYLINE
  8
MERGEDLAYER-2
 66
  1
 70
  1
 62
  0
  0
VERTEX
  8
MERGEDLAYER-2
 10
1.530800
 20
4.665366
 30
0.000000
  0
VERTEX
  8
MERGEDLAYER-2
 10
1.538467
 20
4.665366
 30
0.000000
  0
VERTEX
  8
MERGEDLAYER-2
 10
1.538467
 20
4.472539
 30
0.000000
  0
VERTEX
  8
MERGEDLAYER-2
 10
1.530800
 20
4.472539
 30
0.000000
  0
SEQEND
  8
MERGEDLAYER-2
  0
POLYLINE
  8
MERGEDLAYER-2
 66
  1
 70
  1
 62
  0
  0
VERTEX
  8
MERGEDLAYER-2
 10
1.538467
 20
4.818272
 30
0.000000
  0
VERTEX
  8
MERGEDLAYER-2
 10
1.546139
 20
4.818272
 30
0.000000
  0
VERTEX
  8
MERGEDLAYER-2
 10
1.546139
 20
4.625434
 30
0.000000
  0
VERTEX
  8
MERGEDLAYER-2
 10
1.538467
 20
4.625434
 30
0.000000
  0
SEQEND
  8
MERGEDLAYER-2
  0
POLYLINE
  8
MERGEDLAYER-2
 66
  1
 70
  1
 62
  0
  0
VERTEX
  8
MERGEDLAYER-2
 10
1.530800
 20
4.971652
 30
0.000000
  0
VERTEX
  8
MERGEDLAYER-2
 10
1.538467
 20
4.971652
 30
0.000000
  0
VERTEX
  8
MERGEDLAYER-2
 10
1.538467
 20
4.778825
 30
0.000000
  0
VERTEX
  8
MERGEDLAYER-2
 10
1.530800
 20
4.778825
 30
0.000000
  0
SEQEND
  8
MERGEDLAYER-2
  0
POLYLINE
  8
MERGEDLAYER-2
 66
  1
 70
  1
 62
  0
  0
VERTEX
  8
MERGEDLAYER-2
 10
1.538467
 20
5.124557
 30
0.000000
  0
VERTEX
  8
MERGEDLAYER-2
 10
1.546139
 20
5.124557
 30
0.000000
  0
VERTEX
  8
MERGEDLAYER-2
 10
1.546139
 20
4.931720
 30
0.000000
  0
VERTEX
  8
MERGEDLAYER-2
 10
1.538467
 20
4.931720
 30
0.000000
  0
SEQEND
  8
MERGEDLAYER-2
  0
POLYLINE
  8
MERGEDLAYER-2
 66
  1
 70
  1
 62
  0
  0
VERTEX
  8
MERGEDLAYER-2
 10
1.530800
 20
5.277937
 30
0.000000
  0
VERTEX
  8
MERGEDLAYER-2
 10
1.538467
 20
5.277937
 30
0.000000
  0
VERTEX
  8
MERGEDLAYER-2
 10
1.538467
 20
5.085110
 30
0.000000
  0
VERTEX
  8
MERGEDLAYER-2
 10
1.530800
 20
5.085110
 30
0.000000
  0
SEQEND
  8
MERGEDLAYER-2
  0
CIRCLE
  8
MERGEDLAYER-2
 62
  0
 10
3.776728
 20
0.420804
 30
0.000000
 40
0.064283
  0
CIRCLE
  8
MERGEDLAYER-2
 62
  7
 10
3.776487
 20
0.420804
 30
0.000000
 40
0.047124
  0
CIRCLE
  8
MERGEDLAYER-2
 62
  0
 10
3.776487
 20
0.420804
 30
0.000000
 40
0.042287
  0
CIRCLE
  8
MERGEDLAYER-2
 62
  0
 10
3.759691
 20
0.420804
 30
0.000000
 40
0.018794
  0
CIRCLE
  8
MERGEDLAYER-2
 62
  0
 10
3.751656
 20
0.420804
 30
0.000000
 40
0.008035
  0
TEXT
  8
MERGEDLAYER-2
 62
  0
 10
3.777778
 20
0.444444
 30
0.000000
 40
0.010417
  1
MobilFlex
 50
270.000000
 72
  5
 11
3.777778
 21
0.291667
 31
0.000000
  0
POLYLINE
  8
MERGEDLAYER-2
 66
  1
 70
  1
 62
  0
 10
3.741445
 20
0.424430
 30
0.000000
  0
VERTEX
  8
MERGEDLAYER-2
 10
3.741445
 20
0.424430
 30
0.000000
  0
VERTEX
  8
MERGEDLAYER-2
 10
3.750146
 20
0.424430
 30
0.000000
  0
VERTEX
  8
MERGEDLAYER-2
 10
3.750146
 20
0.421047
 30
0.000000
  0
VERTEX
  8
MERGEDLAYER-2
 10
3.753529
 20
0.421047
 30
0.000000
  0
VERTEX
  8
MERGEDLAYER-2
 10
3.757154
 20
0.424670
 30
0.000000
  0
VERTEX
  8
MERGEDLAYER-2
 10
3.759570
 20
0.424670
 30
0.000000
  0
VERTEX
  8
MERGEDLAYER-2
 10
3.766821
 20
0.422254
 30
0.000000
  0
VERTEX
  8
MERGEDLAYER-2
 10
3.766821
 20
0.419112
 30
0.000000
  0
VERTEX
  8
MERGEDLAYER-2
 10
3.761503
 20
0.419837
 30
0.000000
  0
VERTEX
  8
MERGEDLAYER-2
 10
3.759570
 20
0.419596
 30
0.000000
  0
VERTEX
  8
MERGEDLAYER-2
 10
3.759570
 20
0.418146
 30
0.000000
  0
VERTEX
  8
MERGEDLAYER-2
 10
3.747246
 20
0.418146
 30
0.000000
  0
VERTEX
  8
MERGEDLAYER-2
 10
3.746037
 20
0.420804
 30
0.000000
  0
VERTEX
  8
MERGEDLAYER-2
 10
3.743621
 20
0.420804
 30
0.000000
  0
VERTEX
  8
MERGEDLAYER-2
 10
3.743137
 20
0.418146
 30
0.000000
  0
VERTEX
  8
MERGEDLAYER-2
 10
3.741445
 20
0.418146
 30
0.000000
  0
SEQEND
  8
MERGEDLAYER-2
  0
TEXT
  8
MERGEDLAYER-2
 62
  0
 10
5.819444
 20
5.347222
 30
0.000000
 40
0.125000
  1
Guide
 72
  5
 11
6.347222
 21
5.347222
 31
0.000000
  0
TEXT
  8
MERGEDLAYER-2
 62
  0
 10
5.819444
 20
0.083333
 30
0.000000
 40
0.125000
  1
Bottom bar
 72
  5
 11
6.722222
 21
0.083333
 31
0.000000
  0
POLYLINE
  8
MERGEDLAYER-2
 66
  1
 70
  0
 62
  0
 10
6.312500
 20
5.399306
 30
0.000000
  0
VERTEX
  8
MERGEDLAYER-2
 10
6.312500
 20
5.399306
 30
0.000000
  0
VERTEX
  8
MERGEDLAYER-2
 10
6.552294
 20
5.279895
 30
0.000000
  0
SEQEND
  8
MERGEDLAYER-2
  0
POLYLINE
  8
MERGEDLAYER-2
 66
  1
 70
  1
 62
  0
  0
VERTEX
  8
MERGEDLAYER-2
 10
6.569915
 20
5.271120
 30
0.000000
  0
VERTEX
  8
MERGEDLAYER-2
 10
6.489179
 20
5.264778
 30
0.000000
  0
VERTEX
  8
MERGEDLAYER-2
 10
6.507752
 20
5.302076
 30
0.000000
  0
VERTEX
  8
MERGEDLAYER-2
 10
6.526326
 20
5.339374
 30
0.000000
  0
VERTEX
  8
MERGEDLAYER-2
 10
6.569915
 20
5.271120
 30
0.000000
  0
SEQEND
  8
MERGEDLAYER-2
  0
POLYLINE
  8
MERGEDLAYER-2
 66
  1
 70
  0
 62
  0
 10
5.788666
 20
0.149593
 30
0.000000
  0
VERTEX
  8
MERGEDLAYER-2
 10
5.788666
 20
0.149593
 30
0.000000
  0
VERTEX
  8
MERGEDLAYER-2
 10
5.548871
 20
0.269004
 30
0.000000
  0
SEQEND
  8
MERGEDLAYER-2
  0
POLYLINE
  8
MERGEDLAYER-2
 66
  1
 70
  1
 62
  0
  0
VERTEX
  8
MERGEDLAYER-2
 10
5.531250
 20
0.277779
 30
0.000000
  0
VERTEX
  8
MERGEDLAYER-2
 10
5.611986
 20
0.284122
 30
0.000000
  0
VERTEX
  8
MERGEDLAYER-2
 10
5.593413
 20
0.246824
 30
0.000000
  0
VERTEX
  8
MERGEDLAYER-2
 10
5.574840
 20
0.209525
 30
0.000000
  0
VERTEX
  8
MERGEDLAYER-2
 10
5.531250
 20
0.277779
 30
0.000000
  0
SEQEND
  8
MERGEDLAYER-2
  0
POLYLINE
  8
MERGEDLAYER-2
 66
  1
 70
  1
 62
  0
  0
VERTEX
  8
MERGEDLAYER-2
 10
2.098267
 20
3.593130
 30
0.000000
  0
VERTEX
  8
MERGEDLAYER-2
 10
2.105939
 20
3.593130
 30
0.000000
  0
VERTEX
  8
MERGEDLAYER-2
 10
2.105939
 20
3.400291
 30
0.000000
  0
VERTEX
  8
MERGEDLAYER-2
 10
2.098267
 20
3.400291
 30
0.000000
  0
SEQEND
  8
MERGEDLAYER-2
  0
POLYLINE
  8
MERGEDLAYER-2
 66
  1
 70
  1
 62
  0
  0
VERTEX
  8
MERGEDLAYER-2
 10
2.090600
 20
3.746509
 30
0.000000
  0
VERTEX
  8
MERGEDLAYER-2
 10
2.098267
 20
3.746509
 30
0.000000
  0
VERTEX
  8
MERGEDLAYER-2
 10
2.098267
 20
3.553682
 30
0.000000
  0
VERTEX
  8
MERGEDLAYER-2
 10
2.090600
 20
3.553682
 30
0.000000
  0
SEQEND
  8
MERGEDLAYER-2
  0
POLYLINE
  8
MERGEDLAYER-2
 66
  1
 70
  1
 62
  0
  0
VERTEX
  8
MERGEDLAYER-2
 10
2.090600
 20
0.678709
 30
0.000000
  0
VERTEX
  8
MERGEDLAYER-2
 10
2.098267
 20
0.678709
 30
0.000000
  0
VERTEX
  8
MERGEDLAYER-2
 10
2.098267
 20
0.498105
 30
0.000000
  0
VERTEX
  8
MERGEDLAYER-2
 10
2.090600
 20
0.498105
 30
0.000000
  0
SEQEND
  8
MERGEDLAYER-2
  0
POLYLINE
  8
MERGEDLAYER-2
 66
  1
 70
  1
 62
  0
  0
VERTEX
  8
MERGEDLAYER-2
 10
2.098267
 20
0.832301
 30
0.000000
  0
VERTEX
  8
MERGEDLAYER-2
 10
2.105939
 20
0.832301
 30
0.000000
  0
VERTEX
  8
MERGEDLAYER-2
 10
2.105939
 20
0.639462
 30
0.000000
  0
VERTEX
  8
MERGEDLAYER-2
 10
2.098267
 20
0.639462
 30
0.000000
  0
SEQEND
  8
MERGEDLAYER-2
  0
POLYLINE
  8
MERGEDLAYER-2
 66
  1
 70
  1
 62
  0
  0
VERTEX
  8
MERGEDLAYER-2
 10
2.090600
 20
0.985680
 30
0.000000
  0
VERTEX
  8
MERGEDLAYER-2
 10
2.098267
 20
0.985680
 30
0.000000
  0
VERTEX
  8
MERGEDLAYER-2
 10
2.098267
 20
0.792842
 30
0.000000
  0
VERTEX
  8
MERGEDLAYER-2
 10
2.090600
 20
0.792842
 30
0.000000
  0
SEQEND
  8
MERGEDLAYER-2
  0
POLYLINE
  8
MERGEDLAYER-2
 66
  1
 70
  1
 62
  0
  0
VERTEX
  8
MERGEDLAYER-2
 10
2.098267
 20
1.139060
 30
0.000000
  0
VERTEX
  8
MERGEDLAYER-2
 10
2.105939
 20
1.139060
 30
0.000000
  0
VERTEX
  8
MERGEDLAYER-2
 10
2.105939
 20
0.946222
 30
0.000000
  0
VERTEX
  8
MERGEDLAYER-2
 10
2.098267
 20
0.946222
 30
0.000000
  0
SEQEND
  8
MERGEDLAYER-2
  0
POLYLINE
  8
MERGEDLAYER-2
 66
  1
 70
  1
 62
  0
  0
VERTEX
  8
MERGEDLAYER-2
 10
2.090600
 20
1.292438
 30
0.000000
  0
VERTEX
  8
MERGEDLAYER-2
 10
2.098267
 20
1.292438
 30
0.000000
  0
VERTEX
  8
MERGEDLAYER-2
 10
2.098267
 20
1.099602
 30
0.000000
  0
VERTEX
  8
MERGEDLAYER-2
 10
2.090600
 20
1.099602
 30
0.000000
  0
SEQEND
  8
MERGEDLAYER-2
  0
POLYLINE
  8
MERGEDLAYER-2
 66
  1
 70
  1
 62
  0
  0
VERTEX
  8
MERGEDLAYER-2
 10
2.098267
 20
1.445821
 30
0.000000
  0
VERTEX
  8
MERGEDLAYER-2
 10
2.105939
 20
1.445821
 30
0.000000
  0
VERTEX
  8
MERGEDLAYER-2
 10
2.105939
 20
1.252979
 30
0.000000
  0
VERTEX
  8
MERGEDLAYER-2
 10
2.098267
 20
1.252979
 30
0.000000
  0
SEQEND
  8
MERGEDLAYER-2
  0
POLYLINE
  8
MERGEDLAYER-2
 66
  1
 70
  1
 62
  0
  0
VERTEX
  8
MERGEDLAYER-2
 10
2.090600
 20
1.599198
 30
0.000000
  0
VERTEX
  8
MERGEDLAYER-2
 10
2.098267
 20
1.599198
 30
0.000000
  0
VERTEX
  8
MERGEDLAYER-2
 10
2.098267
 20
1.406360
 30
0.000000
  0
VERTEX
  8
MERGEDLAYER-2
 10
2.090600
 20
1.406360
 30
0.000000
  0
SEQEND
  8
MERGEDLAYER-2
  0
POLYLINE
  8
MERGEDLAYER-2
 66
  1
 70
  1
 62
  0
  0
VERTEX
  8
MERGEDLAYER-2
 10
2.098267
 20
1.752579
 30
0.000000
  0
VERTEX
  8
MERGEDLAYER-2
 10
2.105939
 20
1.752579
 30
0.000000
  0
VERTEX
  8
MERGEDLAYER-2
 10
2.105939
 20
1.559736
 30
0.000000
  0
VERTEX
  8
MERGEDLAYER-2
 10
2.098267
 20
1.559736
 30
0.000000
  0
SEQEND
  8
MERGEDLAYER-2
  0
POLYLINE
  8
MERGEDLAYER-2
 66
  1
 70
  1
 62
  0
  0
VERTEX
  8
MERGEDLAYER-2
 10
2.090600
 20
1.905959
 30
0.000000
  0
VERTEX
  8
MERGEDLAYER-2
 10
2.098267
 20
1.905959
 30
0.000000
  0
VERTEX
  8
MERGEDLAYER-2
 10
2.098267
 20
1.713119
 30
0.000000
  0
VERTEX
  8
MERGEDLAYER-2
 10
2.090600
 20
1.713119
 30
0.000000
  0
SEQEND
  8
MERGEDLAYER-2
  0
POLYLINE
  8
MERGEDLAYER-2
 66
  1
 70
  1
 62
  0
  0
VERTEX
  8
MERGEDLAYER-2
 10
2.098267
 20
2.059335
 30
0.000000
  0
VERTEX
  8
MERGEDLAYER-2
 10
2.105939
 20
2.059335
 30
0.000000
  0
VERTEX
  8
MERGEDLAYER-2
 10
2.105939
 20
1.866497
 30
0.000000
  0
VERTEX
  8
MERGEDLAYER-2
 10
2.098267
 20
1.866497
 30
0.000000
  0
SEQEND
  8
MERGEDLAYER-2
  0
POLYLINE
  8
MERGEDLAYER-2
 66
  1
 70
  1
 62
  0
  0
VERTEX
  8
MERGEDLAYER-2
 10
2.090600
 20
2.212717
 30
0.000000
  0
VERTEX
  8
MERGEDLAYER-2
 10
2.098267
 20
2.212717
 30
0.000000
  0
VERTEX
  8
MERGEDLAYER-2
 10
2.098267
 20
2.019875
 30
0.000000
  0
VERTEX
  8
MERGEDLAYER-2
 10
2.090600
 20
2.019875
 30
0.000000
  0
SEQEND
  8
MERGEDLAYER-2
  0
POLYLINE
  8
MERGEDLAYER-2
 66
  1
 70
  1
 62
  0
  0
VERTEX
  8
MERGEDLAYER-2
 10
2.098267
 20
2.366095
 30
0.000000
  0
VERTEX
  8
MERGEDLAYER-2
 10
2.105939
 20
2.366095
 30
0.000000
  0
VERTEX
  8
MERGEDLAYER-2
 10
2.105939
 20
2.173255
 30
0.000000
  0
VERTEX
  8
MERGEDLAYER-2
 10
2.098267
 20
2.173255
 30
0.000000
  0
SEQEND
  8
MERGEDLAYER-2
  0
POLYLINE
  8
MERGEDLAYER-2
 66
  1
 70
  1
 62
  0
  0
VERTEX
  8
MERGEDLAYER-2
 10
2.090600
 20
2.519476
 30
0.000000
  0
VERTEX
  8
MERGEDLAYER-2
 10
2.098267
 20
2.519476
 30
0.000000
  0
VERTEX
  8
MERGEDLAYER-2
 10
2.098267
 20
2.326636
 30
0.000000
  0
VERTEX
  8
MERGEDLAYER-2
 10
2.090600
 20
2.326636
 30
0.000000
  0
SEQEND
  8
MERGEDLAYER-2
  0
POLYLINE
  8
MERGEDLAYER-2
 66
  1
 70
  1
 62
  0
  0
VERTEX
  8
MERGEDLAYER-2
 10
2.098267
 20
2.672853
 30
0.000000
  0
VERTEX
  8
MERGEDLAYER-2
 10
2.105939
 20
2.672853
 30
0.000000
  0
VERTEX
  8
MERGEDLAYER-2
 10
2.105939
 20
2.480017
 30
0.000000
  0
VERTEX
  8
MERGEDLAYER-2
 10
2.098267
 20
2.480017
 30
0.000000
  0
SEQEND
  8
MERGEDLAYER-2
  0
POLYLINE
  8
MERGEDLAYER-2
 66
  1
 70
  1
 62
  0
  0
VERTEX
  8
MERGEDLAYER-2
 10
2.090600
 20
2.826232
 30
0.000000
  0
VERTEX
  8
MERGEDLAYER-2
 10
2.098267
 20
2.826232
 30
0.000000
  0
VERTEX
  8
MERGEDLAYER-2
 10
2.098267
 20
2.633396
 30
0.000000
  0
VERTEX
  8
MERGEDLAYER-2
 10
2.090600
 20
2.633396
 30
0.000000
  0
SEQEND
  8
MERGEDLAYER-2
  0
POLYLINE
  8
MERGEDLAYER-2
 66
  1
 70
  1
 62
  0
  0
VERTEX
  8
MERGEDLAYER-2
 10
2.098267
 20
2.979612
 30
0.000000
  0
VERTEX
  8
MERGEDLAYER-2
 10
2.105939
 20
2.979612
 30
0.000000
  0
VERTEX
  8
MERGEDLAYER-2
 10
2.105939
 20
2.786773
 30
0.000000
  0
VERTEX
  8
MERGEDLAYER-2
 10
2.098267
 20
2.786773
 30
0.000000
  0
SEQEND
  8
MERGEDLAYER-2
  0
POLYLINE
  8
MERGEDLAYER-2
 66
  1
 70
  1
 62
  0
  0
VERTEX
  8
MERGEDLAYER-2
 10
2.090600
 20
3.132991
 30
0.000000
  0
VERTEX
  8
MERGEDLAYER-2
 10
2.098267
 20
3.132991
 30
0.000000
  0
VERTEX
  8
MERGEDLAYER-2
 10
2.098267
 20
2.940152
 30
0.000000
  0
VERTEX
  8
MERGEDLAYER-2
 10
2.090600
 20
2.940152
 30
0.000000
  0
SEQEND
  8
MERGEDLAYER-2
  0
POLYLINE
  8
MERGEDLAYER-2
 66
  1
 70
  1
 62
  0
  0
VERTEX
  8
MERGEDLAYER-2
 10
2.098267
 20
3.286370
 30
0.000000
  0
VERTEX
  8
MERGEDLAYER-2
 10
2.105939
 20
3.286370
 30
0.000000
  0
VERTEX
  8
MERGEDLAYER-2
 10
2.105939
 20
3.093532
 30
0.000000
  0
VERTEX
  8
MERGEDLAYER-2
 10
2.098267
 20
3.093532
 30
0.000000
  0
SEQEND
  8
MERGEDLAYER-2
  0
POLYLINE
  8
MERGEDLAYER-2
 66
  1
 70
  1
 62
  0
  0
VERTEX
  8
MERGEDLAYER-2
 10
2.090600
 20
3.439750
 30
0.000000
  0
VERTEX
  8
MERGEDLAYER-2
 10
2.098267
 20
3.439750
 30
0.000000
  0
VERTEX
  8
MERGEDLAYER-2
 10
2.098267
 20
3.246912
 30
0.000000
  0
VERTEX
  8
MERGEDLAYER-2
 10
2.090600
 20
3.246912
 30
0.000000
  0
SEQEND
  8
MERGEDLAYER-2
  0
POLYLINE
  8
MERGEDLAYER-2
 66
  1
 70
  1
 62
  0
  0
VERTEX
  8
MERGEDLAYER-2
 10
2.098267
 20
3.899415
 30
0.000000
  0
VERTEX
  8
MERGEDLAYER-2
 10
2.105939
 20
3.899415
 30
0.000000
  0
VERTEX
  8
MERGEDLAYER-2
 10
2.105939
 20
3.706577
 30
0.000000
  0
VERTEX
  8
MERGEDLAYER-2
 10
2.098267
 20
3.706577
 30
0.000000
  0
SEQEND
  8
MERGEDLAYER-2
  0
POLYLINE
  8
MERGEDLAYER-2
 66
  1
 70
  1
 62
  0
  0
VERTEX
  8
MERGEDLAYER-2
 10
2.090600
 20
4.052794
 30
0.000000
  0
VERTEX
  8
MERGEDLAYER-2
 10
2.098267
 20
4.052794
 30
0.000000
  0
VERTEX
  8
MERGEDLAYER-2
 10
2.098267
 20
3.859967
 30
0.000000
  0
VERTEX
  8
MERGEDLAYER-2
 10
2.090600
 20
3.859967
 30
0.000000
  0
SEQEND
  8
MERGEDLAYER-2
  0
POLYLINE
  8
MERGEDLAYER-2
 66
  1
 70
  1
 62
  0
  0
VERTEX
  8
MERGEDLAYER-2
 10
2.098267
 20
4.205700
 30
0.000000
  0
VERTEX
  8
MERGEDLAYER-2
 10
2.105939
 20
4.205700
 30
0.000000
  0
VERTEX
  8
MERGEDLAYER-2
 10
2.105939
 20
4.012862
 30
0.000000
  0
VERTEX
  8
MERGEDLAYER-2
 10
2.098267
 20
4.012862
 30
0.000000
  0
SEQEND
  8
MERGEDLAYER-2
  0
POLYLINE
  8
MERGEDLAYER-2
 66
  1
 70
  1
 62
  0
  0
VERTEX
  8
MERGEDLAYER-2
 10
2.090600
 20
4.359080
 30
0.000000
  0
VERTEX
  8
MERGEDLAYER-2
 10
2.098267
 20
4.359080
 30
0.000000
  0
VERTEX
  8
MERGEDLAYER-2
 10
2.098267
 20
4.166252
 30
0.000000
  0
VERTEX
  8
MERGEDLAYER-2
 10
2.090600
 20
4.166252
 30
0.000000
  0
SEQEND
  8
MERGEDLAYER-2
  0
POLYLINE
  8
MERGEDLAYER-2
 66
  1
 70
  1
 62
  0
  0
VERTEX
  8
MERGEDLAYER-2
 10
2.098267
 20
4.511986
 30
0.000000
  0
VERTEX
  8
MERGEDLAYER-2
 10
2.105939
 20
4.511986
 30
0.000000
  0
VERTEX
  8
MERGEDLAYER-2
 10
2.105939
 20
4.319149
 30
0.000000
  0
VERTEX
  8
MERGEDLAYER-2
 10
2.098267
 20
4.319149
 30
0.000000
  0
SEQEND
  8
MERGEDLAYER-2
  0
POLYLINE
  8
MERGEDLAYER-2
 66
  1
 70
  1
 62
  0
  0
VERTEX
  8
MERGEDLAYER-2
 10
2.090600
 20
4.665366
 30
0.000000
  0
VERTEX
  8
MERGEDLAYER-2
 10
2.098267
 20
4.665366
 30
0.000000
  0
VERTEX
  8
MERGEDLAYER-2
 10
2.098267
 20
4.472539
 30
0.000000
  0
VERTEX
  8
MERGEDLAYER-2
 10
2.090600
 20
4.472539
 30
0.000000
  0
SEQEND
  8
MERGEDLAYER-2
  0
POLYLINE
  8
MERGEDLAYER-2
 66
  1
 70
  1
 62
  0
  0
VERTEX
  8
MERGEDLAYER-2
 10
2.098267
 20
4.818272
 30
0.000000
  0
VERTEX
  8
MERGEDLAYER-2
 10
2.105939
 20
4.818272
 30
0.000000
  0
VERTEX
  8
MERGEDLAYER-2
 10
2.105939
 20
4.625434
 30
0.000000
  0
VERTEX
  8
MERGEDLAYER-2
 10
2.098267
 20
4.625434
 30
0.000000
  0
SEQEND
  8
MERGEDLAYER-2
  0
POLYLINE
  8
MERGEDLAYER-2
 66
  1
 70
  1
 62
  0
  0
VERTEX
  8
MERGEDLAYER-2
 10
2.090600
 20
4.971652
 30
0.000000
  0
VERTEX
  8
MERGEDLAYER-2
 10
2.098267
 20
4.971652
 30
0.000000
  0
VERTEX
  8
MERGEDLAYER-2
 10
2.098267
 20
4.778825
 30
0.000000
  0
VERTEX
  8
MERGEDLAYER-2
 10
2.090600
 20
4.778825
 30
0.000000
  0
SEQEND
  8
MERGEDLAYER-2
  0
POLYLINE
  8
MERGEDLAYER-2
 66
  1
 70
  1
 62
  0
  0
VERTEX
  8
MERGEDLAYER-2
 10
2.098267
 20
5.124557
 30
0.000000
  0
VERTEX
  8
MERGEDLAYER-2
 10
2.105939
 20
5.124557
 30
0.000000
  0
VERTEX
  8
MERGEDLAYER-2
 10
2.105939
 20
4.931720
 30
0.000000
  0
VERTEX
  8
MERGEDLAYER-2
 10
2.098267
 20
4.931720
 30
0.000000
  0
SEQEND
  8
MERGEDLAYER-2
  0
POLYLINE
  8
MERGEDLAYER-2
 66
  1
 70
  1
 62
  0
  0
VERTEX
  8
MERGEDLAYER-2
 10
2.090600
 20
5.277937
 30
0.000000
  0
VERTEX
  8
MERGEDLAYER-2
 10
2.098267
 20
5.277937
 30
0.000000
  0
VERTEX
  8
MERGEDLAYER-2
 10
2.098267
 20
5.085110
 30
0.000000
  0
VERTEX
  8
MERGEDLAYER-2
 10
2.090600
 20
5.085110
 30
0.000000
  0
SEQEND
  8
MERGEDLAYER-2
  0
POLYLINE
  8
MERGEDLAYER-2
 66
  1
 70
  1
 62
  0
  0
VERTEX
  8
MERGEDLAYER-2
 10
2.658067
 20
3.593130
 30
0.000000
  0
VERTEX
  8
MERGEDLAYER-2
 10
2.665739
 20
3.593130
 30
0.000000
  0
VERTEX
  8
MERGEDLAYER-2
 10
2.665739
 20
3.400291
 30
0.000000
  0
VERTEX
  8
MERGEDLAYER-2
 10
2.658067
 20
3.400291
 30
0.000000
  0
SEQEND
  8
MERGEDLAYER-2
  0
POLYLINE
  8
MERGEDLAYER-2
 66
  1
 70
  1
 62
  0
  0
VERTEX
  8
MERGEDLAYER-2
 10
2.650401
 20
3.746509
 30
0.000000
  0
VERTEX
  8
MERGEDLAYER-2
 10
2.658067
 20
3.746509
 30
0.000000
  0
VERTEX
  8
MERGEDLAYER-2
 10
2.658067
 20
3.553682
 30
0.000000
  0
VERTEX
  8
MERGEDLAYER-2
 10
2.650401
 20
3.553682
 30
0.000000
  0
SEQEND
  8
MERGEDLAYER-2
  0
POLYLINE
  8
MERGEDLAYER-2
 66
  1
 70
  1
 62
  0
  0
VERTEX
  8
MERGEDLAYER-2
 10
2.650401
 20
0.678709
 30
0.000000
  0
VERTEX
  8
MERGEDLAYER-2
 10
2.658067
 20
0.678709
 30
0.000000
  0
VERTEX
  8
MERGEDLAYER-2
 10
2.658067
 20
0.498105
 30
0.000000
  0
VERTEX
  8
MERGEDLAYER-2
 10
2.650401
 20
0.498105
 30
0.000000
  0
SEQEND
  8
MERGEDLAYER-2
  0
POLYLINE
  8
MERGEDLAYER-2
 66
  1
 70
  1
 62
  0
  0
VERTEX
  8
MERGEDLAYER-2
 10
2.658067
 20
0.832301
 30
0.000000
  0
VERTEX
  8
MERGEDLAYER-2
 10
2.665739
 20
0.832301
 30
0.000000
  0
VERTEX
  8
MERGEDLAYER-2
 10
2.665739
 20
0.639462
 30
0.000000
  0
VERTEX
  8
MERGEDLAYER-2
 10
2.658067
 20
0.639462
 30
0.000000
  0
SEQEND
  8
MERGEDLAYER-2
  0
POLYLINE
  8
MERGEDLAYER-2
 66
  1
 70
  1
 62
  0
  0
VERTEX
  8
MERGEDLAYER-2
 10
2.650401
 20
0.985680
 30
0.000000
  0
VERTEX
  8
MERGEDLAYER-2
 10
2.658067
 20
0.985680
 30
0.000000
  0
VERTEX
  8
MERGEDLAYER-2
 10
2.658067
 20
0.792842
 30
0.000000
  0
VERTEX
  8
MERGEDLAYER-2
 10
2.650401
 20
0.792842
 30
0.000000
  0
SEQEND
  8
MERGEDLAYER-2
  0
POLYLINE
  8
MERGEDLAYER-2
 66
  1
 70
  1
 62
  0
  0
VERTEX
  8
MERGEDLAYER-2
 10
2.658067
 20
1.139060
 30
0.000000
  0
VERTEX
  8
MERGEDLAYER-2
 10
2.665739
 20
1.139060
 30
0.000000
  0
VERTEX
  8
MERGEDLAYER-2
 10
2.665739
 20
0.946222
 30
0.000000
  0
VERTEX
  8
MERGEDLAYER-2
 10
2.658067
 20
0.946222
 30
0.000000
  0
SEQEND
  8
MERGEDLAYER-2
  0
POLYLINE
  8
MERGEDLAYER-2
 66
  1
 70
  1
 62
  0
  0
VERTEX
  8
MERGEDLAYER-2
 10
2.650401
 20
1.292438
 30
0.000000
  0
VERTEX
  8
MERGEDLAYER-2
 10
2.658067
 20
1.292438
 30
0.000000
  0
VERTEX
  8
MERGEDLAYER-2
 10
2.658067
 20
1.099602
 30
0.000000
  0
VERTEX
  8
MERGEDLAYER-2
 10
2.650401
 20
1.099602
 30
0.000000
  0
SEQEND
  8
MERGEDLAYER-2
  0
POLYLINE
  8
MERGEDLAYER-2
 66
  1
 70
  1
 62
  0
  0
VERTEX
  8
MERGEDLAYER-2
 10
2.658067
 20
1.445821
 30
0.000000
  0
VERTEX
  8
MERGEDLAYER-2
 10
2.665739
 20
1.445821
 30
0.000000
  0
VERTEX
  8
MERGEDLAYER-2
 10
2.665739
 20
1.252979
 30
0.000000
  0
VERTEX
  8
MERGEDLAYER-2
 10
2.658067
 20
1.252979
 30
0.000000
  0
SEQEND
  8
MERGEDLAYER-2
  0
POLYLINE
  8
MERGEDLAYER-2
 66
  1
 70
  1
 62
  0
  0
VERTEX
  8
MERGEDLAYER-2
 10
2.650401
 20
1.599198
 30
0.000000
  0
VERTEX
  8
MERGEDLAYER-2
 10
2.658067
 20
1.599198
 30
0.000000
  0
VERTEX
  8
MERGEDLAYER-2
 10
2.658067
 20
1.406360
 30
0.000000
  0
VERTEX
  8
MERGEDLAYER-2
 10
2.650401
 20
1.406360
 30
0.000000
  0
SEQEND
  8
MERGEDLAYER-2
  0
POLYLINE
  8
MERGEDLAYER-2
 66
  1
 70
  1
 62
  0
  0
VERTEX
  8
MERGEDLAYER-2
 10
2.658067
 20
1.752579
 30
0.000000
  0
VERTEX
  8
MERGEDLAYER-2
 10
2.665739
 20
1.752579
 30
0.000000
  0
VERTEX
  8
MERGEDLAYER-2
 10
2.665739
 20
1.559736
 30
0.000000
  0
VERTEX
  8
MERGEDLAYER-2
 10
2.658067
 20
1.559736
 30
0.000000
  0
SEQEND
  8
MERGEDLAYER-2
  0
POLYLINE
  8
MERGEDLAYER-2
 66
  1
 70
  1
 62
  0
  0
VERTEX
  8
MERGEDLAYER-2
 10
2.650401
 20
1.905959
 30
0.000000
  0
VERTEX
  8
MERGEDLAYER-2
 10
2.658067
 20
1.905959
 30
0.000000
  0
VERTEX
  8
MERGEDLAYER-2
 10
2.658067
 20
1.713119
 30
0.000000
  0
VERTEX
  8
MERGEDLAYER-2
 10
2.650401
 20
1.713119
 30
0.000000
  0
SEQEND
  8
MERGEDLAYER-2
  0
POLYLINE
  8
MERGEDLAYER-2
 66
  1
 70
  1
 62
  0
  0
VERTEX
  8
MERGEDLAYER-2
 10
2.658067
 20
2.059335
 30
0.000000
  0
VERTEX
  8
MERGEDLAYER-2
 10
2.665739
 20
2.059335
 30
0.000000
  0
VERTEX
  8
MERGEDLAYER-2
 10
2.665739
 20
1.866497
 30
0.000000
  0
VERTEX
  8
MERGEDLAYER-2
 10
2.658067
 20
1.866497
 30
0.000000
  0
SEQEND
  8
MERGEDLAYER-2
  0
POLYLINE
  8
MERGEDLAYER-2
 66
  1
 70
  1
 62
  0
  0
VERTEX
  8
MERGEDLAYER-2
 10
2.650401
 20
2.212717
 30
0.000000
  0
VERTEX
  8
MERGEDLAYER-2
 10
2.658067
 20
2.212717
 30
0.000000
  0
VERTEX
  8
MERGEDLAYER-2
 10
2.658067
 20
2.019875
 30
0.000000
  0
VERTEX
  8
MERGEDLAYER-2
 10
2.650401
 20
2.019875
 30
0.000000
  0
SEQEND
  8
MERGEDLAYER-2
  0
POLYLINE
  8
MERGEDLAYER-2
 66
  1
 70
  1
 62
  0
  0
VERTEX
  8
MERGEDLAYER-2
 10
2.658067
 20
2.366095
 30
0.000000
  0
VERTEX
  8
MERGEDLAYER-2
 10
2.665739
 20
2.366095
 30
0.000000
  0
VERTEX
  8
MERGEDLAYER-2
 10
2.665739
 20
2.173255
 30
0.000000
  0
VERTEX
  8
MERGEDLAYER-2
 10
2.658067
 20
2.173255
 30
0.000000
  0
SEQEND
  8
MERGEDLAYER-2
  0
POLYLINE
  8
MERGEDLAYER-2
 66
  1
 70
  1
 62
  0
  0
VERTEX
  8
MERGEDLAYER-2
 10
2.650401
 20
2.519476
 30
0.000000
  0
VERTEX
  8
MERGEDLAYER-2
 10
2.658067
 20
2.519476
 30
0.000000
  0
VERTEX
  8
MERGEDLAYER-2
 10
2.658067
 20
2.326636
 30
0.000000
  0
VERTEX
  8
MERGEDLAYER-2
 10
2.650401
 20
2.326636
 30
0.000000
  0
SEQEND
  8
MERGEDLAYER-2
  0
POLYLINE
  8
MERGEDLAYER-2
 66
  1
 70
  1
 62
  0
  0
VERTEX
  8
MERGEDLAYER-2
 10
2.658067
 20
2.672853
 30
0.000000
  0
VERTEX
  8
MERGEDLAYER-2
 10
2.665739
 20
2.672853
 30
0.000000
  0
VERTEX
  8
MERGEDLAYER-2
 10
2.665739
 20
2.480017
 30
0.000000
  0
VERTEX
  8
MERGEDLAYER-2
 10
2.658067
 20
2.480017
 30
0.000000
  0
SEQEND
  8
MERGEDLAYER-2
  0
POLYLINE
  8
MERGEDLAYER-2
 66
  1
 70
  1
 62
  0
  0
VERTEX
  8
MERGEDLAYER-2
 10
2.650401
 20
2.826232
 30
0.000000
  0
VERTEX
  8
MERGEDLAYER-2
 10
2.658067
 20
2.826232
 30
0.000000
  0
VERTEX
  8
MERGEDLAYER-2
 10
2.658067
 20
2.633396
 30
0.000000
  0
VERTEX
  8
MERGEDLAYER-2
 10
2.650401
 20
2.633396
 30
0.000000
  0
SEQEND
  8
MERGEDLAYER-2
  0
POLYLINE
  8
MERGEDLAYER-2
 66
  1
 70
  1
 62
  0
  0
VERTEX
  8
MERGEDLAYER-2
 10
2.658067
 20
2.979612
 30
0.000000
  0
VERTEX
  8
MERGEDLAYER-2
 10
2.665739
 20
2.979612
 30
0.000000
  0
VERTEX
  8
MERGEDLAYER-2
 10
2.665739
 20
2.786773
 30
0.000000
  0
VERTEX
  8
MERGEDLAYER-2
 10
2.658067
 20
2.786773
 30
0.000000
  0
SEQEND
  8
MERGEDLAYER-2
  0
POLYLINE
  8
MERGEDLAYER-2
 66
  1
 70
  1
 62
  0
  0
VERTEX
  8
MERGEDLAYER-2
 10
2.650401
 20
3.132991
 30
0.000000
  0
VERTEX
  8
MERGEDLAYER-2
 10
2.658067
 20
3.132991
 30
0.000000
  0
VERTEX
  8
MERGEDLAYER-2
 10
2.658067
 20
2.940152
 30
0.000000
  0
VERTEX
  8
MERGEDLAYER-2
 10
2.650401
 20
2.940152
 30
0.000000
  0
SEQEND
  8
MERGEDLAYER-2
  0
POLYLINE
  8
MERGEDLAYER-2
 66
  1
 70
  1
 62
  0
  0
VERTEX
  8
MERGEDLAYER-2
 10
2.658067
 20
3.286370
 30
0.000000
  0
VERTEX
  8
MERGEDLAYER-2
 10
2.665739
 20
3.286370
 30
0.000000
  0
VERTEX
  8
MERGEDLAYER-2
 10
2.665739
 20
3.093532
 30
0.000000
  0
VERTEX
  8
MERGEDLAYER-2
 10
2.658067
 20
3.093532
 30
0.000000
  0
SEQEND
  8
MERGEDLAYER-2
  0
POLYLINE
  8
MERGEDLAYER-2
 66
  1
 70
  1
 62
  0
  0
VERTEX
  8
MERGEDLAYER-2
 10
2.650401
 20
3.439750
 30
0.000000
  0
VERTEX
  8
MERGEDLAYER-2
 10
2.658067
 20
3.439750
 30
0.000000
  0
VERTEX
  8
MERGEDLAYER-2
 10
2.658067
 20
3.246912
 30
0.000000
  0
VERTEX
  8
MERGEDLAYER-2
 10
2.650401
 20
3.246912
 30
0.000000
  0
SEQEND
  8
MERGEDLAYER-2
  0
POLYLINE
  8
MERGEDLAYER-2
 66
  1
 70
  1
 62
  0
  0
VERTEX
  8
MERGEDLAYER-2
 10
2.658067
 20
3.899415
 30
0.000000
  0
VERTEX
  8
MERGEDLAYER-2
 10
2.665739
 20
3.899415
 30
0.000000
  0
VERTEX
  8
MERGEDLAYER-2
 10
2.665739
 20
3.706577
 30
0.000000
  0
VERTEX
  8
MERGEDLAYER-2
 10
2.658067
 20
3.706577
 30
0.000000
  0
SEQEND
  8
MERGEDLAYER-2
  0
POLYLINE
  8
MERGEDLAYER-2
 66
  1
 70
  1
 62
  0
  0
VERTEX
  8
MERGEDLAYER-2
 10
2.650401
 20
4.052794
 30
0.000000
  0
VERTEX
  8
MERGEDLAYER-2
 10
2.658067
 20
4.052794
 30
0.000000
  0
VERTEX
  8
MERGEDLAYER-2
 10
2.658067
 20
3.859967
 30
0.000000
  0
VERTEX
  8
MERGEDLAYER-2
 10
2.650401
 20
3.859967
 30
0.000000
  0
SEQEND
  8
MERGEDLAYER-2
  0
POLYLINE
  8
MERGEDLAYER-2
 66
  1
 70
  1
 62
  0
  0
VERTEX
  8
MERGEDLAYER-2
 10
2.658067
 20
4.205700
 30
0.000000
  0
VERTEX
  8
MERGEDLAYER-2
 10
2.665739
 20
4.205700
 30
0.000000
  0
VERTEX
  8
MERGEDLAYER-2
 10
2.665739
 20
4.012862
 30
0.000000
  0
VERTEX
  8
MERGEDLAYER-2
 10
2.658067
 20
4.012862
 30
0.000000
  0
SEQEND
  8
MERGEDLAYER-2
  0
POLYLINE
  8
MERGEDLAYER-2
 66
  1
 70
  1
 62
  0
  0
VERTEX
  8
MERGEDLAYER-2
 10
2.650401
 20
4.359080
 30
0.000000
  0
VERTEX
  8
MERGEDLAYER-2
 10
2.658067
 20
4.359080
 30
0.000000
  0
VERTEX
  8
MERGEDLAYER-2
 10
2.658067
 20
4.166252
 30
0.000000
  0
VERTEX
  8
MERGEDLAYER-2
 10
2.650401
 20
4.166252
 30
0.000000
  0
SEQEND
  8
MERGEDLAYER-2
  0
POLYLINE
  8
MERGEDLAYER-2
 66
  1
 70
  1
 62
  0
  0
VERTEX
  8
MERGEDLAYER-2
 10
2.658067
 20
4.511986
 30
0.000000
  0
VERTEX
  8
MERGEDLAYER-2
 10
2.665739
 20
4.511986
 30
0.000000
  0
VERTEX
  8
MERGEDLAYER-2
 10
2.665739
 20
4.319149
 30
0.000000
  0
VERTEX
  8
MERGEDLAYER-2
 10
2.658067
 20
4.319149
 30
0.000000
  0
SEQEND
  8
MERGEDLAYER-2
  0
POLYLINE
  8
MERGEDLAYER-2
 66
  1
 70
  1
 62
  0
  0
VERTEX
  8
MERGEDLAYER-2
 10
2.650401
 20
4.665366
 30
0.000000
  0
VERTEX
  8
MERGEDLAYER-2
 10
2.658067
 20
4.665366
 30
0.000000
  0
VERTEX
  8
MERGEDLAYER-2
 10
2.658067
 20
4.472539
 30
0.000000
  0
VERTEX
  8
MERGEDLAYER-2
 10
2.650401
 20
4.472539
 30
0.000000
  0
SEQEND
  8
MERGEDLAYER-2
  0
POLYLINE
  8
MERGEDLAYER-2
 66
  1
 70
  1
 62
  0
  0
VERTEX
  8
MERGEDLAYER-2
 10
2.658067
 20
4.818272
 30
0.000000
  0
VERTEX
  8
MERGEDLAYER-2
 10
2.665739
 20
4.818272
 30
0.000000
  0
VERTEX
  8
MERGEDLAYER-2
 10
2.665739
 20
4.625434
 30
0.000000
  0
VERTEX
  8
MERGEDLAYER-2
 10
2.658067
 20
4.625434
 30
0.000000
  0
SEQEND
  8
MERGEDLAYER-2
  0
POLYLINE
  8
MERGEDLAYER-2
 66
  1
 70
  1
 62
  0
  0
VERTEX
  8
MERGEDLAYER-2
 10
2.650401
 20
4.971652
 30
0.000000
  0
VERTEX
  8
MERGEDLAYER-2
 10
2.658067
 20
4.971652
 30
0.000000
  0
VERTEX
  8
MERGEDLAYER-2
 10
2.658067
 20
4.778825
 30
0.000000
  0
VERTEX
  8
MERGEDLAYER-2
 10
2.650401
 20
4.778825
 30
0.000000
  0
SEQEND
  8
MERGEDLAYER-2
  0
POLYLINE
  8
MERGEDLAYER-2
 66
  1
 70
  1
 62
  0
  0
VERTEX
  8
MERGEDLAYER-2
 10
2.658067
 20
5.124557
 30
0.000000
  0
VERTEX
  8
MERGEDLAYER-2
 10
2.665739
 20
5.124557
 30
0.000000
  0
VERTEX
  8
MERGEDLAYER-2
 10
2.665739
 20
4.931720
 30
0.000000
  0
VERTEX
  8
MERGEDLAYER-2
 10
2.658067
 20
4.931720
 30
0.000000
  0
SEQEND
  8
MERGEDLAYER-2
  0
POLYLINE
  8
MERGEDLAYER-2
 66
  1
 70
  1
 62
  0
  0
VERTEX
  8
MERGEDLAYER-2
 10
2.650401
 20
5.277937
 30
0.000000
  0
VERTEX
  8
MERGEDLAYER-2
 10
2.658067
 20
5.277937
 30
0.000000
  0
VERTEX
  8
MERGEDLAYER-2
 10
2.658067
 20
5.085110
 30
0.000000
  0
VERTEX
  8
MERGEDLAYER-2
 10
2.650401
 20
5.085110
 30
0.000000
  0
SEQEND
  8
MERGEDLAYER-2
  0
POLYLINE
  8
MERGEDLAYER-2
 66
  1
 70
  1
 62
  0
  0
VERTEX
  8
MERGEDLAYER-2
 10
3.217867
 20
3.593130
 30
0.000000
  0
VERTEX
  8
MERGEDLAYER-2
 10
3.225539
 20
3.593130
 30
0.000000
  0
VERTEX
  8
MERGEDLAYER-2
 10
3.225539
 20
3.400291
 30
0.000000
  0
VERTEX
  8
MERGEDLAYER-2
 10
3.217867
 20
3.400291
 30
0.000000
  0
SEQEND
  8
MERGEDLAYER-2
  0
POLYLINE
  8
MERGEDLAYER-2
 66
  1
 70
  1
 62
  0
  0
VERTEX
  8
MERGEDLAYER-2
 10
3.210200
 20
3.746509
 30
0.000000
  0
VERTEX
  8
MERGEDLAYER-2
 10
3.217867
 20
3.746509
 30
0.000000
  0
VERTEX
  8
MERGEDLAYER-2
 10
3.217867
 20
3.553682
 30
0.000000
  0
VERTEX
  8
MERGEDLAYER-2
 10
3.210200
 20
3.553682
 30
0.000000
  0
SEQEND
  8
MERGEDLAYER-2
  0
POLYLINE
  8
MERGEDLAYER-2
 66
  1
 70
  1
 62
  0
  0
VERTEX
  8
MERGEDLAYER-2
 10
3.210200
 20
0.678709
 30
0.000000
  0
VERTEX
  8
MERGEDLAYER-2
 10
3.217867
 20
0.678709
 30
0.000000
  0
VERTEX
  8
MERGEDLAYER-2
 10
3.217867
 20
0.498105
 30
0.000000
  0
VERTEX
  8
MERGEDLAYER-2
 10
3.210200
 20
0.498105
 30
0.000000
  0
SEQEND
  8
MERGEDLAYER-2
  0
POLYLINE
  8
MERGEDLAYER-2
 66
  1
 70
  1
 62
  0
  0
VERTEX
  8
MERGEDLAYER-2
 10
3.217867
 20
0.832301
 30
0.000000
  0
VERTEX
  8
MERGEDLAYER-2
 10
3.225539
 20
0.832301
 30
0.000000
  0
VERTEX
  8
MERGEDLAYER-2
 10
3.225539
 20
0.639462
 30
0.000000
  0
VERTEX
  8
MERGEDLAYER-2
 10
3.217867
 20
0.639462
 30
0.000000
  0
SEQEND
  8
MERGEDLAYER-2
  0
POLYLINE
  8
MERGEDLAYER-2
 66
  1
 70
  1
 62
  0
  0
VERTEX
  8
MERGEDLAYER-2
 10
3.210200
 20
0.985680
 30
0.000000
  0
VERTEX
  8
MERGEDLAYER-2
 10
3.217867
 20
0.985680
 30
0.000000
  0
VERTEX
  8
MERGEDLAYER-2
 10
3.217867
 20
0.792842
 30
0.000000
  0
VERTEX
  8
MERGEDLAYER-2
 10
3.210200
 20
0.792842
 30
0.000000
  0
SEQEND
  8
MERGEDLAYER-2
  0
POLYLINE
  8
MERGEDLAYER-2
 66
  1
 70
  1
 62
  0
  0
VERTEX
  8
MERGEDLAYER-2
 10
3.217867
 20
1.139060
 30
0.000000
  0
VERTEX
  8
MERGEDLAYER-2
 10
3.225539
 20
1.139060
 30
0.000000
  0
VERTEX
  8
MERGEDLAYER-2
 10
3.225539
 20
0.946222
 30
0.000000
  0
VERTEX
  8
MERGEDLAYER-2
 10
3.217867
 20
0.946222
 30
0.000000
  0
SEQEND
  8
MERGEDLAYER-2
  0
POLYLINE
  8
MERGEDLAYER-2
 66
  1
 70
  1
 62
  0
  0
VERTEX
  8
MERGEDLAYER-2
 10
3.210200
 20
1.292438
 30
0.000000
  0
VERTEX
  8
MERGEDLAYER-2
 10
3.217867
 20
1.292438
 30
0.000000
  0
VERTEX
  8
MERGEDLAYER-2
 10
3.217867
 20
1.099602
 30
0.000000
  0
VERTEX
  8
MERGEDLAYER-2
 10
3.210200
 20
1.099602
 30
0.000000
  0
SEQEND
  8
MERGEDLAYER-2
  0
POLYLINE
  8
MERGEDLAYER-2
 66
  1
 70
  1
 62
  0
  0
VERTEX
  8
MERGEDLAYER-2
 10
3.217867
 20
1.445821
 30
0.000000
  0
VERTEX
  8
MERGEDLAYER-2
 10
3.225539
 20
1.445821
 30
0.000000
  0
VERTEX
  8
MERGEDLAYER-2
 10
3.225539
 20
1.252979
 30
0.000000
  0
VERTEX
  8
MERGEDLAYER-2
 10
3.217867
 20
1.252979
 30
0.000000
  0
SEQEND
  8
MERGEDLAYER-2
  0
POLYLINE
  8
MERGEDLAYER-2
 66
  1
 70
  1
 62
  0
  0
VERTEX
  8
MERGEDLAYER-2
 10
3.210200
 20
1.599198
 30
0.000000
  0
VERTEX
  8
MERGEDLAYER-2
 10
3.217867
 20
1.599198
 30
0.000000
  0
VERTEX
  8
MERGEDLAYER-2
 10
3.217867
 20
1.406360
 30
0.000000
  0
VERTEX
  8
MERGEDLAYER-2
 10
3.210200
 20
1.406360
 30
0.000000
  0
SEQEND
  8
MERGEDLAYER-2
  0
POLYLINE
  8
MERGEDLAYER-2
 66
  1
 70
  1
 62
  0
  0
VERTEX
  8
MERGEDLAYER-2
 10
3.217867
 20
1.752579
 30
0.000000
  0
VERTEX
  8
MERGEDLAYER-2
 10
3.225539
 20
1.752579
 30
0.000000
  0
VERTEX
  8
MERGEDLAYER-2
 10
3.225539
 20
1.559736
 30
0.000000
  0
VERTEX
  8
MERGEDLAYER-2
 10
3.217867
 20
1.559736
 30
0.000000
  0
SEQEND
  8
MERGEDLAYER-2
  0
POLYLINE
  8
MERGEDLAYER-2
 66
  1
 70
  1
 62
  0
  0
VERTEX
  8
MERGEDLAYER-2
 10
3.210200
 20
1.905959
 30
0.000000
  0
VERTEX
  8
MERGEDLAYER-2
 10
3.217867
 20
1.905959
 30
0.000000
  0
VERTEX
  8
MERGEDLAYER-2
 10
3.217867
 20
1.713119
 30
0.000000
  0
VERTEX
  8
MERGEDLAYER-2
 10
3.210200
 20
1.713119
 30
0.000000
  0
SEQEND
  8
MERGEDLAYER-2
  0
POLYLINE
  8
MERGEDLAYER-2
 66
  1
 70
  1
 62
  0
  0
VERTEX
  8
MERGEDLAYER-2
 10
3.217867
 20
2.059335
 30
0.000000
  0
VERTEX
  8
MERGEDLAYER-2
 10
3.225539
 20
2.059335
 30
0.000000
  0
VERTEX
  8
MERGEDLAYER-2
 10
3.225539
 20
1.866497
 30
0.000000
  0
VERTEX
  8
MERGEDLAYER-2
 10
3.217867
 20
1.866497
 30
0.000000
  0
SEQEND
  8
MERGEDLAYER-2
  0
POLYLINE
  8
MERGEDLAYER-2
 66
  1
 70
  1
 62
  0
  0
VERTEX
  8
MERGEDLAYER-2
 10
3.210200
 20
2.212717
 30
0.000000
  0
VERTEX
  8
MERGEDLAYER-2
 10
3.217867
 20
2.212717
 30
0.000000
  0
VERTEX
  8
MERGEDLAYER-2
 10
3.217867
 20
2.019875
 30
0.000000
  0
VERTEX
  8
MERGEDLAYER-2
 10
3.210200
 20
2.019875
 30
0.000000
  0
SEQEND
  8
MERGEDLAYER-2
  0
POLYLINE
  8
MERGEDLAYER-2
 66
  1
 70
  1
 62
  0
  0
VERTEX
  8
MERGEDLAYER-2
 10
3.217867
 20
2.366095
 30
0.000000
  0
VERTEX
  8
MERGEDLAYER-2
 10
3.225539
 20
2.366095
 30
0.000000
  0
VERTEX
  8
MERGEDLAYER-2
 10
3.225539
 20
2.173255
 30
0.000000
  0
VERTEX
  8
MERGEDLAYER-2
 10
3.217867
 20
2.173255
 30
0.000000
  0
SEQEND
  8
MERGEDLAYER-2
  0
POLYLINE
  8
MERGEDLAYER-2
 66
  1
 70
  1
 62
  0
  0
VERTEX
  8
MERGEDLAYER-2
 10
3.210200
 20
2.519476
 30
0.000000
  0
VERTEX
  8
MERGEDLAYER-2
 10
3.217867
 20
2.519476
 30
0.000000
  0
VERTEX
  8
MERGEDLAYER-2
 10
3.217867
 20
2.326636
 30
0.000000
  0
VERTEX
  8
MERGEDLAYER-2
 10
3.210200
 20
2.326636
 30
0.000000
  0
SEQEND
  8
MERGEDLAYER-2
  0
POLYLINE
  8
MERGEDLAYER-2
 66
  1
 70
  1
 62
  0
  0
VERTEX
  8
MERGEDLAYER-2
 10
3.217867
 20
2.672853
 30
0.000000
  0
VERTEX
  8
MERGEDLAYER-2
 10
3.225539
 20
2.672853
 30
0.000000
  0
VERTEX
  8
MERGEDLAYER-2
 10
3.225539
 20
2.480017
 30
0.000000
  0
VERTEX
  8
MERGEDLAYER-2
 10
3.217867
 20
2.480017
 30
0.000000
  0
SEQEND
  8
MERGEDLAYER-2
  0
POLYLINE
  8
MERGEDLAYER-2
 66
  1
 70
  1
 62
  0
  0
VERTEX
  8
MERGEDLAYER-2
 10
3.210200
 20
2.826232
 30
0.000000
  0
VERTEX
  8
MERGEDLAYER-2
 10
3.217867
 20
2.826232
 30
0.000000
  0
VERTEX
  8
MERGEDLAYER-2
 10
3.217867
 20
2.633396
 30
0.000000
  0
VERTEX
  8
MERGEDLAYER-2
 10
3.210200
 20
2.633396
 30
0.000000
  0
SEQEND
  8
MERGEDLAYER-2
  0
POLYLINE
  8
MERGEDLAYER-2
 66
  1
 70
  1
 62
  0
  0
VERTEX
  8
MERGEDLAYER-2
 10
3.217867
 20
2.979612
 30
0.000000
  0
VERTEX
  8
MERGEDLAYER-2
 10
3.225539
 20
2.979612
 30
0.000000
  0
VERTEX
  8
MERGEDLAYER-2
 10
3.225539
 20
2.786773
 30
0.000000
  0
VERTEX
  8
MERGEDLAYER-2
 10
3.217867
 20
2.786773
 30
0.000000
  0
SEQEND
  8
MERGEDLAYER-2
  0
POLYLINE
  8
MERGEDLAYER-2
 66
  1
 70
  1
 62
  0
  0
VERTEX
  8
MERGEDLAYER-2
 10
3.210200
 20
3.132991
 30
0.000000
  0
VERTEX
  8
MERGEDLAYER-2
 10
3.217867
 20
3.132991
 30
0.000000
  0
VERTEX
  8
MERGEDLAYER-2
 10
3.217867
 20
2.940152
 30
0.000000
  0
VERTEX
  8
MERGEDLAYER-2
 10
3.210200
 20
2.940152
 30
0.000000
  0
SEQEND
  8
MERGEDLAYER-2
  0
POLYLINE
  8
MERGEDLAYER-2
 66
  1
 70
  1
 62
  0
  0
VERTEX
  8
MERGEDLAYER-2
 10
3.217867
 20
3.286370
 30
0.000000
  0
VERTEX
  8
MERGEDLAYER-2
 10
3.225539
 20
3.286370
 30
0.000000
  0
VERTEX
  8
MERGEDLAYER-2
 10
3.225539
 20
3.093532
 30
0.000000
  0
VERTEX
  8
MERGEDLAYER-2
 10
3.217867
 20
3.093532
 30
0.000000
  0
SEQEND
  8
MERGEDLAYER-2
  0
POLYLINE
  8
MERGEDLAYER-2
 66
  1
 70
  1
 62
  0
  0
VERTEX
  8
MERGEDLAYER-2
 10
3.210200
 20
3.439750
 30
0.000000
  0
VERTEX
  8
MERGEDLAYER-2
 10
3.217867
 20
3.439750
 30
0.000000
  0
VERTEX
  8
MERGEDLAYER-2
 10
3.217867
 20
3.246912
 30
0.000000
  0
VERTEX
  8
MERGEDLAYER-2
 10
3.210200
 20
3.246912
 30
0.000000
  0
SEQEND
  8
MERGEDLAYER-2
  0
POLYLINE
  8
MERGEDLAYER-2
 66
  1
 70
  1
 62
  0
  0
VERTEX
  8
MERGEDLAYER-2
 10
3.217867
 20
3.899415
 30
0.000000
  0
VERTEX
  8
MERGEDLAYER-2
 10
3.225539
 20
3.899415
 30
0.000000
  0
VERTEX
  8
MERGEDLAYER-2
 10
3.225539
 20
3.706577
 30
0.000000
  0
VERTEX
  8
MERGEDLAYER-2
 10
3.217867
 20
3.706577
 30
0.000000
  0
SEQEND
  8
MERGEDLAYER-2
  0
POLYLINE
  8
MERGEDLAYER-2
 66
  1
 70
  1
 62
  0
  0
VERTEX
  8
MERGEDLAYER-2
 10
3.210200
 20
4.052794
 30
0.000000
  0
VERTEX
  8
MERGEDLAYER-2
 10
3.217867
 20
4.052794
 30
0.000000
  0
VERTEX
  8
MERGEDLAYER-2
 10
3.217867
 20
3.859967
 30
0.000000
  0
VERTEX
  8
MERGEDLAYER-2
 10
3.210200
 20
3.859967
 30
0.000000
  0
SEQEND
  8
MERGEDLAYER-2
  0
POLYLINE
  8
MERGEDLAYER-2
 66
  1
 70
  1
 62
  0
  0
VERTEX
  8
MERGEDLAYER-2
 10
3.217867
 20
4.205700
 30
0.000000
  0
VERTEX
  8
MERGEDLAYER-2
 10
3.225539
 20
4.205700
 30
0.000000
  0
VERTEX
  8
MERGEDLAYER-2
 10
3.225539
 20
4.012862
 30
0.000000
  0
VERTEX
  8
MERGEDLAYER-2
 10
3.217867
 20
4.012862
 30
0.000000
  0
SEQEND
  8
MERGEDLAYER-2
  0
POLYLINE
  8
MERGEDLAYER-2
 66
  1
 70
  1
 62
  0
  0
VERTEX
  8
MERGEDLAYER-2
 10
3.210200
 20
4.359080
 30
0.000000
  0
VERTEX
  8
MERGEDLAYER-2
 10
3.217867
 20
4.359080
 30
0.000000
  0
VERTEX
  8
MERGEDLAYER-2
 10
3.217867
 20
4.166252
 30
0.000000
  0
VERTEX
  8
MERGEDLAYER-2
 10
3.210200
 20
4.166252
 30
0.000000
  0
SEQEND
  8
MERGEDLAYER-2
  0
POLYLINE
  8
MERGEDLAYER-2
 66
  1
 70
  1
 62
  0
  0
VERTEX
  8
MERGEDLAYER-2
 10
3.217867
 20
4.511986
 30
0.000000
  0
VERTEX
  8
MERGEDLAYER-2
 10
3.225539
 20
4.511986
 30
0.000000
  0
VERTEX
  8
MERGEDLAYER-2
 10
3.225539
 20
4.319149
 30
0.000000
  0
VERTEX
  8
MERGEDLAYER-2
 10
3.217867
 20
4.319149
 30
0.000000
  0
SEQEND
  8
MERGEDLAYER-2
  0
POLYLINE
  8
MERGEDLAYER-2
 66
  1
 70
  1
 62
  0
  0
VERTEX
  8
MERGEDLAYER-2
 10
3.210200
 20
4.665366
 30
0.000000
  0
VERTEX
  8
MERGEDLAYER-2
 10
3.217867
 20
4.665366
 30
0.000000
  0
VERTEX
  8
MERGEDLAYER-2
 10
3.217867
 20
4.472539
 30
0.000000
  0
VERTEX
  8
MERGEDLAYER-2
 10
3.210200
 20
4.472539
 30
0.000000
  0
SEQEND
  8
MERGEDLAYER-2
  0
POLYLINE
  8
MERGEDLAYER-2
 66
  1
 70
  1
 62
  0
  0
VERTEX
  8
MERGEDLAYER-2
 10
3.217867
 20
4.818272
 30
0.000000
  0
VERTEX
  8
MERGEDLAYER-2
 10
3.225539
 20
4.818272
 30
0.000000
  0
VERTEX
  8
MERGEDLAYER-2
 10
3.225539
 20
4.625434
 30
0.000000
  0
VERTEX
  8
MERGEDLAYER-2
 10
3.217867
 20
4.625434
 30
0.000000
  0
SEQEND
  8
MERGEDLAYER-2
  0
POLYLINE
  8
MERGEDLAYER-2
 66
  1
 70
  1
 62
  0
  0
VERTEX
  8
MERGEDLAYER-2
 10
3.210200
 20
4.971652
 30
0.000000
  0
VERTEX
  8
MERGEDLAYER-2
 10
3.217867
 20
4.971652
 30
0.000000
  0
VERTEX
  8
MERGEDLAYER-2
 10
3.217867
 20
4.778825
 30
0.000000
  0
VERTEX
  8
MERGEDLAYER-2
 10
3.210200
 20
4.778825
 30
0.000000
  0
SEQEND
  8
MERGEDLAYER-2
  0
POLYLINE
  8
MERGEDLAYER-2
 66
  1
 70
  1
 62
  0
  0
VERTEX
  8
MERGEDLAYER-2
 10
3.217867
 20
5.124557
 30
0.000000
  0
VERTEX
  8
MERGEDLAYER-2
 10
3.225539
 20
5.124557
 30
0.000000
  0
VERTEX
  8
MERGEDLAYER-2
 10
3.225539
 20
4.931720
 30
0.000000
  0
VERTEX
  8
MERGEDLAYER-2
 10
3.217867
 20
4.931720
 30
0.000000
  0
SEQEND
  8
MERGEDLAYER-2
  0
POLYLINE
  8
MERGEDLAYER-2
 66
  1
 70
  1
 62
  0
  0
VERTEX
  8
MERGEDLAYER-2
 10
3.210200
 20
5.277937
 30
0.000000
  0
VERTEX
  8
MERGEDLAYER-2
 10
3.217867
 20
5.277937
 30
0.000000
  0
VERTEX
  8
MERGEDLAYER-2
 10
3.217867
 20
5.085110
 30
0.000000
  0
VERTEX
  8
MERGEDLAYER-2
 10
3.210200
 20
5.085110
 30
0.000000
  0
SEQEND
  8
MERGEDLAYER-2
  0
POLYLINE
  8
MERGEDLAYER-2
 66
  1
 70
  1
 62
  0
  0
VERTEX
  8
MERGEDLAYER-2
 10
3.777667
 20
3.593130
 30
0.000000
  0
VERTEX
  8
MERGEDLAYER-2
 10
3.785339
 20
3.593130
 30
0.000000
  0
VERTEX
  8
MERGEDLAYER-2
 10
3.785339
 20
3.400291
 30
0.000000
  0
VERTEX
  8
MERGEDLAYER-2
 10
3.777667
 20
3.400291
 30
0.000000
  0
SEQEND
  8
MERGEDLAYER-2
  0
POLYLINE
  8
MERGEDLAYER-2
 66
  1
 70
  1
 62
  0
  0
VERTEX
  8
MERGEDLAYER-2
 10
3.770000
 20
3.746509
 30
0.000000
  0
VERTEX
  8
MERGEDLAYER-2
 10
3.777667
 20
3.746509
 30
0.000000
  0
VERTEX
  8
MERGEDLAYER-2
 10
3.777667
 20
3.553682
 30
0.000000
  0
VERTEX
  8
MERGEDLAYER-2
 10
3.770000
 20
3.553682
 30
0.000000
  0
SEQEND
  8
MERGEDLAYER-2
  0
POLYLINE
  8
MERGEDLAYER-2
 66
  1
 70
  1
 62
  0
  0
VERTEX
  8
MERGEDLAYER-2
 10
3.770000
 20
0.678709
 30
0.000000
  0
VERTEX
  8
MERGEDLAYER-2
 10
3.777667
 20
0.678709
 30
0.000000
  0
VERTEX
  8
MERGEDLAYER-2
 10
3.777667
 20
0.498105
 30
0.000000
  0
VERTEX
  8
MERGEDLAYER-2
 10
3.770000
 20
0.498105
 30
0.000000
  0
SEQEND
  8
MERGEDLAYER-2
  0
POLYLINE
  8
MERGEDLAYER-2
 66
  1
 70
  1
 62
  0
  0
VERTEX
  8
MERGEDLAYER-2
 10
3.777667
 20
0.832301
 30
0.000000
  0
VERTEX
  8
MERGEDLAYER-2
 10
3.785339
 20
0.832301
 30
0.000000
  0
VERTEX
  8
MERGEDLAYER-2
 10
3.785339
 20
0.639462
 30
0.000000
  0
VERTEX
  8
MERGEDLAYER-2
 10
3.777667
 20
0.639462
 30
0.000000
  0
SEQEND
  8
MERGEDLAYER-2
  0
POLYLINE
  8
MERGEDLAYER-2
 66
  1
 70
  1
 62
  0
  0
VERTEX
  8
MERGEDLAYER-2
 10
3.770000
 20
0.985680
 30
0.000000
  0
VERTEX
  8
MERGEDLAYER-2
 10
3.777667
 20
0.985680
 30
0.000000
  0
VERTEX
  8
MERGEDLAYER-2
 10
3.777667
 20
0.792842
 30
0.000000
  0
VERTEX
  8
MERGEDLAYER-2
 10
3.770000
 20
0.792842
 30
0.000000
  0
SEQEND
  8
MERGEDLAYER-2
  0
POLYLINE
  8
MERGEDLAYER-2
 66
  1
 70
  1
 62
  0
  0
VERTEX
  8
MERGEDLAYER-2
 10
3.777667
 20
1.139060
 30
0.000000
  0
VERTEX
  8
MERGEDLAYER-2
 10
3.785339
 20
1.139060
 30
0.000000
  0
VERTEX
  8
MERGEDLAYER-2
 10
3.785339
 20
0.946222
 30
0.000000
  0
VERTEX
  8
MERGEDLAYER-2
 10
3.777667
 20
0.946222
 30
0.000000
  0
SEQEND
  8
MERGEDLAYER-2
  0
POLYLINE
  8
MERGEDLAYER-2
 66
  1
 70
  1
 62
  0
  0
VERTEX
  8
MERGEDLAYER-2
 10
3.770000
 20
1.292438
 30
0.000000
  0
VERTEX
  8
MERGEDLAYER-2
 10
3.777667
 20
1.292438
 30
0.000000
  0
VERTEX
  8
MERGEDLAYER-2
 10
3.777667
 20
1.099602
 30
0.000000
  0
VERTEX
  8
MERGEDLAYER-2
 10
3.770000
 20
1.099602
 30
0.000000
  0
SEQEND
  8
MERGEDLAYER-2
  0
POLYLINE
  8
MERGEDLAYER-2
 66
  1
 70
  1
 62
  0
  0
VERTEX
  8
MERGEDLAYER-2
 10
3.777667
 20
1.445821
 30
0.000000
  0
VERTEX
  8
MERGEDLAYER-2
 10
3.785339
 20
1.445821
 30
0.000000
  0
VERTEX
  8
MERGEDLAYER-2
 10
3.785339
 20
1.252979
 30
0.000000
  0
VERTEX
  8
MERGEDLAYER-2
 10
3.777667
 20
1.252979
 30
0.000000
  0
SEQEND
  8
MERGEDLAYER-2
  0
POLYLINE
  8
MERGEDLAYER-2
 66
  1
 70
  1
 62
  0
  0
VERTEX
  8
MERGEDLAYER-2
 10
3.770000
 20
1.599198
 30
0.000000
  0
VERTEX
  8
MERGEDLAYER-2
 10
3.777667
 20
1.599198
 30
0.000000
  0
VERTEX
  8
MERGEDLAYER-2
 10
3.777667
 20
1.406360
 30
0.000000
  0
VERTEX
  8
MERGEDLAYER-2
 10
3.770000
 20
1.406360
 30
0.000000
  0
SEQEND
  8
MERGEDLAYER-2
  0
POLYLINE
  8
MERGEDLAYER-2
 66
  1
 70
  1
 62
  0
  0
VERTEX
  8
MERGEDLAYER-2
 10
3.777667
 20
1.752579
 30
0.000000
  0
VERTEX
  8
MERGEDLAYER-2
 10
3.785339
 20
1.752579
 30
0.000000
  0
VERTEX
  8
MERGEDLAYER-2
 10
3.785339
 20
1.559736
 30
0.000000
  0
VERTEX
  8
MERGEDLAYER-2
 10
3.777667
 20
1.559736
 30
0.000000
  0
SEQEND
  8
MERGEDLAYER-2
  0
POLYLINE
  8
MERGEDLAYER-2
 66
  1
 70
  1
 62
  0
  0
VERTEX
  8
MERGEDLAYER-2
 10
3.770000
 20
1.905959
 30
0.000000
  0
VERTEX
  8
MERGEDLAYER-2
 10
3.777667
 20
1.905959
 30
0.000000
  0
VERTEX
  8
MERGEDLAYER-2
 10
3.777667
 20
1.713119
 30
0.000000
  0
VERTEX
  8
MERGEDLAYER-2
 10
3.770000
 20
1.713119
 30
0.000000
  0
SEQEND
  8
MERGEDLAYER-2
  0
POLYLINE
  8
MERGEDLAYER-2
 66
  1
 70
  1
 62
  0
  0
VERTEX
  8
MERGEDLAYER-2
 10
3.777667
 20
2.059335
 30
0.000000
  0
VERTEX
  8
MERGEDLAYER-2
 10
3.785339
 20
2.059335
 30
0.000000
  0
VERTEX
  8
MERGEDLAYER-2
 10
3.785339
 20
1.866497
 30
0.000000
  0
VERTEX
  8
MERGEDLAYER-2
 10
3.777667
 20
1.866497
 30
0.000000
  0
SEQEND
  8
MERGEDLAYER-2
  0
POLYLINE
  8
MERGEDLAYER-2
 66
  1
 70
  1
 62
  0
  0
VERTEX
  8
MERGEDLAYER-2
 10
3.770000
 20
2.212717
 30
0.000000
  0
VERTEX
  8
MERGEDLAYER-2
 10
3.777667
 20
2.212717
 30
0.000000
  0
VERTEX
  8
MERGEDLAYER-2
 10
3.777667
 20
2.019875
 30
0.000000
  0
VERTEX
  8
MERGEDLAYER-2
 10
3.770000
 20
2.019875
 30
0.000000
  0
SEQEND
  8
MERGEDLAYER-2
  0
POLYLINE
  8
MERGEDLAYER-2
 66
  1
 70
  1
 62
  0
  0
VERTEX
  8
MERGEDLAYER-2
 10
3.777667
 20
2.366095
 30
0.000000
  0
VERTEX
  8
MERGEDLAYER-2
 10
3.785339
 20
2.366095
 30
0.000000
  0
VERTEX
  8
MERGEDLAYER-2
 10
3.785339
 20
2.173255
 30
0.000000
  0
VERTEX
  8
MERGEDLAYER-2
 10
3.777667
 20
2.173255
 30
0.000000
  0
SEQEND
  8
MERGEDLAYER-2
  0
POLYLINE
  8
MERGEDLAYER-2
 66
  1
 70
  1
 62
  0
  0
VERTEX
  8
MERGEDLAYER-2
 10
3.770000
 20
2.519476
 30
0.000000
  0
VERTEX
  8
MERGEDLAYER-2
 10
3.777667
 20
2.519476
 30
0.000000
  0
VERTEX
  8
MERGEDLAYER-2
 10
3.777667
 20
2.326636
 30
0.000000
  0
VERTEX
  8
MERGEDLAYER-2
 10
3.770000
 20
2.326636
 30
0.000000
  0
SEQEND
  8
MERGEDLAYER-2
  0
POLYLINE
  8
MERGEDLAYER-2
 66
  1
 70
  1
 62
  0
  0
VERTEX
  8
MERGEDLAYER-2
 10
3.777667
 20
2.672853
 30
0.000000
  0
VERTEX
  8
MERGEDLAYER-2
 10
3.785339
 20
2.672853
 30
0.000000
  0
VERTEX
  8
MERGEDLAYER-2
 10
3.785339
 20
2.480017
 30
0.000000
  0
VERTEX
  8
MERGEDLAYER-2
 10
3.777667
 20
2.480017
 30
0.000000
  0
SEQEND
  8
MERGEDLAYER-2
  0
POLYLINE
  8
MERGEDLAYER-2
 66
  1
 70
  1
 62
  0
  0
VERTEX
  8
MERGEDLAYER-2
 10
3.770000
 20
2.826232
 30
0.000000
  0
VERTEX
  8
MERGEDLAYER-2
 10
3.777667
 20
2.826232
 30
0.000000
  0
VERTEX
  8
MERGEDLAYER-2
 10
3.777667
 20
2.633396
 30
0.000000
  0
VERTEX
  8
MERGEDLAYER-2
 10
3.770000
 20
2.633396
 30
0.000000
  0
SEQEND
  8
MERGEDLAYER-2
  0
POLYLINE
  8
MERGEDLAYER-2
 66
  1
 70
  1
 62
  0
  0
VERTEX
  8
MERGEDLAYER-2
 10
3.777667
 20
2.979612
 30
0.000000
  0
VERTEX
  8
MERGEDLAYER-2
 10
3.785339
 20
2.979612
 30
0.000000
  0
VERTEX
  8
MERGEDLAYER-2
 10
3.785339
 20
2.786773
 30
0.000000
  0
VERTEX
  8
MERGEDLAYER-2
 10
3.777667
 20
2.786773
 30
0.000000
  0
SEQEND
  8
MERGEDLAYER-2
  0
POLYLINE
  8
MERGEDLAYER-2
 66
  1
 70
  1
 62
  0
  0
VERTEX
  8
MERGEDLAYER-2
 10
3.770000
 20
3.132991
 30
0.000000
  0
VERTEX
  8
MERGEDLAYER-2
 10
3.777667
 20
3.132991
 30
0.000000
  0
VERTEX
  8
MERGEDLAYER-2
 10
3.777667
 20
2.940152
 30
0.000000
  0
VERTEX
  8
MERGEDLAYER-2
 10
3.770000
 20
2.940152
 30
0.000000
  0
SEQEND
  8
MERGEDLAYER-2
  0
POLYLINE
  8
MERGEDLAYER-2
 66
  1
 70
  1
 62
  0
  0
VERTEX
  8
MERGEDLAYER-2
 10
3.777667
 20
3.286370
 30
0.000000
  0
VERTEX
  8
MERGEDLAYER-2
 10
3.785339
 20
3.286370
 30
0.000000
  0
VERTEX
  8
MERGEDLAYER-2
 10
3.785339
 20
3.093532
 30
0.000000
  0
VERTEX
  8
MERGEDLAYER-2
 10
3.777667
 20
3.093532
 30
0.000000
  0
SEQEND
  8
MERGEDLAYER-2
  0
POLYLINE
  8
MERGEDLAYER-2
 66
  1
 70
  1
 62
  0
  0
VERTEX
  8
MERGEDLAYER-2
 10
3.770000
 20
3.439750
 30
0.000000
  0
VERTEX
  8
MERGEDLAYER-2
 10
3.777667
 20
3.439750
 30
0.000000
  0
VERTEX
  8
MERGEDLAYER-2
 10
3.777667
 20
3.246912
 30
0.000000
  0
VERTEX
  8
MERGEDLAYER-2
 10
3.770000
 20
3.246912
 30
0.000000
  0
SEQEND
  8
MERGEDLAYER-2
  0
POLYLINE
  8
MERGEDLAYER-2
 66
  1
 70
  1
 62
  0
  0
VERTEX
  8
MERGEDLAYER-2
 10
3.777667
 20
3.899415
 30
0.000000
  0
VERTEX
  8
MERGEDLAYER-2
 10
3.785339
 20
3.899415
 30
0.000000
  0
VERTEX
  8
MERGEDLAYER-2
 10
3.785339
 20
3.706577
 30
0.000000
  0
VERTEX
  8
MERGEDLAYER-2
 10
3.777667
 20
3.706577
 30
0.000000
  0
SEQEND
  8
MERGEDLAYER-2
  0
POLYLINE
  8
MERGEDLAYER-2
 66
  1
 70
  1
 62
  0
  0
VERTEX
  8
MERGEDLAYER-2
 10
3.770000
 20
4.052794
 30
0.000000
  0
VERTEX
  8
MERGEDLAYER-2
 10
3.777667
 20
4.052794
 30
0.000000
  0
VERTEX
  8
MERGEDLAYER-2
 10
3.777667
 20
3.859967
 30
0.000000
  0
VERTEX
  8
MERGEDLAYER-2
 10
3.770000
 20
3.859967
 30
0.000000
  0
SEQEND
  8
MERGEDLAYER-2
  0
POLYLINE
  8
MERGEDLAYER-2
 66
  1
 70
  1
 62
  0
  0
VERTEX
  8
MERGEDLAYER-2
 10
3.777667
 20
4.205700
 30
0.000000
  0
VERTEX
  8
MERGEDLAYER-2
 10
3.785339
 20
4.205700
 30
0.000000
  0
VERTEX
  8
MERGEDLAYER-2
 10
3.785339
 20
4.012862
 30
0.000000
  0
VERTEX
  8
MERGEDLAYER-2
 10
3.777667
 20
4.012862
 30
0.000000
  0
SEQEND
  8
MERGEDLAYER-2
  0
POLYLINE
  8
MERGEDLAYER-2
 66
  1
 70
  1
 62
  0
  0
VERTEX
  8
MERGEDLAYER-2
 10
3.770000
 20
4.359080
 30
0.000000
  0
VERTEX
  8
MERGEDLAYER-2
 10
3.777667
 20
4.359080
 30
0.000000
  0
VERTEX
  8
MERGEDLAYER-2
 10
3.777667
 20
4.166252
 30
0.000000
  0
VERTEX
  8
MERGEDLAYER-2
 10
3.770000
 20
4.166252
 30
0.000000
  0
SEQEND
  8
MERGEDLAYER-2
  0
POLYLINE
  8
MERGEDLAYER-2
 66
  1
 70
  1
 62
  0
  0
VERTEX
  8
MERGEDLAYER-2
 10
3.777667
 20
4.511986
 30
0.000000
  0
VERTEX
  8
MERGEDLAYER-2
 10
3.785339
 20
4.511986
 30
0.000000
  0
VERTEX
  8
MERGEDLAYER-2
 10
3.785339
 20
4.319149
 30
0.000000
  0
VERTEX
  8
MERGEDLAYER-2
 10
3.777667
 20
4.319149
 30
0.000000
  0
SEQEND
  8
MERGEDLAYER-2
  0
POLYLINE
  8
MERGEDLAYER-2
 66
  1
 70
  1
 62
  0
  0
VERTEX
  8
MERGEDLAYER-2
 10
3.770000
 20
4.665366
 30
0.000000
  0
VERTEX
  8
MERGEDLAYER-2
 10
3.777667
 20
4.665366
 30
0.000000
  0
VERTEX
  8
MERGEDLAYER-2
 10
3.777667
 20
4.472539
 30
0.000000
  0
VERTEX
  8
MERGEDLAYER-2
 10
3.770000
 20
4.472539
 30
0.000000
  0
SEQEND
  8
MERGEDLAYER-2
  0
POLYLINE
  8
MERGEDLAYER-2
 66
  1
 70
  1
 62
  0
  0
VERTEX
  8
MERGEDLAYER-2
 10
3.777667
 20
4.818272
 30
0.000000
  0
VERTEX
  8
MERGEDLAYER-2
 10
3.785339
 20
4.818272
 30
0.000000
  0
VERTEX
  8
MERGEDLAYER-2
 10
3.785339
 20
4.625434
 30
0.000000
  0
VERTEX
  8
MERGEDLAYER-2
 10
3.777667
 20
4.625434
 30
0.000000
  0
SEQEND
  8
MERGEDLAYER-2
  0
POLYLINE
  8
MERGEDLAYER-2
 66
  1
 70
  1
 62
  0
  0
VERTEX
  8
MERGEDLAYER-2
 10
3.770000
 20
4.971652
 30
0.000000
  0
VERTEX
  8
MERGEDLAYER-2
 10
3.777667
 20
4.971652
 30
0.000000
  0
VERTEX
  8
MERGEDLAYER-2
 10
3.777667
 20
4.778825
 30
0.000000
  0
VERTEX
  8
MERGEDLAYER-2
 10
3.770000
 20
4.778825
 30
0.000000
  0
SEQEND
  8
MERGEDLAYER-2
  0
POLYLINE
  8
MERGEDLAYER-2
 66
  1
 70
  1
 62
  0
  0
VERTEX
  8
MERGEDLAYER-2
 10
3.777667
 20
5.124557
 30
0.000000
  0
VERTEX
  8
MERGEDLAYER-2
 10
3.785339
 20
5.124557
 30
0.000000
  0
VERTEX
  8
MERGEDLAYER-2
 10
3.785339
 20
4.931720
 30
0.000000
  0
VERTEX
  8
MERGEDLAYER-2
 10
3.777667
 20
4.931720
 30
0.000000
  0
SEQEND
  8
MERGEDLAYER-2
  0
POLYLINE
  8
MERGEDLAYER-2
 66
  1
 70
  1
 62
  0
  0
VERTEX
  8
MERGEDLAYER-2
 10
3.770000
 20
5.277937
 30
0.000000
  0
VERTEX
  8
MERGEDLAYER-2
 10
3.777667
 20
5.277937
 30
0.000000
  0
VERTEX
  8
MERGEDLAYER-2
 10
3.777667
 20
5.085110
 30
0.000000
  0
VERTEX
  8
MERGEDLAYER-2
 10
3.770000
 20
5.085110
 30
0.000000
  0
SEQEND
  8
MERGEDLAYER-2
  0
POLYLINE
  8
MERGEDLAYER-2
 66
  1
 70
  1
 62
  0
  0
VERTEX
  8
MERGEDLAYER-2
 10
4.337467
 20
3.593130
 30
0.000000
  0
VERTEX
  8
MERGEDLAYER-2
 10
4.345139
 20
3.593130
 30
0.000000
  0
VERTEX
  8
MERGEDLAYER-2
 10
4.345139
 20
3.400291
 30
0.000000
  0
VERTEX
  8
MERGEDLAYER-2
 10
4.337467
 20
3.400291
 30
0.000000
  0
SEQEND
  8
MERGEDLAYER-2
  0
POLYLINE
  8
MERGEDLAYER-2
 66
  1
 70
  1
 62
  0
  0
VERTEX
  8
MERGEDLAYER-2
 10
4.329800
 20
3.746509
 30
0.000000
  0
VERTEX
  8
MERGEDLAYER-2
 10
4.337467
 20
3.746509
 30
0.000000
  0
VERTEX
  8
MERGEDLAYER-2
 10
4.337467
 20
3.553682
 30
0.000000
  0
VERTEX
  8
MERGEDLAYER-2
 10
4.329800
 20
3.553682
 30
0.000000
  0
SEQEND
  8
MERGEDLAYER-2
  0
POLYLINE
  8
MERGEDLAYER-2
 66
  1
 70
  1
 62
  0
  0
VERTEX
  8
MERGEDLAYER-2
 10
4.329800
 20
0.678709
 30
0.000000
  0
VERTEX
  8
MERGEDLAYER-2
 10
4.337467
 20
0.678709
 30
0.000000
  0
VERTEX
  8
MERGEDLAYER-2
 10
4.337467
 20
0.498105
 30
0.000000
  0
VERTEX
  8
MERGEDLAYER-2
 10
4.329800
 20
0.498105
 30
0.000000
  0
SEQEND
  8
MERGEDLAYER-2
  0
POLYLINE
  8
MERGEDLAYER-2
 66
  1
 70
  1
 62
  0
  0
VERTEX
  8
MERGEDLAYER-2
 10
4.337467
 20
0.832301
 30
0.000000
  0
VERTEX
  8
MERGEDLAYER-2
 10
4.345139
 20
0.832301
 30
0.000000
  0
VERTEX
  8
MERGEDLAYER-2
 10
4.345139
 20
0.639462
 30
0.000000
  0
VERTEX
  8
MERGEDLAYER-2
 10
4.337467
 20
0.639462
 30
0.000000
  0
SEQEND
  8
MERGEDLAYER-2
  0
POLYLINE
  8
MERGEDLAYER-2
 66
  1
 70
  1
 62
  0
  0
VERTEX
  8
MERGEDLAYER-2
 10
4.329800
 20
0.985680
 30
0.000000
  0
VERTEX
  8
MERGEDLAYER-2
 10
4.337467
 20
0.985680
 30
0.000000
  0
VERTEX
  8
MERGEDLAYER-2
 10
4.337467
 20
0.792842
 30
0.000000
  0
VERTEX
  8
MERGEDLAYER-2
 10
4.329800
 20
0.792842
 30
0.000000
  0
SEQEND
  8
MERGEDLAYER-2
  0
POLYLINE
  8
MERGEDLAYER-2
 66
  1
 70
  1
 62
  0
  0
VERTEX
  8
MERGEDLAYER-2
 10
4.337467
 20
1.139060
 30
0.000000
  0
VERTEX
  8
MERGEDLAYER-2
 10
4.345139
 20
1.139060
 30
0.000000
  0
VERTEX
  8
MERGEDLAYER-2
 10
4.345139
 20
0.946222
 30
0.000000
  0
VERTEX
  8
MERGEDLAYER-2
 10
4.337467
 20
0.946222
 30
0.000000
  0
SEQEND
  8
MERGEDLAYER-2
  0
POLYLINE
  8
MERGEDLAYER-2
 66
  1
 70
  1
 62
  0
  0
VERTEX
  8
MERGEDLAYER-2
 10
4.329800
 20
1.292438
 30
0.000000
  0
VERTEX
  8
MERGEDLAYER-2
 10
4.337467
 20
1.292438
 30
0.000000
  0
VERTEX
  8
MERGEDLAYER-2
 10
4.337467
 20
1.099602
 30
0.000000
  0
VERTEX
  8
MERGEDLAYER-2
 10
4.329800
 20
1.099602
 30
0.000000
  0
SEQEND
  8
MERGEDLAYER-2
  0
POLYLINE
  8
MERGEDLAYER-2
 66
  1
 70
  1
 62
  0
  0
VERTEX
  8
MERGEDLAYER-2
 10
4.337467
 20
1.445821
 30
0.000000
  0
VERTEX
  8
MERGEDLAYER-2
 10
4.345139
 20
1.445821
 30
0.000000
  0
VERTEX
  8
MERGEDLAYER-2
 10
4.345139
 20
1.252979
 30
0.000000
  0
VERTEX
  8
MERGEDLAYER-2
 10
4.337467
 20
1.252979
 30
0.000000
  0
SEQEND
  8
MERGEDLAYER-2
  0
POLYLINE
  8
MERGEDLAYER-2
 66
  1
 70
  1
 62
  0
  0
VERTEX
  8
MERGEDLAYER-2
 10
4.329800
 20
1.599198
 30
0.000000
  0
VERTEX
  8
MERGEDLAYER-2
 10
4.337467
 20
1.599198
 30
0.000000
  0
VERTEX
  8
MERGEDLAYER-2
 10
4.337467
 20
1.406360
 30
0.000000
  0
VERTEX
  8
MERGEDLAYER-2
 10
4.329800
 20
1.406360
 30
0.000000
  0
SEQEND
  8
MERGEDLAYER-2
  0
POLYLINE
  8
MERGEDLAYER-2
 66
  1
 70
  1
 62
  0
  0
VERTEX
  8
MERGEDLAYER-2
 10
4.337467
 20
1.752579
 30
0.000000
  0
VERTEX
  8
MERGEDLAYER-2
 10
4.345139
 20
1.752579
 30
0.000000
  0
VERTEX
  8
MERGEDLAYER-2
 10
4.345139
 20
1.559736
 30
0.000000
  0
VERTEX
  8
MERGEDLAYER-2
 10
4.337467
 20
1.559736
 30
0.000000
  0
SEQEND
  8
MERGEDLAYER-2
  0
POLYLINE
  8
MERGEDLAYER-2
 66
  1
 70
  1
 62
  0
  0
VERTEX
  8
MERGEDLAYER-2
 10
4.329800
 20
1.905959
 30
0.000000
  0
VERTEX
  8
MERGEDLAYER-2
 10
4.337467
 20
1.905959
 30
0.000000
  0
VERTEX
  8
MERGEDLAYER-2
 10
4.337467
 20
1.713119
 30
0.000000
  0
VERTEX
  8
MERGEDLAYER-2
 10
4.329800
 20
1.713119
 30
0.000000
  0
SEQEND
  8
MERGEDLAYER-2
  0
POLYLINE
  8
MERGEDLAYER-2
 66
  1
 70
  1
 62
  0
  0
VERTEX
  8
MERGEDLAYER-2
 10
4.337467
 20
2.059335
 30
0.000000
  0
VERTEX
  8
MERGEDLAYER-2
 10
4.345139
 20
2.059335
 30
0.000000
  0
VERTEX
  8
MERGEDLAYER-2
 10
4.345139
 20
1.866497
 30
0.000000
  0
VERTEX
  8
MERGEDLAYER-2
 10
4.337467
 20
1.866497
 30
0.000000
  0
SEQEND
  8
MERGEDLAYER-2
  0
POLYLINE
  8
MERGEDLAYER-2
 66
  1
 70
  1
 62
  0
  0
VERTEX
  8
MERGEDLAYER-2
 10
4.329800
 20
2.212717
 30
0.000000
  0
VERTEX
  8
MERGEDLAYER-2
 10
4.337467
 20
2.212717
 30
0.000000
  0
VERTEX
  8
MERGEDLAYER-2
 10
4.337467
 20
2.019875
 30
0.000000
  0
VERTEX
  8
MERGEDLAYER-2
 10
4.329800
 20
2.019875
 30
0.000000
  0
SEQEND
  8
MERGEDLAYER-2
  0
POLYLINE
  8
MERGEDLAYER-2
 66
  1
 70
  1
 62
  0
  0
VERTEX
  8
MERGEDLAYER-2
 10
4.337467
 20
2.366095
 30
0.000000
  0
VERTEX
  8
MERGEDLAYER-2
 10
4.345139
 20
2.366095
 30
0.000000
  0
VERTEX
  8
MERGEDLAYER-2
 10
4.345139
 20
2.173255
 30
0.000000
  0
VERTEX
  8
MERGEDLAYER-2
 10
4.337467
 20
2.173255
 30
0.000000
  0
SEQEND
  8
MERGEDLAYER-2
  0
POLYLINE
  8
MERGEDLAYER-2
 66
  1
 70
  1
 62
  0
  0
VERTEX
  8
MERGEDLAYER-2
 10
4.329800
 20
2.519476
 30
0.000000
  0
VERTEX
  8
MERGEDLAYER-2
 10
4.337467
 20
2.519476
 30
0.000000
  0
VERTEX
  8
MERGEDLAYER-2
 10
4.337467
 20
2.326636
 30
0.000000
  0
VERTEX
  8
MERGEDLAYER-2
 10
4.329800
 20
2.326636
 30
0.000000
  0
SEQEND
  8
MERGEDLAYER-2
  0
POLYLINE
  8
MERGEDLAYER-2
 66
  1
 70
  1
 62
  0
  0
VERTEX
  8
MERGEDLAYER-2
 10
4.337467
 20
2.672853
 30
0.000000
  0
VERTEX
  8
MERGEDLAYER-2
 10
4.345139
 20
2.672853
 30
0.000000
  0
VERTEX
  8
MERGEDLAYER-2
 10
4.345139
 20
2.480017
 30
0.000000
  0
VERTEX
  8
MERGEDLAYER-2
 10
4.337467
 20
2.480017
 30
0.000000
  0
SEQEND
  8
MERGEDLAYER-2
  0
POLYLINE
  8
MERGEDLAYER-2
 66
  1
 70
  1
 62
  0
  0
VERTEX
  8
MERGEDLAYER-2
 10
4.329800
 20
2.826232
 30
0.000000
  0
VERTEX
  8
MERGEDLAYER-2
 10
4.337467
 20
2.826232
 30
0.000000
  0
VERTEX
  8
MERGEDLAYER-2
 10
4.337467
 20
2.633396
 30
0.000000
  0
VERTEX
  8
MERGEDLAYER-2
 10
4.329800
 20
2.633396
 30
0.000000
  0
SEQEND
  8
MERGEDLAYER-2
  0
POLYLINE
  8
MERGEDLAYER-2
 66
  1
 70
  1
 62
  0
  0
VERTEX
  8
MERGEDLAYER-2
 10
4.337467
 20
2.979612
 30
0.000000
  0
VERTEX
  8
MERGEDLAYER-2
 10
4.345139
 20
2.979612
 30
0.000000
  0
VERTEX
  8
MERGEDLAYER-2
 10
4.345139
 20
2.786773
 30
0.000000
  0
VERTEX
  8
MERGEDLAYER-2
 10
4.337467
 20
2.786773
 30
0.000000
  0
SEQEND
  8
MERGEDLAYER-2
  0
POLYLINE
  8
MERGEDLAYER-2
 66
  1
 70
  1
 62
  0
  0
VERTEX
  8
MERGEDLAYER-2
 10
4.329800
 20
3.132991
 30
0.000000
  0
VERTEX
  8
MERGEDLAYER-2
 10
4.337467
 20
3.132991
 30
0.000000
  0
VERTEX
  8
MERGEDLAYER-2
 10
4.337467
 20
2.940152
 30
0.000000
  0
VERTEX
  8
MERGEDLAYER-2
 10
4.329800
 20
2.940152
 30
0.000000
  0
SEQEND
  8
MERGEDLAYER-2
  0
POLYLINE
  8
MERGEDLAYER-2
 66
  1
 70
  1
 62
  0
  0
VERTEX
  8
MERGEDLAYER-2
 10
4.337467
 20
3.286370
 30
0.000000
  0
VERTEX
  8
MERGEDLAYER-2
 10
4.345139
 20
3.286370
 30
0.000000
  0
VERTEX
  8
MERGEDLAYER-2
 10
4.345139
 20
3.093532
 30
0.000000
  0
VERTEX
  8
MERGEDLAYER-2
 10
4.337467
 20
3.093532
 30
0.000000
  0
SEQEND
  8
MERGEDLAYER-2
  0
POLYLINE
  8
MERGEDLAYER-2
 66
  1
 70
  1
 62
  0
  0
VERTEX
  8
MERGEDLAYER-2
 10
4.329800
 20
3.439750
 30
0.000000
  0
VERTEX
  8
MERGEDLAYER-2
 10
4.337467
 20
3.439750
 30
0.000000
  0
VERTEX
  8
MERGEDLAYER-2
 10
4.337467
 20
3.246912
 30
0.000000
  0
VERTEX
  8
MERGEDLAYER-2
 10
4.329800
 20
3.246912
 30
0.000000
  0
SEQEND
  8
MERGEDLAYER-2
  0
POLYLINE
  8
MERGEDLAYER-2
 66
  1
 70
  1
 62
  0
  0
VERTEX
  8
MERGEDLAYER-2
 10
4.337467
 20
3.899415
 30
0.000000
  0
VERTEX
  8
MERGEDLAYER-2
 10
4.345139
 20
3.899415
 30
0.000000
  0
VERTEX
  8
MERGEDLAYER-2
 10
4.345139
 20
3.706577
 30
0.000000
  0
VERTEX
  8
MERGEDLAYER-2
 10
4.337467
 20
3.706577
 30
0.000000
  0
SEQEND
  8
MERGEDLAYER-2
  0
POLYLINE
  8
MERGEDLAYER-2
 66
  1
 70
  1
 62
  0
  0
VERTEX
  8
MERGEDLAYER-2
 10
4.329800
 20
4.052794
 30
0.000000
  0
VERTEX
  8
MERGEDLAYER-2
 10
4.337467
 20
4.052794
 30
0.000000
  0
VERTEX
  8
MERGEDLAYER-2
 10
4.337467
 20
3.859967
 30
0.000000
  0
VERTEX
  8
MERGEDLAYER-2
 10
4.329800
 20
3.859967
 30
0.000000
  0
SEQEND
  8
MERGEDLAYER-2
  0
POLYLINE
  8
MERGEDLAYER-2
 66
  1
 70
  1
 62
  0
  0
VERTEX
  8
MERGEDLAYER-2
 10
4.337467
 20
4.205700
 30
0.000000
  0
VERTEX
  8
MERGEDLAYER-2
 10
4.345139
 20
4.205700
 30
0.000000
  0
VERTEX
  8
MERGEDLAYER-2
 10
4.345139
 20
4.012862
 30
0.000000
  0
VERTEX
  8
MERGEDLAYER-2
 10
4.337467
 20
4.012862
 30
0.000000
  0
SEQEND
  8
MERGEDLAYER-2
  0
POLYLINE
  8
MERGEDLAYER-2
 66
  1
 70
  1
 62
  0
  0
VERTEX
  8
MERGEDLAYER-2
 10
4.329800
 20
4.359080
 30
0.000000
  0
VERTEX
  8
MERGEDLAYER-2
 10
4.337467
 20
4.359080
 30
0.000000
  0
VERTEX
  8
MERGEDLAYER-2
 10
4.337467
 20
4.166252
 30
0.000000
  0
VERTEX
  8
MERGEDLAYER-2
 10
4.329800
 20
4.166252
 30
0.000000
  0
SEQEND
  8
MERGEDLAYER-2
  0
POLYLINE
  8
MERGEDLAYER-2
 66
  1
 70
  1
 62
  0
  0
VERTEX
  8
MERGEDLAYER-2
 10
4.337467
 20
4.511986
 30
0.000000
  0
VERTEX
  8
MERGEDLAYER-2
 10
4.345139
 20
4.511986
 30
0.000000
  0
VERTEX
  8
MERGEDLAYER-2
 10
4.345139
 20
4.319149
 30
0.000000
  0
VERTEX
  8
MERGEDLAYER-2
 10
4.337467
 20
4.319149
 30
0.000000
  0
SEQEND
  8
MERGEDLAYER-2
  0
POLYLINE
  8
MERGEDLAYER-2
 66
  1
 70
  1
 62
  0
  0
VERTEX
  8
MERGEDLAYER-2
 10
4.329800
 20
4.665366
 30
0.000000
  0
VERTEX
  8
MERGEDLAYER-2
 10
4.337467
 20
4.665366
 30
0.000000
  0
VERTEX
  8
MERGEDLAYER-2
 10
4.337467
 20
4.472539
 30
0.000000
  0
VERTEX
  8
MERGEDLAYER-2
 10
4.329800
 20
4.472539
 30
0.000000
  0
SEQEND
  8
MERGEDLAYER-2
  0
POLYLINE
  8
MERGEDLAYER-2
 66
  1
 70
  1
 62
  0
  0
VERTEX
  8
MERGEDLAYER-2
 10
4.337467
 20
4.818272
 30
0.000000
  0
VERTEX
  8
MERGEDLAYER-2
 10
4.345139
 20
4.818272
 30
0.000000
  0
VERTEX
  8
MERGEDLAYER-2
 10
4.345139
 20
4.625434
 30
0.000000
  0
VERTEX
  8
MERGEDLAYER-2
 10
4.337467
 20
4.625434
 30
0.000000
  0
SEQEND
  8
MERGEDLAYER-2
  0
POLYLINE
  8
MERGEDLAYER-2
 66
  1
 70
  1
 62
  0
  0
VERTEX
  8
MERGEDLAYER-2
 10
4.329800
 20
4.971652
 30
0.000000
  0
VERTEX
  8
MERGEDLAYER-2
 10
4.337467
 20
4.971652
 30
0.000000
  0
VERTEX
  8
MERGEDLAYER-2
 10
4.337467
 20
4.778825
 30
0.000000
  0
VERTEX
  8
MERGEDLAYER-2
 10
4.329800
 20
4.778825
 30
0.000000
  0
SEQEND
  8
MERGEDLAYER-2
  0
POLYLINE
  8
MERGEDLAYER-2
 66
  1
 70
  1
 62
  0
  0
VERTEX
  8
MERGEDLAYER-2
 10
4.337467
 20
5.124557
 30
0.000000
  0
VERTEX
  8
MERGEDLAYER-2
 10
4.345139
 20
5.124557
 30
0.000000
  0
VERTEX
  8
MERGEDLAYER-2
 10
4.345139
 20
4.931720
 30
0.000000
  0
VERTEX
  8
MERGEDLAYER-2
 10
4.337467
 20
4.931720
 30
0.000000
  0
SEQEND
  8
MERGEDLAYER-2
  0
POLYLINE
  8
MERGEDLAYER-2
 66
  1
 70
  1
 62
  0
  0
VERTEX
  8
MERGEDLAYER-2
 10
4.329800
 20
5.277937
 30
0.000000
  0
VERTEX
  8
MERGEDLAYER-2
 10
4.337467
 20
5.277937
 30
0.000000
  0
VERTEX
  8
MERGEDLAYER-2
 10
4.337467
 20
5.085110
 30
0.000000
  0
VERTEX
  8
MERGEDLAYER-2
 10
4.329800
 20
5.085110
 30
0.000000
  0
SEQEND
  8
MERGEDLAYER-2
  0
POLYLINE
  8
MERGEDLAYER-2
 66
  1
 70
  1
 62
  0
  0
VERTEX
  8
MERGEDLAYER-2
 10
4.897267
 20
3.593130
 30
0.000000
  0
VERTEX
  8
MERGEDLAYER-2
 10
4.904939
 20
3.593130
 30
0.000000
  0
VERTEX
  8
MERGEDLAYER-2
 10
4.904939
 20
3.400291
 30
0.000000
  0
VERTEX
  8
MERGEDLAYER-2
 10
4.897267
 20
3.400291
 30
0.000000
  0
SEQEND
  8
MERGEDLAYER-2
  0
POLYLINE
  8
MERGEDLAYER-2
 66
  1
 70
  1
 62
  0
  0
VERTEX
  8
MERGEDLAYER-2
 10
4.889601
 20
3.746509
 30
0.000000
  0
VERTEX
  8
MERGEDLAYER-2
 10
4.897267
 20
3.746509
 30
0.000000
  0
VERTEX
  8
MERGEDLAYER-2
 10
4.897267
 20
3.553682
 30
0.000000
  0
VERTEX
  8
MERGEDLAYER-2
 10
4.889601
 20
3.553682
 30
0.000000
  0
SEQEND
  8
MERGEDLAYER-2
  0
POLYLINE
  8
MERGEDLAYER-2
 66
  1
 70
  1
 62
  0
  0
VERTEX
  8
MERGEDLAYER-2
 10
4.889601
 20
0.678709
 30
0.000000
  0
VERTEX
  8
MERGEDLAYER-2
 10
4.897267
 20
0.678709
 30
0.000000
  0
VERTEX
  8
MERGEDLAYER-2
 10
4.897267
 20
0.498105
 30
0.000000
  0
VERTEX
  8
MERGEDLAYER-2
 10
4.889601
 20
0.498105
 30
0.000000
  0
SEQEND
  8
MERGEDLAYER-2
  0
POLYLINE
  8
MERGEDLAYER-2
 66
  1
 70
  1
 62
  0
  0
VERTEX
  8
MERGEDLAYER-2
 10
4.897267
 20
0.832301
 30
0.000000
  0
VERTEX
  8
MERGEDLAYER-2
 10
4.904939
 20
0.832301
 30
0.000000
  0
VERTEX
  8
MERGEDLAYER-2
 10
4.904939
 20
0.639462
 30
0.000000
  0
VERTEX
  8
MERGEDLAYER-2
 10
4.897267
 20
0.639462
 30
0.000000
  0
SEQEND
  8
MERGEDLAYER-2
  0
POLYLINE
  8
MERGEDLAYER-2
 66
  1
 70
  1
 62
  0
  0
VERTEX
  8
MERGEDLAYER-2
 10
4.889601
 20
0.985680
 30
0.000000
  0
VERTEX
  8
MERGEDLAYER-2
 10
4.897267
 20
0.985680
 30
0.000000
  0
VERTEX
  8
MERGEDLAYER-2
 10
4.897267
 20
0.792842
 30
0.000000
  0
VERTEX
  8
MERGEDLAYER-2
 10
4.889601
 20
0.792842
 30
0.000000
  0
SEQEND
  8
MERGEDLAYER-2
  0
POLYLINE
  8
MERGEDLAYER-2
 66
  1
 70
  1
 62
  0
  0
VERTEX
  8
MERGEDLAYER-2
 10
4.897267
 20
1.139060
 30
0.000000
  0
VERTEX
  8
MERGEDLAYER-2
 10
4.904939
 20
1.139060
 30
0.000000
  0
VERTEX
  8
MERGEDLAYER-2
 10
4.904939
 20
0.946222
 30
0.000000
  0
VERTEX
  8
MERGEDLAYER-2
 10
4.897267
 20
0.946222
 30
0.000000
  0
SEQEND
  8
MERGEDLAYER-2
  0
POLYLINE
  8
MERGEDLAYER-2
 66
  1
 70
  1
 62
  0
  0
VERTEX
  8
MERGEDLAYER-2
 10
4.889601
 20
1.292438
 30
0.000000
  0
VERTEX
  8
MERGEDLAYER-2
 10
4.897267
 20
1.292438
 30
0.000000
  0
VERTEX
  8
MERGEDLAYER-2
 10
4.897267
 20
1.099602
 30
0.000000
  0
VERTEX
  8
MERGEDLAYER-2
 10
4.889601
 20
1.099602
 30
0.000000
  0
SEQEND
  8
MERGEDLAYER-2
  0
POLYLINE
  8
MERGEDLAYER-2
 66
  1
 70
  1
 62
  0
  0
VERTEX
  8
MERGEDLAYER-2
 10
4.897267
 20
1.445821
 30
0.000000
  0
VERTEX
  8
MERGEDLAYER-2
 10
4.904939
 20
1.445821
 30
0.000000
  0
VERTEX
  8
MERGEDLAYER-2
 10
4.904939
 20
1.252979
 30
0.000000
  0
VERTEX
  8
MERGEDLAYER-2
 10
4.897267
 20
1.252979
 30
0.000000
  0
SEQEND
  8
MERGEDLAYER-2
  0
POLYLINE
  8
MERGEDLAYER-2
 66
  1
 70
  1
 62
  0
  0
VERTEX
  8
MERGEDLAYER-2
 10
4.889601
 20
1.599198
 30
0.000000
  0
VERTEX
  8
MERGEDLAYER-2
 10
4.897267
 20
1.599198
 30
0.000000
  0
VERTEX
  8
MERGEDLAYER-2
 10
4.897267
 20
1.406360
 30
0.000000
  0
VERTEX
  8
MERGEDLAYER-2
 10
4.889601
 20
1.406360
 30
0.000000
  0
SEQEND
  8
MERGEDLAYER-2
  0
POLYLINE
  8
MERGEDLAYER-2
 66
  1
 70
  1
 62
  0
  0
VERTEX
  8
MERGEDLAYER-2
 10
4.897267
 20
1.752579
 30
0.000000
  0
VERTEX
  8
MERGEDLAYER-2
 10
4.904939
 20
1.752579
 30
0.000000
  0
VERTEX
  8
MERGEDLAYER-2
 10
4.904939
 20
1.559736
 30
0.000000
  0
VERTEX
  8
MERGEDLAYER-2
 10
4.897267
 20
1.559736
 30
0.000000
  0
SEQEND
  8
MERGEDLAYER-2
  0
POLYLINE
  8
MERGEDLAYER-2
 66
  1
 70
  1
 62
  0
  0
VERTEX
  8
MERGEDLAYER-2
 10
4.889601
 20
1.905959
 30
0.000000
  0
VERTEX
  8
MERGEDLAYER-2
 10
4.897267
 20
1.905959
 30
0.000000
  0
VERTEX
  8
MERGEDLAYER-2
 10
4.897267
 20
1.713119
 30
0.000000
  0
VERTEX
  8
MERGEDLAYER-2
 10
4.889601
 20
1.713119
 30
0.000000
  0
SEQEND
  8
MERGEDLAYER-2
  0
POLYLINE
  8
MERGEDLAYER-2
 66
  1
 70
  1
 62
  0
  0
VERTEX
  8
MERGEDLAYER-2
 10
4.897267
 20
2.059335
 30
0.000000
  0
VERTEX
  8
MERGEDLAYER-2
 10
4.904939
 20
2.059335
 30
0.000000
  0
VERTEX
  8
MERGEDLAYER-2
 10
4.904939
 20
1.866497
 30
0.000000
  0
VERTEX
  8
MERGEDLAYER-2
 10
4.897267
 20
1.866497
 30
0.000000
  0
SEQEND
  8
MERGEDLAYER-2
  0
POLYLINE
  8
MERGEDLAYER-2
 66
  1
 70
  1
 62
  0
  0
VERTEX
  8
MERGEDLAYER-2
 10
4.889601
 20
2.212717
 30
0.000000
  0
VERTEX
  8
MERGEDLAYER-2
 10
4.897267
 20
2.212717
 30
0.000000
  0
VERTEX
  8
MERGEDLAYER-2
 10
4.897267
 20
2.019875
 30
0.000000
  0
VERTEX
  8
MERGEDLAYER-2
 10
4.889601
 20
2.019875
 30
0.000000
  0
SEQEND
  8
MERGEDLAYER-2
  0
POLYLINE
  8
MERGEDLAYER-2
 66
  1
 70
  1
 62
  0
  0
VERTEX
  8
MERGEDLAYER-2
 10
4.897267
 20
2.366095
 30
0.000000
  0
VERTEX
  8
MERGEDLAYER-2
 10
4.904939
 20
2.366095
 30
0.000000
  0
VERTEX
  8
MERGEDLAYER-2
 10
4.904939
 20
2.173255
 30
0.000000
  0
VERTEX
  8
MERGEDLAYER-2
 10
4.897267
 20
2.173255
 30
0.000000
  0
SEQEND
  8
MERGEDLAYER-2
  0
POLYLINE
  8
MERGEDLAYER-2
 66
  1
 70
  1
 62
  0
  0
VERTEX
  8
MERGEDLAYER-2
 10
4.889601
 20
2.519476
 30
0.000000
  0
VERTEX
  8
MERGEDLAYER-2
 10
4.897267
 20
2.519476
 30
0.000000
  0
VERTEX
  8
MERGEDLAYER-2
 10
4.897267
 20
2.326636
 30
0.000000
  0
VERTEX
  8
MERGEDLAYER-2
 10
4.889601
 20
2.326636
 30
0.000000
  0
SEQEND
  8
MERGEDLAYER-2
  0
POLYLINE
  8
MERGEDLAYER-2
 66
  1
 70
  1
 62
  0
  0
VERTEX
  8
MERGEDLAYER-2
 10
4.897267
 20
2.672853
 30
0.000000
  0
VERTEX
  8
MERGEDLAYER-2
 10
4.904939
 20
2.672853
 30
0.000000
  0
VERTEX
  8
MERGEDLAYER-2
 10
4.904939
 20
2.480017
 30
0.000000
  0
VERTEX
  8
MERGEDLAYER-2
 10
4.897267
 20
2.480017
 30
0.000000
  0
SEQEND
  8
MERGEDLAYER-2
  0
POLYLINE
  8
MERGEDLAYER-2
 66
  1
 70
  1
 62
  0
  0
VERTEX
  8
MERGEDLAYER-2
 10
4.889601
 20
2.826232
 30
0.000000
  0
VERTEX
  8
MERGEDLAYER-2
 10
4.897267
 20
2.826232
 30
0.000000
  0
VERTEX
  8
MERGEDLAYER-2
 10
4.897267
 20
2.633396
 30
0.000000
  0
VERTEX
  8
MERGEDLAYER-2
 10
4.889601
 20
2.633396
 30
0.000000
  0
SEQEND
  8
MERGEDLAYER-2
  0
POLYLINE
  8
MERGEDLAYER-2
 66
  1
 70
  1
 62
  0
  0
VERTEX
  8
MERGEDLAYER-2
 10
4.897267
 20
2.979612
 30
0.000000
  0
VERTEX
  8
MERGEDLAYER-2
 10
4.904939
 20
2.979612
 30
0.000000
  0
VERTEX
  8
MERGEDLAYER-2
 10
4.904939
 20
2.786773
 30
0.000000
  0
VERTEX
  8
MERGEDLAYER-2
 10
4.897267
 20
2.786773
 30
0.000000
  0
SEQEND
  8
MERGEDLAYER-2
  0
POLYLINE
  8
MERGEDLAYER-2
 66
  1
 70
  1
 62
  0
  0
VERTEX
  8
MERGEDLAYER-2
 10
4.889601
 20
3.132991
 30
0.000000
  0
VERTEX
  8
MERGEDLAYER-2
 10
4.897267
 20
3.132991
 30
0.000000
  0
VERTEX
  8
MERGEDLAYER-2
 10
4.897267
 20
2.940152
 30
0.000000
  0
VERTEX
  8
MERGEDLAYER-2
 10
4.889601
 20
2.940152
 30
0.000000
  0
SEQEND
  8
MERGEDLAYER-2
  0
POLYLINE
  8
MERGEDLAYER-2
 66
  1
 70
  1
 62
  0
  0
VERTEX
  8
MERGEDLAYER-2
 10
4.897267
 20
3.286370
 30
0.000000
  0
VERTEX
  8
MERGEDLAYER-2
 10
4.904939
 20
3.286370
 30
0.000000
  0
VERTEX
  8
MERGEDLAYER-2
 10
4.904939
 20
3.093532
 30
0.000000
  0
VERTEX
  8
MERGEDLAYER-2
 10
4.897267
 20
3.093532
 30
0.000000
  0
SEQEND
  8
MERGEDLAYER-2
  0
POLYLINE
  8
MERGEDLAYER-2
 66
  1
 70
  1
 62
  0
  0
VERTEX
  8
MERGEDLAYER-2
 10
4.889601
 20
3.439750
 30
0.000000
  0
VERTEX
  8
MERGEDLAYER-2
 10
4.897267
 20
3.439750
 30
0.000000
  0
VERTEX
  8
MERGEDLAYER-2
 10
4.897267
 20
3.246912
 30
0.000000
  0
VERTEX
  8
MERGEDLAYER-2
 10
4.889601
 20
3.246912
 30
0.000000
  0
SEQEND
  8
MERGEDLAYER-2
  0
POLYLINE
  8
MERGEDLAYER-2
 66
  1
 70
  1
 62
  0
  0
VERTEX
  8
MERGEDLAYER-2
 10
4.897267
 20
3.899415
 30
0.000000
  0
VERTEX
  8
MERGEDLAYER-2
 10
4.904939
 20
3.899415
 30
0.000000
  0
VERTEX
  8
MERGEDLAYER-2
 10
4.904939
 20
3.706577
 30
0.000000
  0
VERTEX
  8
MERGEDLAYER-2
 10
4.897267
 20
3.706577
 30
0.000000
  0
SEQEND
  8
MERGEDLAYER-2
  0
POLYLINE
  8
MERGEDLAYER-2
 66
  1
 70
  1
 62
  0
  0
VERTEX
  8
MERGEDLAYER-2
 10
4.889601
 20
4.052794
 30
0.000000
  0
VERTEX
  8
MERGEDLAYER-2
 10
4.897267
 20
4.052794
 30
0.000000
  0
VERTEX
  8
MERGEDLAYER-2
 10
4.897267
 20
3.859967
 30
0.000000
  0
VERTEX
  8
MERGEDLAYER-2
 10
4.889601
 20
3.859967
 30
0.000000
  0
SEQEND
  8
MERGEDLAYER-2
  0
POLYLINE
  8
MERGEDLAYER-2
 66
  1
 70
  1
 62
  0
  0
VERTEX
  8
MERGEDLAYER-2
 10
4.897267
 20
4.205700
 30
0.000000
  0
VERTEX
  8
MERGEDLAYER-2
 10
4.904939
 20
4.205700
 30
0.000000
  0
VERTEX
  8
MERGEDLAYER-2
 10
4.904939
 20
4.012862
 30
0.000000
  0
VERTEX
  8
MERGEDLAYER-2
 10
4.897267
 20
4.012862
 30
0.000000
  0
SEQEND
  8
MERGEDLAYER-2
  0
POLYLINE
  8
MERGEDLAYER-2
 66
  1
 70
  1
 62
  0
  0
VERTEX
  8
MERGEDLAYER-2
 10
4.889601
 20
4.359080
 30
0.000000
  0
VERTEX
  8
MERGEDLAYER-2
 10
4.897267
 20
4.359080
 30
0.000000
  0
VERTEX
  8
MERGEDLAYER-2
 10
4.897267
 20
4.166252
 30
0.000000
  0
VERTEX
  8
MERGEDLAYER-2
 10
4.889601
 20
4.166252
 30
0.000000
  0
SEQEND
  8
MERGEDLAYER-2
  0
POLYLINE
  8
MERGEDLAYER-2
 66
  1
 70
  1
 62
  0
  0
VERTEX
  8
MERGEDLAYER-2
 10
4.897267
 20
4.511986
 30
0.000000
  0
VERTEX
  8
MERGEDLAYER-2
 10
4.904939
 20
4.511986
 30
0.000000
  0
VERTEX
  8
MERGEDLAYER-2
 10
4.904939
 20
4.319149
 30
0.000000
  0
VERTEX
  8
MERGEDLAYER-2
 10
4.897267
 20
4.319149
 30
0.000000
  0
SEQEND
  8
MERGEDLAYER-2
  0
POLYLINE
  8
MERGEDLAYER-2
 66
  1
 70
  1
 62
  0
  0
VERTEX
  8
MERGEDLAYER-2
 10
4.889601
 20
4.665366
 30
0.000000
  0
VERTEX
  8
MERGEDLAYER-2
 10
4.897267
 20
4.665366
 30
0.000000
  0
VERTEX
  8
MERGEDLAYER-2
 10
4.897267
 20
4.472539
 30
0.000000
  0
VERTEX
  8
MERGEDLAYER-2
 10
4.889601
 20
4.472539
 30
0.000000
  0
SEQEND
  8
MERGEDLAYER-2
  0
POLYLINE
  8
MERGEDLAYER-2
 66
  1
 70
  1
 62
  0
  0
VERTEX
  8
MERGEDLAYER-2
 10
4.897267
 20
4.818272
 30
0.000000
  0
VERTEX
  8
MERGEDLAYER-2
 10
4.904939
 20
4.818272
 30
0.000000
  0
VERTEX
  8
MERGEDLAYER-2
 10
4.904939
 20
4.625434
 30
0.000000
  0
VERTEX
  8
MERGEDLAYER-2
 10
4.897267
 20
4.625434
 30
0.000000
  0
SEQEND
  8
MERGEDLAYER-2
  0
POLYLINE
  8
MERGEDLAYER-2
 66
  1
 70
  1
 62
  0
  0
VERTEX
  8
MERGEDLAYER-2
 10
4.889601
 20
4.971652
 30
0.000000
  0
VERTEX
  8
MERGEDLAYER-2
 10
4.897267
 20
4.971652
 30
0.000000
  0
VERTEX
  8
MERGEDLAYER-2
 10
4.897267
 20
4.778825
 30
0.000000
  0
VERTEX
  8
MERGEDLAYER-2
 10
4.889601
 20
4.778825
 30
0.000000
  0
SEQEND
  8
MERGEDLAYER-2
  0
POLYLINE
  8
MERGEDLAYER-2
 66
  1
 70
  1
 62
  0
  0
VERTEX
  8
MERGEDLAYER-2
 10
4.897267
 20
5.124557
 30
0.000000
  0
VERTEX
  8
MERGEDLAYER-2
 10
4.904939
 20
5.124557
 30
0.000000
  0
VERTEX
  8
MERGEDLAYER-2
 10
4.904939
 20
4.931720
 30
0.000000
  0
VERTEX
  8
MERGEDLAYER-2
 10
4.897267
 20
4.931720
 30
0.000000
  0
SEQEND
  8
MERGEDLAYER-2
  0
POLYLINE
  8
MERGEDLAYER-2
 66
  1
 70
  1
 62
  0
  0
VERTEX
  8
MERGEDLAYER-2
 10
4.889601
 20
5.277937
 30
0.000000
  0
VERTEX
  8
MERGEDLAYER-2
 10
4.897267
 20
5.277937
 30
0.000000
  0
VERTEX
  8
MERGEDLAYER-2
 10
4.897267
 20
5.085110
 30
0.000000
  0
VERTEX
  8
MERGEDLAYER-2
 10
4.889601
 20
5.085110
 30
0.000000
  0
SEQEND
  8
MERGEDLAYER-2
  0
POLYLINE
  8
MERGEDLAYER-2
 66
  1
 70
  1
 62
  0
  0
VERTEX
  8
MERGEDLAYER-2
 10
5.457067
 20
3.593130
 30
0.000000
  0
VERTEX
  8
MERGEDLAYER-2
 10
5.464739
 20
3.593130
 30
0.000000
  0
VERTEX
  8
MERGEDLAYER-2
 10
5.464739
 20
3.400291
 30
0.000000
  0
VERTEX
  8
MERGEDLAYER-2
 10
5.457067
 20
3.400291
 30
0.000000
  0
SEQEND
  8
MERGEDLAYER-2
  0
POLYLINE
  8
MERGEDLAYER-2
 66
  1
 70
  1
 62
  0
  0
VERTEX
  8
MERGEDLAYER-2
 10
5.449401
 20
3.746509
 30
0.000000
  0
VERTEX
  8
MERGEDLAYER-2
 10
5.457067
 20
3.746509
 30
0.000000
  0
VERTEX
  8
MERGEDLAYER-2
 10
5.457067
 20
3.553682
 30
0.000000
  0
VERTEX
  8
MERGEDLAYER-2
 10
5.449401
 20
3.553682
 30
0.000000
  0
SEQEND
  8
MERGEDLAYER-2
  0
POLYLINE
  8
MERGEDLAYER-2
 66
  1
 70
  1
 62
  0
  0
VERTEX
  8
MERGEDLAYER-2
 10
5.449401
 20
0.678709
 30
0.000000
  0
VERTEX
  8
MERGEDLAYER-2
 10
5.457067
 20
0.678709
 30
0.000000
  0
VERTEX
  8
MERGEDLAYER-2
 10
5.457067
 20
0.498105
 30
0.000000
  0
VERTEX
  8
MERGEDLAYER-2
 10
5.449401
 20
0.498105
 30
0.000000
  0
SEQEND
  8
MERGEDLAYER-2
  0
POLYLINE
  8
MERGEDLAYER-2
 66
  1
 70
  1
 62
  0
  0
VERTEX
  8
MERGEDLAYER-2
 10
5.457067
 20
0.832301
 30
0.000000
  0
VERTEX
  8
MERGEDLAYER-2
 10
5.464739
 20
0.832301
 30
0.000000
  0
VERTEX
  8
MERGEDLAYER-2
 10
5.464739
 20
0.639462
 30
0.000000
  0
VERTEX
  8
MERGEDLAYER-2
 10
5.457067
 20
0.639462
 30
0.000000
  0
SEQEND
  8
MERGEDLAYER-2
  0
POLYLINE
  8
MERGEDLAYER-2
 66
  1
 70
  1
 62
  0
  0
VERTEX
  8
MERGEDLAYER-2
 10
5.449401
 20
0.985680
 30
0.000000
  0
VERTEX
  8
MERGEDLAYER-2
 10
5.457067
 20
0.985680
 30
0.000000
  0
VERTEX
  8
MERGEDLAYER-2
 10
5.457067
 20
0.792842
 30
0.000000
  0
VERTEX
  8
MERGEDLAYER-2
 10
5.449401
 20
0.792842
 30
0.000000
  0
SEQEND
  8
MERGEDLAYER-2
  0
POLYLINE
  8
MERGEDLAYER-2
 66
  1
 70
  1
 62
  0
  0
VERTEX
  8
MERGEDLAYER-2
 10
5.457067
 20
1.139060
 30
0.000000
  0
VERTEX
  8
MERGEDLAYER-2
 10
5.464739
 20
1.139060
 30
0.000000
  0
VERTEX
  8
MERGEDLAYER-2
 10
5.464739
 20
0.946222
 30
0.000000
  0
VERTEX
  8
MERGEDLAYER-2
 10
5.457067
 20
0.946222
 30
0.000000
  0
SEQEND
  8
MERGEDLAYER-2
  0
POLYLINE
  8
MERGEDLAYER-2
 66
  1
 70
  1
 62
  0
  0
VERTEX
  8
MERGEDLAYER-2
 10
5.449401
 20
1.292438
 30
0.000000
  0
VERTEX
  8
MERGEDLAYER-2
 10
5.457067
 20
1.292438
 30
0.000000
  0
VERTEX
  8
MERGEDLAYER-2
 10
5.457067
 20
1.099602
 30
0.000000
  0
VERTEX
  8
MERGEDLAYER-2
 10
5.449401
 20
1.099602
 30
0.000000
  0
SEQEND
  8
MERGEDLAYER-2
  0
POLYLINE
  8
MERGEDLAYER-2
 66
  1
 70
  1
 62
  0
  0
VERTEX
  8
MERGEDLAYER-2
 10
5.457067
 20
1.445821
 30
0.000000
  0
VERTEX
  8
MERGEDLAYER-2
 10
5.464739
 20
1.445821
 30
0.000000
  0
VERTEX
  8
MERGEDLAYER-2
 10
5.464739
 20
1.252979
 30
0.000000
  0
VERTEX
  8
MERGEDLAYER-2
 10
5.457067
 20
1.252979
 30
0.000000
  0
SEQEND
  8
MERGEDLAYER-2
  0
POLYLINE
  8
MERGEDLAYER-2
 66
  1
 70
  1
 62
  0
  0
VERTEX
  8
MERGEDLAYER-2
 10
5.449401
 20
1.599198
 30
0.000000
  0
VERTEX
  8
MERGEDLAYER-2
 10
5.457067
 20
1.599198
 30
0.000000
  0
VERTEX
  8
MERGEDLAYER-2
 10
5.457067
 20
1.406360
 30
0.000000
  0
VERTEX
  8
MERGEDLAYER-2
 10
5.449401
 20
1.406360
 30
0.000000
  0
SEQEND
  8
MERGEDLAYER-2
  0
POLYLINE
  8
MERGEDLAYER-2
 66
  1
 70
  1
 62
  0
  0
VERTEX
  8
MERGEDLAYER-2
 10
5.457067
 20
1.752579
 30
0.000000
  0
VERTEX
  8
MERGEDLAYER-2
 10
5.464739
 20
1.752579
 30
0.000000
  0
VERTEX
  8
MERGEDLAYER-2
 10
5.464739
 20
1.559736
 30
0.000000
  0
VERTEX
  8
MERGEDLAYER-2
 10
5.457067
 20
1.559736
 30
0.000000
  0
SEQEND
  8
MERGEDLAYER-2
  0
POLYLINE
  8
MERGEDLAYER-2
 66
  1
 70
  1
 62
  0
  0
VERTEX
  8
MERGEDLAYER-2
 10
5.449401
 20
1.905959
 30
0.000000
  0
VERTEX
  8
MERGEDLAYER-2
 10
5.457067
 20
1.905959
 30
0.000000
  0
VERTEX
  8
MERGEDLAYER-2
 10
5.457067
 20
1.713119
 30
0.000000
  0
VERTEX
  8
MERGEDLAYER-2
 10
5.449401
 20
1.713119
 30
0.000000
  0
SEQEND
  8
MERGEDLAYER-2
  0
POLYLINE
  8
MERGEDLAYER-2
 66
  1
 70
  1
 62
  0
  0
VERTEX
  8
MERGEDLAYER-2
 10
5.457067
 20
2.059335
 30
0.000000
  0
VERTEX
  8
MERGEDLAYER-2
 10
5.464739
 20
2.059335
 30
0.000000
  0
VERTEX
  8
MERGEDLAYER-2
 10
5.464739
 20
1.866497
 30
0.000000
  0
VERTEX
  8
MERGEDLAYER-2
 10
5.457067
 20
1.866497
 30
0.000000
  0
SEQEND
  8
MERGEDLAYER-2
  0
POLYLINE
  8
MERGEDLAYER-2
 66
  1
 70
  1
 62
  0
  0
VERTEX
  8
MERGEDLAYER-2
 10
5.449401
 20
2.212717
 30
0.000000
  0
VERTEX
  8
MERGEDLAYER-2
 10
5.457067
 20
2.212717
 30
0.000000
  0
VERTEX
  8
MERGEDLAYER-2
 10
5.457067
 20
2.019875
 30
0.000000
  0
VERTEX
  8
MERGEDLAYER-2
 10
5.449401
 20
2.019875
 30
0.000000
  0
SEQEND
  8
MERGEDLAYER-2
  0
POLYLINE
  8
MERGEDLAYER-2
 66
  1
 70
  1
 62
  0
  0
VERTEX
  8
MERGEDLAYER-2
 10
5.457067
 20
2.366095
 30
0.000000
  0
VERTEX
  8
MERGEDLAYER-2
 10
5.464739
 20
2.366095
 30
0.000000
  0
VERTEX
  8
MERGEDLAYER-2
 10
5.464739
 20
2.173255
 30
0.000000
  0
VERTEX
  8
MERGEDLAYER-2
 10
5.457067
 20
2.173255
 30
0.000000
  0
SEQEND
  8
MERGEDLAYER-2
  0
POLYLINE
  8
MERGEDLAYER-2
 66
  1
 70
  1
 62
  0
  0
VERTEX
  8
MERGEDLAYER-2
 10
5.449401
 20
2.519476
 30
0.000000
  0
VERTEX
  8
MERGEDLAYER-2
 10
5.457067
 20
2.519476
 30
0.000000
  0
VERTEX
  8
MERGEDLAYER-2
 10
5.457067
 20
2.326636
 30
0.000000
  0
VERTEX
  8
MERGEDLAYER-2
 10
5.449401
 20
2.326636
 30
0.000000
  0
SEQEND
  8
MERGEDLAYER-2
  0
POLYLINE
  8
MERGEDLAYER-2
 66
  1
 70
  1
 62
  0
  0
VERTEX
  8
MERGEDLAYER-2
 10
5.457067
 20
2.672853
 30
0.000000
  0
VERTEX
  8
MERGEDLAYER-2
 10
5.464739
 20
2.672853
 30
0.000000
  0
VERTEX
  8
MERGEDLAYER-2
 10
5.464739
 20
2.480017
 30
0.000000
  0
VERTEX
  8
MERGEDLAYER-2
 10
5.457067
 20
2.480017
 30
0.000000
  0
SEQEND
  8
MERGEDLAYER-2
  0
POLYLINE
  8
MERGEDLAYER-2
 66
  1
 70
  1
 62
  0
  0
VERTEX
  8
MERGEDLAYER-2
 10
5.449401
 20
2.826232
 30
0.000000
  0
VERTEX
  8
MERGEDLAYER-2
 10
5.457067
 20
2.826232
 30
0.000000
  0
VERTEX
  8
MERGEDLAYER-2
 10
5.457067
 20
2.633396
 30
0.000000
  0
VERTEX
  8
MERGEDLAYER-2
 10
5.449401
 20
2.633396
 30
0.000000
  0
SEQEND
  8
MERGEDLAYER-2
  0
POLYLINE
  8
MERGEDLAYER-2
 66
  1
 70
  1
 62
  0
  0
VERTEX
  8
MERGEDLAYER-2
 10
5.457067
 20
2.979612
 30
0.000000
  0
VERTEX
  8
MERGEDLAYER-2
 10
5.464739
 20
2.979612
 30
0.000000
  0
VERTEX
  8
MERGEDLAYER-2
 10
5.464739
 20
2.786773
 30
0.000000
  0
VERTEX
  8
MERGEDLAYER-2
 10
5.457067
 20
2.786773
 30
0.000000
  0
SEQEND
  8
MERGEDLAYER-2
  0
POLYLINE
  8
MERGEDLAYER-2
 66
  1
 70
  1
 62
  0
  0
VERTEX
  8
MERGEDLAYER-2
 10
5.449401
 20
3.132991
 30
0.000000
  0
VERTEX
  8
MERGEDLAYER-2
 10
5.457067
 20
3.132991
 30
0.000000
  0
VERTEX
  8
MERGEDLAYER-2
 10
5.457067
 20
2.940152
 30
0.000000
  0
VERTEX
  8
MERGEDLAYER-2
 10
5.449401
 20
2.940152
 30
0.000000
  0
SEQEND
  8
MERGEDLAYER-2
  0
POLYLINE
  8
MERGEDLAYER-2
 66
  1
 70
  1
 62
  0
  0
VERTEX
  8
MERGEDLAYER-2
 10
5.457067
 20
3.286370
 30
0.000000
  0
VERTEX
  8
MERGEDLAYER-2
 10
5.464739
 20
3.286370
 30
0.000000
  0
VERTEX
  8
MERGEDLAYER-2
 10
5.464739
 20
3.093532
 30
0.000000
  0
VERTEX
  8
MERGEDLAYER-2
 10
5.457067
 20
3.093532
 30
0.000000
  0
SEQEND
  8
MERGEDLAYER-2
  0
POLYLINE
  8
MERGEDLAYER-2
 66
  1
 70
  1
 62
  0
  0
VERTEX
  8
MERGEDLAYER-2
 10
5.449401
 20
3.439750
 30
0.000000
  0
VERTEX
  8
MERGEDLAYER-2
 10
5.457067
 20
3.439750
 30
0.000000
  0
VERTEX
  8
MERGEDLAYER-2
 10
5.457067
 20
3.246912
 30
0.000000
  0
VERTEX
  8
MERGEDLAYER-2
 10
5.449401
 20
3.246912
 30
0.000000
  0
SEQEND
  8
MERGEDLAYER-2
  0
POLYLINE
  8
MERGEDLAYER-2
 66
  1
 70
  1
 62
  0
  0
VERTEX
  8
MERGEDLAYER-2
 10
5.457067
 20
3.899415
 30
0.000000
  0
VERTEX
  8
MERGEDLAYER-2
 10
5.464739
 20
3.899415
 30
0.000000
  0
VERTEX
  8
MERGEDLAYER-2
 10
5.464739
 20
3.706577
 30
0.000000
  0
VERTEX
  8
MERGEDLAYER-2
 10
5.457067
 20
3.706577
 30
0.000000
  0
SEQEND
  8
MERGEDLAYER-2
  0
POLYLINE
  8
MERGEDLAYER-2
 66
  1
 70
  1
 62
  0
  0
VERTEX
  8
MERGEDLAYER-2
 10
5.449401
 20
4.052794
 30
0.000000
  0
VERTEX
  8
MERGEDLAYER-2
 10
5.457067
 20
4.052794
 30
0.000000
  0
VERTEX
  8
MERGEDLAYER-2
 10
5.457067
 20
3.859967
 30
0.000000
  0
VERTEX
  8
MERGEDLAYER-2
 10
5.449401
 20
3.859967
 30
0.000000
  0
SEQEND
  8
MERGEDLAYER-2
  0
POLYLINE
  8
MERGEDLAYER-2
 66
  1
 70
  1
 62
  0
  0
VERTEX
  8
MERGEDLAYER-2
 10
5.457067
 20
4.205700
 30
0.000000
  0
VERTEX
  8
MERGEDLAYER-2
 10
5.464739
 20
4.205700
 30
0.000000
  0
VERTEX
  8
MERGEDLAYER-2
 10
5.464739
 20
4.012862
 30
0.000000
  0
VERTEX
  8
MERGEDLAYER-2
 10
5.457067
 20
4.012862
 30
0.000000
  0
SEQEND
  8
MERGEDLAYER-2
  0
POLYLINE
  8
MERGEDLAYER-2
 66
  1
 70
  1
 62
  0
  0
VERTEX
  8
MERGEDLAYER-2
 10
5.449401
 20
4.359080
 30
0.000000
  0
VERTEX
  8
MERGEDLAYER-2
 10
5.457067
 20
4.359080
 30
0.000000
  0
VERTEX
  8
MERGEDLAYER-2
 10
5.457067
 20
4.166252
 30
0.000000
  0
VERTEX
  8
MERGEDLAYER-2
 10
5.449401
 20
4.166252
 30
0.000000
  0
SEQEND
  8
MERGEDLAYER-2
  0
POLYLINE
  8
MERGEDLAYER-2
 66
  1
 70
  1
 62
  0
  0
VERTEX
  8
MERGEDLAYER-2
 10
5.457067
 20
4.511986
 30
0.000000
  0
VERTEX
  8
MERGEDLAYER-2
 10
5.464739
 20
4.511986
 30
0.000000
  0
VERTEX
  8
MERGEDLAYER-2
 10
5.464739
 20
4.319149
 30
0.000000
  0
VERTEX
  8
MERGEDLAYER-2
 10
5.457067
 20
4.319149
 30
0.000000
  0
SEQEND
  8
MERGEDLAYER-2
  0
POLYLINE
  8
MERGEDLAYER-2
 66
  1
 70
  1
 62
  0
  0
VERTEX
  8
MERGEDLAYER-2
 10
5.449401
 20
4.665366
 30
0.000000
  0
VERTEX
  8
MERGEDLAYER-2
 10
5.457067
 20
4.665366
 30
0.000000
  0
VERTEX
  8
MERGEDLAYER-2
 10
5.457067
 20
4.472539
 30
0.000000
  0
VERTEX
  8
MERGEDLAYER-2
 10
5.449401
 20
4.472539
 30
0.000000
  0
SEQEND
  8
MERGEDLAYER-2
  0
POLYLINE
  8
MERGEDLAYER-2
 66
  1
 70
  1
 62
  0
  0
VERTEX
  8
MERGEDLAYER-2
 10
5.457067
 20
4.818272
 30
0.000000
  0
VERTEX
  8
MERGEDLAYER-2
 10
5.464739
 20
4.818272
 30
0.000000
  0
VERTEX
  8
MERGEDLAYER-2
 10
5.464739
 20
4.625434
 30
0.000000
  0
VERTEX
  8
MERGEDLAYER-2
 10
5.457067
 20
4.625434
 30
0.000000
  0
SEQEND
  8
MERGEDLAYER-2
  0
POLYLINE
  8
MERGEDLAYER-2
 66
  1
 70
  1
 62
  0
  0
VERTEX
  8
MERGEDLAYER-2
 10
5.449401
 20
4.971652
 30
0.000000
  0
VERTEX
  8
MERGEDLAYER-2
 10
5.457067
 20
4.971652
 30
0.000000
  0
VERTEX
  8
MERGEDLAYER-2
 10
5.457067
 20
4.778825
 30
0.000000
  0
VERTEX
  8
MERGEDLAYER-2
 10
5.449401
 20
4.778825
 30
0.000000
  0
SEQEND
  8
MERGEDLAYER-2
  0
POLYLINE
  8
MERGEDLAYER-2
 66
  1
 70
  1
 62
  0
  0
VERTEX
  8
MERGEDLAYER-2
 10
5.457067
 20
5.124557
 30
0.000000
  0
VERTEX
  8
MERGEDLAYER-2
 10
5.464739
 20
5.124557
 30
0.000000
  0
VERTEX
  8
MERGEDLAYER-2
 10
5.464739
 20
4.931720
 30
0.000000
  0
VERTEX
  8
MERGEDLAYER-2
 10
5.457067
 20
4.931720
 30
0.000000
  0
SEQEND
  8
MERGEDLAYER-2
  0
POLYLINE
  8
MERGEDLAYER-2
 66
  1
 70
  1
 62
  0
  0
VERTEX
  8
MERGEDLAYER-2
 10
5.449401
 20
5.277937
 30
0.000000
  0
VERTEX
  8
MERGEDLAYER-2
 10
5.457067
 20
5.277937
 30
0.000000
  0
VERTEX
  8
MERGEDLAYER-2
 10
5.457067
 20
5.085110
 30
0.000000
  0
VERTEX
  8
MERGEDLAYER-2
 10
5.449401
 20
5.085110
 30
0.000000
  0
SEQEND
  8
MERGEDLAYER-2
  0
POLYLINE
  8
MERGEDLAYER-2
 66
  1
 70
  1
 62
  0
  0
VERTEX
  8
MERGEDLAYER-2
 10
6.016867
 20
3.593130
 30
0.000000
  0
VERTEX
  8
MERGEDLAYER-2
 10
6.024540
 20
3.593130
 30
0.000000
  0
VERTEX
  8
MERGEDLAYER-2
 10
6.024540
 20
3.400291
 30
0.000000
  0
VERTEX
  8
MERGEDLAYER-2
 10
6.016867
 20
3.400291
 30
0.000000
  0
SEQEND
  8
MERGEDLAYER-2
  0
POLYLINE
  8
MERGEDLAYER-2
 66
  1
 70
  1
 62
  0
  0
VERTEX
  8
MERGEDLAYER-2
 10
6.009201
 20
3.746509
 30
0.000000
  0
VERTEX
  8
MERGEDLAYER-2
 10
6.016867
 20
3.746509
 30
0.000000
  0
VERTEX
  8
MERGEDLAYER-2
 10
6.016867
 20
3.553682
 30
0.000000
  0
VERTEX
  8
MERGEDLAYER-2
 10
6.009201
 20
3.553682
 30
0.000000
  0
SEQEND
  8
MERGEDLAYER-2
  0
POLYLINE
  8
MERGEDLAYER-2
 66
  1
 70
  1
 62
  0
  0
VERTEX
  8
MERGEDLAYER-2
 10
6.009201
 20
0.678709
 30
0.000000
  0
VERTEX
  8
MERGEDLAYER-2
 10
6.016867
 20
0.678709
 30
0.000000
  0
VERTEX
  8
MERGEDLAYER-2
 10
6.016867
 20
0.498105
 30
0.000000
  0
VERTEX
  8
MERGEDLAYER-2
 10
6.009201
 20
0.498105
 30
0.000000
  0
SEQEND
  8
MERGEDLAYER-2
  0
POLYLINE
  8
MERGEDLAYER-2
 66
  1
 70
  1
 62
  0
  0
VERTEX
  8
MERGEDLAYER-2
 10
6.016867
 20
0.832301
 30
0.000000
  0
VERTEX
  8
MERGEDLAYER-2
 10
6.024540
 20
0.832301
 30
0.000000
  0
VERTEX
  8
MERGEDLAYER-2
 10
6.024540
 20
0.639462
 30
0.000000
  0
VERTEX
  8
MERGEDLAYER-2
 10
6.016867
 20
0.639462
 30
0.000000
  0
SEQEND
  8
MERGEDLAYER-2
  0
POLYLINE
  8
MERGEDLAYER-2
 66
  1
 70
  1
 62
  0
  0
VERTEX
  8
MERGEDLAYER-2
 10
6.009201
 20
0.985680
 30
0.000000
  0
VERTEX
  8
MERGEDLAYER-2
 10
6.016867
 20
0.985680
 30
0.000000
  0
VERTEX
  8
MERGEDLAYER-2
 10
6.016867
 20
0.792842
 30
0.000000
  0
VERTEX
  8
MERGEDLAYER-2
 10
6.009201
 20
0.792842
 30
0.000000
  0
SEQEND
  8
MERGEDLAYER-2
  0
POLYLINE
  8
MERGEDLAYER-2
 66
  1
 70
  1
 62
  0
  0
VERTEX
  8
MERGEDLAYER-2
 10
6.016867
 20
1.139060
 30
0.000000
  0
VERTEX
  8
MERGEDLAYER-2
 10
6.024540
 20
1.139060
 30
0.000000
  0
VERTEX
  8
MERGEDLAYER-2
 10
6.024540
 20
0.946222
 30
0.000000
  0
VERTEX
  8
MERGEDLAYER-2
 10
6.016867
 20
0.946222
 30
0.000000
  0
SEQEND
  8
MERGEDLAYER-2
  0
POLYLINE
  8
MERGEDLAYER-2
 66
  1
 70
  1
 62
  0
  0
VERTEX
  8
MERGEDLAYER-2
 10
6.009201
 20
1.292438
 30
0.000000
  0
VERTEX
  8
MERGEDLAYER-2
 10
6.016867
 20
1.292438
 30
0.000000
  0
VERTEX
  8
MERGEDLAYER-2
 10
6.016867
 20
1.099602
 30
0.000000
  0
VERTEX
  8
MERGEDLAYER-2
 10
6.009201
 20
1.099602
 30
0.000000
  0
SEQEND
  8
MERGEDLAYER-2
  0
POLYLINE
  8
MERGEDLAYER-2
 66
  1
 70
  1
 62
  0
  0
VERTEX
  8
MERGEDLAYER-2
 10
6.016867
 20
1.445821
 30
0.000000
  0
VERTEX
  8
MERGEDLAYER-2
 10
6.024540
 20
1.445821
 30
0.000000
  0
VERTEX
  8
MERGEDLAYER-2
 10
6.024540
 20
1.252979
 30
0.000000
  0
VERTEX
  8
MERGEDLAYER-2
 10
6.016867
 20
1.252979
 30
0.000000
  0
SEQEND
  8
MERGEDLAYER-2
  0
POLYLINE
  8
MERGEDLAYER-2
 66
  1
 70
  1
 62
  0
  0
VERTEX
  8
MERGEDLAYER-2
 10
6.009201
 20
1.599198
 30
0.000000
  0
VERTEX
  8
MERGEDLAYER-2
 10
6.016867
 20
1.599198
 30
0.000000
  0
VERTEX
  8
MERGEDLAYER-2
 10
6.016867
 20
1.406360
 30
0.000000
  0
VERTEX
  8
MERGEDLAYER-2
 10
6.009201
 20
1.406360
 30
0.000000
  0
SEQEND
  8
MERGEDLAYER-2
  0
POLYLINE
  8
MERGEDLAYER-2
 66
  1
 70
  1
 62
  0
  0
VERTEX
  8
MERGEDLAYER-2
 10
6.016867
 20
1.752579
 30
0.000000
  0
VERTEX
  8
MERGEDLAYER-2
 10
6.024540
 20
1.752579
 30
0.000000
  0
VERTEX
  8
MERGEDLAYER-2
 10
6.024540
 20
1.559736
 30
0.000000
  0
VERTEX
  8
MERGEDLAYER-2
 10
6.016867
 20
1.559736
 30
0.000000
  0
SEQEND
  8
MERGEDLAYER-2
  0
POLYLINE
  8
MERGEDLAYER-2
 66
  1
 70
  1
 62
  0
  0
VERTEX
  8
MERGEDLAYER-2
 10
6.009201
 20
1.905959
 30
0.000000
  0
VERTEX
  8
MERGEDLAYER-2
 10
6.016867
 20
1.905959
 30
0.000000
  0
VERTEX
  8
MERGEDLAYER-2
 10
6.016867
 20
1.713119
 30
0.000000
  0
VERTEX
  8
MERGEDLAYER-2
 10
6.009201
 20
1.713119
 30
0.000000
  0
SEQEND
  8
MERGEDLAYER-2
  0
POLYLINE
  8
MERGEDLAYER-2
 66
  1
 70
  1
 62
  0
  0
VERTEX
  8
MERGEDLAYER-2
 10
6.016867
 20
2.059335
 30
0.000000
  0
VERTEX
  8
MERGEDLAYER-2
 10
6.024540
 20
2.059335
 30
0.000000
  0
VERTEX
  8
MERGEDLAYER-2
 10
6.024540
 20
1.866497
 30
0.000000
  0
VERTEX
  8
MERGEDLAYER-2
 10
6.016867
 20
1.866497
 30
0.000000
  0
SEQEND
  8
MERGEDLAYER-2
  0
POLYLINE
  8
MERGEDLAYER-2
 66
  1
 70
  1
 62
  0
  0
VERTEX
  8
MERGEDLAYER-2
 10
6.009201
 20
2.212717
 30
0.000000
  0
VERTEX
  8
MERGEDLAYER-2
 10
6.016867
 20
2.212717
 30
0.000000
  0
VERTEX
  8
MERGEDLAYER-2
 10
6.016867
 20
2.019875
 30
0.000000
  0
VERTEX
  8
MERGEDLAYER-2
 10
6.009201
 20
2.019875
 30
0.000000
  0
SEQEND
  8
MERGEDLAYER-2
  0
POLYLINE
  8
MERGEDLAYER-2
 66
  1
 70
  1
 62
  0
  0
VERTEX
  8
MERGEDLAYER-2
 10
6.016867
 20
2.366095
 30
0.000000
  0
VERTEX
  8
MERGEDLAYER-2
 10
6.024540
 20
2.366095
 30
0.000000
  0
VERTEX
  8
MERGEDLAYER-2
 10
6.024540
 20
2.173255
 30
0.000000
  0
VERTEX
  8
MERGEDLAYER-2
 10
6.016867
 20
2.173255
 30
0.000000
  0
SEQEND
  8
MERGEDLAYER-2
  0
POLYLINE
  8
MERGEDLAYER-2
 66
  1
 70
  1
 62
  0
  0
VERTEX
  8
MERGEDLAYER-2
 10
6.009201
 20
2.519476
 30
0.000000
  0
VERTEX
  8
MERGEDLAYER-2
 10
6.016867
 20
2.519476
 30
0.000000
  0
VERTEX
  8
MERGEDLAYER-2
 10
6.016867
 20
2.326636
 30
0.000000
  0
VERTEX
  8
MERGEDLAYER-2
 10
6.009201
 20
2.326636
 30
0.000000
  0
SEQEND
  8
MERGEDLAYER-2
  0
POLYLINE
  8
MERGEDLAYER-2
 66
  1
 70
  1
 62
  0
  0
VERTEX
  8
MERGEDLAYER-2
 10
6.016867
 20
2.672853
 30
0.000000
  0
VERTEX
  8
MERGEDLAYER-2
 10
6.024540
 20
2.672853
 30
0.000000
  0
VERTEX
  8
MERGEDLAYER-2
 10
6.024540
 20
2.480017
 30
0.000000
  0
VERTEX
  8
MERGEDLAYER-2
 10
6.016867
 20
2.480017
 30
0.000000
  0
SEQEND
  8
MERGEDLAYER-2
  0
POLYLINE
  8
MERGEDLAYER-2
 66
  1
 70
  1
 62
  0
  0
VERTEX
  8
MERGEDLAYER-2
 10
6.009201
 20
2.826232
 30
0.000000
  0
VERTEX
  8
MERGEDLAYER-2
 10
6.016867
 20
2.826232
 30
0.000000
  0
VERTEX
  8
MERGEDLAYER-2
 10
6.016867
 20
2.633396
 30
0.000000
  0
VERTEX
  8
MERGEDLAYER-2
 10
6.009201
 20
2.633396
 30
0.000000
  0
SEQEND
  8
MERGEDLAYER-2
  0
POLYLINE
  8
MERGEDLAYER-2
 66
  1
 70
  1
 62
  0
  0
VERTEX
  8
MERGEDLAYER-2
 10
6.016867
 20
2.979612
 30
0.000000
  0
VERTEX
  8
MERGEDLAYER-2
 10
6.024540
 20
2.979612
 30
0.000000
  0
VERTEX
  8
MERGEDLAYER-2
 10
6.024540
 20
2.786773
 30
0.000000
  0
VERTEX
  8
MERGEDLAYER-2
 10
6.016867
 20
2.786773
 30
0.000000
  0
SEQEND
  8
MERGEDLAYER-2
  0
POLYLINE
  8
MERGEDLAYER-2
 66
  1
 70
  1
 62
  0
  0
VERTEX
  8
MERGEDLAYER-2
 10
6.009201
 20
3.132991
 30
0.000000
  0
VERTEX
  8
MERGEDLAYER-2
 10
6.016867
 20
3.132991
 30
0.000000
  0
VERTEX
  8
MERGEDLAYER-2
 10
6.016867
 20
2.940152
 30
0.000000
  0
VERTEX
  8
MERGEDLAYER-2
 10
6.009201
 20
2.940152
 30
0.000000
  0
SEQEND
  8
MERGEDLAYER-2
  0
POLYLINE
  8
MERGEDLAYER-2
 66
  1
 70
  1
 62
  0
  0
VERTEX
  8
MERGEDLAYER-2
 10
6.016867
 20
3.286370
 30
0.000000
  0
VERTEX
  8
MERGEDLAYER-2
 10
6.024540
 20
3.286370
 30
0.000000
  0
VERTEX
  8
MERGEDLAYER-2
 10
6.024540
 20
3.093532
 30
0.000000
  0
VERTEX
  8
MERGEDLAYER-2
 10
6.016867
 20
3.093532
 30
0.000000
  0
SEQEND
  8
MERGEDLAYER-2
  0
POLYLINE
  8
MERGEDLAYER-2
 66
  1
 70
  1
 62
  0
  0
VERTEX
  8
MERGEDLAYER-2
 10
6.009201
 20
3.439750
 30
0.000000
  0
VERTEX
  8
MERGEDLAYER-2
 10
6.016867
 20
3.439750
 30
0.000000
  0
VERTEX
  8
MERGEDLAYER-2
 10
6.016867
 20
3.246912
 30
0.000000
  0
VERTEX
  8
MERGEDLAYER-2
 10
6.009201
 20
3.246912
 30
0.000000
  0
SEQEND
  8
MERGEDLAYER-2
  0
POLYLINE
  8
MERGEDLAYER-2
 66
  1
 70
  1
 62
  0
  0
VERTEX
  8
MERGEDLAYER-2
 10
6.016867
 20
3.899415
 30
0.000000
  0
VERTEX
  8
MERGEDLAYER-2
 10
6.024540
 20
3.899415
 30
0.000000
  0
VERTEX
  8
MERGEDLAYER-2
 10
6.024540
 20
3.706577
 30
0.000000
  0
VERTEX
  8
MERGEDLAYER-2
 10
6.016867
 20
3.706577
 30
0.000000
  0
SEQEND
  8
MERGEDLAYER-2
  0
POLYLINE
  8
MERGEDLAYER-2
 66
  1
 70
  1
 62
  0
  0
VERTEX
  8
MERGEDLAYER-2
 10
6.009201
 20
4.052794
 30
0.000000
  0
VERTEX
  8
MERGEDLAYER-2
 10
6.016867
 20
4.052794
 30
0.000000
  0
VERTEX
  8
MERGEDLAYER-2
 10
6.016867
 20
3.859967
 30
0.000000
  0
VERTEX
  8
MERGEDLAYER-2
 10
6.009201
 20
3.859967
 30
0.000000
  0
SEQEND
  8
MERGEDLAYER-2
  0
POLYLINE
  8
MERGEDLAYER-2
 66
  1
 70
  1
 62
  0
  0
VERTEX
  8
MERGEDLAYER-2
 10
6.016867
 20
4.205700
 30
0.000000
  0
VERTEX
  8
MERGEDLAYER-2
 10
6.024540
 20
4.205700
 30
0.000000
  0
VERTEX
  8
MERGEDLAYER-2
 10
6.024540
 20
4.012862
 30
0.000000
  0
VERTEX
  8
MERGEDLAYER-2
 10
6.016867
 20
4.012862
 30
0.000000
  0
SEQEND
  8
MERGEDLAYER-2
  0
POLYLINE
  8
MERGEDLAYER-2
 66
  1
 70
  1
 62
  0
  0
VERTEX
  8
MERGEDLAYER-2
 10
6.009201
 20
4.359080
 30
0.000000
  0
VERTEX
  8
MERGEDLAYER-2
 10
6.016867
 20
4.359080
 30
0.000000
  0
VERTEX
  8
MERGEDLAYER-2
 10
6.016867
 20
4.166252
 30
0.000000
  0
VERTEX
  8
MERGEDLAYER-2
 10
6.009201
 20
4.166252
 30
0.000000
  0
SEQEND
  8
MERGEDLAYER-2
  0
POLYLINE
  8
MERGEDLAYER-2
 66
  1
 70
  1
 62
  0
  0
VERTEX
  8
MERGEDLAYER-2
 10
6.016867
 20
4.511986
 30
0.000000
  0
VERTEX
  8
MERGEDLAYER-2
 10
6.024540
 20
4.511986
 30
0.000000
  0
VERTEX
  8
MERGEDLAYER-2
 10
6.024540
 20
4.319149
 30
0.000000
  0
VERTEX
  8
MERGEDLAYER-2
 10
6.016867
 20
4.319149
 30
0.000000
  0
SEQEND
  8
MERGEDLAYER-2
  0
POLYLINE
  8
MERGEDLAYER-2
 66
  1
 70
  1
 62
  0
  0
VERTEX
  8
MERGEDLAYER-2
 10
6.009201
 20
4.665366
 30
0.000000
  0
VERTEX
  8
MERGEDLAYER-2
 10
6.016867
 20
4.665366
 30
0.000000
  0
VERTEX
  8
MERGEDLAYER-2
 10
6.016867
 20
4.472539
 30
0.000000
  0
VERTEX
  8
MERGEDLAYER-2
 10
6.009201
 20
4.472539
 30
0.000000
  0
SEQEND
  8
MERGEDLAYER-2
  0
POLYLINE
  8
MERGEDLAYER-2
 66
  1
 70
  1
 62
  0
  0
VERTEX
  8
MERGEDLAYER-2
 10
6.016867
 20
4.818272
 30
0.000000
  0
VERTEX
  8
MERGEDLAYER-2
 10
6.024540
 20
4.818272
 30
0.000000
  0
VERTEX
  8
MERGEDLAYER-2
 10
6.024540
 20
4.625434
 30
0.000000
  0
VERTEX
  8
MERGEDLAYER-2
 10
6.016867
 20
4.625434
 30
0.000000
  0
SEQEND
  8
MERGEDLAYER-2
  0
POLYLINE
  8
MERGEDLAYER-2
 66
  1
 70
  1
 62
  0
  0
VERTEX
  8
MERGEDLAYER-2
 10
6.009201
 20
4.971652
 30
0.000000
  0
VERTEX
  8
MERGEDLAYER-2
 10
6.016867
 20
4.971652
 30
0.000000
  0
VERTEX
  8
MERGEDLAYER-2
 10
6.016867
 20
4.778825
 30
0.000000
  0
VERTEX
  8
MERGEDLAYER-2
 10
6.009201
 20
4.778825
 30
0.000000
  0
SEQEND
  8
MERGEDLAYER-2
  0
POLYLINE
  8
MERGEDLAYER-2
 66
  1
 70
  1
 62
  0
  0
VERTEX
  8
MERGEDLAYER-2
 10
6.016867
 20
5.124557
 30
0.000000
  0
VERTEX
  8
MERGEDLAYER-2
 10
6.024540
 20
5.124557
 30
0.000000
  0
VERTEX
  8
MERGEDLAYER-2
 10
6.024540
 20
4.931720
 30
0.000000
  0
VERTEX
  8
MERGEDLAYER-2
 10
6.016867
 20
4.931720
 30
0.000000
  0
SEQEND
  8
MERGEDLAYER-2
  0
POLYLINE
  8
MERGEDLAYER-2
 66
  1
 70
  1
 62
  0
  0
VERTEX
  8
MERGEDLAYER-2
 10
6.009201
 20
5.277937
 30
0.000000
  0
VERTEX
  8
MERGEDLAYER-2
 10
6.016867
 20
5.277937
 30
0.000000
  0
VERTEX
  8
MERGEDLAYER-2
 10
6.016867
 20
5.085110
 30
0.000000
  0
VERTEX
  8
MERGEDLAYER-2
 10
6.009201
 20
5.085110
 30
0.000000
  0
SEQEND
  8
MERGEDLAYER-2
  0
POLYLINE
  8
MERGEDLAYER-2
 66
  1
 70
  1
 62
  0
  0
VERTEX
  8
MERGEDLAYER-2
 10
3.892361
 20
0.479168
 30
0.000000
  0
VERTEX
  8
MERGEDLAYER-2
 10
4.297831
 20
0.479168
 30
0.000000
  0
VERTEX
  8
MERGEDLAYER-2
 10
4.297831
 20
0.352604
 30
0.000000
  0
VERTEX
  8
MERGEDLAYER-2
 10
3.892361
 20
0.352604
 30
0.000000
  0
SEQEND
  8
MERGEDLAYER-2
  0
POLYLINE
  8
MERGEDLAYER-2
 66
  1
 70
  1
 62
  0
  0
VERTEX
  8
MERGEDLAYER-2
 10
3.905252
 20
0.460300
 30
0.000000
  0
VERTEX
  8
MERGEDLAYER-2
 10
3.920838
 20
0.460300
 30
0.000000
  0
VERTEX
  8
MERGEDLAYER-2
 10
3.920838
 20
0.426433
 30
0.000000
  0
VERTEX
  8
MERGEDLAYER-2
 10
3.905252
 20
0.426433
 30
0.000000
  0
SEQEND
  8
MERGEDLAYER-2
  0
POLYLINE
  8
MERGEDLAYER-2
 66
  1
 70
  1
 62
  0
  0
VERTEX
  8
MERGEDLAYER-2
 10
3.926111
 20
0.460300
 30
0.000000
  0
VERTEX
  8
MERGEDLAYER-2
 10
3.941463
 20
0.460300
 30
0.000000
  0
VERTEX
  8
MERGEDLAYER-2
 10
3.941463
 20
0.426433
 30
0.000000
  0
VERTEX
  8
MERGEDLAYER-2
 10
3.926111
 20
0.426433
 30
0.000000
  0
SEQEND
  8
MERGEDLAYER-2
  0
POLYLINE
  8
MERGEDLAYER-2
 66
  1
 70
  1
 62
  0
  0
VERTEX
  8
MERGEDLAYER-2
 10
3.945916
 20
0.460300
 30
0.000000
  0
VERTEX
  8
MERGEDLAYER-2
 10
3.961268
 20
0.460300
 30
0.000000
  0
VERTEX
  8
MERGEDLAYER-2
 10
3.961268
 20
0.426433
 30
0.000000
  0
VERTEX
  8
MERGEDLAYER-2
 10
3.945916
 20
0.426433
 30
0.000000
  0
SEQEND
  8
MERGEDLAYER-2
  0
POLYLINE
  8
MERGEDLAYER-2
 66
  1
 70
  1
 62
  0
  0
VERTEX
  8
MERGEDLAYER-2
 10
3.966307
 20
0.460300
 30
0.000000
  0
VERTEX
  8
MERGEDLAYER-2
 10
3.981658
 20
0.460300
 30
0.000000
  0
VERTEX
  8
MERGEDLAYER-2
 10
3.981658
 20
0.426433
 30
0.000000
  0
VERTEX
  8
MERGEDLAYER-2
 10
3.966307
 20
0.426433
 30
0.000000
  0
SEQEND
  8
MERGEDLAYER-2
  0
POLYLINE
  8
MERGEDLAYER-2
 66
  1
 70
  1
 62
  0
  0
VERTEX
  8
MERGEDLAYER-2
 10
3.987166
 20
0.451042
 30
0.000000
  0
VERTEX
  8
MERGEDLAYER-2
 10
3.987166
 20
0.459831
 30
0.000000
  0
VERTEX
  8
MERGEDLAYER-2
 10
4.012128
 20
0.459831
 30
0.000000
  0
VERTEX
  8
MERGEDLAYER-2
 10
4.012128
 20
0.451042
 30
0.000000
  0
SEQEND
  8
MERGEDLAYER-2
  0
POLYLINE
  8
MERGEDLAYER-2
 66
  1
 70
  1
 62
  0
  0
VERTEX
  8
MERGEDLAYER-2
 10
3.987167
 20
0.436159
 30
0.000000
  0
VERTEX
  8
MERGEDLAYER-2
 10
3.987167
 20
0.444948
 30
0.000000
  0
VERTEX
  8
MERGEDLAYER-2
 10
4.007557
 20
0.444948
 30
0.000000
  0
VERTEX
  8
MERGEDLAYER-2
 10
4.007557
 20
0.436159
 30
0.000000
  0
SEQEND
  8
MERGEDLAYER-2
  0
POLYLINE
  8
MERGEDLAYER-2
 66
  1
 70
  0
 62
  0
 10
3.905252
 20
0.415886
 30
0.000000
  0
VERTEX
  8
MERGEDLAYER-2
 10
3.905252
 20
0.415886
 30
0.000000
  0
VERTEX
  8
MERGEDLAYER-2
 10
4.292499
 20
0.415769
 30
0.000000
  0
SEQEND
  8
MERGEDLAYER-2
  0
TEXT
  8
MERGEDLAYER-2
 62
  0
 10
4.097222
 20
0.430556
 30
0.000000
 40
0.020833
  1
mobilflex.com
 72
  5
 11
4.375000
 21
0.430556
 31
0.000000
  0
TEXT
  8
MERGEDLAYER-2
 62
  0
 10
3.902778
 20
0.361111
 30
0.000000
 40
0.041667
  1
MobilFlex
 72
  5
 11
4.194444
 21
0.361111
 31
0.000000
  0
TEXT
  8
MERGEDLAYER-2
 62
  0
 10
2.569444
 20
0.083333
 30
0.000000
 40
0.125000
  1
Handle
 72
  5
 11
3.194444
 21
0.083333
 31
0.000000
  0
POLYLINE
  8
MERGEDLAYER-2
 66
  1
 70
  0
 62
  0
 10
3.137152
 20
0.164931
 30
0.000000
  0
VERTEX
  8
MERGEDLAYER-2
 10
3.137152
 20
0.164931
 30
0.000000
  0
VERTEX
  8
MERGEDLAYER-2
 10
3.522725
 20
0.353897
 30
0.000000
  0
SEQEND
  8
MERGEDLAYER-2
  0
POLYLINE
  8
MERGEDLAYER-2
 66
  1
 70
  1
 62
  0
  0
VERTEX
  8
MERGEDLAYER-2
 10
3.540402
 20
0.362561
 30
0.000000
  0
VERTEX
  8
MERGEDLAYER-2
 10
3.496381
 20
0.294584
 30
0.000000
  0
VERTEX
  8
MERGEDLAYER-2
 10
3.478044
 20
0.331999
 30
0.000000
  0
VERTEX
  8
MERGEDLAYER-2
 10
3.459707
 20
0.369414
 30
0.000000
  0
VERTEX
  8
MERGEDLAYER-2
 10
3.540402
 20
0.362561
 30
0.000000
  0
SEQEND
  8
MERGEDLAYER-2
  0
TEXT
  8
MERGEDLAYER-2
 62
  0
 10
3.972222
 20
0.083333
 30
0.000000
 40
0.125000
  1
Cylinder lock
 72
  5
 11
5.013889
 21
0.083333
 31
0.000000
  0
POLYLINE
  8
MERGEDLAYER-2
 66
  1
 70
  0
 62
  0
 10
3.953125
 20
0.144098
 30
0.000000
  0
VERTEX
  8
MERGEDLAYER-2
 10
3.953125
 20
0.144098
 30
0.000000
  0
VERTEX
  8
MERGEDLAYER-2
 10
3.798631
 20
0.340433
 30
0.000000
  0
SEQEND
  8
MERGEDLAYER-2
  0
POLYLINE
  8
MERGEDLAYER-2
 66
  1
 70
  1
 62
  0
  0
VERTEX
  8
MERGEDLAYER-2
 10
3.786458
 20
0.355904
 30
0.000000
  0
VERTEX
  8
MERGEDLAYER-2
 10
3.862147
 20
0.327096
 30
0.000000
  0
VERTEX
  8
MERGEDLAYER-2
 10
3.829402
 20
0.301330
 30
0.000000
  0
VERTEX
  8
MERGEDLAYER-2
 10
3.796658
 20
0.275564
 30
0.000000
  0
VERTEX
  8
MERGEDLAYER-2
 10
3.786458
 20
0.355904
 30
0.000000
  0
SEQEND
  8
MERGEDLAYER-2
  0
TEXT
  8
MERGEDLAYER-2
 62
  0
 10
3.513889
 20
6.083333
 30
0.000000
 40
0.125000
  1
1/8
 72
  5
 11
3.819444
 21
6.083333
 31
0.000000
  0
TEXT
  8
MERGEDLAYER-2
 62
  0
 10
3.819444
 20
6.083333
 30
0.000000
 40
0.145833
  1
"x
 72
  5
 11
4.055556
 21
6.083333
 31
0.000000
  0
TEXT
  8
MERGEDLAYER-2
 62
  0
 10
4.055556
 20
6.083333
 30
0.000000
 40
0.125000
  1
5/8
 72
  5
 11
4.361111
 21
6.083333
 31
0.000000
  0
TEXT
  8
MERGEDLAYER-2
 62
  0
 10
4.361111
 20
6.083333
 30
0.000000
 40
0.145833
  1
"
 72
  5
 11
4.500000
 21
6.083333
 31
0.000000
  0
TEXT
  8
MERGEDLAYER-2
 62
  0
 10
3.513889
 20
5.847222
 30
0.000000
 40
0.145833
  1
3x16
 72
  5
 11
4.013889
 21
5.847222
 31
0.000000
  0
TEXT
  8
MERGEDLAYER-2
 62
  0
 10
4.013889
 20
5.847222
 30
0.000000
 40
0.125000
  1
mm
 72
  5
 11
4.388889
 21
5.847222
 31
0.000000
  0
TEXT
  8
MERGEDLAYER-2
 62
  0
 10
4.388889
 20
5.847222
 30
0.000000
 40
0.156250
  1
 
 72
  5
 11
4.513889
 21
5.847222
 31
0.000000
  0
TEXT
  8
MERGEDLAYER-2
 62
  0
 10
3.013889
 20
6.027778
 30
0.000000
 40
0.145833
  1
links
 72
  5
 11
3.472222
 21
6.027778
 31
0.000000
  0
TEXT
  8
MERGEDLAYER-2
 62
  0
 10
1.805556
 20
8.541667
 30
0.000000
 40
0.125000
  1
OPEN STYLE ROLLING GRILLE
 72
  5
 11
4.319444
 21
8.541667
 31
0.000000
  0
ENDSEC
  0
EOF
