  0
SECTION
  2
HEADER
999
MacDraft 5.0\0
  9
$ACADVER
  1
AC1006
  9
$CLAYER
  8
MERGEDLAYER-2
  9
$EXTMIN
 10
0.000000
 20
0.000000
  9
$EXTMAX
 10
7.555556
 20
10.066783
  9
$FASTZOOM
 70
0
  9
$FILLMODE
 70
1
  0
ENDSEC
  0
SECTION
  2
TABLES
  0
TABLE
  2
LTYPE
 70
16
  0
LTYPE
  2
CONTINUOUS
 70
64
  3
Solid Line
 72
65
 73
0
 40
0.000000
  0
LTYPE
  2
LTYPE01
 70
64
  3
CUSTOM
 72
65
 73
2
 40
0.111111
 49
0.083333
 49
-0.027778
  0
LTYPE
  2
LTYPE02
 70
64
  3
CUSTOM
 72
65
 73
2
 40
0.194444
 49
0.166667
 49
-0.027778
  0
LTYPE
  2
LTYPE03
 70
64
  3
CUSTOM
 72
65
 73
2
 40
0.375000
 49
0.333333
 49
-0.041667
  0
LTYPE
  2
LTYPE04
 70
64
  3
CUSTOM
 72
65
 73
2
 40
0.722222
 49
0.666667
 49
-0.055556
  0
LTYPE
  2
LTYPE05
 70
64
  3
CUSTOM
 72
65
 73
4
 40
0.152778
 49
0.083333
 49
-0.027778
 49
0.013889
 49
-0.027778
  0
LTYPE
  2
LTYPE06
 70
64
  3
CUSTOM
 72
65
 73
4
 40
0.236111
 49
0.166667
 49
-0.027778
 49
0.013889
 49
-0.027778
  0
LTYPE
  2
LTYPE07
 70
64
  3
CUSTOM
 72
65
 73
4
 40
0.444444
 49
0.333333
 49
-0.041667
 49
0.027778
 49
-0.041667
  0
LTYPE
  2
LTYPE08
 70
64
  3
CUSTOM
 72
65
 73
4
 40
0.805556
 49
0.666667
 49
-0.055556
 49
0.027778
 49
-0.055556
  0
LTYPE
  2
LTYPE09
 70
64
  3
CUSTOM
 72
65
 73
6
 40
0.194444
 49
0.083333
 49
-0.027778
 49
0.013889
 49
-0.027778
 49
0.013889
 49
-0.027778
  0
LTYPE
  2
LTYPE10
 70
64
  3
CUSTOM
 72
65
 73
6
 40
0.277778
 49
0.166667
 49
-0.027778
 49
0.013889
 49
-0.027778
 49
0.013889
 49
-0.027778
  0
LTYPE
  2
LTYPE11
 70
64
  3
CUSTOM
 72
65
 73
6
 40
0.500000
 49
0.333333
 49
-0.041667
 49
0.027778
 49
-0.027778
 49
0.027778
 49
-0.041667
  0
LTYPE
  2
LTYPE12
 70
64
  3
CUSTOM
 72
65
 73
6
 40
0.861111
 49
0.666667
 49
-0.055556
 49
0.027778
 49
-0.027778
 49
0.027778
 49
-0.055556
  0
LTYPE
  2
LTYPE13
 70
64
  3
CUSTOM
 72
65
 73
8
 40
0.319444
 49
0.166667
 49
-0.027778
 49
0.013889
 49
-0.027778
 49
0.013889
 49
-0.027778
 49
0.013889
 49
-0.027778
  0
LTYPE
  2
LTYPE14
 70
64
  3
CUSTOM
 72
65
 73
8
 40
0.555556
 49
0.333333
 49
-0.041667
 49
0.027778
 49
-0.027778
 49
0.027778
 49
-0.027778
 49
0.027778
 49
-0.041667
  0
LTYPE
  2
LTYPE15
 70
64
  3
CUSTOM
 72
65
 73
8
 40
0.944444
 49
0.666667
 49
-0.055556
 49
0.027778
 49
-0.041667
 49
0.027778
 49
-0.041667
 49
0.027778
 49
-0.055556
  0
ENDTAB
  0
TABLE
  2
LAYER
 70
1
  0
LAYER
  2
MERGEDLAYER-2
 70
0
 62
7
  6
CONTINUOUS
  0
ENDTAB
  0
ENDSEC
  0
SECTION
  2
BLOCKS
  0
ENDSEC
  0
SECTION
  2
ENTITIES
  0
ARC
  8
MERGEDLAYER-2
 62
  0
 10
5.462494
 20
8.996878
 30
0.000000
 40
0.254425
 50
270.000000
 51
90.000000
  0
POLYLINE
  8
MERGEDLAYER-2
 66
  1
 70
  0
 62
  0
 10
5.462494
 20
9.251304
 30
0.000000
  0
VERTEX
  8
MERGEDLAYER-2
 10
5.462494
 20
9.251304
 30
0.000000
  0
VERTEX
  8
MERGEDLAYER-2
 10
1.797572
 20
9.251304
 30
0.000000
  0
SEQEND
  8
MERGEDLAYER-2
  0
POLYLINE
  8
MERGEDLAYER-2
 66
  1
 70
  0
 62
  0
 10
1.797572
 20
9.251304
 30
0.000000
  0
VERTEX
  8
MERGEDLAYER-2
 10
1.797572
 20
9.251304
 30
0.000000
  0
VERTEX
  8
MERGEDLAYER-2
 10
1.797572
 20
8.742454
 30
0.000000
  0
SEQEND
  8
MERGEDLAYER-2
  0
POLYLINE
  8
MERGEDLAYER-2
 66
  1
 70
  0
 62
  0
 10
5.462494
 20
8.742454
 30
0.000000
  0
VERTEX
  8
MERGEDLAYER-2
 10
5.462494
 20
8.742454
 30
0.000000
  0
VERTEX
  8
MERGEDLAYER-2
 10
1.797572
 20
8.742454
 30
0.000000
  0
SEQEND
  8
MERGEDLAYER-2
  0
TEXT
  8
MERGEDLAYER-2
 62
  0
 10
3.611111
 20
9.545141
 30
0.000000
 40
0.333333
  1
MobilFlex
 72
  5
 11
5.763889
 21
9.545141
 31
0.000000
  0
POLYLINE
  8
MERGEDLAYER-2
 66
  1
 70
  1
 62
  0
  0
VERTEX
  8
MERGEDLAYER-2
 10
1.799076
 20
10.065115
 30
0.000000
  0
VERTEX
  8
MERGEDLAYER-2
 10
2.036923
 20
10.065115
 30
0.000000
  0
VERTEX
  8
MERGEDLAYER-2
 10
2.036923
 20
9.548171
 30
0.000000
  0
VERTEX
  8
MERGEDLAYER-2
 10
1.799076
 20
9.548171
 30
0.000000
  0
SEQEND
  8
MERGEDLAYER-2
  0
POLYLINE
  8
MERGEDLAYER-2
 66
  1
 70
  1
 62
  0
  0
VERTEX
  8
MERGEDLAYER-2
 10
2.111576
 20
10.065115
 30
0.000000
  0
VERTEX
  8
MERGEDLAYER-2
 10
2.349423
 20
10.065115
 30
0.000000
  0
VERTEX
  8
MERGEDLAYER-2
 10
2.349423
 20
9.548171
 30
0.000000
  0
VERTEX
  8
MERGEDLAYER-2
 10
2.111576
 20
9.548171
 30
0.000000
  0
SEQEND
  8
MERGEDLAYER-2
  0
POLYLINE
  8
MERGEDLAYER-2
 66
  1
 70
  1
 62
  0
  0
VERTEX
  8
MERGEDLAYER-2
 10
2.411923
 20
10.065115
 30
0.000000
  0
VERTEX
  8
MERGEDLAYER-2
 10
2.649771
 20
10.065115
 30
0.000000
  0
VERTEX
  8
MERGEDLAYER-2
 10
2.649771
 20
9.548171
 30
0.000000
  0
VERTEX
  8
MERGEDLAYER-2
 10
2.411923
 20
9.548171
 30
0.000000
  0
SEQEND
  8
MERGEDLAYER-2
  0
POLYLINE
  8
MERGEDLAYER-2
 66
  1
 70
  1
 62
  0
  0
VERTEX
  8
MERGEDLAYER-2
 10
2.715743
 20
10.065115
 30
0.000000
  0
VERTEX
  8
MERGEDLAYER-2
 10
2.953590
 20
10.065115
 30
0.000000
  0
VERTEX
  8
MERGEDLAYER-2
 10
2.953590
 20
9.548171
 30
0.000000
  0
VERTEX
  8
MERGEDLAYER-2
 10
2.715743
 20
9.548171
 30
0.000000
  0
SEQEND
  8
MERGEDLAYER-2
  0
POLYLINE
  8
MERGEDLAYER-2
 66
  1
 70
  1
 62
  0
  0
VERTEX
  8
MERGEDLAYER-2
 10
3.032583
 20
10.061200
 30
0.000000
  0
VERTEX
  8
MERGEDLAYER-2
 10
3.408017
 20
10.061200
 30
0.000000
  0
VERTEX
  8
MERGEDLAYER-2
 10
3.408017
 20
9.923180
 30
0.000000
  0
VERTEX
  8
MERGEDLAYER-2
 10
3.032583
 20
9.923180
 30
0.000000
  0
SEQEND
  8
MERGEDLAYER-2
  0
POLYLINE
  8
MERGEDLAYER-2
 66
  1
 70
  1
 62
  0
  0
VERTEX
  8
MERGEDLAYER-2
 10
3.032149
 20
9.833770
 30
0.000000
  0
VERTEX
  8
MERGEDLAYER-2
 10
3.340309
 20
9.833770
 30
0.000000
  0
VERTEX
  8
MERGEDLAYER-2
 10
3.340309
 20
9.699655
 30
0.000000
  0
VERTEX
  8
MERGEDLAYER-2
 10
3.032149
 20
9.699655
 30
0.000000
  0
SEQEND
  8
MERGEDLAYER-2
  0
POLYLINE
  8
MERGEDLAYER-2
 66
  1
 70
  1
 62
  0
  0
VERTEX
  8
MERGEDLAYER-2
 10
1.799076
 20
9.463544
 30
0.000000
  0
VERTEX
  8
MERGEDLAYER-2
 10
5.717479
 20
9.463544
 30
0.000000
  0
VERTEX
  8
MERGEDLAYER-2
 10
5.717479
 20
9.420141
 30
0.000000
  0
VERTEX
  8
MERGEDLAYER-2
 10
1.799076
 20
9.420141
 30
0.000000
  0
SEQEND
  8
MERGEDLAYER-2
  0
POLYLINE
  8
MERGEDLAYER-2
 66
  1
 70
  0
 62
  0
 10
5.765264
 20
6.925246
 30
0.000000
  0
VERTEX
  8
MERGEDLAYER-2
 10
5.765264
 20
6.925246
 30
0.000000
  0
VERTEX
  8
MERGEDLAYER-2
 10
5.755647
 20
7.052163
 30
0.000000
  0
VERTEX
  8
MERGEDLAYER-2
 10
5.726890
 20
7.177858
 30
0.000000
  0
VERTEX
  8
MERGEDLAYER-2
 10
5.679268
 20
7.301120
 30
0.000000
  0
VERTEX
  8
MERGEDLAYER-2
 10
5.613240
 20
7.420762
 30
0.000000
  0
VERTEX
  8
MERGEDLAYER-2
 10
5.529444
 20
7.535632
 30
0.000000
  0
VERTEX
  8
MERGEDLAYER-2
 10
5.428684
 20
7.644624
 30
0.000000
  0
VERTEX
  8
MERGEDLAYER-2
 10
5.311932
 20
7.746687
 30
0.000000
  0
VERTEX
  8
MERGEDLAYER-2
 10
5.180313
 20
7.840840
 30
0.000000
  0
VERTEX
  8
MERGEDLAYER-2
 10
5.035093
 20
7.926175
 30
0.000000
  0
VERTEX
  8
MERGEDLAYER-2
 10
4.877672
 20
8.001870
 30
0.000000
  0
VERTEX
  8
MERGEDLAYER-2
 10
4.709565
 20
8.067198
 30
0.000000
  0
VERTEX
  8
MERGEDLAYER-2
 10
4.532391
 20
8.121528
 30
0.000000
  0
VERTEX
  8
MERGEDLAYER-2
 10
4.347858
 20
8.164335
 30
0.000000
  0
VERTEX
  8
MERGEDLAYER-2
 10
4.157740
 20
8.195211
 30
0.000000
  0
VERTEX
  8
MERGEDLAYER-2
 10
3.963871
 20
8.213856
 30
0.000000
  0
VERTEX
  8
MERGEDLAYER-2
 10
3.768116
 20
8.220091
 30
0.000000
  0
VERTEX
  8
MERGEDLAYER-2
 10
3.572361
 20
8.213856
 30
0.000000
  0
VERTEX
  8
MERGEDLAYER-2
 10
3.378491
 20
8.195211
 30
0.000000
  0
VERTEX
  8
MERGEDLAYER-2
 10
3.188374
 20
8.164335
 30
0.000000
  0
VERTEX
  8
MERGEDLAYER-2
 10
3.003840
 20
8.121528
 30
0.000000
  0
VERTEX
  8
MERGEDLAYER-2
 10
2.826666
 20
8.067198
 30
0.000000
  0
VERTEX
  8
MERGEDLAYER-2
 10
2.658559
 20
8.001870
 30
0.000000
  0
VERTEX
  8
MERGEDLAYER-2
 10
2.501138
 20
7.926175
 30
0.000000
  0
VERTEX
  8
MERGEDLAYER-2
 10
2.355918
 20
7.840840
 30
0.000000
  0
VERTEX
  8
MERGEDLAYER-2
 10
2.224299
 20
7.746687
 30
0.000000
  0
VERTEX
  8
MERGEDLAYER-2
 10
2.107547
 20
7.644624
 30
0.000000
  0
VERTEX
  8
MERGEDLAYER-2
 10
2.006788
 20
7.535632
 30
0.000000
  0
VERTEX
  8
MERGEDLAYER-2
 10
1.922991
 20
7.420762
 30
0.000000
  0
VERTEX
  8
MERGEDLAYER-2
 10
1.856964
 20
7.301120
 30
0.000000
  0
VERTEX
  8
MERGEDLAYER-2
 10
1.809342
 20
7.177858
 30
0.000000
  0
VERTEX
  8
MERGEDLAYER-2
 10
1.780584
 20
7.052163
 30
0.000000
  0
VERTEX
  8
MERGEDLAYER-2
 10
1.770967
 20
6.925246
 30
0.000000
  0
VERTEX
  8
MERGEDLAYER-2
 10
1.780584
 20
6.798329
 30
0.000000
  0
VERTEX
  8
MERGEDLAYER-2
 10
1.809342
 20
6.672635
 30
0.000000
  0
VERTEX
  8
MERGEDLAYER-2
 10
1.856964
 20
6.549373
 30
0.000000
  0
VERTEX
  8
MERGEDLAYER-2
 10
1.922991
 20
6.429731
 30
0.000000
  0
VERTEX
  8
MERGEDLAYER-2
 10
2.006788
 20
6.314860
 30
0.000000
  0
VERTEX
  8
MERGEDLAYER-2
 10
2.107547
 20
6.205869
 30
0.000000
  0
VERTEX
  8
MERGEDLAYER-2
 10
2.224299
 20
6.103806
 30
0.000000
  0
VERTEX
  8
MERGEDLAYER-2
 10
2.355918
 20
6.009652
 30
0.000000
  0
VERTEX
  8
MERGEDLAYER-2
 10
2.501138
 20
5.924318
 30
0.000000
  0
VERTEX
  8
MERGEDLAYER-2
 10
2.658559
 20
5.848622
 30
0.000000
  0
VERTEX
  8
MERGEDLAYER-2
 10
2.826666
 20
5.783295
 30
0.000000
  0
VERTEX
  8
MERGEDLAYER-2
 10
3.003840
 20
5.728965
 30
0.000000
  0
VERTEX
  8
MERGEDLAYER-2
 10
3.188374
 20
5.686157
 30
0.000000
  0
VERTEX
  8
MERGEDLAYER-2
 10
3.378491
 20
5.655281
 30
0.000000
  0
VERTEX
  8
MERGEDLAYER-2
 10
3.572361
 20
5.636637
 30
0.000000
  0
VERTEX
  8
MERGEDLAYER-2
 10
3.768116
 20
5.630401
 30
0.000000
  0
VERTEX
  8
MERGEDLAYER-2
 10
3.963871
 20
5.636637
 30
0.000000
  0
VERTEX
  8
MERGEDLAYER-2
 10
4.157740
 20
5.655281
 30
0.000000
  0
VERTEX
  8
MERGEDLAYER-2
 10
4.347858
 20
5.686157
 30
0.000000
  0
VERTEX
  8
MERGEDLAYER-2
 10
4.532391
 20
5.728965
 30
0.000000
  0
VERTEX
  8
MERGEDLAYER-2
 10
4.709565
 20
5.783295
 30
0.000000
  0
VERTEX
  8
MERGEDLAYER-2
 10
4.877672
 20
5.848622
 30
0.000000
  0
VERTEX
  8
MERGEDLAYER-2
 10
5.035093
 20
5.924318
 30
0.000000
  0
VERTEX
  8
MERGEDLAYER-2
 10
5.180313
 20
6.009652
 30
0.000000
  0
VERTEX
  8
MERGEDLAYER-2
 10
5.311932
 20
6.103806
 30
0.000000
  0
VERTEX
  8
MERGEDLAYER-2
 10
5.428684
 20
6.205869
 30
0.000000
  0
VERTEX
  8
MERGEDLAYER-2
 10
5.529444
 20
6.314860
 30
0.000000
  0
VERTEX
  8
MERGEDLAYER-2
 10
5.613240
 20
6.429731
 30
0.000000
  0
VERTEX
  8
MERGEDLAYER-2
 10
5.679268
 20
6.549373
 30
0.000000
  0
VERTEX
  8
MERGEDLAYER-2
 10
5.726890
 20
6.672635
 30
0.000000
  0
VERTEX
  8
MERGEDLAYER-2
 10
5.755647
 20
6.798329
 30
0.000000
  0
VERTEX
  8
MERGEDLAYER-2
 10
5.765264
 20
6.925246
 30
0.000000
  0
SEQEND
  8
MERGEDLAYER-2
  0
TEXT
  8
MERGEDLAYER-2
 62
  0
 10
3.513889
 20
6.059030
 30
0.000000
 40
0.125000
  1
1/8
 72
  5
 11
3.819444
 21
6.059030
 31
0.000000
  0
TEXT
  8
MERGEDLAYER-2
 62
  0
 10
3.819444
 20
6.059030
 30
0.000000
 40
0.145833
  1
"x
 72
  5
 11
4.055556
 21
6.059030
 31
0.000000
  0
TEXT
  8
MERGEDLAYER-2
 62
  0
 10
4.055556
 20
6.059030
 30
0.000000
 40
0.125000
  1
5/8
 72
  5
 11
4.361111
 21
6.059030
 31
0.000000
  0
TEXT
  8
MERGEDLAYER-2
 62
  0
 10
4.361111
 20
6.059030
 30
0.000000
 40
0.145833
  1
"
 72
  5
 11
4.500000
 21
6.059030
 31
0.000000
  0
TEXT
  8
MERGEDLAYER-2
 62
  0
 10
3.513889
 20
5.822919
 30
0.000000
 40
0.145833
  1
3x16
 72
  5
 11
4.013889
 21
5.822919
 31
0.000000
  0
TEXT
  8
MERGEDLAYER-2
 62
  0
 10
4.013889
 20
5.822919
 30
0.000000
 40
0.125000
  1
mm
 72
  5
 11
4.388889
 21
5.822919
 31
0.000000
  0
TEXT
  8
MERGEDLAYER-2
 62
  0
 10
4.388889
 20
5.822919
 30
0.000000
 40
0.156250
  1
 
 72
  5
 11
4.513889
 21
5.822919
 31
0.000000
  0
TEXT
  8
MERGEDLAYER-2
 62
  0
 10
3.013889
 20
6.003475
 30
0.000000
 40
0.145833
  1
links
 72
  5
 11
3.472222
 21
6.003475
 31
0.000000
  0
POLYLINE
  8
MERGEDLAYER-2
 66
  1
 70
  0
 62
  0
 10
2.909722
 20
6.065973
 30
0.000000
  0
VERTEX
  8
MERGEDLAYER-2
 10
2.909722
 20
6.065973
 30
0.000000
  0
VERTEX
  8
MERGEDLAYER-2
 10
2.301684
 20
6.424040
 30
0.000000
  0
SEQEND
  8
MERGEDLAYER-2
  0
POLYLINE
  8
MERGEDLAYER-2
 66
  1
 70
  1
 62
  0
  0
VERTEX
  8
MERGEDLAYER-2
 10
2.284722
 20
6.434029
 30
0.000000
  0
VERTEX
  8
MERGEDLAYER-2
 10
2.365705
 20
6.434694
 30
0.000000
  0
VERTEX
  8
MERGEDLAYER-2
 10
2.344561
 20
6.398790
 30
0.000000
  0
VERTEX
  8
MERGEDLAYER-2
 10
2.323418
 20
6.362887
 30
0.000000
  0
VERTEX
  8
MERGEDLAYER-2
 10
2.284722
 20
6.434029
 30
0.000000
  0
SEQEND
  8
MERGEDLAYER-2
  0
POLYLINE
  8
MERGEDLAYER-2
 66
  1
 70
  0
 62
  0
 10
2.565508
 20
6.595763
 30
0.000000
  0
VERTEX
  8
MERGEDLAYER-2
 10
2.565508
 20
6.595763
 30
0.000000
  0
VERTEX
  8
MERGEDLAYER-2
 10
4.529968
 20
6.595763
 30
0.000000
  0
SEQEND
  8
MERGEDLAYER-2
  0
POLYLINE
  8
MERGEDLAYER-2
 66
  1
 70
  0
 62
  0
 10
2.565508
 20
6.680795
 30
0.000000
  0
VERTEX
  8
MERGEDLAYER-2
 10
2.565508
 20
6.680795
 30
0.000000
  0
VERTEX
  8
MERGEDLAYER-2
 10
4.529968
 20
6.680795
 30
0.000000
  0
SEQEND
  8
MERGEDLAYER-2
  0
POLYLINE
  8
MERGEDLAYER-2
 66
  1
 70
  0
 62
  0
 10
4.553193
 20
6.609127
 30
0.000000
  0
VERTEX
  8
MERGEDLAYER-2
 10
4.553193
 20
6.609127
 30
0.000000
  0
VERTEX
  8
MERGEDLAYER-2
 10
5.023921
 20
6.609105
 30
0.000000
  0
SEQEND
  8
MERGEDLAYER-2
  0
POLYLINE
  8
MERGEDLAYER-2
 66
  1
 70
  0
 62
  0
 10
4.553193
 20
6.669863
 30
0.000000
  0
VERTEX
  8
MERGEDLAYER-2
 10
4.553193
 20
6.669863
 30
0.000000
  0
VERTEX
  8
MERGEDLAYER-2
 10
5.023921
 20
6.669729
 30
0.000000
  0
SEQEND
  8
MERGEDLAYER-2
  0
POLYLINE
  8
MERGEDLAYER-2
 66
  1
 70
  0
 62
  0
 10
5.033286
 20
6.641385
 30
0.000000
  0
VERTEX
  8
MERGEDLAYER-2
 10
5.033286
 20
6.641385
 30
0.000000
  0
VERTEX
  8
MERGEDLAYER-2
 10
5.029966
 20
6.662819
 30
0.000000
  0
VERTEX
  8
MERGEDLAYER-2
 10
5.021952
 20
6.671697
 30
0.000000
  0
VERTEX
  8
MERGEDLAYER-2
 10
5.013938
 20
6.662819
 30
0.000000
  0
VERTEX
  8
MERGEDLAYER-2
 10
5.010619
 20
6.641385
 30
0.000000
  0
VERTEX
  8
MERGEDLAYER-2
 10
5.013938
 20
6.619951
 30
0.000000
  0
VERTEX
  8
MERGEDLAYER-2
 10
5.021952
 20
6.611073
 30
0.000000
  0
VERTEX
  8
MERGEDLAYER-2
 10
5.029966
 20
6.619951
 30
0.000000
  0
VERTEX
  8
MERGEDLAYER-2
 10
5.033286
 20
6.641385
 30
0.000000
  0
SEQEND
  8
MERGEDLAYER-2
  0
POLYLINE
  8
MERGEDLAYER-2
 66
  1
 70
  0
 62
  0
 10
2.565508
 20
6.680794
 30
0.000000
  0
VERTEX
  8
MERGEDLAYER-2
 10
2.565508
 20
6.680794
 30
0.000000
  0
VERTEX
  8
MERGEDLAYER-2
 10
2.552293
 20
6.654268
 30
0.000000
  0
VERTEX
  8
MERGEDLAYER-2
 10
2.552807
 20
6.623639
 30
0.000000
  0
VERTEX
  8
MERGEDLAYER-2
 10
2.565508
 20
6.595761
 30
0.000000
  0
SEQEND
  8
MERGEDLAYER-2
  0
POLYLINE
  8
MERGEDLAYER-2
 66
  1
 70
  0
 62
  0
 10
2.565508
 20
7.081263
 30
0.000000
  0
VERTEX
  8
MERGEDLAYER-2
 10
2.565508
 20
7.081263
 30
0.000000
  0
VERTEX
  8
MERGEDLAYER-2
 10
4.529968
 20
7.081263
 30
0.000000
  0
SEQEND
  8
MERGEDLAYER-2
  0
POLYLINE
  8
MERGEDLAYER-2
 66
  1
 70
  0
 62
  0
 10
2.565508
 20
7.166295
 30
0.000000
  0
VERTEX
  8
MERGEDLAYER-2
 10
2.565508
 20
7.166295
 30
0.000000
  0
VERTEX
  8
MERGEDLAYER-2
 10
4.529968
 20
7.166295
 30
0.000000
  0
SEQEND
  8
MERGEDLAYER-2
  0
POLYLINE
  8
MERGEDLAYER-2
 66
  1
 70
  0
 62
  0
 10
4.531252
 20
7.094620
 30
0.000000
  0
VERTEX
  8
MERGEDLAYER-2
 10
4.531252
 20
7.094620
 30
0.000000
  0
VERTEX
  8
MERGEDLAYER-2
 10
5.023921
 20
7.094604
 30
0.000000
  0
SEQEND
  8
MERGEDLAYER-2
  0
POLYLINE
  8
MERGEDLAYER-2
 66
  1
 70
  0
 62
  0
 10
4.531252
 20
7.155384
 30
0.000000
  0
VERTEX
  8
MERGEDLAYER-2
 10
4.531252
 20
7.155384
 30
0.000000
  0
VERTEX
  8
MERGEDLAYER-2
 10
5.023921
 20
7.155229
 30
0.000000
  0
SEQEND
  8
MERGEDLAYER-2
  0
POLYLINE
  8
MERGEDLAYER-2
 66
  1
 70
  0
 62
  0
 10
5.033286
 20
7.126885
 30
0.000000
  0
VERTEX
  8
MERGEDLAYER-2
 10
5.033286
 20
7.126885
 30
0.000000
  0
VERTEX
  8
MERGEDLAYER-2
 10
5.029966
 20
7.148320
 30
0.000000
  0
VERTEX
  8
MERGEDLAYER-2
 10
5.021952
 20
7.157198
 30
0.000000
  0
VERTEX
  8
MERGEDLAYER-2
 10
5.013938
 20
7.148320
 30
0.000000
  0
VERTEX
  8
MERGEDLAYER-2
 10
5.010619
 20
7.126885
 30
0.000000
  0
VERTEX
  8
MERGEDLAYER-2
 10
5.013938
 20
7.105451
 30
0.000000
  0
VERTEX
  8
MERGEDLAYER-2
 10
5.021952
 20
7.096573
 30
0.000000
  0
VERTEX
  8
MERGEDLAYER-2
 10
5.029966
 20
7.105451
 30
0.000000
  0
VERTEX
  8
MERGEDLAYER-2
 10
5.033286
 20
7.126885
 30
0.000000
  0
SEQEND
  8
MERGEDLAYER-2
  0
POLYLINE
  8
MERGEDLAYER-2
 66
  1
 70
  0
 62
  0
 10
2.565508
 20
7.166294
 30
0.000000
  0
VERTEX
  8
MERGEDLAYER-2
 10
2.565508
 20
7.166294
 30
0.000000
  0
VERTEX
  8
MERGEDLAYER-2
 10
2.552293
 20
7.139769
 30
0.000000
  0
VERTEX
  8
MERGEDLAYER-2
 10
2.552807
 20
7.109139
 30
0.000000
  0
VERTEX
  8
MERGEDLAYER-2
 10
2.565508
 20
7.081261
 30
0.000000
  0
SEQEND
  8
MERGEDLAYER-2
  0
POLYLINE
  8
MERGEDLAYER-2
 66
  1
 70
  1
 62
  0
  0
VERTEX
  8
MERGEDLAYER-2
 10
0.986542
 20
5.274927
 30
0.000000
  0
VERTEX
  8
MERGEDLAYER-2
 10
6.571757
 20
5.274927
 30
0.000000
  0
VERTEX
  8
MERGEDLAYER-2
 10
6.571757
 20
5.248084
 30
0.000000
  0
VERTEX
  8
MERGEDLAYER-2
 10
0.986542
 20
5.248084
 30
0.000000
  0
SEQEND
  8
MERGEDLAYER-2
  0
POLYLINE
  8
MERGEDLAYER-2
 66
  1
 70
  1
 62
  0
  0
VERTEX
  8
MERGEDLAYER-2
 10
0.986542
 20
5.121527
 30
0.000000
  0
VERTEX
  8
MERGEDLAYER-2
 10
6.571757
 20
5.121527
 30
0.000000
  0
VERTEX
  8
MERGEDLAYER-2
 10
6.571757
 20
5.094684
 30
0.000000
  0
VERTEX
  8
MERGEDLAYER-2
 10
0.986542
 20
5.094684
 30
0.000000
  0
SEQEND
  8
MERGEDLAYER-2
  0
POLYLINE
  8
MERGEDLAYER-2
 66
  1
 70
  1
 62
  0
  0
VERTEX
  8
MERGEDLAYER-2
 10
0.986542
 20
4.968127
 30
0.000000
  0
VERTEX
  8
MERGEDLAYER-2
 10
6.571757
 20
4.968127
 30
0.000000
  0
VERTEX
  8
MERGEDLAYER-2
 10
6.571757
 20
4.941284
 30
0.000000
  0
VERTEX
  8
MERGEDLAYER-2
 10
0.986542
 20
4.941284
 30
0.000000
  0
SEQEND
  8
MERGEDLAYER-2
  0
POLYLINE
  8
MERGEDLAYER-2
 66
  1
 70
  1
 62
  0
  0
VERTEX
  8
MERGEDLAYER-2
 10
0.986542
 20
4.815595
 30
0.000000
  0
VERTEX
  8
MERGEDLAYER-2
 10
6.571757
 20
4.815595
 30
0.000000
  0
VERTEX
  8
MERGEDLAYER-2
 10
6.571757
 20
4.788751
 30
0.000000
  0
VERTEX
  8
MERGEDLAYER-2
 10
0.986542
 20
4.788751
 30
0.000000
  0
SEQEND
  8
MERGEDLAYER-2
  0
POLYLINE
  8
MERGEDLAYER-2
 66
  1
 70
  1
 62
  0
  0
VERTEX
  8
MERGEDLAYER-2
 10
0.986542
 20
4.662194
 30
0.000000
  0
VERTEX
  8
MERGEDLAYER-2
 10
6.571757
 20
4.662194
 30
0.000000
  0
VERTEX
  8
MERGEDLAYER-2
 10
6.571757
 20
4.635351
 30
0.000000
  0
VERTEX
  8
MERGEDLAYER-2
 10
0.986542
 20
4.635351
 30
0.000000
  0
SEQEND
  8
MERGEDLAYER-2
  0
POLYLINE
  8
MERGEDLAYER-2
 66
  1
 70
  1
 62
  0
  0
VERTEX
  8
MERGEDLAYER-2
 10
0.986542
 20
4.509228
 30
0.000000
  0
VERTEX
  8
MERGEDLAYER-2
 10
6.571757
 20
4.509228
 30
0.000000
  0
VERTEX
  8
MERGEDLAYER-2
 10
6.571757
 20
4.482385
 30
0.000000
  0
VERTEX
  8
MERGEDLAYER-2
 10
0.986542
 20
4.482385
 30
0.000000
  0
SEQEND
  8
MERGEDLAYER-2
  0
POLYLINE
  8
MERGEDLAYER-2
 66
  1
 70
  1
 62
  0
  0
VERTEX
  8
MERGEDLAYER-2
 10
0.986542
 20
4.355828
 30
0.000000
  0
VERTEX
  8
MERGEDLAYER-2
 10
6.571757
 20
4.355828
 30
0.000000
  0
VERTEX
  8
MERGEDLAYER-2
 10
6.571757
 20
4.328985
 30
0.000000
  0
VERTEX
  8
MERGEDLAYER-2
 10
0.986542
 20
4.328985
 30
0.000000
  0
SEQEND
  8
MERGEDLAYER-2
  0
POLYLINE
  8
MERGEDLAYER-2
 66
  1
 70
  1
 62
  0
  0
VERTEX
  8
MERGEDLAYER-2
 10
0.986542
 20
4.202862
 30
0.000000
  0
VERTEX
  8
MERGEDLAYER-2
 10
6.571757
 20
4.202862
 30
0.000000
  0
VERTEX
  8
MERGEDLAYER-2
 10
6.571757
 20
4.176019
 30
0.000000
  0
VERTEX
  8
MERGEDLAYER-2
 10
0.986542
 20
4.176019
 30
0.000000
  0
SEQEND
  8
MERGEDLAYER-2
  0
POLYLINE
  8
MERGEDLAYER-2
 66
  1
 70
  1
 62
  0
  0
VERTEX
  8
MERGEDLAYER-2
 10
0.986542
 20
4.049462
 30
0.000000
  0
VERTEX
  8
MERGEDLAYER-2
 10
6.571757
 20
4.049462
 30
0.000000
  0
VERTEX
  8
MERGEDLAYER-2
 10
6.571757
 20
4.022619
 30
0.000000
  0
VERTEX
  8
MERGEDLAYER-2
 10
0.986542
 20
4.022619
 30
0.000000
  0
SEQEND
  8
MERGEDLAYER-2
  0
POLYLINE
  8
MERGEDLAYER-2
 66
  1
 70
  1
 62
  0
  0
VERTEX
  8
MERGEDLAYER-2
 10
0.986542
 20
3.896496
 30
0.000000
  0
VERTEX
  8
MERGEDLAYER-2
 10
6.571757
 20
3.896496
 30
0.000000
  0
VERTEX
  8
MERGEDLAYER-2
 10
6.571757
 20
3.869653
 30
0.000000
  0
VERTEX
  8
MERGEDLAYER-2
 10
0.986542
 20
3.869653
 30
0.000000
  0
SEQEND
  8
MERGEDLAYER-2
  0
POLYLINE
  8
MERGEDLAYER-2
 66
  1
 70
  1
 62
  0
  0
VERTEX
  8
MERGEDLAYER-2
 10
0.986542
 20
3.743096
 30
0.000000
  0
VERTEX
  8
MERGEDLAYER-2
 10
6.571757
 20
3.743096
 30
0.000000
  0
VERTEX
  8
MERGEDLAYER-2
 10
6.571757
 20
3.716253
 30
0.000000
  0
VERTEX
  8
MERGEDLAYER-2
 10
0.986542
 20
3.716253
 30
0.000000
  0
SEQEND
  8
MERGEDLAYER-2
  0
POLYLINE
  8
MERGEDLAYER-2
 66
  1
 70
  1
 62
  0
  0
VERTEX
  8
MERGEDLAYER-2
 10
0.986542
 20
3.590129
 30
0.000000
  0
VERTEX
  8
MERGEDLAYER-2
 10
6.571757
 20
3.590129
 30
0.000000
  0
VERTEX
  8
MERGEDLAYER-2
 10
6.571757
 20
3.563287
 30
0.000000
  0
VERTEX
  8
MERGEDLAYER-2
 10
0.986542
 20
3.563287
 30
0.000000
  0
SEQEND
  8
MERGEDLAYER-2
  0
POLYLINE
  8
MERGEDLAYER-2
 66
  1
 70
  1
 62
  0
  0
VERTEX
  8
MERGEDLAYER-2
 10
0.986542
 20
3.437163
 30
0.000000
  0
VERTEX
  8
MERGEDLAYER-2
 10
6.571757
 20
3.437163
 30
0.000000
  0
VERTEX
  8
MERGEDLAYER-2
 10
6.571757
 20
3.410321
 30
0.000000
  0
VERTEX
  8
MERGEDLAYER-2
 10
0.986542
 20
3.410321
 30
0.000000
  0
SEQEND
  8
MERGEDLAYER-2
  0
POLYLINE
  8
MERGEDLAYER-2
 66
  1
 70
  1
 62
  0
  0
VERTEX
  8
MERGEDLAYER-2
 10
0.986542
 20
3.283329
 30
0.000000
  0
VERTEX
  8
MERGEDLAYER-2
 10
6.571757
 20
3.283329
 30
0.000000
  0
VERTEX
  8
MERGEDLAYER-2
 10
6.571757
 20
3.256487
 30
0.000000
  0
VERTEX
  8
MERGEDLAYER-2
 10
0.986542
 20
3.256487
 30
0.000000
  0
SEQEND
  8
MERGEDLAYER-2
  0
POLYLINE
  8
MERGEDLAYER-2
 66
  1
 70
  1
 62
  0
  0
VERTEX
  8
MERGEDLAYER-2
 10
0.986542
 20
3.129929
 30
0.000000
  0
VERTEX
  8
MERGEDLAYER-2
 10
6.571757
 20
3.129929
 30
0.000000
  0
VERTEX
  8
MERGEDLAYER-2
 10
6.571757
 20
3.103086
 30
0.000000
  0
VERTEX
  8
MERGEDLAYER-2
 10
0.986542
 20
3.103086
 30
0.000000
  0
SEQEND
  8
MERGEDLAYER-2
  0
POLYLINE
  8
MERGEDLAYER-2
 66
  1
 70
  1
 62
  0
  0
VERTEX
  8
MERGEDLAYER-2
 10
0.986542
 20
2.976529
 30
0.000000
  0
VERTEX
  8
MERGEDLAYER-2
 10
6.571757
 20
2.976529
 30
0.000000
  0
VERTEX
  8
MERGEDLAYER-2
 10
6.571757
 20
2.949686
 30
0.000000
  0
VERTEX
  8
MERGEDLAYER-2
 10
0.986542
 20
2.949686
 30
0.000000
  0
SEQEND
  8
MERGEDLAYER-2
  0
POLYLINE
  8
MERGEDLAYER-2
 66
  1
 70
  1
 62
  0
  0
VERTEX
  8
MERGEDLAYER-2
 10
0.986542
 20
2.823129
 30
0.000000
  0
VERTEX
  8
MERGEDLAYER-2
 10
6.571757
 20
2.823129
 30
0.000000
  0
VERTEX
  8
MERGEDLAYER-2
 10
6.571757
 20
2.796286
 30
0.000000
  0
VERTEX
  8
MERGEDLAYER-2
 10
0.986542
 20
2.796286
 30
0.000000
  0
SEQEND
  8
MERGEDLAYER-2
  0
POLYLINE
  8
MERGEDLAYER-2
 66
  1
 70
  1
 62
  0
  0
VERTEX
  8
MERGEDLAYER-2
 10
0.986542
 20
2.670163
 30
0.000000
  0
VERTEX
  8
MERGEDLAYER-2
 10
6.571757
 20
2.670163
 30
0.000000
  0
VERTEX
  8
MERGEDLAYER-2
 10
6.571757
 20
2.643320
 30
0.000000
  0
VERTEX
  8
MERGEDLAYER-2
 10
0.986542
 20
2.643320
 30
0.000000
  0
SEQEND
  8
MERGEDLAYER-2
  0
POLYLINE
  8
MERGEDLAYER-2
 66
  1
 70
  1
 62
  0
  0
VERTEX
  8
MERGEDLAYER-2
 10
0.986542
 20
2.516329
 30
0.000000
  0
VERTEX
  8
MERGEDLAYER-2
 10
6.571757
 20
2.516329
 30
0.000000
  0
VERTEX
  8
MERGEDLAYER-2
 10
6.571757
 20
2.489486
 30
0.000000
  0
VERTEX
  8
MERGEDLAYER-2
 10
0.986542
 20
2.489486
 30
0.000000
  0
SEQEND
  8
MERGEDLAYER-2
  0
POLYLINE
  8
MERGEDLAYER-2
 66
  1
 70
  1
 62
  0
  0
VERTEX
  8
MERGEDLAYER-2
 10
0.986542
 20
2.363366
 30
0.000000
  0
VERTEX
  8
MERGEDLAYER-2
 10
6.571757
 20
2.363366
 30
0.000000
  0
VERTEX
  8
MERGEDLAYER-2
 10
6.571757
 20
2.336523
 30
0.000000
  0
VERTEX
  8
MERGEDLAYER-2
 10
0.986542
 20
2.336523
 30
0.000000
  0
SEQEND
  8
MERGEDLAYER-2
  0
POLYLINE
  8
MERGEDLAYER-2
 66
  1
 70
  1
 62
  0
  0
VERTEX
  8
MERGEDLAYER-2
 10
0.986542
 20
2.209966
 30
0.000000
  0
VERTEX
  8
MERGEDLAYER-2
 10
6.571757
 20
2.209966
 30
0.000000
  0
VERTEX
  8
MERGEDLAYER-2
 10
6.571757
 20
2.183123
 30
0.000000
  0
VERTEX
  8
MERGEDLAYER-2
 10
0.986542
 20
2.183123
 30
0.000000
  0
SEQEND
  8
MERGEDLAYER-2
  0
POLYLINE
  8
MERGEDLAYER-2
 66
  1
 70
  1
 62
  0
  0
VERTEX
  8
MERGEDLAYER-2
 10
0.986542
 20
2.056566
 30
0.000000
  0
VERTEX
  8
MERGEDLAYER-2
 10
6.571757
 20
2.056566
 30
0.000000
  0
VERTEX
  8
MERGEDLAYER-2
 10
6.571757
 20
2.029723
 30
0.000000
  0
VERTEX
  8
MERGEDLAYER-2
 10
0.986542
 20
2.029723
 30
0.000000
  0
SEQEND
  8
MERGEDLAYER-2
  0
POLYLINE
  8
MERGEDLAYER-2
 66
  1
 70
  1
 62
  0
  0
VERTEX
  8
MERGEDLAYER-2
 10
0.986542
 20
1.903166
 30
0.000000
  0
VERTEX
  8
MERGEDLAYER-2
 10
6.571757
 20
1.903166
 30
0.000000
  0
VERTEX
  8
MERGEDLAYER-2
 10
6.571757
 20
1.876322
 30
0.000000
  0
VERTEX
  8
MERGEDLAYER-2
 10
0.986542
 20
1.876322
 30
0.000000
  0
SEQEND
  8
MERGEDLAYER-2
  0
POLYLINE
  8
MERGEDLAYER-2
 66
  1
 70
  1
 62
  0
  0
VERTEX
  8
MERGEDLAYER-2
 10
0.986542
 20
1.749766
 30
0.000000
  0
VERTEX
  8
MERGEDLAYER-2
 10
6.571757
 20
1.749766
 30
0.000000
  0
VERTEX
  8
MERGEDLAYER-2
 10
6.571757
 20
1.722922
 30
0.000000
  0
VERTEX
  8
MERGEDLAYER-2
 10
0.986542
 20
1.722922
 30
0.000000
  0
SEQEND
  8
MERGEDLAYER-2
  0
POLYLINE
  8
MERGEDLAYER-2
 66
  1
 70
  1
 62
  0
  0
VERTEX
  8
MERGEDLAYER-2
 10
0.986542
 20
1.596365
 30
0.000000
  0
VERTEX
  8
MERGEDLAYER-2
 10
6.571757
 20
1.596365
 30
0.000000
  0
VERTEX
  8
MERGEDLAYER-2
 10
6.571757
 20
1.569522
 30
0.000000
  0
VERTEX
  8
MERGEDLAYER-2
 10
0.986542
 20
1.569522
 30
0.000000
  0
SEQEND
  8
MERGEDLAYER-2
  0
POLYLINE
  8
MERGEDLAYER-2
 66
  1
 70
  1
 62
  0
  0
VERTEX
  8
MERGEDLAYER-2
 10
0.986542
 20
1.442965
 30
0.000000
  0
VERTEX
  8
MERGEDLAYER-2
 10
6.571757
 20
1.442965
 30
0.000000
  0
VERTEX
  8
MERGEDLAYER-2
 10
6.571757
 20
1.416122
 30
0.000000
  0
VERTEX
  8
MERGEDLAYER-2
 10
0.986542
 20
1.416122
 30
0.000000
  0
SEQEND
  8
MERGEDLAYER-2
  0
POLYLINE
  8
MERGEDLAYER-2
 66
  1
 70
  1
 62
  0
  0
VERTEX
  8
MERGEDLAYER-2
 10
0.986542
 20
1.289565
 30
0.000000
  0
VERTEX
  8
MERGEDLAYER-2
 10
6.571757
 20
1.289565
 30
0.000000
  0
VERTEX
  8
MERGEDLAYER-2
 10
6.571757
 20
1.262722
 30
0.000000
  0
VERTEX
  8
MERGEDLAYER-2
 10
0.986542
 20
1.262722
 30
0.000000
  0
SEQEND
  8
MERGEDLAYER-2
  0
POLYLINE
  8
MERGEDLAYER-2
 66
  1
 70
  1
 62
  0
  0
VERTEX
  8
MERGEDLAYER-2
 10
0.986542
 20
1.136165
 30
0.000000
  0
VERTEX
  8
MERGEDLAYER-2
 10
6.571757
 20
1.136165
 30
0.000000
  0
VERTEX
  8
MERGEDLAYER-2
 10
6.571757
 20
1.109322
 30
0.000000
  0
VERTEX
  8
MERGEDLAYER-2
 10
0.986542
 20
1.109322
 30
0.000000
  0
SEQEND
  8
MERGEDLAYER-2
  0
POLYLINE
  8
MERGEDLAYER-2
 66
  1
 70
  1
 62
  0
  0
VERTEX
  8
MERGEDLAYER-2
 10
0.986542
 20
0.982765
 30
0.000000
  0
VERTEX
  8
MERGEDLAYER-2
 10
6.571757
 20
0.982765
 30
0.000000
  0
VERTEX
  8
MERGEDLAYER-2
 10
6.571757
 20
0.955922
 30
0.000000
  0
VERTEX
  8
MERGEDLAYER-2
 10
0.986542
 20
0.955922
 30
0.000000
  0
SEQEND
  8
MERGEDLAYER-2
  0
POLYLINE
  8
MERGEDLAYER-2
 66
  1
 70
  1
 62
  0
  0
VERTEX
  8
MERGEDLAYER-2
 10
0.986542
 20
0.829365
 30
0.000000
  0
VERTEX
  8
MERGEDLAYER-2
 10
6.571757
 20
0.829365
 30
0.000000
  0
VERTEX
  8
MERGEDLAYER-2
 10
6.571757
 20
0.802522
 30
0.000000
  0
VERTEX
  8
MERGEDLAYER-2
 10
0.986542
 20
0.802522
 30
0.000000
  0
SEQEND
  8
MERGEDLAYER-2
  0
POLYLINE
  8
MERGEDLAYER-2
 66
  1
 70
  1
 62
  0
  0
VERTEX
  8
MERGEDLAYER-2
 10
0.986542
 20
0.675965
 30
0.000000
  0
VERTEX
  8
MERGEDLAYER-2
 10
6.571757
 20
0.675965
 30
0.000000
  0
VERTEX
  8
MERGEDLAYER-2
 10
6.571757
 20
0.649122
 30
0.000000
  0
VERTEX
  8
MERGEDLAYER-2
 10
0.986542
 20
0.649122
 30
0.000000
  0
SEQEND
  8
MERGEDLAYER-2
  0
POLYLINE
  8
MERGEDLAYER-2
 66
  1
 70
  1
 62
  0
  0
VERTEX
  8
MERGEDLAYER-2
 10
0.986542
 20
5.197470
 30
0.000000
  0
VERTEX
  8
MERGEDLAYER-2
 10
6.571757
 20
5.197470
 30
0.000000
  0
VERTEX
  8
MERGEDLAYER-2
 10
6.571757
 20
5.170627
 30
0.000000
  0
VERTEX
  8
MERGEDLAYER-2
 10
0.986542
 20
5.170627
 30
0.000000
  0
SEQEND
  8
MERGEDLAYER-2
  0
POLYLINE
  8
MERGEDLAYER-2
 66
  1
 70
  1
 62
  0
  0
VERTEX
  8
MERGEDLAYER-2
 10
0.986542
 20
5.044070
 30
0.000000
  0
VERTEX
  8
MERGEDLAYER-2
 10
6.571757
 20
5.044070
 30
0.000000
  0
VERTEX
  8
MERGEDLAYER-2
 10
6.571757
 20
5.017227
 30
0.000000
  0
VERTEX
  8
MERGEDLAYER-2
 10
0.986542
 20
5.017227
 30
0.000000
  0
SEQEND
  8
MERGEDLAYER-2
  0
POLYLINE
  8
MERGEDLAYER-2
 66
  1
 70
  1
 62
  0
  0
VERTEX
  8
MERGEDLAYER-2
 10
0.986542
 20
4.890670
 30
0.000000
  0
VERTEX
  8
MERGEDLAYER-2
 10
6.571757
 20
4.890670
 30
0.000000
  0
VERTEX
  8
MERGEDLAYER-2
 10
6.571757
 20
4.863827
 30
0.000000
  0
VERTEX
  8
MERGEDLAYER-2
 10
0.986542
 20
4.863827
 30
0.000000
  0
SEQEND
  8
MERGEDLAYER-2
  0
POLYLINE
  8
MERGEDLAYER-2
 66
  1
 70
  1
 62
  0
  0
VERTEX
  8
MERGEDLAYER-2
 10
0.986542
 20
4.738138
 30
0.000000
  0
VERTEX
  8
MERGEDLAYER-2
 10
6.571757
 20
4.738138
 30
0.000000
  0
VERTEX
  8
MERGEDLAYER-2
 10
6.571757
 20
4.711295
 30
0.000000
  0
VERTEX
  8
MERGEDLAYER-2
 10
0.986542
 20
4.711295
 30
0.000000
  0
SEQEND
  8
MERGEDLAYER-2
  0
POLYLINE
  8
MERGEDLAYER-2
 66
  1
 70
  1
 62
  0
  0
VERTEX
  8
MERGEDLAYER-2
 10
0.986542
 20
4.584738
 30
0.000000
  0
VERTEX
  8
MERGEDLAYER-2
 10
6.571757
 20
4.584738
 30
0.000000
  0
VERTEX
  8
MERGEDLAYER-2
 10
6.571757
 20
4.557895
 30
0.000000
  0
VERTEX
  8
MERGEDLAYER-2
 10
0.986542
 20
4.557895
 30
0.000000
  0
SEQEND
  8
MERGEDLAYER-2
  0
POLYLINE
  8
MERGEDLAYER-2
 66
  1
 70
  1
 62
  0
  0
VERTEX
  8
MERGEDLAYER-2
 10
0.986542
 20
4.431772
 30
0.000000
  0
VERTEX
  8
MERGEDLAYER-2
 10
6.571757
 20
4.431772
 30
0.000000
  0
VERTEX
  8
MERGEDLAYER-2
 10
6.571757
 20
4.404929
 30
0.000000
  0
VERTEX
  8
MERGEDLAYER-2
 10
0.986542
 20
4.404929
 30
0.000000
  0
SEQEND
  8
MERGEDLAYER-2
  0
POLYLINE
  8
MERGEDLAYER-2
 66
  1
 70
  1
 62
  0
  0
VERTEX
  8
MERGEDLAYER-2
 10
0.986542
 20
4.278372
 30
0.000000
  0
VERTEX
  8
MERGEDLAYER-2
 10
6.571757
 20
4.278372
 30
0.000000
  0
VERTEX
  8
MERGEDLAYER-2
 10
6.571757
 20
4.251528
 30
0.000000
  0
VERTEX
  8
MERGEDLAYER-2
 10
0.986542
 20
4.251528
 30
0.000000
  0
SEQEND
  8
MERGEDLAYER-2
  0
POLYLINE
  8
MERGEDLAYER-2
 66
  1
 70
  1
 62
  0
  0
VERTEX
  8
MERGEDLAYER-2
 10
0.986542
 20
4.125406
 30
0.000000
  0
VERTEX
  8
MERGEDLAYER-2
 10
6.571757
 20
4.125406
 30
0.000000
  0
VERTEX
  8
MERGEDLAYER-2
 10
6.571757
 20
4.098562
 30
0.000000
  0
VERTEX
  8
MERGEDLAYER-2
 10
0.986542
 20
4.098562
 30
0.000000
  0
SEQEND
  8
MERGEDLAYER-2
  0
POLYLINE
  8
MERGEDLAYER-2
 66
  1
 70
  1
 62
  0
  0
VERTEX
  8
MERGEDLAYER-2
 10
0.986542
 20
3.972005
 30
0.000000
  0
VERTEX
  8
MERGEDLAYER-2
 10
6.571757
 20
3.972005
 30
0.000000
  0
VERTEX
  8
MERGEDLAYER-2
 10
6.571757
 20
3.945162
 30
0.000000
  0
VERTEX
  8
MERGEDLAYER-2
 10
0.986542
 20
3.945162
 30
0.000000
  0
SEQEND
  8
MERGEDLAYER-2
  0
POLYLINE
  8
MERGEDLAYER-2
 66
  1
 70
  1
 62
  0
  0
VERTEX
  8
MERGEDLAYER-2
 10
0.986542
 20
3.819039
 30
0.000000
  0
VERTEX
  8
MERGEDLAYER-2
 10
6.571757
 20
3.819039
 30
0.000000
  0
VERTEX
  8
MERGEDLAYER-2
 10
6.571757
 20
3.792196
 30
0.000000
  0
VERTEX
  8
MERGEDLAYER-2
 10
0.986542
 20
3.792196
 30
0.000000
  0
SEQEND
  8
MERGEDLAYER-2
  0
POLYLINE
  8
MERGEDLAYER-2
 66
  1
 70
  1
 62
  0
  0
VERTEX
  8
MERGEDLAYER-2
 10
0.986542
 20
3.665639
 30
0.000000
  0
VERTEX
  8
MERGEDLAYER-2
 10
6.571757
 20
3.665639
 30
0.000000
  0
VERTEX
  8
MERGEDLAYER-2
 10
6.571757
 20
3.638796
 30
0.000000
  0
VERTEX
  8
MERGEDLAYER-2
 10
0.986542
 20
3.638796
 30
0.000000
  0
SEQEND
  8
MERGEDLAYER-2
  0
POLYLINE
  8
MERGEDLAYER-2
 66
  1
 70
  1
 62
  0
  0
VERTEX
  8
MERGEDLAYER-2
 10
0.986542
 20
3.512673
 30
0.000000
  0
VERTEX
  8
MERGEDLAYER-2
 10
6.571757
 20
3.512673
 30
0.000000
  0
VERTEX
  8
MERGEDLAYER-2
 10
6.571757
 20
3.485830
 30
0.000000
  0
VERTEX
  8
MERGEDLAYER-2
 10
0.986542
 20
3.485830
 30
0.000000
  0
SEQEND
  8
MERGEDLAYER-2
  0
POLYLINE
  8
MERGEDLAYER-2
 66
  1
 70
  1
 62
  0
  0
VERTEX
  8
MERGEDLAYER-2
 10
0.986542
 20
3.359707
 30
0.000000
  0
VERTEX
  8
MERGEDLAYER-2
 10
6.571757
 20
3.359707
 30
0.000000
  0
VERTEX
  8
MERGEDLAYER-2
 10
6.571757
 20
3.332864
 30
0.000000
  0
VERTEX
  8
MERGEDLAYER-2
 10
0.986542
 20
3.332864
 30
0.000000
  0
SEQEND
  8
MERGEDLAYER-2
  0
POLYLINE
  8
MERGEDLAYER-2
 66
  1
 70
  1
 62
  0
  0
VERTEX
  8
MERGEDLAYER-2
 10
0.986542
 20
3.205872
 30
0.000000
  0
VERTEX
  8
MERGEDLAYER-2
 10
6.571757
 20
3.205872
 30
0.000000
  0
VERTEX
  8
MERGEDLAYER-2
 10
6.571757
 20
3.179030
 30
0.000000
  0
VERTEX
  8
MERGEDLAYER-2
 10
0.986542
 20
3.179030
 30
0.000000
  0
SEQEND
  8
MERGEDLAYER-2
  0
POLYLINE
  8
MERGEDLAYER-2
 66
  1
 70
  1
 62
  0
  0
VERTEX
  8
MERGEDLAYER-2
 10
0.986542
 20
3.052472
 30
0.000000
  0
VERTEX
  8
MERGEDLAYER-2
 10
6.571757
 20
3.052472
 30
0.000000
  0
VERTEX
  8
MERGEDLAYER-2
 10
6.571757
 20
3.025630
 30
0.000000
  0
VERTEX
  8
MERGEDLAYER-2
 10
0.986542
 20
3.025630
 30
0.000000
  0
SEQEND
  8
MERGEDLAYER-2
  0
POLYLINE
  8
MERGEDLAYER-2
 66
  1
 70
  1
 62
  0
  0
VERTEX
  8
MERGEDLAYER-2
 10
0.986542
 20
2.899072
 30
0.000000
  0
VERTEX
  8
MERGEDLAYER-2
 10
6.571757
 20
2.899072
 30
0.000000
  0
VERTEX
  8
MERGEDLAYER-2
 10
6.571757
 20
2.872230
 30
0.000000
  0
VERTEX
  8
MERGEDLAYER-2
 10
0.986542
 20
2.872230
 30
0.000000
  0
SEQEND
  8
MERGEDLAYER-2
  0
POLYLINE
  8
MERGEDLAYER-2
 66
  1
 70
  1
 62
  0
  0
VERTEX
  8
MERGEDLAYER-2
 10
0.986542
 20
2.745672
 30
0.000000
  0
VERTEX
  8
MERGEDLAYER-2
 10
6.571757
 20
2.745672
 30
0.000000
  0
VERTEX
  8
MERGEDLAYER-2
 10
6.571757
 20
2.718830
 30
0.000000
  0
VERTEX
  8
MERGEDLAYER-2
 10
0.986542
 20
2.718830
 30
0.000000
  0
SEQEND
  8
MERGEDLAYER-2
  0
POLYLINE
  8
MERGEDLAYER-2
 66
  1
 70
  1
 62
  0
  0
VERTEX
  8
MERGEDLAYER-2
 10
0.986542
 20
2.592706
 30
0.000000
  0
VERTEX
  8
MERGEDLAYER-2
 10
6.571757
 20
2.592706
 30
0.000000
  0
VERTEX
  8
MERGEDLAYER-2
 10
6.571757
 20
2.565864
 30
0.000000
  0
VERTEX
  8
MERGEDLAYER-2
 10
0.986542
 20
2.565864
 30
0.000000
  0
SEQEND
  8
MERGEDLAYER-2
  0
POLYLINE
  8
MERGEDLAYER-2
 66
  1
 70
  1
 62
  0
  0
VERTEX
  8
MERGEDLAYER-2
 10
0.986542
 20
2.438872
 30
0.000000
  0
VERTEX
  8
MERGEDLAYER-2
 10
6.571757
 20
2.438872
 30
0.000000
  0
VERTEX
  8
MERGEDLAYER-2
 10
6.571757
 20
2.412030
 30
0.000000
  0
VERTEX
  8
MERGEDLAYER-2
 10
0.986542
 20
2.412030
 30
0.000000
  0
SEQEND
  8
MERGEDLAYER-2
  0
POLYLINE
  8
MERGEDLAYER-2
 66
  1
 70
  1
 62
  0
  0
VERTEX
  8
MERGEDLAYER-2
 10
0.986542
 20
2.285910
 30
0.000000
  0
VERTEX
  8
MERGEDLAYER-2
 10
6.571757
 20
2.285910
 30
0.000000
  0
VERTEX
  8
MERGEDLAYER-2
 10
6.571757
 20
2.259067
 30
0.000000
  0
VERTEX
  8
MERGEDLAYER-2
 10
0.986542
 20
2.259067
 30
0.000000
  0
SEQEND
  8
MERGEDLAYER-2
  0
POLYLINE
  8
MERGEDLAYER-2
 66
  1
 70
  1
 62
  0
  0
VERTEX
  8
MERGEDLAYER-2
 10
0.986542
 20
2.132510
 30
0.000000
  0
VERTEX
  8
MERGEDLAYER-2
 10
6.571757
 20
2.132510
 30
0.000000
  0
VERTEX
  8
MERGEDLAYER-2
 10
6.571757
 20
2.105667
 30
0.000000
  0
VERTEX
  8
MERGEDLAYER-2
 10
0.986542
 20
2.105667
 30
0.000000
  0
SEQEND
  8
MERGEDLAYER-2
  0
POLYLINE
  8
MERGEDLAYER-2
 66
  1
 70
  1
 62
  0
  0
VERTEX
  8
MERGEDLAYER-2
 10
0.986542
 20
1.979110
 30
0.000000
  0
VERTEX
  8
MERGEDLAYER-2
 10
6.571757
 20
1.979110
 30
0.000000
  0
VERTEX
  8
MERGEDLAYER-2
 10
6.571757
 20
1.952267
 30
0.000000
  0
VERTEX
  8
MERGEDLAYER-2
 10
0.986542
 20
1.952267
 30
0.000000
  0
SEQEND
  8
MERGEDLAYER-2
  0
POLYLINE
  8
MERGEDLAYER-2
 66
  1
 70
  1
 62
  0
  0
VERTEX
  8
MERGEDLAYER-2
 10
0.986542
 20
1.825710
 30
0.000000
  0
VERTEX
  8
MERGEDLAYER-2
 10
6.571757
 20
1.825710
 30
0.000000
  0
VERTEX
  8
MERGEDLAYER-2
 10
6.571757
 20
1.798867
 30
0.000000
  0
VERTEX
  8
MERGEDLAYER-2
 10
0.986542
 20
1.798867
 30
0.000000
  0
SEQEND
  8
MERGEDLAYER-2
  0
POLYLINE
  8
MERGEDLAYER-2
 66
  1
 70
  1
 62
  0
  0
VERTEX
  8
MERGEDLAYER-2
 10
0.986542
 20
1.672310
 30
0.000000
  0
VERTEX
  8
MERGEDLAYER-2
 10
6.571757
 20
1.672310
 30
0.000000
  0
VERTEX
  8
MERGEDLAYER-2
 10
6.571757
 20
1.645466
 30
0.000000
  0
VERTEX
  8
MERGEDLAYER-2
 10
0.986542
 20
1.645466
 30
0.000000
  0
SEQEND
  8
MERGEDLAYER-2
  0
POLYLINE
  8
MERGEDLAYER-2
 66
  1
 70
  1
 62
  0
  0
VERTEX
  8
MERGEDLAYER-2
 10
0.986542
 20
1.518910
 30
0.000000
  0
VERTEX
  8
MERGEDLAYER-2
 10
6.571757
 20
1.518910
 30
0.000000
  0
VERTEX
  8
MERGEDLAYER-2
 10
6.571757
 20
1.492066
 30
0.000000
  0
VERTEX
  8
MERGEDLAYER-2
 10
0.986542
 20
1.492066
 30
0.000000
  0
SEQEND
  8
MERGEDLAYER-2
  0
POLYLINE
  8
MERGEDLAYER-2
 66
  1
 70
  1
 62
  0
  0
VERTEX
  8
MERGEDLAYER-2
 10
0.986542
 20
1.365509
 30
0.000000
  0
VERTEX
  8
MERGEDLAYER-2
 10
6.571757
 20
1.365509
 30
0.000000
  0
VERTEX
  8
MERGEDLAYER-2
 10
6.571757
 20
1.338666
 30
0.000000
  0
VERTEX
  8
MERGEDLAYER-2
 10
0.986542
 20
1.338666
 30
0.000000
  0
SEQEND
  8
MERGEDLAYER-2
  0
POLYLINE
  8
MERGEDLAYER-2
 66
  1
 70
  1
 62
  0
  0
VERTEX
  8
MERGEDLAYER-2
 10
0.986542
 20
1.212109
 30
0.000000
  0
VERTEX
  8
MERGEDLAYER-2
 10
6.571757
 20
1.212109
 30
0.000000
  0
VERTEX
  8
MERGEDLAYER-2
 10
6.571757
 20
1.185266
 30
0.000000
  0
VERTEX
  8
MERGEDLAYER-2
 10
0.986542
 20
1.185266
 30
0.000000
  0
SEQEND
  8
MERGEDLAYER-2
  0
POLYLINE
  8
MERGEDLAYER-2
 66
  1
 70
  1
 62
  0
  0
VERTEX
  8
MERGEDLAYER-2
 10
0.986542
 20
1.058709
 30
0.000000
  0
VERTEX
  8
MERGEDLAYER-2
 10
6.571757
 20
1.058709
 30
0.000000
  0
VERTEX
  8
MERGEDLAYER-2
 10
6.571757
 20
1.031866
 30
0.000000
  0
VERTEX
  8
MERGEDLAYER-2
 10
0.986542
 20
1.031866
 30
0.000000
  0
SEQEND
  8
MERGEDLAYER-2
  0
POLYLINE
  8
MERGEDLAYER-2
 66
  1
 70
  1
 62
  0
  0
VERTEX
  8
MERGEDLAYER-2
 10
0.986542
 20
0.905309
 30
0.000000
  0
VERTEX
  8
MERGEDLAYER-2
 10
6.571757
 20
0.905309
 30
0.000000
  0
VERTEX
  8
MERGEDLAYER-2
 10
6.571757
 20
0.878466
 30
0.000000
  0
VERTEX
  8
MERGEDLAYER-2
 10
0.986542
 20
0.878466
 30
0.000000
  0
SEQEND
  8
MERGEDLAYER-2
  0
POLYLINE
  8
MERGEDLAYER-2
 66
  1
 70
  1
 62
  0
  0
VERTEX
  8
MERGEDLAYER-2
 10
0.986542
 20
0.751909
 30
0.000000
  0
VERTEX
  8
MERGEDLAYER-2
 10
6.571757
 20
0.751909
 30
0.000000
  0
VERTEX
  8
MERGEDLAYER-2
 10
6.571757
 20
0.725066
 30
0.000000
  0
VERTEX
  8
MERGEDLAYER-2
 10
0.986542
 20
0.725066
 30
0.000000
  0
SEQEND
  8
MERGEDLAYER-2
  0
POLYLINE
  8
MERGEDLAYER-2
 66
  1
 70
  1
 62
  0
  0
VERTEX
  8
MERGEDLAYER-2
 10
0.986542
 20
0.598509
 30
0.000000
  0
VERTEX
  8
MERGEDLAYER-2
 10
6.571757
 20
0.598509
 30
0.000000
  0
VERTEX
  8
MERGEDLAYER-2
 10
6.571757
 20
0.571666
 30
0.000000
  0
VERTEX
  8
MERGEDLAYER-2
 10
0.986542
 20
0.571666
 30
0.000000
  0
SEQEND
  8
MERGEDLAYER-2
  0
POLYLINE
  8
MERGEDLAYER-2
 66
  1
 70
  0
 62
  0
 10
2.163521
 20
6.875547
 30
0.000000
  0
VERTEX
  8
MERGEDLAYER-2
 10
2.163521
 20
6.875547
 30
0.000000
  0
VERTEX
  8
MERGEDLAYER-2
 10
2.163521
 20
7.373408
 30
0.000000
  0
SEQEND
  8
MERGEDLAYER-2
  0
POLYLINE
  8
MERGEDLAYER-2
 66
  1
 70
  0
 62
  0
 10
2.224214
 20
7.434101
 30
0.000000
  0
VERTEX
  8
MERGEDLAYER-2
 10
2.224214
 20
7.434101
 30
0.000000
  0
VERTEX
  8
MERGEDLAYER-2
 10
2.224214
 20
7.434101
 30
0.000000
  0
SEQEND
  8
MERGEDLAYER-2
  0
POLYLINE
  8
MERGEDLAYER-2
 66
  1
 70
  0
 62
  0
 10
2.284907
 20
7.373408
 30
0.000000
  0
VERTEX
  8
MERGEDLAYER-2
 10
2.284907
 20
7.373408
 30
0.000000
  0
VERTEX
  8
MERGEDLAYER-2
 10
2.284907
 20
6.875547
 30
0.000000
  0
SEQEND
  8
MERGEDLAYER-2
  0
POLYLINE
  8
MERGEDLAYER-2
 66
  1
 70
  0
 62
  0
 10
2.224214
 20
6.814854
 30
0.000000
  0
VERTEX
  8
MERGEDLAYER-2
 10
2.224214
 20
6.814854
 30
0.000000
  0
VERTEX
  8
MERGEDLAYER-2
 10
2.224214
 20
6.814854
 30
0.000000
  0
SEQEND
  8
MERGEDLAYER-2
  0
ARC
  8
MERGEDLAYER-2
 62
  0
 10
2.224214
 20
6.875547
 30
0.000000
 40
0.060693
 50
180.000000
 51
270.000000
  0
ARC
  8
MERGEDLAYER-2
 62
  0
 10
2.224214
 20
6.875547
 30
0.000000
 40
0.060693
 50
270.000000
 51
0.000000
  0
ARC
  8
MERGEDLAYER-2
 62
  0
 10
2.224214
 20
7.373408
 30
0.000000
 40
0.060693
 50
0.000000
 51
90.000000
  0
ARC
  8
MERGEDLAYER-2
 62
  0
 10
2.224214
 20
7.373408
 30
0.000000
 40
0.060693
 50
90.000000
 51
180.000000
  0
CIRCLE
  8
MERGEDLAYER-2
 62
  0
 10
2.224214
 20
7.367259
 30
0.000000
 40
0.032370
  0
CIRCLE
  8
MERGEDLAYER-2
 62
  0
 10
2.224214
 20
6.881713
 30
0.000000
 40
0.033044
  0
POLYLINE
  8
MERGEDLAYER-2
 66
  1
 70
  0
 62
  0
 10
2.163826
 20
6.391294
 30
0.000000
  0
VERTEX
  8
MERGEDLAYER-2
 10
2.163826
 20
6.391294
 30
0.000000
  0
VERTEX
  8
MERGEDLAYER-2
 10
2.163826
 20
6.889155
 30
0.000000
  0
SEQEND
  8
MERGEDLAYER-2
  0
POLYLINE
  8
MERGEDLAYER-2
 66
  1
 70
  0
 62
  0
 10
2.224518
 20
6.949849
 30
0.000000
  0
VERTEX
  8
MERGEDLAYER-2
 10
2.224518
 20
6.949849
 30
0.000000
  0
VERTEX
  8
MERGEDLAYER-2
 10
2.224518
 20
6.949849
 30
0.000000
  0
SEQEND
  8
MERGEDLAYER-2
  0
POLYLINE
  8
MERGEDLAYER-2
 66
  1
 70
  0
 62
  0
 10
2.285212
 20
6.889155
 30
0.000000
  0
VERTEX
  8
MERGEDLAYER-2
 10
2.285212
 20
6.889155
 30
0.000000
  0
VERTEX
  8
MERGEDLAYER-2
 10
2.285212
 20
6.391294
 30
0.000000
  0
SEQEND
  8
MERGEDLAYER-2
  0
POLYLINE
  8
MERGEDLAYER-2
 66
  1
 70
  0
 62
  0
 10
2.224518
 20
6.330601
 30
0.000000
  0
VERTEX
  8
MERGEDLAYER-2
 10
2.224518
 20
6.330601
 30
0.000000
  0
VERTEX
  8
MERGEDLAYER-2
 10
2.224518
 20
6.330601
 30
0.000000
  0
SEQEND
  8
MERGEDLAYER-2
  0
ARC
  8
MERGEDLAYER-2
 62
  0
 10
2.224518
 20
6.391294
 30
0.000000
 40
0.060693
 50
180.000000
 51
270.000000
  0
ARC
  8
MERGEDLAYER-2
 62
  0
 10
2.224518
 20
6.391294
 30
0.000000
 40
0.060693
 50
270.000000
 51
0.000000
  0
ARC
  8
MERGEDLAYER-2
 62
  0
 10
2.224518
 20
6.889155
 30
0.000000
 40
0.060693
 50
0.000000
 51
90.000000
  0
ARC
  8
MERGEDLAYER-2
 62
  0
 10
2.224518
 20
6.889155
 30
0.000000
 40
0.060693
 50
90.000000
 51
180.000000
  0
CIRCLE
  8
MERGEDLAYER-2
 62
  0
 10
2.224518
 20
6.883006
 30
0.000000
 40
0.032370
  0
CIRCLE
  8
MERGEDLAYER-2
 62
  0
 10
2.224518
 20
6.397460
 30
0.000000
 40
0.033044
  0
CIRCLE
  8
MERGEDLAYER-2
 62
  0
 10
2.224518
 20
6.883006
 30
0.000000
 40
0.042862
  0
CIRCLE
  8
MERGEDLAYER-2
 62
  0
 10
2.224518
 20
6.883006
 30
0.000000
 40
0.029283
  0
CIRCLE
  8
MERGEDLAYER-2
 62
  0
 10
2.224518
 20
6.395882
 30
0.000000
 40
0.042862
  0
CIRCLE
  8
MERGEDLAYER-2
 62
  0
 10
2.224518
 20
6.395882
 30
0.000000
 40
0.029283
  0
CIRCLE
  8
MERGEDLAYER-2
 62
  0
 10
2.224590
 20
7.369900
 30
0.000000
 40
0.042862
  0
CIRCLE
  8
MERGEDLAYER-2
 62
  0
 10
2.224590
 20
7.369900
 30
0.000000
 40
0.029283
  0
CIRCLE
  8
MERGEDLAYER-2
 62
  0
 10
2.224746
 20
7.125871
 30
0.000000
 40
0.042862
  0
CIRCLE
  8
MERGEDLAYER-2
 62
  0
 10
2.224746
 20
7.125871
 30
0.000000
 40
0.029283
  0
CIRCLE
  8
MERGEDLAYER-2
 62
  0
 10
2.224746
 20
6.638747
 30
0.000000
 40
0.042862
  0
CIRCLE
  8
MERGEDLAYER-2
 62
  0
 10
2.224746
 20
6.638747
 30
0.000000
 40
0.029283
  0
POLYLINE
  8
MERGEDLAYER-2
 66
  1
 70
  1
 62
  0
  0
VERTEX
  8
MERGEDLAYER-2
 10
0.998683
 20
0.516953
 30
0.000000
  0
VERTEX
  8
MERGEDLAYER-2
 10
6.558483
 20
0.516953
 30
0.000000
  0
VERTEX
  8
MERGEDLAYER-2
 10
6.558483
 20
0.281253
 30
0.000000
  0
VERTEX
  8
MERGEDLAYER-2
 10
0.998683
 20
0.281253
 30
0.000000
  0
SEQEND
  8
MERGEDLAYER-2
  0
POLYLINE
  8
MERGEDLAYER-2
 66
  1
 70
  0
 62
  0
 10
0.999618
 20
0.346900
 30
0.000000
  0
VERTEX
  8
MERGEDLAYER-2
 10
0.999618
 20
0.346900
 30
0.000000
  0
VERTEX
  8
MERGEDLAYER-2
 10
6.558929
 20
0.346900
 30
0.000000
  0
SEQEND
  8
MERGEDLAYER-2
  0
POLYLINE
  8
MERGEDLAYER-2
 66
  1
 70
  0
 62
  0
 10
0.999618
 20
0.325597
 30
0.000000
  0
VERTEX
  8
MERGEDLAYER-2
 10
0.999618
 20
0.325597
 30
0.000000
  0
VERTEX
  8
MERGEDLAYER-2
 10
6.558929
 20
0.325597
 30
0.000000
  0
SEQEND
  8
MERGEDLAYER-2
  0
POLYLINE
  8
MERGEDLAYER-2
 66
  1
 70
  0
 62
  0
 10
0.998683
 20
0.501610
 30
0.000000
  0
VERTEX
  8
MERGEDLAYER-2
 10
0.998683
 20
0.501610
 30
0.000000
  0
VERTEX
  8
MERGEDLAYER-2
 10
6.557738
 20
0.501610
 30
0.000000
  0
SEQEND
  8
MERGEDLAYER-2
  0
TEXT
  8
MERGEDLAYER-2
 62
  7
 10
1.986111
 20
8.864586
 30
0.000000
 40
0.187500
  1
Elevation model Roll-Guard
 72
  5
 11
5.333333
 21
8.864586
 31
0.000000
  0
POLYLINE
  8
MERGEDLAYER-2
 66
  1
 70
  1
 62
  0
  0
VERTEX
  8
MERGEDLAYER-2
 10
6.569915
 20
5.274595
 30
0.000000
  0
VERTEX
  8
MERGEDLAYER-2
 10
6.731799
 20
5.274595
 30
0.000000
  0
VERTEX
  8
MERGEDLAYER-2
 10
6.731799
 20
0.282491
 30
0.000000
  0
VERTEX
  8
MERGEDLAYER-2
 10
6.569915
 20
0.282491
 30
0.000000
  0
SEQEND
  8
MERGEDLAYER-2
  0
POLYLINE
  8
MERGEDLAYER-2
 66
  1
 70
  1
 62
  0
  0
VERTEX
  8
MERGEDLAYER-2
 10
0.823815
 20
5.275170
 30
0.000000
  0
VERTEX
  8
MERGEDLAYER-2
 10
0.985699
 20
5.275170
 30
0.000000
  0
VERTEX
  8
MERGEDLAYER-2
 10
0.985699
 20
0.283159
 30
0.000000
  0
VERTEX
  8
MERGEDLAYER-2
 10
0.823815
 20
0.283159
 30
0.000000
  0
SEQEND
  8
MERGEDLAYER-2
  0
POLYLINE
  8
MERGEDLAYER-2
 66
  1
 70
  0
 62
  0
 10
3.665080
 20
0.409790
 30
0.000000
  0
VERTEX
  8
MERGEDLAYER-2
 10
3.665080
 20
0.409790
 30
0.000000
  0
VERTEX
  8
MERGEDLAYER-2
 10
3.657874
 20
0.426945
 30
0.000000
  0
VERTEX
  8
MERGEDLAYER-2
 10
3.637353
 20
0.441489
 30
0.000000
  0
VERTEX
  8
MERGEDLAYER-2
 10
3.606642
 20
0.451207
 30
0.000000
  0
VERTEX
  8
MERGEDLAYER-2
 10
3.570415
 20
0.454620
 30
0.000000
  0
VERTEX
  8
MERGEDLAYER-2
 10
3.534188
 20
0.451207
 30
0.000000
  0
VERTEX
  8
MERGEDLAYER-2
 10
3.503476
 20
0.441489
 30
0.000000
  0
VERTEX
  8
MERGEDLAYER-2
 10
3.482955
 20
0.426945
 30
0.000000
  0
VERTEX
  8
MERGEDLAYER-2
 10
3.475749
 20
0.409790
 30
0.000000
  0
VERTEX
  8
MERGEDLAYER-2
 10
3.482955
 20
0.392635
 30
0.000000
  0
VERTEX
  8
MERGEDLAYER-2
 10
3.503476
 20
0.378092
 30
0.000000
  0
VERTEX
  8
MERGEDLAYER-2
 10
3.534188
 20
0.368373
 30
0.000000
  0
VERTEX
  8
MERGEDLAYER-2
 10
3.570415
 20
0.364961
 30
0.000000
  0
VERTEX
  8
MERGEDLAYER-2
 10
3.606642
 20
0.368373
 30
0.000000
  0
VERTEX
  8
MERGEDLAYER-2
 10
3.637353
 20
0.378092
 30
0.000000
  0
VERTEX
  8
MERGEDLAYER-2
 10
3.657874
 20
0.392635
 30
0.000000
  0
VERTEX
  8
MERGEDLAYER-2
 10
3.665080
 20
0.409790
 30
0.000000
  0
SEQEND
  8
MERGEDLAYER-2
  0
POLYLINE
  8
MERGEDLAYER-2
 66
  1
 70
  0
 62
  0
 10
3.352217
 20
0.397827
 30
0.000000
  0
VERTEX
  8
MERGEDLAYER-2
 10
3.352217
 20
0.397827
 30
0.000000
  0
VERTEX
  8
MERGEDLAYER-2
 10
3.572611
 20
0.385067
 30
0.000000
  0
SEQEND
  8
MERGEDLAYER-2
  0
POLYLINE
  8
MERGEDLAYER-2
 66
  1
 70
  0
 62
  0
 10
3.352195
 20
0.417817
 30
0.000000
  0
VERTEX
  8
MERGEDLAYER-2
 10
3.352195
 20
0.417817
 30
0.000000
  0
VERTEX
  8
MERGEDLAYER-2
 10
3.340821
 20
0.409201
 30
0.000000
  0
VERTEX
  8
MERGEDLAYER-2
 10
3.352215
 20
0.397825
 30
0.000000
  0
SEQEND
  8
MERGEDLAYER-2
  0
POLYLINE
  8
MERGEDLAYER-2
 66
  1
 70
  0
 62
  0
 10
3.352193
 20
0.417818
 30
0.000000
  0
VERTEX
  8
MERGEDLAYER-2
 10
3.352193
 20
0.417818
 30
0.000000
  0
VERTEX
  8
MERGEDLAYER-2
 10
3.572383
 20
0.430577
 30
0.000000
  0
SEQEND
  8
MERGEDLAYER-2
  0
POLYLINE
  8
MERGEDLAYER-2
 66
  1
 70
  0
 62
  0
 10
3.572611
 20
0.385067
 30
0.000000
  0
VERTEX
  8
MERGEDLAYER-2
 10
3.572611
 20
0.385067
 30
0.000000
  0
VERTEX
  8
MERGEDLAYER-2
 10
3.586666
 20
0.393861
 30
0.000000
  0
VERTEX
  8
MERGEDLAYER-2
 10
3.593170
 20
0.410018
 30
0.000000
  0
VERTEX
  8
MERGEDLAYER-2
 10
3.586344
 20
0.426041
 30
0.000000
  0
VERTEX
  8
MERGEDLAYER-2
 10
3.572383
 20
0.430578
 30
0.000000
  0
SEQEND
  8
MERGEDLAYER-2
  0
POLYLINE
  8
MERGEDLAYER-2
 66
  1
 70
  1
 62
  0
  0
VERTEX
  8
MERGEDLAYER-2
 10
3.761987
 20
0.429492
 30
0.000000
  0
VERTEX
  8
MERGEDLAYER-2
 10
3.807703
 20
0.429492
 30
0.000000
  0
VERTEX
  8
MERGEDLAYER-2
 10
3.807703
 20
0.417299
 30
0.000000
  0
VERTEX
  8
MERGEDLAYER-2
 10
3.761987
 20
0.417299
 30
0.000000
  0
SEQEND
  8
MERGEDLAYER-2
  0
TEXT
  8
MERGEDLAYER-2
 62
  0
 10
3.166667
 20
7.864586
 30
0.000000
 40
0.125000
  1
9" (229
 72
  5
 11
3.777778
 21
7.864586
 31
0.000000
  0
TEXT
  8
MERGEDLAYER-2
 62
  0
 10
3.777778
 20
7.864586
 30
0.000000
 40
0.104167
  1
mm
 72
  5
 11
4.069444
 21
7.864586
 31
0.000000
  0
TEXT
  8
MERGEDLAYER-2
 62
  0
 10
4.069444
 20
7.864586
 30
0.000000
 40
0.125000
  1
)
 72
  5
 11
4.194444
 21
7.864586
 31
0.000000
  0
TEXT
  8
MERGEDLAYER-2
 62
  0
 10
3.000000
 20
7.670141
 30
0.000000
 40
0.125000
  1
aluminum tube
 72
  5
 11
4.222222
 21
7.670141
 31
0.000000
  0
TEXT
  8
MERGEDLAYER-2
 62
  0
 10
2.958333
 20
7.475697
 30
0.000000
 40
0.104167
  1
7/16
 72
  5
 11
3.319444
 21
7.475697
 31
0.000000
  0
TEXT
  8
MERGEDLAYER-2
 62
  0
 10
3.319444
 20
7.475697
 30
0.000000
 40
0.125000
  1
" (11
 72
  5
 11
3.736111
 21
7.475697
 31
0.000000
  0
TEXT
  8
MERGEDLAYER-2
 62
  0
 10
3.736111
 20
7.475697
 30
0.000000
 40
0.104167
  1
mm
 72
  5
 11
4.027778
 21
7.475697
 31
0.000000
  0
TEXT
  8
MERGEDLAYER-2
 62
  0
 10
4.027778
 20
7.475697
 30
0.000000
 40
0.125000
  1
) dia.
 72
  5
 11
4.472222
 21
7.475697
 31
0.000000
  0
POLYLINE
  8
MERGEDLAYER-2
 66
  1
 70
  0
 62
  0
 10
2.565508
 20
6.353318
 30
0.000000
  0
VERTEX
  8
MERGEDLAYER-2
 10
2.565508
 20
6.353318
 30
0.000000
  0
VERTEX
  8
MERGEDLAYER-2
 10
4.529968
 20
6.353318
 30
0.000000
  0
SEQEND
  8
MERGEDLAYER-2
  0
POLYLINE
  8
MERGEDLAYER-2
 66
  1
 70
  0
 62
  0
 10
2.565508
 20
6.438349
 30
0.000000
  0
VERTEX
  8
MERGEDLAYER-2
 10
2.565508
 20
6.438349
 30
0.000000
  0
VERTEX
  8
MERGEDLAYER-2
 10
4.529968
 20
6.438349
 30
0.000000
  0
SEQEND
  8
MERGEDLAYER-2
  0
POLYLINE
  8
MERGEDLAYER-2
 66
  1
 70
  0
 62
  0
 10
4.553193
 20
6.366681
 30
0.000000
  0
VERTEX
  8
MERGEDLAYER-2
 10
4.553193
 20
6.366681
 30
0.000000
  0
VERTEX
  8
MERGEDLAYER-2
 10
5.023921
 20
6.366659
 30
0.000000
  0
SEQEND
  8
MERGEDLAYER-2
  0
POLYLINE
  8
MERGEDLAYER-2
 66
  1
 70
  0
 62
  0
 10
4.553193
 20
6.427418
 30
0.000000
  0
VERTEX
  8
MERGEDLAYER-2
 10
4.553193
 20
6.427418
 30
0.000000
  0
VERTEX
  8
MERGEDLAYER-2
 10
5.023921
 20
6.427283
 30
0.000000
  0
SEQEND
  8
MERGEDLAYER-2
  0
POLYLINE
  8
MERGEDLAYER-2
 66
  1
 70
  0
 62
  0
 10
5.033286
 20
6.398940
 30
0.000000
  0
VERTEX
  8
MERGEDLAYER-2
 10
5.033286
 20
6.398940
 30
0.000000
  0
VERTEX
  8
MERGEDLAYER-2
 10
5.029966
 20
6.420374
 30
0.000000
  0
VERTEX
  8
MERGEDLAYER-2
 10
5.021952
 20
6.429252
 30
0.000000
  0
VERTEX
  8
MERGEDLAYER-2
 10
5.013938
 20
6.420374
 30
0.000000
  0
VERTEX
  8
MERGEDLAYER-2
 10
5.010619
 20
6.398940
 30
0.000000
  0
VERTEX
  8
MERGEDLAYER-2
 10
5.013938
 20
6.377505
 30
0.000000
  0
VERTEX
  8
MERGEDLAYER-2
 10
5.021952
 20
6.368627
 30
0.000000
  0
VERTEX
  8
MERGEDLAYER-2
 10
5.029966
 20
6.377505
 30
0.000000
  0
VERTEX
  8
MERGEDLAYER-2
 10
5.033286
 20
6.398940
 30
0.000000
  0
SEQEND
  8
MERGEDLAYER-2
  0
POLYLINE
  8
MERGEDLAYER-2
 66
  1
 70
  0
 62
  0
 10
2.565508
 20
6.438348
 30
0.000000
  0
VERTEX
  8
MERGEDLAYER-2
 10
2.565508
 20
6.438348
 30
0.000000
  0
VERTEX
  8
MERGEDLAYER-2
 10
2.552293
 20
6.411822
 30
0.000000
  0
VERTEX
  8
MERGEDLAYER-2
 10
2.552807
 20
6.381194
 30
0.000000
  0
VERTEX
  8
MERGEDLAYER-2
 10
2.565508
 20
6.353315
 30
0.000000
  0
SEQEND
  8
MERGEDLAYER-2
  0
POLYLINE
  8
MERGEDLAYER-2
 66
  1
 70
  0
 62
  0
 10
2.565508
 20
6.839190
 30
0.000000
  0
VERTEX
  8
MERGEDLAYER-2
 10
2.565508
 20
6.839190
 30
0.000000
  0
VERTEX
  8
MERGEDLAYER-2
 10
4.529968
 20
6.839190
 30
0.000000
  0
SEQEND
  8
MERGEDLAYER-2
  0
POLYLINE
  8
MERGEDLAYER-2
 66
  1
 70
  0
 62
  0
 10
2.565508
 20
6.924221
 30
0.000000
  0
VERTEX
  8
MERGEDLAYER-2
 10
2.565508
 20
6.924221
 30
0.000000
  0
VERTEX
  8
MERGEDLAYER-2
 10
4.529968
 20
6.924221
 30
0.000000
  0
SEQEND
  8
MERGEDLAYER-2
  0
POLYLINE
  8
MERGEDLAYER-2
 66
  1
 70
  0
 62
  0
 10
2.565508
 20
7.325056
 30
0.000000
  0
VERTEX
  8
MERGEDLAYER-2
 10
2.565508
 20
7.325056
 30
0.000000
  0
VERTEX
  8
MERGEDLAYER-2
 10
4.529968
 20
7.325056
 30
0.000000
  0
SEQEND
  8
MERGEDLAYER-2
  0
POLYLINE
  8
MERGEDLAYER-2
 66
  1
 70
  0
 62
  0
 10
2.565508
 20
7.410088
 30
0.000000
  0
VERTEX
  8
MERGEDLAYER-2
 10
2.565508
 20
7.410088
 30
0.000000
  0
VERTEX
  8
MERGEDLAYER-2
 10
4.529968
 20
7.410088
 30
0.000000
  0
SEQEND
  8
MERGEDLAYER-2
  0
POLYLINE
  8
MERGEDLAYER-2
 66
  1
 70
  1
 62
  0
  0
VERTEX
  8
MERGEDLAYER-2
 10
2.757702
 20
6.947659
 30
0.000000
  0
VERTEX
  8
MERGEDLAYER-2
 10
2.782005
 20
6.947659
 30
0.000000
  0
VERTEX
  8
MERGEDLAYER-2
 10
2.782005
 20
6.331616
 30
0.000000
  0
VERTEX
  8
MERGEDLAYER-2
 10
2.757702
 20
6.331616
 30
0.000000
  0
SEQEND
  8
MERGEDLAYER-2
  0
POLYLINE
  8
MERGEDLAYER-2
 66
  1
 70
  1
 62
  0
  0
VERTEX
  8
MERGEDLAYER-2
 10
2.733409
 20
7.434395
 30
0.000000
  0
VERTEX
  8
MERGEDLAYER-2
 10
2.757702
 20
7.434395
 30
0.000000
  0
VERTEX
  8
MERGEDLAYER-2
 10
2.757702
 20
6.815752
 30
0.000000
  0
VERTEX
  8
MERGEDLAYER-2
 10
2.733409
 20
6.815752
 30
0.000000
  0
SEQEND
  8
MERGEDLAYER-2
  0
POLYLINE
  8
MERGEDLAYER-2
 66
  1
 70
  0
 62
  0
 10
4.531252
 20
7.335939
 30
0.000000
  0
VERTEX
  8
MERGEDLAYER-2
 10
4.531252
 20
7.335939
 30
0.000000
  0
VERTEX
  8
MERGEDLAYER-2
 10
5.024152
 20
7.337182
 30
0.000000
  0
SEQEND
  8
MERGEDLAYER-2
  0
POLYLINE
  8
MERGEDLAYER-2
 66
  1
 70
  0
 62
  0
 10
4.526816
 20
7.397808
 30
0.000000
  0
VERTEX
  8
MERGEDLAYER-2
 10
4.526816
 20
7.397808
 30
0.000000
  0
VERTEX
  8
MERGEDLAYER-2
 10
5.024152
 20
7.397806
 30
0.000000
  0
SEQEND
  8
MERGEDLAYER-2
  0
POLYLINE
  8
MERGEDLAYER-2
 66
  1
 70
  0
 62
  0
 10
4.553193
 20
6.852553
 30
0.000000
  0
VERTEX
  8
MERGEDLAYER-2
 10
4.553193
 20
6.852553
 30
0.000000
  0
VERTEX
  8
MERGEDLAYER-2
 10
5.023921
 20
6.852565
 30
0.000000
  0
SEQEND
  8
MERGEDLAYER-2
  0
POLYLINE
  8
MERGEDLAYER-2
 66
  1
 70
  0
 62
  0
 10
4.553193
 20
6.913290
 30
0.000000
  0
VERTEX
  8
MERGEDLAYER-2
 10
4.553193
 20
6.913290
 30
0.000000
  0
VERTEX
  8
MERGEDLAYER-2
 10
5.023921
 20
6.913190
 30
0.000000
  0
SEQEND
  8
MERGEDLAYER-2
  0
LINE
  8
MERGEDLAYER-2
 62
  0
 10
2.757702
 20
7.757341
 30
0.000000
 11
4.506827
 21
7.757341
 31
0.000000
  0
LINE
  8
MERGEDLAYER-2
 62
  0
 10
2.757702
 20
7.472588
 30
0.000000
 11
2.757702
 21
7.882341
 31
0.000000
  0
LINE
  8
MERGEDLAYER-2
 62
  0
 10
4.506827
 20
7.472588
 30
0.000000
 11
4.506827
 21
7.882341
 31
0.000000
  0
LINE
  8
MERGEDLAYER-2
 62
  0
 10
2.787165
 20
7.786804
 30
0.000000
 11
2.728240
 21
7.727879
 31
0.000000
  0
LINE
  8
MERGEDLAYER-2
 62
  0
 10
4.536290
 20
7.786804
 30
0.000000
 11
4.477364
 21
7.727879
 31
0.000000
  0
TEXT
  8
MERGEDLAYER-2
 62
  0
 10
3.472879
 20
7.739914
 30
0.000000
 40
0.093750
  1
                          
  0
POLYLINE
  8
MERGEDLAYER-2
 66
  1
 70
  1
 62
  0
  0
VERTEX
  8
MERGEDLAYER-2
 10
4.531132
 20
6.946791
 30
0.000000
  0
VERTEX
  8
MERGEDLAYER-2
 10
4.555414
 20
6.946791
 30
0.000000
  0
VERTEX
  8
MERGEDLAYER-2
 10
4.555414
 20
6.331616
 30
0.000000
  0
VERTEX
  8
MERGEDLAYER-2
 10
4.531132
 20
6.331616
 30
0.000000
  0
SEQEND
  8
MERGEDLAYER-2
  0
POLYLINE
  8
MERGEDLAYER-2
 66
  1
 70
  1
 62
  0
  0
VERTEX
  8
MERGEDLAYER-2
 10
4.506827
 20
7.434394
 30
0.000000
  0
VERTEX
  8
MERGEDLAYER-2
 10
4.531132
 20
7.434394
 30
0.000000
  0
VERTEX
  8
MERGEDLAYER-2
 10
4.531132
 20
6.815752
 30
0.000000
  0
VERTEX
  8
MERGEDLAYER-2
 10
4.506827
 20
6.815752
 30
0.000000
  0
SEQEND
  8
MERGEDLAYER-2
  0
POLYLINE
  8
MERGEDLAYER-2
 66
  1
 70
  0
 62
  0
 10
5.033517
 20
7.369463
 30
0.000000
  0
VERTEX
  8
MERGEDLAYER-2
 10
5.033517
 20
7.369463
 30
0.000000
  0
VERTEX
  8
MERGEDLAYER-2
 10
5.030198
 20
7.390896
 30
0.000000
  0
VERTEX
  8
MERGEDLAYER-2
 10
5.022184
 20
7.399775
 30
0.000000
  0
VERTEX
  8
MERGEDLAYER-2
 10
5.014169
 20
7.390896
 30
0.000000
  0
VERTEX
  8
MERGEDLAYER-2
 10
5.010850
 20
7.369463
 30
0.000000
  0
VERTEX
  8
MERGEDLAYER-2
 10
5.014169
 20
7.348028
 30
0.000000
  0
VERTEX
  8
MERGEDLAYER-2
 10
5.022184
 20
7.339150
 30
0.000000
  0
VERTEX
  8
MERGEDLAYER-2
 10
5.030198
 20
7.348028
 30
0.000000
  0
VERTEX
  8
MERGEDLAYER-2
 10
5.033517
 20
7.369463
 30
0.000000
  0
SEQEND
  8
MERGEDLAYER-2
  0
POLYLINE
  8
MERGEDLAYER-2
 66
  1
 70
  0
 62
  0
 10
5.033286
 20
6.884846
 30
0.000000
  0
VERTEX
  8
MERGEDLAYER-2
 10
5.033286
 20
6.884846
 30
0.000000
  0
VERTEX
  8
MERGEDLAYER-2
 10
5.029966
 20
6.906280
 30
0.000000
  0
VERTEX
  8
MERGEDLAYER-2
 10
5.021952
 20
6.915158
 30
0.000000
  0
VERTEX
  8
MERGEDLAYER-2
 10
5.013938
 20
6.906280
 30
0.000000
  0
VERTEX
  8
MERGEDLAYER-2
 10
5.010619
 20
6.884846
 30
0.000000
  0
VERTEX
  8
MERGEDLAYER-2
 10
5.013938
 20
6.863412
 30
0.000000
  0
VERTEX
  8
MERGEDLAYER-2
 10
5.021952
 20
6.854533
 30
0.000000
  0
VERTEX
  8
MERGEDLAYER-2
 10
5.029966
 20
6.863412
 30
0.000000
  0
VERTEX
  8
MERGEDLAYER-2
 10
5.033286
 20
6.884846
 30
0.000000
  0
SEQEND
  8
MERGEDLAYER-2
  0
POLYLINE
  8
MERGEDLAYER-2
 66
  1
 70
  0
 62
  0
 10
2.565508
 20
7.410088
 30
0.000000
  0
VERTEX
  8
MERGEDLAYER-2
 10
2.565508
 20
7.410088
 30
0.000000
  0
VERTEX
  8
MERGEDLAYER-2
 10
2.552271
 20
7.383676
 30
0.000000
  0
VERTEX
  8
MERGEDLAYER-2
 10
2.552721
 20
7.353143
 30
0.000000
  0
VERTEX
  8
MERGEDLAYER-2
 10
2.565508
 20
7.325056
 30
0.000000
  0
SEQEND
  8
MERGEDLAYER-2
  0
POLYLINE
  8
MERGEDLAYER-2
 66
  1
 70
  0
 62
  0
 10
2.565507
 20
6.924223
 30
0.000000
  0
VERTEX
  8
MERGEDLAYER-2
 10
2.565507
 20
6.924223
 30
0.000000
  0
VERTEX
  8
MERGEDLAYER-2
 10
2.552294
 20
6.897687
 30
0.000000
  0
VERTEX
  8
MERGEDLAYER-2
 10
2.552814
 20
6.867050
 30
0.000000
  0
VERTEX
  8
MERGEDLAYER-2
 10
2.565507
 20
6.839190
 30
0.000000
  0
SEQEND
  8
MERGEDLAYER-2
  0
POLYLINE
  8
MERGEDLAYER-2
 66
  1
 70
  0
 62
  0
 10
5.120430
 20
7.130851
 30
0.000000
  0
VERTEX
  8
MERGEDLAYER-2
 10
5.120430
 20
7.130851
 30
0.000000
  0
VERTEX
  8
MERGEDLAYER-2
 10
5.121528
 20
6.881947
 30
0.000000
  0
SEQEND
  8
MERGEDLAYER-2
  0
LINE
  8
MERGEDLAYER-2
 62
  0
 10
5.150022
 20
7.101518
 30
0.000000
 11
5.090838
 21
7.160183
 31
0.000000
  0
LINE
  8
MERGEDLAYER-2
 62
  0
 10
5.151121
 20
6.852615
 30
0.000000
 11
5.091936
 21
6.911279
 31
0.000000
  0
POLYLINE
  8
MERGEDLAYER-2
  6
LTYPE05
 66
  1
 70
  0
 62
  0
  6
LTYPE05
 10
3.965280
 20
6.881945
 30
0.000000
  0
VERTEX
  8
MERGEDLAYER-2
  6
LTYPE05
 10
3.965280
 20
6.881945
 30
0.000000
  0
VERTEX
  8
MERGEDLAYER-2
  6
LTYPE05
 10
5.166667
 20
6.881947
 30
0.000000
  0
SEQEND
  8
MERGEDLAYER-2
  0
POLYLINE
  8
MERGEDLAYER-2
 66
  1
 70
  0
 62
  0
 10
3.076389
 20
6.597225
 30
0.000000
  0
VERTEX
  8
MERGEDLAYER-2
 10
3.076389
 20
6.597225
 30
0.000000
  0
VERTEX
  8
MERGEDLAYER-2
 10
3.076505
 20
6.436243
 30
0.000000
  0
SEQEND
  8
MERGEDLAYER-2
  0
LINE
  8
MERGEDLAYER-2
 62
  0
 10
3.105873
 20
6.567784
 30
0.000000
 11
3.046905
 21
6.626667
 31
0.000000
  0
LINE
  8
MERGEDLAYER-2
 62
  0
 10
3.105989
 20
6.406801
 30
0.000000
 11
3.047021
 21
6.465684
 31
0.000000
  0
TEXT
  8
MERGEDLAYER-2
 62
  0
 10
3.027778
 20
6.420141
 30
0.000000
 40
0.104167
  1
13/16
 72
  5
 11
3.472222
 21
6.420141
 31
0.000000
  0
TEXT
  8
MERGEDLAYER-2
 62
  0
 10
3.472222
 20
6.420141
 30
0.000000
 40
0.125000
  1
" 
 72
  5
 11
3.638889
 21
6.420141
 31
0.000000
  0
TEXT
  8
MERGEDLAYER-2
 62
  0
 10
3.638889
 20
6.420141
 30
0.000000
 40
0.104167
  1
 
 72
  5
 11
3.750000
 21
6.420141
 31
0.000000
  0
TEXT
  8
MERGEDLAYER-2
 62
  0
 10
3.750000
 20
6.420141
 30
0.000000
 40
0.125000
  1
21
 72
  5
 11
4.013889
 21
6.420141
 31
0.000000
  0
TEXT
  8
MERGEDLAYER-2
 62
  0
 10
4.013889
 20
6.420141
 30
0.000000
 40
0.104167
  1
mm
 72
  5
 11
4.305556
 21
6.420141
 31
0.000000
  0
TEXT
  8
MERGEDLAYER-2
 62
  0
 10
3.541667
 20
6.434030
 30
0.000000
 40
0.104167
  1
(
 72
  5
 11
3.652778
 21
6.434030
 31
0.000000
  0
TEXT
  8
MERGEDLAYER-2
 62
  0
 10
3.652778
 20
6.434030
 30
0.000000
 40
0.125000
  1
         
 72
  5
 11
4.097222
 21
6.434030
 31
0.000000
  0
TEXT
  8
MERGEDLAYER-2
 62
  0
 10
4.097222
 20
6.434030
 30
0.000000
 40
0.104167
  1
)
 72
  5
 11
4.208333
 21
6.434030
 31
0.000000
  0
POLYLINE
  8
MERGEDLAYER-2
 66
  1
 70
  0
 62
  0
 40
0.027778
 41
0.027778
 10
0.027778
 20
0.281256
 30
0.000000
  0
VERTEX
  8
MERGEDLAYER-2
 10
0.027778
 20
0.281256
 30
0.000000
  0
VERTEX
  8
MERGEDLAYER-2
 10
7.527778
 20
0.281256
 30
0.000000
  0
SEQEND
  8
MERGEDLAYER-2
  0
POLYLINE
  8
MERGEDLAYER-2
 66
  1
 70
  1
 62
  0
  0
VERTEX
  8
MERGEDLAYER-2
 10
1.538467
 20
3.596605
 30
0.000000
  0
VERTEX
  8
MERGEDLAYER-2
 10
1.546139
 20
3.596605
 30
0.000000
  0
VERTEX
  8
MERGEDLAYER-2
 10
1.546139
 20
3.403766
 30
0.000000
  0
VERTEX
  8
MERGEDLAYER-2
 10
1.538467
 20
3.403766
 30
0.000000
  0
SEQEND
  8
MERGEDLAYER-2
  0
POLYLINE
  8
MERGEDLAYER-2
 66
  1
 70
  1
 62
  0
  0
VERTEX
  8
MERGEDLAYER-2
 10
1.530800
 20
3.749984
 30
0.000000
  0
VERTEX
  8
MERGEDLAYER-2
 10
1.538467
 20
3.749984
 30
0.000000
  0
VERTEX
  8
MERGEDLAYER-2
 10
1.538467
 20
3.557156
 30
0.000000
  0
VERTEX
  8
MERGEDLAYER-2
 10
1.530800
 20
3.557156
 30
0.000000
  0
SEQEND
  8
MERGEDLAYER-2
  0
POLYLINE
  8
MERGEDLAYER-2
 66
  1
 70
  1
 62
  0
  0
VERTEX
  8
MERGEDLAYER-2
 10
1.530800
 20
0.682184
 30
0.000000
  0
VERTEX
  8
MERGEDLAYER-2
 10
1.538467
 20
0.682184
 30
0.000000
  0
VERTEX
  8
MERGEDLAYER-2
 10
1.538467
 20
0.501579
 30
0.000000
  0
VERTEX
  8
MERGEDLAYER-2
 10
1.530800
 20
0.501579
 30
0.000000
  0
SEQEND
  8
MERGEDLAYER-2
  0
POLYLINE
  8
MERGEDLAYER-2
 66
  1
 70
  1
 62
  0
  0
VERTEX
  8
MERGEDLAYER-2
 10
1.538467
 20
0.835776
 30
0.000000
  0
VERTEX
  8
MERGEDLAYER-2
 10
1.546139
 20
0.835776
 30
0.000000
  0
VERTEX
  8
MERGEDLAYER-2
 10
1.546139
 20
0.642937
 30
0.000000
  0
VERTEX
  8
MERGEDLAYER-2
 10
1.538467
 20
0.642937
 30
0.000000
  0
SEQEND
  8
MERGEDLAYER-2
  0
POLYLINE
  8
MERGEDLAYER-2
 66
  1
 70
  1
 62
  0
  0
VERTEX
  8
MERGEDLAYER-2
 10
1.530800
 20
0.989155
 30
0.000000
  0
VERTEX
  8
MERGEDLAYER-2
 10
1.538467
 20
0.989155
 30
0.000000
  0
VERTEX
  8
MERGEDLAYER-2
 10
1.538467
 20
0.796316
 30
0.000000
  0
VERTEX
  8
MERGEDLAYER-2
 10
1.530800
 20
0.796316
 30
0.000000
  0
SEQEND
  8
MERGEDLAYER-2
  0
POLYLINE
  8
MERGEDLAYER-2
 66
  1
 70
  1
 62
  0
  0
VERTEX
  8
MERGEDLAYER-2
 10
1.538467
 20
1.142535
 30
0.000000
  0
VERTEX
  8
MERGEDLAYER-2
 10
1.546139
 20
1.142535
 30
0.000000
  0
VERTEX
  8
MERGEDLAYER-2
 10
1.546139
 20
0.949697
 30
0.000000
  0
VERTEX
  8
MERGEDLAYER-2
 10
1.538467
 20
0.949697
 30
0.000000
  0
SEQEND
  8
MERGEDLAYER-2
  0
POLYLINE
  8
MERGEDLAYER-2
 66
  1
 70
  1
 62
  0
  0
VERTEX
  8
MERGEDLAYER-2
 10
1.530800
 20
1.295913
 30
0.000000
  0
VERTEX
  8
MERGEDLAYER-2
 10
1.538467
 20
1.295913
 30
0.000000
  0
VERTEX
  8
MERGEDLAYER-2
 10
1.538467
 20
1.103077
 30
0.000000
  0
VERTEX
  8
MERGEDLAYER-2
 10
1.530800
 20
1.103077
 30
0.000000
  0
SEQEND
  8
MERGEDLAYER-2
  0
POLYLINE
  8
MERGEDLAYER-2
 66
  1
 70
  1
 62
  0
  0
VERTEX
  8
MERGEDLAYER-2
 10
1.538467
 20
1.449296
 30
0.000000
  0
VERTEX
  8
MERGEDLAYER-2
 10
1.546139
 20
1.449296
 30
0.000000
  0
VERTEX
  8
MERGEDLAYER-2
 10
1.546139
 20
1.256454
 30
0.000000
  0
VERTEX
  8
MERGEDLAYER-2
 10
1.538467
 20
1.256454
 30
0.000000
  0
SEQEND
  8
MERGEDLAYER-2
  0
POLYLINE
  8
MERGEDLAYER-2
 66
  1
 70
  1
 62
  0
  0
VERTEX
  8
MERGEDLAYER-2
 10
1.530800
 20
1.602673
 30
0.000000
  0
VERTEX
  8
MERGEDLAYER-2
 10
1.538467
 20
1.602673
 30
0.000000
  0
VERTEX
  8
MERGEDLAYER-2
 10
1.538467
 20
1.409835
 30
0.000000
  0
VERTEX
  8
MERGEDLAYER-2
 10
1.530800
 20
1.409835
 30
0.000000
  0
SEQEND
  8
MERGEDLAYER-2
  0
POLYLINE
  8
MERGEDLAYER-2
 66
  1
 70
  1
 62
  0
  0
VERTEX
  8
MERGEDLAYER-2
 10
1.538467
 20
1.756054
 30
0.000000
  0
VERTEX
  8
MERGEDLAYER-2
 10
1.546139
 20
1.756054
 30
0.000000
  0
VERTEX
  8
MERGEDLAYER-2
 10
1.546139
 20
1.563211
 30
0.000000
  0
VERTEX
  8
MERGEDLAYER-2
 10
1.538467
 20
1.563211
 30
0.000000
  0
SEQEND
  8
MERGEDLAYER-2
  0
POLYLINE
  8
MERGEDLAYER-2
 66
  1
 70
  1
 62
  0
  0
VERTEX
  8
MERGEDLAYER-2
 10
1.530800
 20
1.909434
 30
0.000000
  0
VERTEX
  8
MERGEDLAYER-2
 10
1.538467
 20
1.909434
 30
0.000000
  0
VERTEX
  8
MERGEDLAYER-2
 10
1.538467
 20
1.716593
 30
0.000000
  0
VERTEX
  8
MERGEDLAYER-2
 10
1.530800
 20
1.716593
 30
0.000000
  0
SEQEND
  8
MERGEDLAYER-2
  0
POLYLINE
  8
MERGEDLAYER-2
 66
  1
 70
  1
 62
  0
  0
VERTEX
  8
MERGEDLAYER-2
 10
1.538467
 20
2.062810
 30
0.000000
  0
VERTEX
  8
MERGEDLAYER-2
 10
1.546139
 20
2.062810
 30
0.000000
  0
VERTEX
  8
MERGEDLAYER-2
 10
1.546139
 20
1.869972
 30
0.000000
  0
VERTEX
  8
MERGEDLAYER-2
 10
1.538467
 20
1.869972
 30
0.000000
  0
SEQEND
  8
MERGEDLAYER-2
  0
POLYLINE
  8
MERGEDLAYER-2
 66
  1
 70
  1
 62
  0
  0
VERTEX
  8
MERGEDLAYER-2
 10
1.530800
 20
2.216192
 30
0.000000
  0
VERTEX
  8
MERGEDLAYER-2
 10
1.538467
 20
2.216192
 30
0.000000
  0
VERTEX
  8
MERGEDLAYER-2
 10
1.538467
 20
2.023350
 30
0.000000
  0
VERTEX
  8
MERGEDLAYER-2
 10
1.530800
 20
2.023350
 30
0.000000
  0
SEQEND
  8
MERGEDLAYER-2
  0
POLYLINE
  8
MERGEDLAYER-2
 66
  1
 70
  1
 62
  0
  0
VERTEX
  8
MERGEDLAYER-2
 10
1.538467
 20
2.369570
 30
0.000000
  0
VERTEX
  8
MERGEDLAYER-2
 10
1.546139
 20
2.369570
 30
0.000000
  0
VERTEX
  8
MERGEDLAYER-2
 10
1.546139
 20
2.176730
 30
0.000000
  0
VERTEX
  8
MERGEDLAYER-2
 10
1.538467
 20
2.176730
 30
0.000000
  0
SEQEND
  8
MERGEDLAYER-2
  0
POLYLINE
  8
MERGEDLAYER-2
 66
  1
 70
  1
 62
  0
  0
VERTEX
  8
MERGEDLAYER-2
 10
1.530800
 20
2.522951
 30
0.000000
  0
VERTEX
  8
MERGEDLAYER-2
 10
1.538467
 20
2.522951
 30
0.000000
  0
VERTEX
  8
MERGEDLAYER-2
 10
1.538467
 20
2.330111
 30
0.000000
  0
VERTEX
  8
MERGEDLAYER-2
 10
1.530800
 20
2.330111
 30
0.000000
  0
SEQEND
  8
MERGEDLAYER-2
  0
POLYLINE
  8
MERGEDLAYER-2
 66
  1
 70
  1
 62
  0
  0
VERTEX
  8
MERGEDLAYER-2
 10
1.538467
 20
2.676328
 30
0.000000
  0
VERTEX
  8
MERGEDLAYER-2
 10
1.546139
 20
2.676328
 30
0.000000
  0
VERTEX
  8
MERGEDLAYER-2
 10
1.546139
 20
2.483492
 30
0.000000
  0
VERTEX
  8
MERGEDLAYER-2
 10
1.538467
 20
2.483492
 30
0.000000
  0
SEQEND
  8
MERGEDLAYER-2
  0
POLYLINE
  8
MERGEDLAYER-2
 66
  1
 70
  1
 62
  0
  0
VERTEX
  8
MERGEDLAYER-2
 10
1.530800
 20
2.829707
 30
0.000000
  0
VERTEX
  8
MERGEDLAYER-2
 10
1.538467
 20
2.829707
 30
0.000000
  0
VERTEX
  8
MERGEDLAYER-2
 10
1.538467
 20
2.636870
 30
0.000000
  0
VERTEX
  8
MERGEDLAYER-2
 10
1.530800
 20
2.636870
 30
0.000000
  0
SEQEND
  8
MERGEDLAYER-2
  0
POLYLINE
  8
MERGEDLAYER-2
 66
  1
 70
  1
 62
  0
  0
VERTEX
  8
MERGEDLAYER-2
 10
1.538467
 20
2.983086
 30
0.000000
  0
VERTEX
  8
MERGEDLAYER-2
 10
1.546139
 20
2.983086
 30
0.000000
  0
VERTEX
  8
MERGEDLAYER-2
 10
1.546139
 20
2.790248
 30
0.000000
  0
VERTEX
  8
MERGEDLAYER-2
 10
1.538467
 20
2.790248
 30
0.000000
  0
SEQEND
  8
MERGEDLAYER-2
  0
POLYLINE
  8
MERGEDLAYER-2
 66
  1
 70
  1
 62
  0
  0
VERTEX
  8
MERGEDLAYER-2
 10
1.530800
 20
3.136466
 30
0.000000
  0
VERTEX
  8
MERGEDLAYER-2
 10
1.538467
 20
3.136466
 30
0.000000
  0
VERTEX
  8
MERGEDLAYER-2
 10
1.538467
 20
2.943627
 30
0.000000
  0
VERTEX
  8
MERGEDLAYER-2
 10
1.530800
 20
2.943627
 30
0.000000
  0
SEQEND
  8
MERGEDLAYER-2
  0
POLYLINE
  8
MERGEDLAYER-2
 66
  1
 70
  1
 62
  0
  0
VERTEX
  8
MERGEDLAYER-2
 10
1.538467
 20
3.289845
 30
0.000000
  0
VERTEX
  8
MERGEDLAYER-2
 10
1.546139
 20
3.289845
 30
0.000000
  0
VERTEX
  8
MERGEDLAYER-2
 10
1.546139
 20
3.097007
 30
0.000000
  0
VERTEX
  8
MERGEDLAYER-2
 10
1.538467
 20
3.097007
 30
0.000000
  0
SEQEND
  8
MERGEDLAYER-2
  0
POLYLINE
  8
MERGEDLAYER-2
 66
  1
 70
  1
 62
  0
  0
VERTEX
  8
MERGEDLAYER-2
 10
1.530800
 20
3.443225
 30
0.000000
  0
VERTEX
  8
MERGEDLAYER-2
 10
1.538467
 20
3.443225
 30
0.000000
  0
VERTEX
  8
MERGEDLAYER-2
 10
1.538467
 20
3.250387
 30
0.000000
  0
VERTEX
  8
MERGEDLAYER-2
 10
1.530800
 20
3.250387
 30
0.000000
  0
SEQEND
  8
MERGEDLAYER-2
  0
POLYLINE
  8
MERGEDLAYER-2
 66
  1
 70
  1
 62
  0
  0
VERTEX
  8
MERGEDLAYER-2
 10
1.538467
 20
3.902890
 30
0.000000
  0
VERTEX
  8
MERGEDLAYER-2
 10
1.546139
 20
3.902890
 30
0.000000
  0
VERTEX
  8
MERGEDLAYER-2
 10
1.546139
 20
3.710052
 30
0.000000
  0
VERTEX
  8
MERGEDLAYER-2
 10
1.538467
 20
3.710052
 30
0.000000
  0
SEQEND
  8
MERGEDLAYER-2
  0
POLYLINE
  8
MERGEDLAYER-2
 66
  1
 70
  1
 62
  0
  0
VERTEX
  8
MERGEDLAYER-2
 10
1.530800
 20
4.056269
 30
0.000000
  0
VERTEX
  8
MERGEDLAYER-2
 10
1.538467
 20
4.056269
 30
0.000000
  0
VERTEX
  8
MERGEDLAYER-2
 10
1.538467
 20
3.863442
 30
0.000000
  0
VERTEX
  8
MERGEDLAYER-2
 10
1.530800
 20
3.863442
 30
0.000000
  0
SEQEND
  8
MERGEDLAYER-2
  0
POLYLINE
  8
MERGEDLAYER-2
 66
  1
 70
  1
 62
  0
  0
VERTEX
  8
MERGEDLAYER-2
 10
1.538467
 20
4.209175
 30
0.000000
  0
VERTEX
  8
MERGEDLAYER-2
 10
1.546139
 20
4.209175
 30
0.000000
  0
VERTEX
  8
MERGEDLAYER-2
 10
1.546139
 20
4.016337
 30
0.000000
  0
VERTEX
  8
MERGEDLAYER-2
 10
1.538467
 20
4.016337
 30
0.000000
  0
SEQEND
  8
MERGEDLAYER-2
  0
POLYLINE
  8
MERGEDLAYER-2
 66
  1
 70
  1
 62
  0
  0
VERTEX
  8
MERGEDLAYER-2
 10
1.530800
 20
4.362554
 30
0.000000
  0
VERTEX
  8
MERGEDLAYER-2
 10
1.538467
 20
4.362554
 30
0.000000
  0
VERTEX
  8
MERGEDLAYER-2
 10
1.538467
 20
4.169727
 30
0.000000
  0
VERTEX
  8
MERGEDLAYER-2
 10
1.530800
 20
4.169727
 30
0.000000
  0
SEQEND
  8
MERGEDLAYER-2
  0
POLYLINE
  8
MERGEDLAYER-2
 66
  1
 70
  1
 62
  0
  0
VERTEX
  8
MERGEDLAYER-2
 10
1.538467
 20
4.515461
 30
0.000000
  0
VERTEX
  8
MERGEDLAYER-2
 10
1.546139
 20
4.515461
 30
0.000000
  0
VERTEX
  8
MERGEDLAYER-2
 10
1.546139
 20
4.322623
 30
0.000000
  0
VERTEX
  8
MERGEDLAYER-2
 10
1.538467
 20
4.322623
 30
0.000000
  0
SEQEND
  8
MERGEDLAYER-2
  0
POLYLINE
  8
MERGEDLAYER-2
 66
  1
 70
  1
 62
  0
  0
VERTEX
  8
MERGEDLAYER-2
 10
1.530800
 20
4.668841
 30
0.000000
  0
VERTEX
  8
MERGEDLAYER-2
 10
1.538467
 20
4.668841
 30
0.000000
  0
VERTEX
  8
MERGEDLAYER-2
 10
1.538467
 20
4.476014
 30
0.000000
  0
VERTEX
  8
MERGEDLAYER-2
 10
1.530800
 20
4.476014
 30
0.000000
  0
SEQEND
  8
MERGEDLAYER-2
  0
POLYLINE
  8
MERGEDLAYER-2
 66
  1
 70
  1
 62
  0
  0
VERTEX
  8
MERGEDLAYER-2
 10
1.538467
 20
4.821747
 30
0.000000
  0
VERTEX
  8
MERGEDLAYER-2
 10
1.546139
 20
4.821747
 30
0.000000
  0
VERTEX
  8
MERGEDLAYER-2
 10
1.546139
 20
4.628909
 30
0.000000
  0
VERTEX
  8
MERGEDLAYER-2
 10
1.538467
 20
4.628909
 30
0.000000
  0
SEQEND
  8
MERGEDLAYER-2
  0
POLYLINE
  8
MERGEDLAYER-2
 66
  1
 70
  1
 62
  0
  0
VERTEX
  8
MERGEDLAYER-2
 10
1.530800
 20
4.975127
 30
0.000000
  0
VERTEX
  8
MERGEDLAYER-2
 10
1.538467
 20
4.975127
 30
0.000000
  0
VERTEX
  8
MERGEDLAYER-2
 10
1.538467
 20
4.782299
 30
0.000000
  0
VERTEX
  8
MERGEDLAYER-2
 10
1.530800
 20
4.782299
 30
0.000000
  0
SEQEND
  8
MERGEDLAYER-2
  0
POLYLINE
  8
MERGEDLAYER-2
 66
  1
 70
  1
 62
  0
  0
VERTEX
  8
MERGEDLAYER-2
 10
1.538467
 20
5.128032
 30
0.000000
  0
VERTEX
  8
MERGEDLAYER-2
 10
1.546139
 20
5.128032
 30
0.000000
  0
VERTEX
  8
MERGEDLAYER-2
 10
1.546139
 20
4.935195
 30
0.000000
  0
VERTEX
  8
MERGEDLAYER-2
 10
1.538467
 20
4.935195
 30
0.000000
  0
SEQEND
  8
MERGEDLAYER-2
  0
POLYLINE
  8
MERGEDLAYER-2
 66
  1
 70
  1
 62
  0
  0
VERTEX
  8
MERGEDLAYER-2
 10
1.530800
 20
5.281412
 30
0.000000
  0
VERTEX
  8
MERGEDLAYER-2
 10
1.538467
 20
5.281412
 30
0.000000
  0
VERTEX
  8
MERGEDLAYER-2
 10
1.538467
 20
5.088585
 30
0.000000
  0
VERTEX
  8
MERGEDLAYER-2
 10
1.530800
 20
5.088585
 30
0.000000
  0
SEQEND
  8
MERGEDLAYER-2
  0
CIRCLE
  8
MERGEDLAYER-2
 62
  0
 10
3.776728
 20
0.424279
 30
0.000000
 40
0.064283
  0
CIRCLE
  8
MERGEDLAYER-2
 62
  7
 10
3.776487
 20
0.424279
 30
0.000000
 40
0.047124
  0
CIRCLE
  8
MERGEDLAYER-2
 62
  0
 10
3.776487
 20
0.424279
 30
0.000000
 40
0.042287
  0
CIRCLE
  8
MERGEDLAYER-2
 62
  0
 10
3.759691
 20
0.424279
 30
0.000000
 40
0.018794
  0
CIRCLE
  8
MERGEDLAYER-2
 62
  0
 10
3.751656
 20
0.424279
 30
0.000000
 40
0.008035
  0
TEXT
  8
MERGEDLAYER-2
 62
  0
 10
3.777778
 20
0.447919
 30
0.000000
 40
0.010417
  1
MobilFlex
 50
270.000000
 72
  5
 11
3.777778
 21
0.295141
 31
0.000000
  0
POLYLINE
  8
MERGEDLAYER-2
 66
  1
 70
  1
 62
  0
 10
3.741445
 20
0.427905
 30
0.000000
  0
VERTEX
  8
MERGEDLAYER-2
 10
3.741445
 20
0.427905
 30
0.000000
  0
VERTEX
  8
MERGEDLAYER-2
 10
3.750146
 20
0.427905
 30
0.000000
  0
VERTEX
  8
MERGEDLAYER-2
 10
3.750146
 20
0.424522
 30
0.000000
  0
VERTEX
  8
MERGEDLAYER-2
 10
3.753529
 20
0.424522
 30
0.000000
  0
VERTEX
  8
MERGEDLAYER-2
 10
3.757154
 20
0.428145
 30
0.000000
  0
VERTEX
  8
MERGEDLAYER-2
 10
3.759570
 20
0.428145
 30
0.000000
  0
VERTEX
  8
MERGEDLAYER-2
 10
3.766821
 20
0.425729
 30
0.000000
  0
VERTEX
  8
MERGEDLAYER-2
 10
3.766821
 20
0.422587
 30
0.000000
  0
VERTEX
  8
MERGEDLAYER-2
 10
3.761503
 20
0.423312
 30
0.000000
  0
VERTEX
  8
MERGEDLAYER-2
 10
3.759570
 20
0.423070
 30
0.000000
  0
VERTEX
  8
MERGEDLAYER-2
 10
3.759570
 20
0.421621
 30
0.000000
  0
VERTEX
  8
MERGEDLAYER-2
 10
3.747246
 20
0.421621
 30
0.000000
  0
VERTEX
  8
MERGEDLAYER-2
 10
3.746037
 20
0.424279
 30
0.000000
  0
VERTEX
  8
MERGEDLAYER-2
 10
3.743621
 20
0.424279
 30
0.000000
  0
VERTEX
  8
MERGEDLAYER-2
 10
3.743137
 20
0.421621
 30
0.000000
  0
VERTEX
  8
MERGEDLAYER-2
 10
3.741445
 20
0.421621
 30
0.000000
  0
SEQEND
  8
MERGEDLAYER-2
  0
TEXT
  8
MERGEDLAYER-2
 62
  0
 10
5.819444
 20
5.350697
 30
0.000000
 40
0.125000
  1
Guide
 72
  5
 11
6.347222
 21
5.350697
 31
0.000000
  0
TEXT
  8
MERGEDLAYER-2
 62
  0
 10
5.819444
 20
0.086808
 30
0.000000
 40
0.125000
  1
Bottom bar
 72
  5
 11
6.722222
 21
0.086808
 31
0.000000
  0
POLYLINE
  8
MERGEDLAYER-2
 66
  1
 70
  0
 62
  0
 10
6.312500
 20
5.402780
 30
0.000000
  0
VERTEX
  8
MERGEDLAYER-2
 10
6.312500
 20
5.402780
 30
0.000000
  0
VERTEX
  8
MERGEDLAYER-2
 10
6.552294
 20
5.283370
 30
0.000000
  0
SEQEND
  8
MERGEDLAYER-2
  0
POLYLINE
  8
MERGEDLAYER-2
 66
  1
 70
  1
 62
  0
  0
VERTEX
  8
MERGEDLAYER-2
 10
6.569915
 20
5.274595
 30
0.000000
  0
VERTEX
  8
MERGEDLAYER-2
 10
6.489179
 20
5.268253
 30
0.000000
  0
VERTEX
  8
MERGEDLAYER-2
 10
6.507752
 20
5.305551
 30
0.000000
  0
VERTEX
  8
MERGEDLAYER-2
 10
6.526326
 20
5.342849
 30
0.000000
  0
VERTEX
  8
MERGEDLAYER-2
 10
6.569915
 20
5.274595
 30
0.000000
  0
SEQEND
  8
MERGEDLAYER-2
  0
POLYLINE
  8
MERGEDLAYER-2
 66
  1
 70
  0
 62
  0
 10
3.138889
 20
0.166669
 30
0.000000
  0
VERTEX
  8
MERGEDLAYER-2
 10
3.138889
 20
0.166669
 30
0.000000
  0
VERTEX
  8
MERGEDLAYER-2
 10
3.524462
 20
0.355635
 30
0.000000
  0
SEQEND
  8
MERGEDLAYER-2
  0
POLYLINE
  8
MERGEDLAYER-2
 66
  1
 70
  1
 62
  0
  0
VERTEX
  8
MERGEDLAYER-2
 10
3.542138
 20
0.364299
 30
0.000000
  0
VERTEX
  8
MERGEDLAYER-2
 10
3.498117
 20
0.296322
 30
0.000000
  0
VERTEX
  8
MERGEDLAYER-2
 10
3.479780
 20
0.333737
 30
0.000000
  0
VERTEX
  8
MERGEDLAYER-2
 10
3.461443
 20
0.371151
 30
0.000000
  0
VERTEX
  8
MERGEDLAYER-2
 10
3.542138
 20
0.364299
 30
0.000000
  0
SEQEND
  8
MERGEDLAYER-2
  0
TEXT
  8
MERGEDLAYER-2
 62
  0
 10
2.569444
 20
0.086808
 30
0.000000
 40
0.125000
  1
Handle
 72
  5
 11
3.194444
 21
0.086808
 31
0.000000
  0
TEXT
  8
MERGEDLAYER-2
 62
  0
 10
3.972222
 20
0.086808
 30
0.000000
 40
0.125000
  1
Cylinder lock
 72
  5
 11
5.013889
 21
0.086808
 31
0.000000
  0
POLYLINE
  8
MERGEDLAYER-2
 66
  1
 70
  0
 62
  0
 10
3.944445
 20
0.142362
 30
0.000000
  0
VERTEX
  8
MERGEDLAYER-2
 10
3.944445
 20
0.142362
 30
0.000000
  0
VERTEX
  8
MERGEDLAYER-2
 10
3.789951
 20
0.338697
 30
0.000000
  0
SEQEND
  8
MERGEDLAYER-2
  0
POLYLINE
  8
MERGEDLAYER-2
 66
  1
 70
  1
 62
  0
  0
VERTEX
  8
MERGEDLAYER-2
 10
3.777779
 20
0.354168
 30
0.000000
  0
VERTEX
  8
MERGEDLAYER-2
 10
3.853467
 20
0.325360
 30
0.000000
  0
VERTEX
  8
MERGEDLAYER-2
 10
3.820723
 20
0.299594
 30
0.000000
  0
VERTEX
  8
MERGEDLAYER-2
 10
3.787978
 20
0.273827
 30
0.000000
  0
VERTEX
  8
MERGEDLAYER-2
 10
3.777779
 20
0.354168
 30
0.000000
  0
SEQEND
  8
MERGEDLAYER-2
  0
POLYLINE
  8
MERGEDLAYER-2
 66
  1
 70
  0
 62
  0
 10
5.788666
 20
0.153068
 30
0.000000
  0
VERTEX
  8
MERGEDLAYER-2
 10
5.788666
 20
0.153068
 30
0.000000
  0
VERTEX
  8
MERGEDLAYER-2
 10
5.548871
 20
0.272479
 30
0.000000
  0
SEQEND
  8
MERGEDLAYER-2
  0
POLYLINE
  8
MERGEDLAYER-2
 66
  1
 70
  1
 62
  0
  0
VERTEX
  8
MERGEDLAYER-2
 10
5.531250
 20
0.281253
 30
0.000000
  0
VERTEX
  8
MERGEDLAYER-2
 10
5.611986
 20
0.287597
 30
0.000000
  0
VERTEX
  8
MERGEDLAYER-2
 10
5.593413
 20
0.250298
 30
0.000000
  0
VERTEX
  8
MERGEDLAYER-2
 10
5.574840
 20
0.213000
 30
0.000000
  0
VERTEX
  8
MERGEDLAYER-2
 10
5.531250
 20
0.281253
 30
0.000000
  0
SEQEND
  8
MERGEDLAYER-2
  0
POLYLINE
  8
MERGEDLAYER-2
 66
  1
 70
  1
 62
  0
  0
VERTEX
  8
MERGEDLAYER-2
 10
2.098267
 20
3.596605
 30
0.000000
  0
VERTEX
  8
MERGEDLAYER-2
 10
2.105939
 20
3.596605
 30
0.000000
  0
VERTEX
  8
MERGEDLAYER-2
 10
2.105939
 20
3.403766
 30
0.000000
  0
VERTEX
  8
MERGEDLAYER-2
 10
2.098267
 20
3.403766
 30
0.000000
  0
SEQEND
  8
MERGEDLAYER-2
  0
POLYLINE
  8
MERGEDLAYER-2
 66
  1
 70
  1
 62
  0
  0
VERTEX
  8
MERGEDLAYER-2
 10
2.090600
 20
3.749984
 30
0.000000
  0
VERTEX
  8
MERGEDLAYER-2
 10
2.098267
 20
3.749984
 30
0.000000
  0
VERTEX
  8
MERGEDLAYER-2
 10
2.098267
 20
3.557156
 30
0.000000
  0
VERTEX
  8
MERGEDLAYER-2
 10
2.090600
 20
3.557156
 30
0.000000
  0
SEQEND
  8
MERGEDLAYER-2
  0
POLYLINE
  8
MERGEDLAYER-2
 66
  1
 70
  1
 62
  0
  0
VERTEX
  8
MERGEDLAYER-2
 10
2.090600
 20
0.682184
 30
0.000000
  0
VERTEX
  8
MERGEDLAYER-2
 10
2.098267
 20
0.682184
 30
0.000000
  0
VERTEX
  8
MERGEDLAYER-2
 10
2.098267
 20
0.501579
 30
0.000000
  0
VERTEX
  8
MERGEDLAYER-2
 10
2.090600
 20
0.501579
 30
0.000000
  0
SEQEND
  8
MERGEDLAYER-2
  0
POLYLINE
  8
MERGEDLAYER-2
 66
  1
 70
  1
 62
  0
  0
VERTEX
  8
MERGEDLAYER-2
 10
2.098267
 20
0.835776
 30
0.000000
  0
VERTEX
  8
MERGEDLAYER-2
 10
2.105939
 20
0.835776
 30
0.000000
  0
VERTEX
  8
MERGEDLAYER-2
 10
2.105939
 20
0.642937
 30
0.000000
  0
VERTEX
  8
MERGEDLAYER-2
 10
2.098267
 20
0.642937
 30
0.000000
  0
SEQEND
  8
MERGEDLAYER-2
  0
POLYLINE
  8
MERGEDLAYER-2
 66
  1
 70
  1
 62
  0
  0
VERTEX
  8
MERGEDLAYER-2
 10
2.090600
 20
0.989155
 30
0.000000
  0
VERTEX
  8
MERGEDLAYER-2
 10
2.098267
 20
0.989155
 30
0.000000
  0
VERTEX
  8
MERGEDLAYER-2
 10
2.098267
 20
0.796316
 30
0.000000
  0
VERTEX
  8
MERGEDLAYER-2
 10
2.090600
 20
0.796316
 30
0.000000
  0
SEQEND
  8
MERGEDLAYER-2
  0
POLYLINE
  8
MERGEDLAYER-2
 66
  1
 70
  1
 62
  0
  0
VERTEX
  8
MERGEDLAYER-2
 10
2.098267
 20
1.142535
 30
0.000000
  0
VERTEX
  8
MERGEDLAYER-2
 10
2.105939
 20
1.142535
 30
0.000000
  0
VERTEX
  8
MERGEDLAYER-2
 10
2.105939
 20
0.949697
 30
0.000000
  0
VERTEX
  8
MERGEDLAYER-2
 10
2.098267
 20
0.949697
 30
0.000000
  0
SEQEND
  8
MERGEDLAYER-2
  0
POLYLINE
  8
MERGEDLAYER-2
 66
  1
 70
  1
 62
  0
  0
VERTEX
  8
MERGEDLAYER-2
 10
2.090600
 20
1.295913
 30
0.000000
  0
VERTEX
  8
MERGEDLAYER-2
 10
2.098267
 20
1.295913
 30
0.000000
  0
VERTEX
  8
MERGEDLAYER-2
 10
2.098267
 20
1.103077
 30
0.000000
  0
VERTEX
  8
MERGEDLAYER-2
 10
2.090600
 20
1.103077
 30
0.000000
  0
SEQEND
  8
MERGEDLAYER-2
  0
POLYLINE
  8
MERGEDLAYER-2
 66
  1
 70
  1
 62
  0
  0
VERTEX
  8
MERGEDLAYER-2
 10
2.098267
 20
1.449296
 30
0.000000
  0
VERTEX
  8
MERGEDLAYER-2
 10
2.105939
 20
1.449296
 30
0.000000
  0
VERTEX
  8
MERGEDLAYER-2
 10
2.105939
 20
1.256454
 30
0.000000
  0
VERTEX
  8
MERGEDLAYER-2
 10
2.098267
 20
1.256454
 30
0.000000
  0
SEQEND
  8
MERGEDLAYER-2
  0
POLYLINE
  8
MERGEDLAYER-2
 66
  1
 70
  1
 62
  0
  0
VERTEX
  8
MERGEDLAYER-2
 10
2.090600
 20
1.602673
 30
0.000000
  0
VERTEX
  8
MERGEDLAYER-2
 10
2.098267
 20
1.602673
 30
0.000000
  0
VERTEX
  8
MERGEDLAYER-2
 10
2.098267
 20
1.409835
 30
0.000000
  0
VERTEX
  8
MERGEDLAYER-2
 10
2.090600
 20
1.409835
 30
0.000000
  0
SEQEND
  8
MERGEDLAYER-2
  0
POLYLINE
  8
MERGEDLAYER-2
 66
  1
 70
  1
 62
  0
  0
VERTEX
  8
MERGEDLAYER-2
 10
2.098267
 20
1.756054
 30
0.000000
  0
VERTEX
  8
MERGEDLAYER-2
 10
2.105939
 20
1.756054
 30
0.000000
  0
VERTEX
  8
MERGEDLAYER-2
 10
2.105939
 20
1.563211
 30
0.000000
  0
VERTEX
  8
MERGEDLAYER-2
 10
2.098267
 20
1.563211
 30
0.000000
  0
SEQEND
  8
MERGEDLAYER-2
  0
POLYLINE
  8
MERGEDLAYER-2
 66
  1
 70
  1
 62
  0
  0
VERTEX
  8
MERGEDLAYER-2
 10
2.090600
 20
1.909434
 30
0.000000
  0
VERTEX
  8
MERGEDLAYER-2
 10
2.098267
 20
1.909434
 30
0.000000
  0
VERTEX
  8
MERGEDLAYER-2
 10
2.098267
 20
1.716593
 30
0.000000
  0
VERTEX
  8
MERGEDLAYER-2
 10
2.090600
 20
1.716593
 30
0.000000
  0
SEQEND
  8
MERGEDLAYER-2
  0
POLYLINE
  8
MERGEDLAYER-2
 66
  1
 70
  1
 62
  0
  0
VERTEX
  8
MERGEDLAYER-2
 10
2.098267
 20
2.062810
 30
0.000000
  0
VERTEX
  8
MERGEDLAYER-2
 10
2.105939
 20
2.062810
 30
0.000000
  0
VERTEX
  8
MERGEDLAYER-2
 10
2.105939
 20
1.869972
 30
0.000000
  0
VERTEX
  8
MERGEDLAYER-2
 10
2.098267
 20
1.869972
 30
0.000000
  0
SEQEND
  8
MERGEDLAYER-2
  0
POLYLINE
  8
MERGEDLAYER-2
 66
  1
 70
  1
 62
  0
  0
VERTEX
  8
MERGEDLAYER-2
 10
2.090600
 20
2.216192
 30
0.000000
  0
VERTEX
  8
MERGEDLAYER-2
 10
2.098267
 20
2.216192
 30
0.000000
  0
VERTEX
  8
MERGEDLAYER-2
 10
2.098267
 20
2.023350
 30
0.000000
  0
VERTEX
  8
MERGEDLAYER-2
 10
2.090600
 20
2.023350
 30
0.000000
  0
SEQEND
  8
MERGEDLAYER-2
  0
POLYLINE
  8
MERGEDLAYER-2
 66
  1
 70
  1
 62
  0
  0
VERTEX
  8
MERGEDLAYER-2
 10
2.098267
 20
2.369570
 30
0.000000
  0
VERTEX
  8
MERGEDLAYER-2
 10
2.105939
 20
2.369570
 30
0.000000
  0
VERTEX
  8
MERGEDLAYER-2
 10
2.105939
 20
2.176730
 30
0.000000
  0
VERTEX
  8
MERGEDLAYER-2
 10
2.098267
 20
2.176730
 30
0.000000
  0
SEQEND
  8
MERGEDLAYER-2
  0
POLYLINE
  8
MERGEDLAYER-2
 66
  1
 70
  1
 62
  0
  0
VERTEX
  8
MERGEDLAYER-2
 10
2.090600
 20
2.522951
 30
0.000000
  0
VERTEX
  8
MERGEDLAYER-2
 10
2.098267
 20
2.522951
 30
0.000000
  0
VERTEX
  8
MERGEDLAYER-2
 10
2.098267
 20
2.330111
 30
0.000000
  0
VERTEX
  8
MERGEDLAYER-2
 10
2.090600
 20
2.330111
 30
0.000000
  0
SEQEND
  8
MERGEDLAYER-2
  0
POLYLINE
  8
MERGEDLAYER-2
 66
  1
 70
  1
 62
  0
  0
VERTEX
  8
MERGEDLAYER-2
 10
2.098267
 20
2.676328
 30
0.000000
  0
VERTEX
  8
MERGEDLAYER-2
 10
2.105939
 20
2.676328
 30
0.000000
  0
VERTEX
  8
MERGEDLAYER-2
 10
2.105939
 20
2.483492
 30
0.000000
  0
VERTEX
  8
MERGEDLAYER-2
 10
2.098267
 20
2.483492
 30
0.000000
  0
SEQEND
  8
MERGEDLAYER-2
  0
POLYLINE
  8
MERGEDLAYER-2
 66
  1
 70
  1
 62
  0
  0
VERTEX
  8
MERGEDLAYER-2
 10
2.090600
 20
2.829707
 30
0.000000
  0
VERTEX
  8
MERGEDLAYER-2
 10
2.098267
 20
2.829707
 30
0.000000
  0
VERTEX
  8
MERGEDLAYER-2
 10
2.098267
 20
2.636870
 30
0.000000
  0
VERTEX
  8
MERGEDLAYER-2
 10
2.090600
 20
2.636870
 30
0.000000
  0
SEQEND
  8
MERGEDLAYER-2
  0
POLYLINE
  8
MERGEDLAYER-2
 66
  1
 70
  1
 62
  0
  0
VERTEX
  8
MERGEDLAYER-2
 10
2.098267
 20
2.983086
 30
0.000000
  0
VERTEX
  8
MERGEDLAYER-2
 10
2.105939
 20
2.983086
 30
0.000000
  0
VERTEX
  8
MERGEDLAYER-2
 10
2.105939
 20
2.790248
 30
0.000000
  0
VERTEX
  8
MERGEDLAYER-2
 10
2.098267
 20
2.790248
 30
0.000000
  0
SEQEND
  8
MERGEDLAYER-2
  0
POLYLINE
  8
MERGEDLAYER-2
 66
  1
 70
  1
 62
  0
  0
VERTEX
  8
MERGEDLAYER-2
 10
2.090600
 20
3.136466
 30
0.000000
  0
VERTEX
  8
MERGEDLAYER-2
 10
2.098267
 20
3.136466
 30
0.000000
  0
VERTEX
  8
MERGEDLAYER-2
 10
2.098267
 20
2.943627
 30
0.000000
  0
VERTEX
  8
MERGEDLAYER-2
 10
2.090600
 20
2.943627
 30
0.000000
  0
SEQEND
  8
MERGEDLAYER-2
  0
POLYLINE
  8
MERGEDLAYER-2
 66
  1
 70
  1
 62
  0
  0
VERTEX
  8
MERGEDLAYER-2
 10
2.098267
 20
3.289845
 30
0.000000
  0
VERTEX
  8
MERGEDLAYER-2
 10
2.105939
 20
3.289845
 30
0.000000
  0
VERTEX
  8
MERGEDLAYER-2
 10
2.105939
 20
3.097007
 30
0.000000
  0
VERTEX
  8
MERGEDLAYER-2
 10
2.098267
 20
3.097007
 30
0.000000
  0
SEQEND
  8
MERGEDLAYER-2
  0
POLYLINE
  8
MERGEDLAYER-2
 66
  1
 70
  1
 62
  0
  0
VERTEX
  8
MERGEDLAYER-2
 10
2.090600
 20
3.443225
 30
0.000000
  0
VERTEX
  8
MERGEDLAYER-2
 10
2.098267
 20
3.443225
 30
0.000000
  0
VERTEX
  8
MERGEDLAYER-2
 10
2.098267
 20
3.250387
 30
0.000000
  0
VERTEX
  8
MERGEDLAYER-2
 10
2.090600
 20
3.250387
 30
0.000000
  0
SEQEND
  8
MERGEDLAYER-2
  0
POLYLINE
  8
MERGEDLAYER-2
 66
  1
 70
  1
 62
  0
  0
VERTEX
  8
MERGEDLAYER-2
 10
2.098267
 20
3.902890
 30
0.000000
  0
VERTEX
  8
MERGEDLAYER-2
 10
2.105939
 20
3.902890
 30
0.000000
  0
VERTEX
  8
MERGEDLAYER-2
 10
2.105939
 20
3.710052
 30
0.000000
  0
VERTEX
  8
MERGEDLAYER-2
 10
2.098267
 20
3.710052
 30
0.000000
  0
SEQEND
  8
MERGEDLAYER-2
  0
POLYLINE
  8
MERGEDLAYER-2
 66
  1
 70
  1
 62
  0
  0
VERTEX
  8
MERGEDLAYER-2
 10
2.090600
 20
4.056269
 30
0.000000
  0
VERTEX
  8
MERGEDLAYER-2
 10
2.098267
 20
4.056269
 30
0.000000
  0
VERTEX
  8
MERGEDLAYER-2
 10
2.098267
 20
3.863442
 30
0.000000
  0
VERTEX
  8
MERGEDLAYER-2
 10
2.090600
 20
3.863442
 30
0.000000
  0
SEQEND
  8
MERGEDLAYER-2
  0
POLYLINE
  8
MERGEDLAYER-2
 66
  1
 70
  1
 62
  0
  0
VERTEX
  8
MERGEDLAYER-2
 10
2.098267
 20
4.209175
 30
0.000000
  0
VERTEX
  8
MERGEDLAYER-2
 10
2.105939
 20
4.209175
 30
0.000000
  0
VERTEX
  8
MERGEDLAYER-2
 10
2.105939
 20
4.016337
 30
0.000000
  0
VERTEX
  8
MERGEDLAYER-2
 10
2.098267
 20
4.016337
 30
0.000000
  0
SEQEND
  8
MERGEDLAYER-2
  0
POLYLINE
  8
MERGEDLAYER-2
 66
  1
 70
  1
 62
  0
  0
VERTEX
  8
MERGEDLAYER-2
 10
2.090600
 20
4.362554
 30
0.000000
  0
VERTEX
  8
MERGEDLAYER-2
 10
2.098267
 20
4.362554
 30
0.000000
  0
VERTEX
  8
MERGEDLAYER-2
 10
2.098267
 20
4.169727
 30
0.000000
  0
VERTEX
  8
MERGEDLAYER-2
 10
2.090600
 20
4.169727
 30
0.000000
  0
SEQEND
  8
MERGEDLAYER-2
  0
POLYLINE
  8
MERGEDLAYER-2
 66
  1
 70
  1
 62
  0
  0
VERTEX
  8
MERGEDLAYER-2
 10
2.098267
 20
4.515461
 30
0.000000
  0
VERTEX
  8
MERGEDLAYER-2
 10
2.105939
 20
4.515461
 30
0.000000
  0
VERTEX
  8
MERGEDLAYER-2
 10
2.105939
 20
4.322623
 30
0.000000
  0
VERTEX
  8
MERGEDLAYER-2
 10
2.098267
 20
4.322623
 30
0.000000
  0
SEQEND
  8
MERGEDLAYER-2
  0
POLYLINE
  8
MERGEDLAYER-2
 66
  1
 70
  1
 62
  0
  0
VERTEX
  8
MERGEDLAYER-2
 10
2.090600
 20
4.668841
 30
0.000000
  0
VERTEX
  8
MERGEDLAYER-2
 10
2.098267
 20
4.668841
 30
0.000000
  0
VERTEX
  8
MERGEDLAYER-2
 10
2.098267
 20
4.476014
 30
0.000000
  0
VERTEX
  8
MERGEDLAYER-2
 10
2.090600
 20
4.476014
 30
0.000000
  0
SEQEND
  8
MERGEDLAYER-2
  0
POLYLINE
  8
MERGEDLAYER-2
 66
  1
 70
  1
 62
  0
  0
VERTEX
  8
MERGEDLAYER-2
 10
2.098267
 20
4.821747
 30
0.000000
  0
VERTEX
  8
MERGEDLAYER-2
 10
2.105939
 20
4.821747
 30
0.000000
  0
VERTEX
  8
MERGEDLAYER-2
 10
2.105939
 20
4.628909
 30
0.000000
  0
VERTEX
  8
MERGEDLAYER-2
 10
2.098267
 20
4.628909
 30
0.000000
  0
SEQEND
  8
MERGEDLAYER-2
  0
POLYLINE
  8
MERGEDLAYER-2
 66
  1
 70
  1
 62
  0
  0
VERTEX
  8
MERGEDLAYER-2
 10
2.090600
 20
4.975127
 30
0.000000
  0
VERTEX
  8
MERGEDLAYER-2
 10
2.098267
 20
4.975127
 30
0.000000
  0
VERTEX
  8
MERGEDLAYER-2
 10
2.098267
 20
4.782299
 30
0.000000
  0
VERTEX
  8
MERGEDLAYER-2
 10
2.090600
 20
4.782299
 30
0.000000
  0
SEQEND
  8
MERGEDLAYER-2
  0
POLYLINE
  8
MERGEDLAYER-2
 66
  1
 70
  1
 62
  0
  0
VERTEX
  8
MERGEDLAYER-2
 10
2.098267
 20
5.128032
 30
0.000000
  0
VERTEX
  8
MERGEDLAYER-2
 10
2.105939
 20
5.128032
 30
0.000000
  0
VERTEX
  8
MERGEDLAYER-2
 10
2.105939
 20
4.935195
 30
0.000000
  0
VERTEX
  8
MERGEDLAYER-2
 10
2.098267
 20
4.935195
 30
0.000000
  0
SEQEND
  8
MERGEDLAYER-2
  0
POLYLINE
  8
MERGEDLAYER-2
 66
  1
 70
  1
 62
  0
  0
VERTEX
  8
MERGEDLAYER-2
 10
2.090600
 20
5.281412
 30
0.000000
  0
VERTEX
  8
MERGEDLAYER-2
 10
2.098267
 20
5.281412
 30
0.000000
  0
VERTEX
  8
MERGEDLAYER-2
 10
2.098267
 20
5.088585
 30
0.000000
  0
VERTEX
  8
MERGEDLAYER-2
 10
2.090600
 20
5.088585
 30
0.000000
  0
SEQEND
  8
MERGEDLAYER-2
  0
POLYLINE
  8
MERGEDLAYER-2
 66
  1
 70
  1
 62
  0
  0
VERTEX
  8
MERGEDLAYER-2
 10
2.658067
 20
3.596605
 30
0.000000
  0
VERTEX
  8
MERGEDLAYER-2
 10
2.665739
 20
3.596605
 30
0.000000
  0
VERTEX
  8
MERGEDLAYER-2
 10
2.665739
 20
3.403766
 30
0.000000
  0
VERTEX
  8
MERGEDLAYER-2
 10
2.658067
 20
3.403766
 30
0.000000
  0
SEQEND
  8
MERGEDLAYER-2
  0
POLYLINE
  8
MERGEDLAYER-2
 66
  1
 70
  1
 62
  0
  0
VERTEX
  8
MERGEDLAYER-2
 10
2.650401
 20
3.749984
 30
0.000000
  0
VERTEX
  8
MERGEDLAYER-2
 10
2.658067
 20
3.749984
 30
0.000000
  0
VERTEX
  8
MERGEDLAYER-2
 10
2.658067
 20
3.557156
 30
0.000000
  0
VERTEX
  8
MERGEDLAYER-2
 10
2.650401
 20
3.557156
 30
0.000000
  0
SEQEND
  8
MERGEDLAYER-2
  0
POLYLINE
  8
MERGEDLAYER-2
 66
  1
 70
  1
 62
  0
  0
VERTEX
  8
MERGEDLAYER-2
 10
2.650401
 20
0.682184
 30
0.000000
  0
VERTEX
  8
MERGEDLAYER-2
 10
2.658067
 20
0.682184
 30
0.000000
  0
VERTEX
  8
MERGEDLAYER-2
 10
2.658067
 20
0.501579
 30
0.000000
  0
VERTEX
  8
MERGEDLAYER-2
 10
2.650401
 20
0.501579
 30
0.000000
  0
SEQEND
  8
MERGEDLAYER-2
  0
POLYLINE
  8
MERGEDLAYER-2
 66
  1
 70
  1
 62
  0
  0
VERTEX
  8
MERGEDLAYER-2
 10
2.658067
 20
0.835776
 30
0.000000
  0
VERTEX
  8
MERGEDLAYER-2
 10
2.665739
 20
0.835776
 30
0.000000
  0
VERTEX
  8
MERGEDLAYER-2
 10
2.665739
 20
0.642937
 30
0.000000
  0
VERTEX
  8
MERGEDLAYER-2
 10
2.658067
 20
0.642937
 30
0.000000
  0
SEQEND
  8
MERGEDLAYER-2
  0
POLYLINE
  8
MERGEDLAYER-2
 66
  1
 70
  1
 62
  0
  0
VERTEX
  8
MERGEDLAYER-2
 10
2.650401
 20
0.989155
 30
0.000000
  0
VERTEX
  8
MERGEDLAYER-2
 10
2.658067
 20
0.989155
 30
0.000000
  0
VERTEX
  8
MERGEDLAYER-2
 10
2.658067
 20
0.796316
 30
0.000000
  0
VERTEX
  8
MERGEDLAYER-2
 10
2.650401
 20
0.796316
 30
0.000000
  0
SEQEND
  8
MERGEDLAYER-2
  0
POLYLINE
  8
MERGEDLAYER-2
 66
  1
 70
  1
 62
  0
  0
VERTEX
  8
MERGEDLAYER-2
 10
2.658067
 20
1.142535
 30
0.000000
  0
VERTEX
  8
MERGEDLAYER-2
 10
2.665739
 20
1.142535
 30
0.000000
  0
VERTEX
  8
MERGEDLAYER-2
 10
2.665739
 20
0.949697
 30
0.000000
  0
VERTEX
  8
MERGEDLAYER-2
 10
2.658067
 20
0.949697
 30
0.000000
  0
SEQEND
  8
MERGEDLAYER-2
  0
POLYLINE
  8
MERGEDLAYER-2
 66
  1
 70
  1
 62
  0
  0
VERTEX
  8
MERGEDLAYER-2
 10
2.650401
 20
1.295913
 30
0.000000
  0
VERTEX
  8
MERGEDLAYER-2
 10
2.658067
 20
1.295913
 30
0.000000
  0
VERTEX
  8
MERGEDLAYER-2
 10
2.658067
 20
1.103077
 30
0.000000
  0
VERTEX
  8
MERGEDLAYER-2
 10
2.650401
 20
1.103077
 30
0.000000
  0
SEQEND
  8
MERGEDLAYER-2
  0
POLYLINE
  8
MERGEDLAYER-2
 66
  1
 70
  1
 62
  0
  0
VERTEX
  8
MERGEDLAYER-2
 10
2.658067
 20
1.449296
 30
0.000000
  0
VERTEX
  8
MERGEDLAYER-2
 10
2.665739
 20
1.449296
 30
0.000000
  0
VERTEX
  8
MERGEDLAYER-2
 10
2.665739
 20
1.256454
 30
0.000000
  0
VERTEX
  8
MERGEDLAYER-2
 10
2.658067
 20
1.256454
 30
0.000000
  0
SEQEND
  8
MERGEDLAYER-2
  0
POLYLINE
  8
MERGEDLAYER-2
 66
  1
 70
  1
 62
  0
  0
VERTEX
  8
MERGEDLAYER-2
 10
2.650401
 20
1.602673
 30
0.000000
  0
VERTEX
  8
MERGEDLAYER-2
 10
2.658067
 20
1.602673
 30
0.000000
  0
VERTEX
  8
MERGEDLAYER-2
 10
2.658067
 20
1.409835
 30
0.000000
  0
VERTEX
  8
MERGEDLAYER-2
 10
2.650401
 20
1.409835
 30
0.000000
  0
SEQEND
  8
MERGEDLAYER-2
  0
POLYLINE
  8
MERGEDLAYER-2
 66
  1
 70
  1
 62
  0
  0
VERTEX
  8
MERGEDLAYER-2
 10
2.658067
 20
1.756054
 30
0.000000
  0
VERTEX
  8
MERGEDLAYER-2
 10
2.665739
 20
1.756054
 30
0.000000
  0
VERTEX
  8
MERGEDLAYER-2
 10
2.665739
 20
1.563211
 30
0.000000
  0
VERTEX
  8
MERGEDLAYER-2
 10
2.658067
 20
1.563211
 30
0.000000
  0
SEQEND
  8
MERGEDLAYER-2
  0
POLYLINE
  8
MERGEDLAYER-2
 66
  1
 70
  1
 62
  0
  0
VERTEX
  8
MERGEDLAYER-2
 10
2.650401
 20
1.909434
 30
0.000000
  0
VERTEX
  8
MERGEDLAYER-2
 10
2.658067
 20
1.909434
 30
0.000000
  0
VERTEX
  8
MERGEDLAYER-2
 10
2.658067
 20
1.716593
 30
0.000000
  0
VERTEX
  8
MERGEDLAYER-2
 10
2.650401
 20
1.716593
 30
0.000000
  0
SEQEND
  8
MERGEDLAYER-2
  0
POLYLINE
  8
MERGEDLAYER-2
 66
  1
 70
  1
 62
  0
  0
VERTEX
  8
MERGEDLAYER-2
 10
2.658067
 20
2.062810
 30
0.000000
  0
VERTEX
  8
MERGEDLAYER-2
 10
2.665739
 20
2.062810
 30
0.000000
  0
VERTEX
  8
MERGEDLAYER-2
 10
2.665739
 20
1.869972
 30
0.000000
  0
VERTEX
  8
MERGEDLAYER-2
 10
2.658067
 20
1.869972
 30
0.000000
  0
SEQEND
  8
MERGEDLAYER-2
  0
POLYLINE
  8
MERGEDLAYER-2
 66
  1
 70
  1
 62
  0
  0
VERTEX
  8
MERGEDLAYER-2
 10
2.650401
 20
2.216192
 30
0.000000
  0
VERTEX
  8
MERGEDLAYER-2
 10
2.658067
 20
2.216192
 30
0.000000
  0
VERTEX
  8
MERGEDLAYER-2
 10
2.658067
 20
2.023350
 30
0.000000
  0
VERTEX
  8
MERGEDLAYER-2
 10
2.650401
 20
2.023350
 30
0.000000
  0
SEQEND
  8
MERGEDLAYER-2
  0
POLYLINE
  8
MERGEDLAYER-2
 66
  1
 70
  1
 62
  0
  0
VERTEX
  8
MERGEDLAYER-2
 10
2.658067
 20
2.369570
 30
0.000000
  0
VERTEX
  8
MERGEDLAYER-2
 10
2.665739
 20
2.369570
 30
0.000000
  0
VERTEX
  8
MERGEDLAYER-2
 10
2.665739
 20
2.176730
 30
0.000000
  0
VERTEX
  8
MERGEDLAYER-2
 10
2.658067
 20
2.176730
 30
0.000000
  0
SEQEND
  8
MERGEDLAYER-2
  0
POLYLINE
  8
MERGEDLAYER-2
 66
  1
 70
  1
 62
  0
  0
VERTEX
  8
MERGEDLAYER-2
 10
2.650401
 20
2.522951
 30
0.000000
  0
VERTEX
  8
MERGEDLAYER-2
 10
2.658067
 20
2.522951
 30
0.000000
  0
VERTEX
  8
MERGEDLAYER-2
 10
2.658067
 20
2.330111
 30
0.000000
  0
VERTEX
  8
MERGEDLAYER-2
 10
2.650401
 20
2.330111
 30
0.000000
  0
SEQEND
  8
MERGEDLAYER-2
  0
POLYLINE
  8
MERGEDLAYER-2
 66
  1
 70
  1
 62
  0
  0
VERTEX
  8
MERGEDLAYER-2
 10
2.658067
 20
2.676328
 30
0.000000
  0
VERTEX
  8
MERGEDLAYER-2
 10
2.665739
 20
2.676328
 30
0.000000
  0
VERTEX
  8
MERGEDLAYER-2
 10
2.665739
 20
2.483492
 30
0.000000
  0
VERTEX
  8
MERGEDLAYER-2
 10
2.658067
 20
2.483492
 30
0.000000
  0
SEQEND
  8
MERGEDLAYER-2
  0
POLYLINE
  8
MERGEDLAYER-2
 66
  1
 70
  1
 62
  0
  0
VERTEX
  8
MERGEDLAYER-2
 10
2.650401
 20
2.829707
 30
0.000000
  0
VERTEX
  8
MERGEDLAYER-2
 10
2.658067
 20
2.829707
 30
0.000000
  0
VERTEX
  8
MERGEDLAYER-2
 10
2.658067
 20
2.636870
 30
0.000000
  0
VERTEX
  8
MERGEDLAYER-2
 10
2.650401
 20
2.636870
 30
0.000000
  0
SEQEND
  8
MERGEDLAYER-2
  0
POLYLINE
  8
MERGEDLAYER-2
 66
  1
 70
  1
 62
  0
  0
VERTEX
  8
MERGEDLAYER-2
 10
2.658067
 20
2.983086
 30
0.000000
  0
VERTEX
  8
MERGEDLAYER-2
 10
2.665739
 20
2.983086
 30
0.000000
  0
VERTEX
  8
MERGEDLAYER-2
 10
2.665739
 20
2.790248
 30
0.000000
  0
VERTEX
  8
MERGEDLAYER-2
 10
2.658067
 20
2.790248
 30
0.000000
  0
SEQEND
  8
MERGEDLAYER-2
  0
POLYLINE
  8
MERGEDLAYER-2
 66
  1
 70
  1
 62
  0
  0
VERTEX
  8
MERGEDLAYER-2
 10
2.650401
 20
3.136466
 30
0.000000
  0
VERTEX
  8
MERGEDLAYER-2
 10
2.658067
 20
3.136466
 30
0.000000
  0
VERTEX
  8
MERGEDLAYER-2
 10
2.658067
 20
2.943627
 30
0.000000
  0
VERTEX
  8
MERGEDLAYER-2
 10
2.650401
 20
2.943627
 30
0.000000
  0
SEQEND
  8
MERGEDLAYER-2
  0
POLYLINE
  8
MERGEDLAYER-2
 66
  1
 70
  1
 62
  0
  0
VERTEX
  8
MERGEDLAYER-2
 10
2.658067
 20
3.289845
 30
0.000000
  0
VERTEX
  8
MERGEDLAYER-2
 10
2.665739
 20
3.289845
 30
0.000000
  0
VERTEX
  8
MERGEDLAYER-2
 10
2.665739
 20
3.097007
 30
0.000000
  0
VERTEX
  8
MERGEDLAYER-2
 10
2.658067
 20
3.097007
 30
0.000000
  0
SEQEND
  8
MERGEDLAYER-2
  0
POLYLINE
  8
MERGEDLAYER-2
 66
  1
 70
  1
 62
  0
  0
VERTEX
  8
MERGEDLAYER-2
 10
2.650401
 20
3.443225
 30
0.000000
  0
VERTEX
  8
MERGEDLAYER-2
 10
2.658067
 20
3.443225
 30
0.000000
  0
VERTEX
  8
MERGEDLAYER-2
 10
2.658067
 20
3.250387
 30
0.000000
  0
VERTEX
  8
MERGEDLAYER-2
 10
2.650401
 20
3.250387
 30
0.000000
  0
SEQEND
  8
MERGEDLAYER-2
  0
POLYLINE
  8
MERGEDLAYER-2
 66
  1
 70
  1
 62
  0
  0
VERTEX
  8
MERGEDLAYER-2
 10
2.658067
 20
3.902890
 30
0.000000
  0
VERTEX
  8
MERGEDLAYER-2
 10
2.665739
 20
3.902890
 30
0.000000
  0
VERTEX
  8
MERGEDLAYER-2
 10
2.665739
 20
3.710052
 30
0.000000
  0
VERTEX
  8
MERGEDLAYER-2
 10
2.658067
 20
3.710052
 30
0.000000
  0
SEQEND
  8
MERGEDLAYER-2
  0
POLYLINE
  8
MERGEDLAYER-2
 66
  1
 70
  1
 62
  0
  0
VERTEX
  8
MERGEDLAYER-2
 10
2.650401
 20
4.056269
 30
0.000000
  0
VERTEX
  8
MERGEDLAYER-2
 10
2.658067
 20
4.056269
 30
0.000000
  0
VERTEX
  8
MERGEDLAYER-2
 10
2.658067
 20
3.863442
 30
0.000000
  0
VERTEX
  8
MERGEDLAYER-2
 10
2.650401
 20
3.863442
 30
0.000000
  0
SEQEND
  8
MERGEDLAYER-2
  0
POLYLINE
  8
MERGEDLAYER-2
 66
  1
 70
  1
 62
  0
  0
VERTEX
  8
MERGEDLAYER-2
 10
2.658067
 20
4.209175
 30
0.000000
  0
VERTEX
  8
MERGEDLAYER-2
 10
2.665739
 20
4.209175
 30
0.000000
  0
VERTEX
  8
MERGEDLAYER-2
 10
2.665739
 20
4.016337
 30
0.000000
  0
VERTEX
  8
MERGEDLAYER-2
 10
2.658067
 20
4.016337
 30
0.000000
  0
SEQEND
  8
MERGEDLAYER-2
  0
POLYLINE
  8
MERGEDLAYER-2
 66
  1
 70
  1
 62
  0
  0
VERTEX
  8
MERGEDLAYER-2
 10
2.650401
 20
4.362554
 30
0.000000
  0
VERTEX
  8
MERGEDLAYER-2
 10
2.658067
 20
4.362554
 30
0.000000
  0
VERTEX
  8
MERGEDLAYER-2
 10
2.658067
 20
4.169727
 30
0.000000
  0
VERTEX
  8
MERGEDLAYER-2
 10
2.650401
 20
4.169727
 30
0.000000
  0
SEQEND
  8
MERGEDLAYER-2
  0
POLYLINE
  8
MERGEDLAYER-2
 66
  1
 70
  1
 62
  0
  0
VERTEX
  8
MERGEDLAYER-2
 10
2.658067
 20
4.515461
 30
0.000000
  0
VERTEX
  8
MERGEDLAYER-2
 10
2.665739
 20
4.515461
 30
0.000000
  0
VERTEX
  8
MERGEDLAYER-2
 10
2.665739
 20
4.322623
 30
0.000000
  0
VERTEX
  8
MERGEDLAYER-2
 10
2.658067
 20
4.322623
 30
0.000000
  0
SEQEND
  8
MERGEDLAYER-2
  0
POLYLINE
  8
MERGEDLAYER-2
 66
  1
 70
  1
 62
  0
  0
VERTEX
  8
MERGEDLAYER-2
 10
2.650401
 20
4.668841
 30
0.000000
  0
VERTEX
  8
MERGEDLAYER-2
 10
2.658067
 20
4.668841
 30
0.000000
  0
VERTEX
  8
MERGEDLAYER-2
 10
2.658067
 20
4.476014
 30
0.000000
  0
VERTEX
  8
MERGEDLAYER-2
 10
2.650401
 20
4.476014
 30
0.000000
  0
SEQEND
  8
MERGEDLAYER-2
  0
POLYLINE
  8
MERGEDLAYER-2
 66
  1
 70
  1
 62
  0
  0
VERTEX
  8
MERGEDLAYER-2
 10
2.658067
 20
4.821747
 30
0.000000
  0
VERTEX
  8
MERGEDLAYER-2
 10
2.665739
 20
4.821747
 30
0.000000
  0
VERTEX
  8
MERGEDLAYER-2
 10
2.665739
 20
4.628909
 30
0.000000
  0
VERTEX
  8
MERGEDLAYER-2
 10
2.658067
 20
4.628909
 30
0.000000
  0
SEQEND
  8
MERGEDLAYER-2
  0
POLYLINE
  8
MERGEDLAYER-2
 66
  1
 70
  1
 62
  0
  0
VERTEX
  8
MERGEDLAYER-2
 10
2.650401
 20
4.975127
 30
0.000000
  0
VERTEX
  8
MERGEDLAYER-2
 10
2.658067
 20
4.975127
 30
0.000000
  0
VERTEX
  8
MERGEDLAYER-2
 10
2.658067
 20
4.782299
 30
0.000000
  0
VERTEX
  8
MERGEDLAYER-2
 10
2.650401
 20
4.782299
 30
0.000000
  0
SEQEND
  8
MERGEDLAYER-2
  0
POLYLINE
  8
MERGEDLAYER-2
 66
  1
 70
  1
 62
  0
  0
VERTEX
  8
MERGEDLAYER-2
 10
2.658067
 20
5.128032
 30
0.000000
  0
VERTEX
  8
MERGEDLAYER-2
 10
2.665739
 20
5.128032
 30
0.000000
  0
VERTEX
  8
MERGEDLAYER-2
 10
2.665739
 20
4.935195
 30
0.000000
  0
VERTEX
  8
MERGEDLAYER-2
 10
2.658067
 20
4.935195
 30
0.000000
  0
SEQEND
  8
MERGEDLAYER-2
  0
POLYLINE
  8
MERGEDLAYER-2
 66
  1
 70
  1
 62
  0
  0
VERTEX
  8
MERGEDLAYER-2
 10
2.650401
 20
5.281412
 30
0.000000
  0
VERTEX
  8
MERGEDLAYER-2
 10
2.658067
 20
5.281412
 30
0.000000
  0
VERTEX
  8
MERGEDLAYER-2
 10
2.658067
 20
5.088585
 30
0.000000
  0
VERTEX
  8
MERGEDLAYER-2
 10
2.650401
 20
5.088585
 30
0.000000
  0
SEQEND
  8
MERGEDLAYER-2
  0
POLYLINE
  8
MERGEDLAYER-2
 66
  1
 70
  1
 62
  0
  0
VERTEX
  8
MERGEDLAYER-2
 10
3.217867
 20
3.596605
 30
0.000000
  0
VERTEX
  8
MERGEDLAYER-2
 10
3.225539
 20
3.596605
 30
0.000000
  0
VERTEX
  8
MERGEDLAYER-2
 10
3.225539
 20
3.403766
 30
0.000000
  0
VERTEX
  8
MERGEDLAYER-2
 10
3.217867
 20
3.403766
 30
0.000000
  0
SEQEND
  8
MERGEDLAYER-2
  0
POLYLINE
  8
MERGEDLAYER-2
 66
  1
 70
  1
 62
  0
  0
VERTEX
  8
MERGEDLAYER-2
 10
3.210200
 20
3.749984
 30
0.000000
  0
VERTEX
  8
MERGEDLAYER-2
 10
3.217867
 20
3.749984
 30
0.000000
  0
VERTEX
  8
MERGEDLAYER-2
 10
3.217867
 20
3.557156
 30
0.000000
  0
VERTEX
  8
MERGEDLAYER-2
 10
3.210200
 20
3.557156
 30
0.000000
  0
SEQEND
  8
MERGEDLAYER-2
  0
POLYLINE
  8
MERGEDLAYER-2
 66
  1
 70
  1
 62
  0
  0
VERTEX
  8
MERGEDLAYER-2
 10
3.210200
 20
0.682184
 30
0.000000
  0
VERTEX
  8
MERGEDLAYER-2
 10
3.217867
 20
0.682184
 30
0.000000
  0
VERTEX
  8
MERGEDLAYER-2
 10
3.217867
 20
0.501579
 30
0.000000
  0
VERTEX
  8
MERGEDLAYER-2
 10
3.210200
 20
0.501579
 30
0.000000
  0
SEQEND
  8
MERGEDLAYER-2
  0
POLYLINE
  8
MERGEDLAYER-2
 66
  1
 70
  1
 62
  0
  0
VERTEX
  8
MERGEDLAYER-2
 10
3.217867
 20
0.835776
 30
0.000000
  0
VERTEX
  8
MERGEDLAYER-2
 10
3.225539
 20
0.835776
 30
0.000000
  0
VERTEX
  8
MERGEDLAYER-2
 10
3.225539
 20
0.642937
 30
0.000000
  0
VERTEX
  8
MERGEDLAYER-2
 10
3.217867
 20
0.642937
 30
0.000000
  0
SEQEND
  8
MERGEDLAYER-2
  0
POLYLINE
  8
MERGEDLAYER-2
 66
  1
 70
  1
 62
  0
  0
VERTEX
  8
MERGEDLAYER-2
 10
3.210200
 20
0.989155
 30
0.000000
  0
VERTEX
  8
MERGEDLAYER-2
 10
3.217867
 20
0.989155
 30
0.000000
  0
VERTEX
  8
MERGEDLAYER-2
 10
3.217867
 20
0.796316
 30
0.000000
  0
VERTEX
  8
MERGEDLAYER-2
 10
3.210200
 20
0.796316
 30
0.000000
  0
SEQEND
  8
MERGEDLAYER-2
  0
POLYLINE
  8
MERGEDLAYER-2
 66
  1
 70
  1
 62
  0
  0
VERTEX
  8
MERGEDLAYER-2
 10
3.217867
 20
1.142535
 30
0.000000
  0
VERTEX
  8
MERGEDLAYER-2
 10
3.225539
 20
1.142535
 30
0.000000
  0
VERTEX
  8
MERGEDLAYER-2
 10
3.225539
 20
0.949697
 30
0.000000
  0
VERTEX
  8
MERGEDLAYER-2
 10
3.217867
 20
0.949697
 30
0.000000
  0
SEQEND
  8
MERGEDLAYER-2
  0
POLYLINE
  8
MERGEDLAYER-2
 66
  1
 70
  1
 62
  0
  0
VERTEX
  8
MERGEDLAYER-2
 10
3.210200
 20
1.295913
 30
0.000000
  0
VERTEX
  8
MERGEDLAYER-2
 10
3.217867
 20
1.295913
 30
0.000000
  0
VERTEX
  8
MERGEDLAYER-2
 10
3.217867
 20
1.103077
 30
0.000000
  0
VERTEX
  8
MERGEDLAYER-2
 10
3.210200
 20
1.103077
 30
0.000000
  0
SEQEND
  8
MERGEDLAYER-2
  0
POLYLINE
  8
MERGEDLAYER-2
 66
  1
 70
  1
 62
  0
  0
VERTEX
  8
MERGEDLAYER-2
 10
3.217867
 20
1.449296
 30
0.000000
  0
VERTEX
  8
MERGEDLAYER-2
 10
3.225539
 20
1.449296
 30
0.000000
  0
VERTEX
  8
MERGEDLAYER-2
 10
3.225539
 20
1.256454
 30
0.000000
  0
VERTEX
  8
MERGEDLAYER-2
 10
3.217867
 20
1.256454
 30
0.000000
  0
SEQEND
  8
MERGEDLAYER-2
  0
POLYLINE
  8
MERGEDLAYER-2
 66
  1
 70
  1
 62
  0
  0
VERTEX
  8
MERGEDLAYER-2
 10
3.210200
 20
1.602673
 30
0.000000
  0
VERTEX
  8
MERGEDLAYER-2
 10
3.217867
 20
1.602673
 30
0.000000
  0
VERTEX
  8
MERGEDLAYER-2
 10
3.217867
 20
1.409835
 30
0.000000
  0
VERTEX
  8
MERGEDLAYER-2
 10
3.210200
 20
1.409835
 30
0.000000
  0
SEQEND
  8
MERGEDLAYER-2
  0
POLYLINE
  8
MERGEDLAYER-2
 66
  1
 70
  1
 62
  0
  0
VERTEX
  8
MERGEDLAYER-2
 10
3.217867
 20
1.756054
 30
0.000000
  0
VERTEX
  8
MERGEDLAYER-2
 10
3.225539
 20
1.756054
 30
0.000000
  0
VERTEX
  8
MERGEDLAYER-2
 10
3.225539
 20
1.563211
 30
0.000000
  0
VERTEX
  8
MERGEDLAYER-2
 10
3.217867
 20
1.563211
 30
0.000000
  0
SEQEND
  8
MERGEDLAYER-2
  0
POLYLINE
  8
MERGEDLAYER-2
 66
  1
 70
  1
 62
  0
  0
VERTEX
  8
MERGEDLAYER-2
 10
3.210200
 20
1.909434
 30
0.000000
  0
VERTEX
  8
MERGEDLAYER-2
 10
3.217867
 20
1.909434
 30
0.000000
  0
VERTEX
  8
MERGEDLAYER-2
 10
3.217867
 20
1.716593
 30
0.000000
  0
VERTEX
  8
MERGEDLAYER-2
 10
3.210200
 20
1.716593
 30
0.000000
  0
SEQEND
  8
MERGEDLAYER-2
  0
POLYLINE
  8
MERGEDLAYER-2
 66
  1
 70
  1
 62
  0
  0
VERTEX
  8
MERGEDLAYER-2
 10
3.217867
 20
2.062810
 30
0.000000
  0
VERTEX
  8
MERGEDLAYER-2
 10
3.225539
 20
2.062810
 30
0.000000
  0
VERTEX
  8
MERGEDLAYER-2
 10
3.225539
 20
1.869972
 30
0.000000
  0
VERTEX
  8
MERGEDLAYER-2
 10
3.217867
 20
1.869972
 30
0.000000
  0
SEQEND
  8
MERGEDLAYER-2
  0
POLYLINE
  8
MERGEDLAYER-2
 66
  1
 70
  1
 62
  0
  0
VERTEX
  8
MERGEDLAYER-2
 10
3.210200
 20
2.216192
 30
0.000000
  0
VERTEX
  8
MERGEDLAYER-2
 10
3.217867
 20
2.216192
 30
0.000000
  0
VERTEX
  8
MERGEDLAYER-2
 10
3.217867
 20
2.023350
 30
0.000000
  0
VERTEX
  8
MERGEDLAYER-2
 10
3.210200
 20
2.023350
 30
0.000000
  0
SEQEND
  8
MERGEDLAYER-2
  0
POLYLINE
  8
MERGEDLAYER-2
 66
  1
 70
  1
 62
  0
  0
VERTEX
  8
MERGEDLAYER-2
 10
3.217867
 20
2.369570
 30
0.000000
  0
VERTEX
  8
MERGEDLAYER-2
 10
3.225539
 20
2.369570
 30
0.000000
  0
VERTEX
  8
MERGEDLAYER-2
 10
3.225539
 20
2.176730
 30
0.000000
  0
VERTEX
  8
MERGEDLAYER-2
 10
3.217867
 20
2.176730
 30
0.000000
  0
SEQEND
  8
MERGEDLAYER-2
  0
POLYLINE
  8
MERGEDLAYER-2
 66
  1
 70
  1
 62
  0
  0
VERTEX
  8
MERGEDLAYER-2
 10
3.210200
 20
2.522951
 30
0.000000
  0
VERTEX
  8
MERGEDLAYER-2
 10
3.217867
 20
2.522951
 30
0.000000
  0
VERTEX
  8
MERGEDLAYER-2
 10
3.217867
 20
2.330111
 30
0.000000
  0
VERTEX
  8
MERGEDLAYER-2
 10
3.210200
 20
2.330111
 30
0.000000
  0
SEQEND
  8
MERGEDLAYER-2
  0
POLYLINE
  8
MERGEDLAYER-2
 66
  1
 70
  1
 62
  0
  0
VERTEX
  8
MERGEDLAYER-2
 10
3.217867
 20
2.676328
 30
0.000000
  0
VERTEX
  8
MERGEDLAYER-2
 10
3.225539
 20
2.676328
 30
0.000000
  0
VERTEX
  8
MERGEDLAYER-2
 10
3.225539
 20
2.483492
 30
0.000000
  0
VERTEX
  8
MERGEDLAYER-2
 10
3.217867
 20
2.483492
 30
0.000000
  0
SEQEND
  8
MERGEDLAYER-2
  0
POLYLINE
  8
MERGEDLAYER-2
 66
  1
 70
  1
 62
  0
  0
VERTEX
  8
MERGEDLAYER-2
 10
3.210200
 20
2.829707
 30
0.000000
  0
VERTEX
  8
MERGEDLAYER-2
 10
3.217867
 20
2.829707
 30
0.000000
  0
VERTEX
  8
MERGEDLAYER-2
 10
3.217867
 20
2.636870
 30
0.000000
  0
VERTEX
  8
MERGEDLAYER-2
 10
3.210200
 20
2.636870
 30
0.000000
  0
SEQEND
  8
MERGEDLAYER-2
  0
POLYLINE
  8
MERGEDLAYER-2
 66
  1
 70
  1
 62
  0
  0
VERTEX
  8
MERGEDLAYER-2
 10
3.217867
 20
2.983086
 30
0.000000
  0
VERTEX
  8
MERGEDLAYER-2
 10
3.225539
 20
2.983086
 30
0.000000
  0
VERTEX
  8
MERGEDLAYER-2
 10
3.225539
 20
2.790248
 30
0.000000
  0
VERTEX
  8
MERGEDLAYER-2
 10
3.217867
 20
2.790248
 30
0.000000
  0
SEQEND
  8
MERGEDLAYER-2
  0
POLYLINE
  8
MERGEDLAYER-2
 66
  1
 70
  1
 62
  0
  0
VERTEX
  8
MERGEDLAYER-2
 10
3.210200
 20
3.136466
 30
0.000000
  0
VERTEX
  8
MERGEDLAYER-2
 10
3.217867
 20
3.136466
 30
0.000000
  0
VERTEX
  8
MERGEDLAYER-2
 10
3.217867
 20
2.943627
 30
0.000000
  0
VERTEX
  8
MERGEDLAYER-2
 10
3.210200
 20
2.943627
 30
0.000000
  0
SEQEND
  8
MERGEDLAYER-2
  0
POLYLINE
  8
MERGEDLAYER-2
 66
  1
 70
  1
 62
  0
  0
VERTEX
  8
MERGEDLAYER-2
 10
3.217867
 20
3.289845
 30
0.000000
  0
VERTEX
  8
MERGEDLAYER-2
 10
3.225539
 20
3.289845
 30
0.000000
  0
VERTEX
  8
MERGEDLAYER-2
 10
3.225539
 20
3.097007
 30
0.000000
  0
VERTEX
  8
MERGEDLAYER-2
 10
3.217867
 20
3.097007
 30
0.000000
  0
SEQEND
  8
MERGEDLAYER-2
  0
POLYLINE
  8
MERGEDLAYER-2
 66
  1
 70
  1
 62
  0
  0
VERTEX
  8
MERGEDLAYER-2
 10
3.210200
 20
3.443225
 30
0.000000
  0
VERTEX
  8
MERGEDLAYER-2
 10
3.217867
 20
3.443225
 30
0.000000
  0
VERTEX
  8
MERGEDLAYER-2
 10
3.217867
 20
3.250387
 30
0.000000
  0
VERTEX
  8
MERGEDLAYER-2
 10
3.210200
 20
3.250387
 30
0.000000
  0
SEQEND
  8
MERGEDLAYER-2
  0
POLYLINE
  8
MERGEDLAYER-2
 66
  1
 70
  1
 62
  0
  0
VERTEX
  8
MERGEDLAYER-2
 10
3.217867
 20
3.902890
 30
0.000000
  0
VERTEX
  8
MERGEDLAYER-2
 10
3.225539
 20
3.902890
 30
0.000000
  0
VERTEX
  8
MERGEDLAYER-2
 10
3.225539
 20
3.710052
 30
0.000000
  0
VERTEX
  8
MERGEDLAYER-2
 10
3.217867
 20
3.710052
 30
0.000000
  0
SEQEND
  8
MERGEDLAYER-2
  0
POLYLINE
  8
MERGEDLAYER-2
 66
  1
 70
  1
 62
  0
  0
VERTEX
  8
MERGEDLAYER-2
 10
3.210200
 20
4.056269
 30
0.000000
  0
VERTEX
  8
MERGEDLAYER-2
 10
3.217867
 20
4.056269
 30
0.000000
  0
VERTEX
  8
MERGEDLAYER-2
 10
3.217867
 20
3.863442
 30
0.000000
  0
VERTEX
  8
MERGEDLAYER-2
 10
3.210200
 20
3.863442
 30
0.000000
  0
SEQEND
  8
MERGEDLAYER-2
  0
POLYLINE
  8
MERGEDLAYER-2
 66
  1
 70
  1
 62
  0
  0
VERTEX
  8
MERGEDLAYER-2
 10
3.217867
 20
4.209175
 30
0.000000
  0
VERTEX
  8
MERGEDLAYER-2
 10
3.225539
 20
4.209175
 30
0.000000
  0
VERTEX
  8
MERGEDLAYER-2
 10
3.225539
 20
4.016337
 30
0.000000
  0
VERTEX
  8
MERGEDLAYER-2
 10
3.217867
 20
4.016337
 30
0.000000
  0
SEQEND
  8
MERGEDLAYER-2
  0
POLYLINE
  8
MERGEDLAYER-2
 66
  1
 70
  1
 62
  0
  0
VERTEX
  8
MERGEDLAYER-2
 10
3.210200
 20
4.362554
 30
0.000000
  0
VERTEX
  8
MERGEDLAYER-2
 10
3.217867
 20
4.362554
 30
0.000000
  0
VERTEX
  8
MERGEDLAYER-2
 10
3.217867
 20
4.169727
 30
0.000000
  0
VERTEX
  8
MERGEDLAYER-2
 10
3.210200
 20
4.169727
 30
0.000000
  0
SEQEND
  8
MERGEDLAYER-2
  0
POLYLINE
  8
MERGEDLAYER-2
 66
  1
 70
  1
 62
  0
  0
VERTEX
  8
MERGEDLAYER-2
 10
3.217867
 20
4.515461
 30
0.000000
  0
VERTEX
  8
MERGEDLAYER-2
 10
3.225539
 20
4.515461
 30
0.000000
  0
VERTEX
  8
MERGEDLAYER-2
 10
3.225539
 20
4.322623
 30
0.000000
  0
VERTEX
  8
MERGEDLAYER-2
 10
3.217867
 20
4.322623
 30
0.000000
  0
SEQEND
  8
MERGEDLAYER-2
  0
POLYLINE
  8
MERGEDLAYER-2
 66
  1
 70
  1
 62
  0
  0
VERTEX
  8
MERGEDLAYER-2
 10
3.210200
 20
4.668841
 30
0.000000
  0
VERTEX
  8
MERGEDLAYER-2
 10
3.217867
 20
4.668841
 30
0.000000
  0
VERTEX
  8
MERGEDLAYER-2
 10
3.217867
 20
4.476014
 30
0.000000
  0
VERTEX
  8
MERGEDLAYER-2
 10
3.210200
 20
4.476014
 30
0.000000
  0
SEQEND
  8
MERGEDLAYER-2
  0
POLYLINE
  8
MERGEDLAYER-2
 66
  1
 70
  1
 62
  0
  0
VERTEX
  8
MERGEDLAYER-2
 10
3.217867
 20
4.821747
 30
0.000000
  0
VERTEX
  8
MERGEDLAYER-2
 10
3.225539
 20
4.821747
 30
0.000000
  0
VERTEX
  8
MERGEDLAYER-2
 10
3.225539
 20
4.628909
 30
0.000000
  0
VERTEX
  8
MERGEDLAYER-2
 10
3.217867
 20
4.628909
 30
0.000000
  0
SEQEND
  8
MERGEDLAYER-2
  0
POLYLINE
  8
MERGEDLAYER-2
 66
  1
 70
  1
 62
  0
  0
VERTEX
  8
MERGEDLAYER-2
 10
3.210200
 20
4.975127
 30
0.000000
  0
VERTEX
  8
MERGEDLAYER-2
 10
3.217867
 20
4.975127
 30
0.000000
  0
VERTEX
  8
MERGEDLAYER-2
 10
3.217867
 20
4.782299
 30
0.000000
  0
VERTEX
  8
MERGEDLAYER-2
 10
3.210200
 20
4.782299
 30
0.000000
  0
SEQEND
  8
MERGEDLAYER-2
  0
POLYLINE
  8
MERGEDLAYER-2
 66
  1
 70
  1
 62
  0
  0
VERTEX
  8
MERGEDLAYER-2
 10
3.217867
 20
5.128032
 30
0.000000
  0
VERTEX
  8
MERGEDLAYER-2
 10
3.225539
 20
5.128032
 30
0.000000
  0
VERTEX
  8
MERGEDLAYER-2
 10
3.225539
 20
4.935195
 30
0.000000
  0
VERTEX
  8
MERGEDLAYER-2
 10
3.217867
 20
4.935195
 30
0.000000
  0
SEQEND
  8
MERGEDLAYER-2
  0
POLYLINE
  8
MERGEDLAYER-2
 66
  1
 70
  1
 62
  0
  0
VERTEX
  8
MERGEDLAYER-2
 10
3.210200
 20
5.281412
 30
0.000000
  0
VERTEX
  8
MERGEDLAYER-2
 10
3.217867
 20
5.281412
 30
0.000000
  0
VERTEX
  8
MERGEDLAYER-2
 10
3.217867
 20
5.088585
 30
0.000000
  0
VERTEX
  8
MERGEDLAYER-2
 10
3.210200
 20
5.088585
 30
0.000000
  0
SEQEND
  8
MERGEDLAYER-2
  0
POLYLINE
  8
MERGEDLAYER-2
 66
  1
 70
  1
 62
  0
  0
VERTEX
  8
MERGEDLAYER-2
 10
3.777667
 20
3.596605
 30
0.000000
  0
VERTEX
  8
MERGEDLAYER-2
 10
3.785339
 20
3.596605
 30
0.000000
  0
VERTEX
  8
MERGEDLAYER-2
 10
3.785339
 20
3.403766
 30
0.000000
  0
VERTEX
  8
MERGEDLAYER-2
 10
3.777667
 20
3.403766
 30
0.000000
  0
SEQEND
  8
MERGEDLAYER-2
  0
POLYLINE
  8
MERGEDLAYER-2
 66
  1
 70
  1
 62
  0
  0
VERTEX
  8
MERGEDLAYER-2
 10
3.770000
 20
3.749984
 30
0.000000
  0
VERTEX
  8
MERGEDLAYER-2
 10
3.777667
 20
3.749984
 30
0.000000
  0
VERTEX
  8
MERGEDLAYER-2
 10
3.777667
 20
3.557156
 30
0.000000
  0
VERTEX
  8
MERGEDLAYER-2
 10
3.770000
 20
3.557156
 30
0.000000
  0
SEQEND
  8
MERGEDLAYER-2
  0
POLYLINE
  8
MERGEDLAYER-2
 66
  1
 70
  1
 62
  0
  0
VERTEX
  8
MERGEDLAYER-2
 10
3.770000
 20
0.682184
 30
0.000000
  0
VERTEX
  8
MERGEDLAYER-2
 10
3.777667
 20
0.682184
 30
0.000000
  0
VERTEX
  8
MERGEDLAYER-2
 10
3.777667
 20
0.501579
 30
0.000000
  0
VERTEX
  8
MERGEDLAYER-2
 10
3.770000
 20
0.501579
 30
0.000000
  0
SEQEND
  8
MERGEDLAYER-2
  0
POLYLINE
  8
MERGEDLAYER-2
 66
  1
 70
  1
 62
  0
  0
VERTEX
  8
MERGEDLAYER-2
 10
3.777667
 20
0.835776
 30
0.000000
  0
VERTEX
  8
MERGEDLAYER-2
 10
3.785339
 20
0.835776
 30
0.000000
  0
VERTEX
  8
MERGEDLAYER-2
 10
3.785339
 20
0.642937
 30
0.000000
  0
VERTEX
  8
MERGEDLAYER-2
 10
3.777667
 20
0.642937
 30
0.000000
  0
SEQEND
  8
MERGEDLAYER-2
  0
POLYLINE
  8
MERGEDLAYER-2
 66
  1
 70
  1
 62
  0
  0
VERTEX
  8
MERGEDLAYER-2
 10
3.770000
 20
0.989155
 30
0.000000
  0
VERTEX
  8
MERGEDLAYER-2
 10
3.777667
 20
0.989155
 30
0.000000
  0
VERTEX
  8
MERGEDLAYER-2
 10
3.777667
 20
0.796316
 30
0.000000
  0
VERTEX
  8
MERGEDLAYER-2
 10
3.770000
 20
0.796316
 30
0.000000
  0
SEQEND
  8
MERGEDLAYER-2
  0
POLYLINE
  8
MERGEDLAYER-2
 66
  1
 70
  1
 62
  0
  0
VERTEX
  8
MERGEDLAYER-2
 10
3.777667
 20
1.142535
 30
0.000000
  0
VERTEX
  8
MERGEDLAYER-2
 10
3.785339
 20
1.142535
 30
0.000000
  0
VERTEX
  8
MERGEDLAYER-2
 10
3.785339
 20
0.949697
 30
0.000000
  0
VERTEX
  8
MERGEDLAYER-2
 10
3.777667
 20
0.949697
 30
0.000000
  0
SEQEND
  8
MERGEDLAYER-2
  0
POLYLINE
  8
MERGEDLAYER-2
 66
  1
 70
  1
 62
  0
  0
VERTEX
  8
MERGEDLAYER-2
 10
3.770000
 20
1.295913
 30
0.000000
  0
VERTEX
  8
MERGEDLAYER-2
 10
3.777667
 20
1.295913
 30
0.000000
  0
VERTEX
  8
MERGEDLAYER-2
 10
3.777667
 20
1.103077
 30
0.000000
  0
VERTEX
  8
MERGEDLAYER-2
 10
3.770000
 20
1.103077
 30
0.000000
  0
SEQEND
  8
MERGEDLAYER-2
  0
POLYLINE
  8
MERGEDLAYER-2
 66
  1
 70
  1
 62
  0
  0
VERTEX
  8
MERGEDLAYER-2
 10
3.777667
 20
1.449296
 30
0.000000
  0
VERTEX
  8
MERGEDLAYER-2
 10
3.785339
 20
1.449296
 30
0.000000
  0
VERTEX
  8
MERGEDLAYER-2
 10
3.785339
 20
1.256454
 30
0.000000
  0
VERTEX
  8
MERGEDLAYER-2
 10
3.777667
 20
1.256454
 30
0.000000
  0
SEQEND
  8
MERGEDLAYER-2
  0
POLYLINE
  8
MERGEDLAYER-2
 66
  1
 70
  1
 62
  0
  0
VERTEX
  8
MERGEDLAYER-2
 10
3.770000
 20
1.602673
 30
0.000000
  0
VERTEX
  8
MERGEDLAYER-2
 10
3.777667
 20
1.602673
 30
0.000000
  0
VERTEX
  8
MERGEDLAYER-2
 10
3.777667
 20
1.409835
 30
0.000000
  0
VERTEX
  8
MERGEDLAYER-2
 10
3.770000
 20
1.409835
 30
0.000000
  0
SEQEND
  8
MERGEDLAYER-2
  0
POLYLINE
  8
MERGEDLAYER-2
 66
  1
 70
  1
 62
  0
  0
VERTEX
  8
MERGEDLAYER-2
 10
3.777667
 20
1.756054
 30
0.000000
  0
VERTEX
  8
MERGEDLAYER-2
 10
3.785339
 20
1.756054
 30
0.000000
  0
VERTEX
  8
MERGEDLAYER-2
 10
3.785339
 20
1.563211
 30
0.000000
  0
VERTEX
  8
MERGEDLAYER-2
 10
3.777667
 20
1.563211
 30
0.000000
  0
SEQEND
  8
MERGEDLAYER-2
  0
POLYLINE
  8
MERGEDLAYER-2
 66
  1
 70
  1
 62
  0
  0
VERTEX
  8
MERGEDLAYER-2
 10
3.770000
 20
1.909434
 30
0.000000
  0
VERTEX
  8
MERGEDLAYER-2
 10
3.777667
 20
1.909434
 30
0.000000
  0
VERTEX
  8
MERGEDLAYER-2
 10
3.777667
 20
1.716593
 30
0.000000
  0
VERTEX
  8
MERGEDLAYER-2
 10
3.770000
 20
1.716593
 30
0.000000
  0
SEQEND
  8
MERGEDLAYER-2
  0
POLYLINE
  8
MERGEDLAYER-2
 66
  1
 70
  1
 62
  0
  0
VERTEX
  8
MERGEDLAYER-2
 10
3.777667
 20
2.062810
 30
0.000000
  0
VERTEX
  8
MERGEDLAYER-2
 10
3.785339
 20
2.062810
 30
0.000000
  0
VERTEX
  8
MERGEDLAYER-2
 10
3.785339
 20
1.869972
 30
0.000000
  0
VERTEX
  8
MERGEDLAYER-2
 10
3.777667
 20
1.869972
 30
0.000000
  0
SEQEND
  8
MERGEDLAYER-2
  0
POLYLINE
  8
MERGEDLAYER-2
 66
  1
 70
  1
 62
  0
  0
VERTEX
  8
MERGEDLAYER-2
 10
3.770000
 20
2.216192
 30
0.000000
  0
VERTEX
  8
MERGEDLAYER-2
 10
3.777667
 20
2.216192
 30
0.000000
  0
VERTEX
  8
MERGEDLAYER-2
 10
3.777667
 20
2.023350
 30
0.000000
  0
VERTEX
  8
MERGEDLAYER-2
 10
3.770000
 20
2.023350
 30
0.000000
  0
SEQEND
  8
MERGEDLAYER-2
  0
POLYLINE
  8
MERGEDLAYER-2
 66
  1
 70
  1
 62
  0
  0
VERTEX
  8
MERGEDLAYER-2
 10
3.777667
 20
2.369570
 30
0.000000
  0
VERTEX
  8
MERGEDLAYER-2
 10
3.785339
 20
2.369570
 30
0.000000
  0
VERTEX
  8
MERGEDLAYER-2
 10
3.785339
 20
2.176730
 30
0.000000
  0
VERTEX
  8
MERGEDLAYER-2
 10
3.777667
 20
2.176730
 30
0.000000
  0
SEQEND
  8
MERGEDLAYER-2
  0
POLYLINE
  8
MERGEDLAYER-2
 66
  1
 70
  1
 62
  0
  0
VERTEX
  8
MERGEDLAYER-2
 10
3.770000
 20
2.522951
 30
0.000000
  0
VERTEX
  8
MERGEDLAYER-2
 10
3.777667
 20
2.522951
 30
0.000000
  0
VERTEX
  8
MERGEDLAYER-2
 10
3.777667
 20
2.330111
 30
0.000000
  0
VERTEX
  8
MERGEDLAYER-2
 10
3.770000
 20
2.330111
 30
0.000000
  0
SEQEND
  8
MERGEDLAYER-2
  0
POLYLINE
  8
MERGEDLAYER-2
 66
  1
 70
  1
 62
  0
  0
VERTEX
  8
MERGEDLAYER-2
 10
3.777667
 20
2.676328
 30
0.000000
  0
VERTEX
  8
MERGEDLAYER-2
 10
3.785339
 20
2.676328
 30
0.000000
  0
VERTEX
  8
MERGEDLAYER-2
 10
3.785339
 20
2.483492
 30
0.000000
  0
VERTEX
  8
MERGEDLAYER-2
 10
3.777667
 20
2.483492
 30
0.000000
  0
SEQEND
  8
MERGEDLAYER-2
  0
POLYLINE
  8
MERGEDLAYER-2
 66
  1
 70
  1
 62
  0
  0
VERTEX
  8
MERGEDLAYER-2
 10
3.770000
 20
2.829707
 30
0.000000
  0
VERTEX
  8
MERGEDLAYER-2
 10
3.777667
 20
2.829707
 30
0.000000
  0
VERTEX
  8
MERGEDLAYER-2
 10
3.777667
 20
2.636870
 30
0.000000
  0
VERTEX
  8
MERGEDLAYER-2
 10
3.770000
 20
2.636870
 30
0.000000
  0
SEQEND
  8
MERGEDLAYER-2
  0
POLYLINE
  8
MERGEDLAYER-2
 66
  1
 70
  1
 62
  0
  0
VERTEX
  8
MERGEDLAYER-2
 10
3.777667
 20
2.983086
 30
0.000000
  0
VERTEX
  8
MERGEDLAYER-2
 10
3.785339
 20
2.983086
 30
0.000000
  0
VERTEX
  8
MERGEDLAYER-2
 10
3.785339
 20
2.790248
 30
0.000000
  0
VERTEX
  8
MERGEDLAYER-2
 10
3.777667
 20
2.790248
 30
0.000000
  0
SEQEND
  8
MERGEDLAYER-2
  0
POLYLINE
  8
MERGEDLAYER-2
 66
  1
 70
  1
 62
  0
  0
VERTEX
  8
MERGEDLAYER-2
 10
3.770000
 20
3.136466
 30
0.000000
  0
VERTEX
  8
MERGEDLAYER-2
 10
3.777667
 20
3.136466
 30
0.000000
  0
VERTEX
  8
MERGEDLAYER-2
 10
3.777667
 20
2.943627
 30
0.000000
  0
VERTEX
  8
MERGEDLAYER-2
 10
3.770000
 20
2.943627
 30
0.000000
  0
SEQEND
  8
MERGEDLAYER-2
  0
POLYLINE
  8
MERGEDLAYER-2
 66
  1
 70
  1
 62
  0
  0
VERTEX
  8
MERGEDLAYER-2
 10
3.777667
 20
3.289845
 30
0.000000
  0
VERTEX
  8
MERGEDLAYER-2
 10
3.785339
 20
3.289845
 30
0.000000
  0
VERTEX
  8
MERGEDLAYER-2
 10
3.785339
 20
3.097007
 30
0.000000
  0
VERTEX
  8
MERGEDLAYER-2
 10
3.777667
 20
3.097007
 30
0.000000
  0
SEQEND
  8
MERGEDLAYER-2
  0
POLYLINE
  8
MERGEDLAYER-2
 66
  1
 70
  1
 62
  0
  0
VERTEX
  8
MERGEDLAYER-2
 10
3.770000
 20
3.443225
 30
0.000000
  0
VERTEX
  8
MERGEDLAYER-2
 10
3.777667
 20
3.443225
 30
0.000000
  0
VERTEX
  8
MERGEDLAYER-2
 10
3.777667
 20
3.250387
 30
0.000000
  0
VERTEX
  8
MERGEDLAYER-2
 10
3.770000
 20
3.250387
 30
0.000000
  0
SEQEND
  8
MERGEDLAYER-2
  0
POLYLINE
  8
MERGEDLAYER-2
 66
  1
 70
  1
 62
  0
  0
VERTEX
  8
MERGEDLAYER-2
 10
3.777667
 20
3.902890
 30
0.000000
  0
VERTEX
  8
MERGEDLAYER-2
 10
3.785339
 20
3.902890
 30
0.000000
  0
VERTEX
  8
MERGEDLAYER-2
 10
3.785339
 20
3.710052
 30
0.000000
  0
VERTEX
  8
MERGEDLAYER-2
 10
3.777667
 20
3.710052
 30
0.000000
  0
SEQEND
  8
MERGEDLAYER-2
  0
POLYLINE
  8
MERGEDLAYER-2
 66
  1
 70
  1
 62
  0
  0
VERTEX
  8
MERGEDLAYER-2
 10
3.770000
 20
4.056269
 30
0.000000
  0
VERTEX
  8
MERGEDLAYER-2
 10
3.777667
 20
4.056269
 30
0.000000
  0
VERTEX
  8
MERGEDLAYER-2
 10
3.777667
 20
3.863442
 30
0.000000
  0
VERTEX
  8
MERGEDLAYER-2
 10
3.770000
 20
3.863442
 30
0.000000
  0
SEQEND
  8
MERGEDLAYER-2
  0
POLYLINE
  8
MERGEDLAYER-2
 66
  1
 70
  1
 62
  0
  0
VERTEX
  8
MERGEDLAYER-2
 10
3.777667
 20
4.209175
 30
0.000000
  0
VERTEX
  8
MERGEDLAYER-2
 10
3.785339
 20
4.209175
 30
0.000000
  0
VERTEX
  8
MERGEDLAYER-2
 10
3.785339
 20
4.016337
 30
0.000000
  0
VERTEX
  8
MERGEDLAYER-2
 10
3.777667
 20
4.016337
 30
0.000000
  0
SEQEND
  8
MERGEDLAYER-2
  0
POLYLINE
  8
MERGEDLAYER-2
 66
  1
 70
  1
 62
  0
  0
VERTEX
  8
MERGEDLAYER-2
 10
3.770000
 20
4.362554
 30
0.000000
  0
VERTEX
  8
MERGEDLAYER-2
 10
3.777667
 20
4.362554
 30
0.000000
  0
VERTEX
  8
MERGEDLAYER-2
 10
3.777667
 20
4.169727
 30
0.000000
  0
VERTEX
  8
MERGEDLAYER-2
 10
3.770000
 20
4.169727
 30
0.000000
  0
SEQEND
  8
MERGEDLAYER-2
  0
POLYLINE
  8
MERGEDLAYER-2
 66
  1
 70
  1
 62
  0
  0
VERTEX
  8
MERGEDLAYER-2
 10
3.777667
 20
4.515461
 30
0.000000
  0
VERTEX
  8
MERGEDLAYER-2
 10
3.785339
 20
4.515461
 30
0.000000
  0
VERTEX
  8
MERGEDLAYER-2
 10
3.785339
 20
4.322623
 30
0.000000
  0
VERTEX
  8
MERGEDLAYER-2
 10
3.777667
 20
4.322623
 30
0.000000
  0
SEQEND
  8
MERGEDLAYER-2
  0
POLYLINE
  8
MERGEDLAYER-2
 66
  1
 70
  1
 62
  0
  0
VERTEX
  8
MERGEDLAYER-2
 10
3.770000
 20
4.668841
 30
0.000000
  0
VERTEX
  8
MERGEDLAYER-2
 10
3.777667
 20
4.668841
 30
0.000000
  0
VERTEX
  8
MERGEDLAYER-2
 10
3.777667
 20
4.476014
 30
0.000000
  0
VERTEX
  8
MERGEDLAYER-2
 10
3.770000
 20
4.476014
 30
0.000000
  0
SEQEND
  8
MERGEDLAYER-2
  0
POLYLINE
  8
MERGEDLAYER-2
 66
  1
 70
  1
 62
  0
  0
VERTEX
  8
MERGEDLAYER-2
 10
3.777667
 20
4.821747
 30
0.000000
  0
VERTEX
  8
MERGEDLAYER-2
 10
3.785339
 20
4.821747
 30
0.000000
  0
VERTEX
  8
MERGEDLAYER-2
 10
3.785339
 20
4.628909
 30
0.000000
  0
VERTEX
  8
MERGEDLAYER-2
 10
3.777667
 20
4.628909
 30
0.000000
  0
SEQEND
  8
MERGEDLAYER-2
  0
POLYLINE
  8
MERGEDLAYER-2
 66
  1
 70
  1
 62
  0
  0
VERTEX
  8
MERGEDLAYER-2
 10
3.770000
 20
4.975127
 30
0.000000
  0
VERTEX
  8
MERGEDLAYER-2
 10
3.777667
 20
4.975127
 30
0.000000
  0
VERTEX
  8
MERGEDLAYER-2
 10
3.777667
 20
4.782299
 30
0.000000
  0
VERTEX
  8
MERGEDLAYER-2
 10
3.770000
 20
4.782299
 30
0.000000
  0
SEQEND
  8
MERGEDLAYER-2
  0
POLYLINE
  8
MERGEDLAYER-2
 66
  1
 70
  1
 62
  0
  0
VERTEX
  8
MERGEDLAYER-2
 10
3.777667
 20
5.128032
 30
0.000000
  0
VERTEX
  8
MERGEDLAYER-2
 10
3.785339
 20
5.128032
 30
0.000000
  0
VERTEX
  8
MERGEDLAYER-2
 10
3.785339
 20
4.935195
 30
0.000000
  0
VERTEX
  8
MERGEDLAYER-2
 10
3.777667
 20
4.935195
 30
0.000000
  0
SEQEND
  8
MERGEDLAYER-2
  0
POLYLINE
  8
MERGEDLAYER-2
 66
  1
 70
  1
 62
  0
  0
VERTEX
  8
MERGEDLAYER-2
 10
3.770000
 20
5.281412
 30
0.000000
  0
VERTEX
  8
MERGEDLAYER-2
 10
3.777667
 20
5.281412
 30
0.000000
  0
VERTEX
  8
MERGEDLAYER-2
 10
3.777667
 20
5.088585
 30
0.000000
  0
VERTEX
  8
MERGEDLAYER-2
 10
3.770000
 20
5.088585
 30
0.000000
  0
SEQEND
  8
MERGEDLAYER-2
  0
POLYLINE
  8
MERGEDLAYER-2
 66
  1
 70
  1
 62
  0
  0
VERTEX
  8
MERGEDLAYER-2
 10
4.337467
 20
3.596605
 30
0.000000
  0
VERTEX
  8
MERGEDLAYER-2
 10
4.345139
 20
3.596605
 30
0.000000
  0
VERTEX
  8
MERGEDLAYER-2
 10
4.345139
 20
3.403766
 30
0.000000
  0
VERTEX
  8
MERGEDLAYER-2
 10
4.337467
 20
3.403766
 30
0.000000
  0
SEQEND
  8
MERGEDLAYER-2
  0
POLYLINE
  8
MERGEDLAYER-2
 66
  1
 70
  1
 62
  0
  0
VERTEX
  8
MERGEDLAYER-2
 10
4.329800
 20
3.749984
 30
0.000000
  0
VERTEX
  8
MERGEDLAYER-2
 10
4.337467
 20
3.749984
 30
0.000000
  0
VERTEX
  8
MERGEDLAYER-2
 10
4.337467
 20
3.557156
 30
0.000000
  0
VERTEX
  8
MERGEDLAYER-2
 10
4.329800
 20
3.557156
 30
0.000000
  0
SEQEND
  8
MERGEDLAYER-2
  0
POLYLINE
  8
MERGEDLAYER-2
 66
  1
 70
  1
 62
  0
  0
VERTEX
  8
MERGEDLAYER-2
 10
4.329800
 20
0.682184
 30
0.000000
  0
VERTEX
  8
MERGEDLAYER-2
 10
4.337467
 20
0.682184
 30
0.000000
  0
VERTEX
  8
MERGEDLAYER-2
 10
4.337467
 20
0.501579
 30
0.000000
  0
VERTEX
  8
MERGEDLAYER-2
 10
4.329800
 20
0.501579
 30
0.000000
  0
SEQEND
  8
MERGEDLAYER-2
  0
POLYLINE
  8
MERGEDLAYER-2
 66
  1
 70
  1
 62
  0
  0
VERTEX
  8
MERGEDLAYER-2
 10
4.337467
 20
0.835776
 30
0.000000
  0
VERTEX
  8
MERGEDLAYER-2
 10
4.345139
 20
0.835776
 30
0.000000
  0
VERTEX
  8
MERGEDLAYER-2
 10
4.345139
 20
0.642937
 30
0.000000
  0
VERTEX
  8
MERGEDLAYER-2
 10
4.337467
 20
0.642937
 30
0.000000
  0
SEQEND
  8
MERGEDLAYER-2
  0
POLYLINE
  8
MERGEDLAYER-2
 66
  1
 70
  1
 62
  0
  0
VERTEX
  8
MERGEDLAYER-2
 10
4.329800
 20
0.989155
 30
0.000000
  0
VERTEX
  8
MERGEDLAYER-2
 10
4.337467
 20
0.989155
 30
0.000000
  0
VERTEX
  8
MERGEDLAYER-2
 10
4.337467
 20
0.796316
 30
0.000000
  0
VERTEX
  8
MERGEDLAYER-2
 10
4.329800
 20
0.796316
 30
0.000000
  0
SEQEND
  8
MERGEDLAYER-2
  0
POLYLINE
  8
MERGEDLAYER-2
 66
  1
 70
  1
 62
  0
  0
VERTEX
  8
MERGEDLAYER-2
 10
4.337467
 20
1.142535
 30
0.000000
  0
VERTEX
  8
MERGEDLAYER-2
 10
4.345139
 20
1.142535
 30
0.000000
  0
VERTEX
  8
MERGEDLAYER-2
 10
4.345139
 20
0.949697
 30
0.000000
  0
VERTEX
  8
MERGEDLAYER-2
 10
4.337467
 20
0.949697
 30
0.000000
  0
SEQEND
  8
MERGEDLAYER-2
  0
POLYLINE
  8
MERGEDLAYER-2
 66
  1
 70
  1
 62
  0
  0
VERTEX
  8
MERGEDLAYER-2
 10
4.329800
 20
1.295913
 30
0.000000
  0
VERTEX
  8
MERGEDLAYER-2
 10
4.337467
 20
1.295913
 30
0.000000
  0
VERTEX
  8
MERGEDLAYER-2
 10
4.337467
 20
1.103077
 30
0.000000
  0
VERTEX
  8
MERGEDLAYER-2
 10
4.329800
 20
1.103077
 30
0.000000
  0
SEQEND
  8
MERGEDLAYER-2
  0
POLYLINE
  8
MERGEDLAYER-2
 66
  1
 70
  1
 62
  0
  0
VERTEX
  8
MERGEDLAYER-2
 10
4.337467
 20
1.449296
 30
0.000000
  0
VERTEX
  8
MERGEDLAYER-2
 10
4.345139
 20
1.449296
 30
0.000000
  0
VERTEX
  8
MERGEDLAYER-2
 10
4.345139
 20
1.256454
 30
0.000000
  0
VERTEX
  8
MERGEDLAYER-2
 10
4.337467
 20
1.256454
 30
0.000000
  0
SEQEND
  8
MERGEDLAYER-2
  0
POLYLINE
  8
MERGEDLAYER-2
 66
  1
 70
  1
 62
  0
  0
VERTEX
  8
MERGEDLAYER-2
 10
4.329800
 20
1.602673
 30
0.000000
  0
VERTEX
  8
MERGEDLAYER-2
 10
4.337467
 20
1.602673
 30
0.000000
  0
VERTEX
  8
MERGEDLAYER-2
 10
4.337467
 20
1.409835
 30
0.000000
  0
VERTEX
  8
MERGEDLAYER-2
 10
4.329800
 20
1.409835
 30
0.000000
  0
SEQEND
  8
MERGEDLAYER-2
  0
POLYLINE
  8
MERGEDLAYER-2
 66
  1
 70
  1
 62
  0
  0
VERTEX
  8
MERGEDLAYER-2
 10
4.337467
 20
1.756054
 30
0.000000
  0
VERTEX
  8
MERGEDLAYER-2
 10
4.345139
 20
1.756054
 30
0.000000
  0
VERTEX
  8
MERGEDLAYER-2
 10
4.345139
 20
1.563211
 30
0.000000
  0
VERTEX
  8
MERGEDLAYER-2
 10
4.337467
 20
1.563211
 30
0.000000
  0
SEQEND
  8
MERGEDLAYER-2
  0
POLYLINE
  8
MERGEDLAYER-2
 66
  1
 70
  1
 62
  0
  0
VERTEX
  8
MERGEDLAYER-2
 10
4.329800
 20
1.909434
 30
0.000000
  0
VERTEX
  8
MERGEDLAYER-2
 10
4.337467
 20
1.909434
 30
0.000000
  0
VERTEX
  8
MERGEDLAYER-2
 10
4.337467
 20
1.716593
 30
0.000000
  0
VERTEX
  8
MERGEDLAYER-2
 10
4.329800
 20
1.716593
 30
0.000000
  0
SEQEND
  8
MERGEDLAYER-2
  0
POLYLINE
  8
MERGEDLAYER-2
 66
  1
 70
  1
 62
  0
  0
VERTEX
  8
MERGEDLAYER-2
 10
4.337467
 20
2.062810
 30
0.000000
  0
VERTEX
  8
MERGEDLAYER-2
 10
4.345139
 20
2.062810
 30
0.000000
  0
VERTEX
  8
MERGEDLAYER-2
 10
4.345139
 20
1.869972
 30
0.000000
  0
VERTEX
  8
MERGEDLAYER-2
 10
4.337467
 20
1.869972
 30
0.000000
  0
SEQEND
  8
MERGEDLAYER-2
  0
POLYLINE
  8
MERGEDLAYER-2
 66
  1
 70
  1
 62
  0
  0
VERTEX
  8
MERGEDLAYER-2
 10
4.329800
 20
2.216192
 30
0.000000
  0
VERTEX
  8
MERGEDLAYER-2
 10
4.337467
 20
2.216192
 30
0.000000
  0
VERTEX
  8
MERGEDLAYER-2
 10
4.337467
 20
2.023350
 30
0.000000
  0
VERTEX
  8
MERGEDLAYER-2
 10
4.329800
 20
2.023350
 30
0.000000
  0
SEQEND
  8
MERGEDLAYER-2
  0
POLYLINE
  8
MERGEDLAYER-2
 66
  1
 70
  1
 62
  0
  0
VERTEX
  8
MERGEDLAYER-2
 10
4.337467
 20
2.369570
 30
0.000000
  0
VERTEX
  8
MERGEDLAYER-2
 10
4.345139
 20
2.369570
 30
0.000000
  0
VERTEX
  8
MERGEDLAYER-2
 10
4.345139
 20
2.176730
 30
0.000000
  0
VERTEX
  8
MERGEDLAYER-2
 10
4.337467
 20
2.176730
 30
0.000000
  0
SEQEND
  8
MERGEDLAYER-2
  0
POLYLINE
  8
MERGEDLAYER-2
 66
  1
 70
  1
 62
  0
  0
VERTEX
  8
MERGEDLAYER-2
 10
4.329800
 20
2.522951
 30
0.000000
  0
VERTEX
  8
MERGEDLAYER-2
 10
4.337467
 20
2.522951
 30
0.000000
  0
VERTEX
  8
MERGEDLAYER-2
 10
4.337467
 20
2.330111
 30
0.000000
  0
VERTEX
  8
MERGEDLAYER-2
 10
4.329800
 20
2.330111
 30
0.000000
  0
SEQEND
  8
MERGEDLAYER-2
  0
POLYLINE
  8
MERGEDLAYER-2
 66
  1
 70
  1
 62
  0
  0
VERTEX
  8
MERGEDLAYER-2
 10
4.337467
 20
2.676328
 30
0.000000
  0
VERTEX
  8
MERGEDLAYER-2
 10
4.345139
 20
2.676328
 30
0.000000
  0
VERTEX
  8
MERGEDLAYER-2
 10
4.345139
 20
2.483492
 30
0.000000
  0
VERTEX
  8
MERGEDLAYER-2
 10
4.337467
 20
2.483492
 30
0.000000
  0
SEQEND
  8
MERGEDLAYER-2
  0
POLYLINE
  8
MERGEDLAYER-2
 66
  1
 70
  1
 62
  0
  0
VERTEX
  8
MERGEDLAYER-2
 10
4.329800
 20
2.829707
 30
0.000000
  0
VERTEX
  8
MERGEDLAYER-2
 10
4.337467
 20
2.829707
 30
0.000000
  0
VERTEX
  8
MERGEDLAYER-2
 10
4.337467
 20
2.636870
 30
0.000000
  0
VERTEX
  8
MERGEDLAYER-2
 10
4.329800
 20
2.636870
 30
0.000000
  0
SEQEND
  8
MERGEDLAYER-2
  0
POLYLINE
  8
MERGEDLAYER-2
 66
  1
 70
  1
 62
  0
  0
VERTEX
  8
MERGEDLAYER-2
 10
4.337467
 20
2.983086
 30
0.000000
  0
VERTEX
  8
MERGEDLAYER-2
 10
4.345139
 20
2.983086
 30
0.000000
  0
VERTEX
  8
MERGEDLAYER-2
 10
4.345139
 20
2.790248
 30
0.000000
  0
VERTEX
  8
MERGEDLAYER-2
 10
4.337467
 20
2.790248
 30
0.000000
  0
SEQEND
  8
MERGEDLAYER-2
  0
POLYLINE
  8
MERGEDLAYER-2
 66
  1
 70
  1
 62
  0
  0
VERTEX
  8
MERGEDLAYER-2
 10
4.329800
 20
3.136466
 30
0.000000
  0
VERTEX
  8
MERGEDLAYER-2
 10
4.337467
 20
3.136466
 30
0.000000
  0
VERTEX
  8
MERGEDLAYER-2
 10
4.337467
 20
2.943627
 30
0.000000
  0
VERTEX
  8
MERGEDLAYER-2
 10
4.329800
 20
2.943627
 30
0.000000
  0
SEQEND
  8
MERGEDLAYER-2
  0
POLYLINE
  8
MERGEDLAYER-2
 66
  1
 70
  1
 62
  0
  0
VERTEX
  8
MERGEDLAYER-2
 10
4.337467
 20
3.289845
 30
0.000000
  0
VERTEX
  8
MERGEDLAYER-2
 10
4.345139
 20
3.289845
 30
0.000000
  0
VERTEX
  8
MERGEDLAYER-2
 10
4.345139
 20
3.097007
 30
0.000000
  0
VERTEX
  8
MERGEDLAYER-2
 10
4.337467
 20
3.097007
 30
0.000000
  0
SEQEND
  8
MERGEDLAYER-2
  0
POLYLINE
  8
MERGEDLAYER-2
 66
  1
 70
  1
 62
  0
  0
VERTEX
  8
MERGEDLAYER-2
 10
4.329800
 20
3.443225
 30
0.000000
  0
VERTEX
  8
MERGEDLAYER-2
 10
4.337467
 20
3.443225
 30
0.000000
  0
VERTEX
  8
MERGEDLAYER-2
 10
4.337467
 20
3.250387
 30
0.000000
  0
VERTEX
  8
MERGEDLAYER-2
 10
4.329800
 20
3.250387
 30
0.000000
  0
SEQEND
  8
MERGEDLAYER-2
  0
POLYLINE
  8
MERGEDLAYER-2
 66
  1
 70
  1
 62
  0
  0
VERTEX
  8
MERGEDLAYER-2
 10
4.337467
 20
3.902890
 30
0.000000
  0
VERTEX
  8
MERGEDLAYER-2
 10
4.345139
 20
3.902890
 30
0.000000
  0
VERTEX
  8
MERGEDLAYER-2
 10
4.345139
 20
3.710052
 30
0.000000
  0
VERTEX
  8
MERGEDLAYER-2
 10
4.337467
 20
3.710052
 30
0.000000
  0
SEQEND
  8
MERGEDLAYER-2
  0
POLYLINE
  8
MERGEDLAYER-2
 66
  1
 70
  1
 62
  0
  0
VERTEX
  8
MERGEDLAYER-2
 10
4.329800
 20
4.056269
 30
0.000000
  0
VERTEX
  8
MERGEDLAYER-2
 10
4.337467
 20
4.056269
 30
0.000000
  0
VERTEX
  8
MERGEDLAYER-2
 10
4.337467
 20
3.863442
 30
0.000000
  0
VERTEX
  8
MERGEDLAYER-2
 10
4.329800
 20
3.863442
 30
0.000000
  0
SEQEND
  8
MERGEDLAYER-2
  0
POLYLINE
  8
MERGEDLAYER-2
 66
  1
 70
  1
 62
  0
  0
VERTEX
  8
MERGEDLAYER-2
 10
4.337467
 20
4.209175
 30
0.000000
  0
VERTEX
  8
MERGEDLAYER-2
 10
4.345139
 20
4.209175
 30
0.000000
  0
VERTEX
  8
MERGEDLAYER-2
 10
4.345139
 20
4.016337
 30
0.000000
  0
VERTEX
  8
MERGEDLAYER-2
 10
4.337467
 20
4.016337
 30
0.000000
  0
SEQEND
  8
MERGEDLAYER-2
  0
POLYLINE
  8
MERGEDLAYER-2
 66
  1
 70
  1
 62
  0
  0
VERTEX
  8
MERGEDLAYER-2
 10
4.329800
 20
4.362554
 30
0.000000
  0
VERTEX
  8
MERGEDLAYER-2
 10
4.337467
 20
4.362554
 30
0.000000
  0
VERTEX
  8
MERGEDLAYER-2
 10
4.337467
 20
4.169727
 30
0.000000
  0
VERTEX
  8
MERGEDLAYER-2
 10
4.329800
 20
4.169727
 30
0.000000
  0
SEQEND
  8
MERGEDLAYER-2
  0
POLYLINE
  8
MERGEDLAYER-2
 66
  1
 70
  1
 62
  0
  0
VERTEX
  8
MERGEDLAYER-2
 10
4.337467
 20
4.515461
 30
0.000000
  0
VERTEX
  8
MERGEDLAYER-2
 10
4.345139
 20
4.515461
 30
0.000000
  0
VERTEX
  8
MERGEDLAYER-2
 10
4.345139
 20
4.322623
 30
0.000000
  0
VERTEX
  8
MERGEDLAYER-2
 10
4.337467
 20
4.322623
 30
0.000000
  0
SEQEND
  8
MERGEDLAYER-2
  0
POLYLINE
  8
MERGEDLAYER-2
 66
  1
 70
  1
 62
  0
  0
VERTEX
  8
MERGEDLAYER-2
 10
4.329800
 20
4.668841
 30
0.000000
  0
VERTEX
  8
MERGEDLAYER-2
 10
4.337467
 20
4.668841
 30
0.000000
  0
VERTEX
  8
MERGEDLAYER-2
 10
4.337467
 20
4.476014
 30
0.000000
  0
VERTEX
  8
MERGEDLAYER-2
 10
4.329800
 20
4.476014
 30
0.000000
  0
SEQEND
  8
MERGEDLAYER-2
  0
POLYLINE
  8
MERGEDLAYER-2
 66
  1
 70
  1
 62
  0
  0
VERTEX
  8
MERGEDLAYER-2
 10
4.337467
 20
4.821747
 30
0.000000
  0
VERTEX
  8
MERGEDLAYER-2
 10
4.345139
 20
4.821747
 30
0.000000
  0
VERTEX
  8
MERGEDLAYER-2
 10
4.345139
 20
4.628909
 30
0.000000
  0
VERTEX
  8
MERGEDLAYER-2
 10
4.337467
 20
4.628909
 30
0.000000
  0
SEQEND
  8
MERGEDLAYER-2
  0
POLYLINE
  8
MERGEDLAYER-2
 66
  1
 70
  1
 62
  0
  0
VERTEX
  8
MERGEDLAYER-2
 10
4.329800
 20
4.975127
 30
0.000000
  0
VERTEX
  8
MERGEDLAYER-2
 10
4.337467
 20
4.975127
 30
0.000000
  0
VERTEX
  8
MERGEDLAYER-2
 10
4.337467
 20
4.782299
 30
0.000000
  0
VERTEX
  8
MERGEDLAYER-2
 10
4.329800
 20
4.782299
 30
0.000000
  0
SEQEND
  8
MERGEDLAYER-2
  0
POLYLINE
  8
MERGEDLAYER-2
 66
  1
 70
  1
 62
  0
  0
VERTEX
  8
MERGEDLAYER-2
 10
4.337467
 20
5.128032
 30
0.000000
  0
VERTEX
  8
MERGEDLAYER-2
 10
4.345139
 20
5.128032
 30
0.000000
  0
VERTEX
  8
MERGEDLAYER-2
 10
4.345139
 20
4.935195
 30
0.000000
  0
VERTEX
  8
MERGEDLAYER-2
 10
4.337467
 20
4.935195
 30
0.000000
  0
SEQEND
  8
MERGEDLAYER-2
  0
POLYLINE
  8
MERGEDLAYER-2
 66
  1
 70
  1
 62
  0
  0
VERTEX
  8
MERGEDLAYER-2
 10
4.329800
 20
5.281412
 30
0.000000
  0
VERTEX
  8
MERGEDLAYER-2
 10
4.337467
 20
5.281412
 30
0.000000
  0
VERTEX
  8
MERGEDLAYER-2
 10
4.337467
 20
5.088585
 30
0.000000
  0
VERTEX
  8
MERGEDLAYER-2
 10
4.329800
 20
5.088585
 30
0.000000
  0
SEQEND
  8
MERGEDLAYER-2
  0
POLYLINE
  8
MERGEDLAYER-2
 66
  1
 70
  1
 62
  0
  0
VERTEX
  8
MERGEDLAYER-2
 10
4.897267
 20
3.596605
 30
0.000000
  0
VERTEX
  8
MERGEDLAYER-2
 10
4.904939
 20
3.596605
 30
0.000000
  0
VERTEX
  8
MERGEDLAYER-2
 10
4.904939
 20
3.403766
 30
0.000000
  0
VERTEX
  8
MERGEDLAYER-2
 10
4.897267
 20
3.403766
 30
0.000000
  0
SEQEND
  8
MERGEDLAYER-2
  0
POLYLINE
  8
MERGEDLAYER-2
 66
  1
 70
  1
 62
  0
  0
VERTEX
  8
MERGEDLAYER-2
 10
4.889601
 20
3.749984
 30
0.000000
  0
VERTEX
  8
MERGEDLAYER-2
 10
4.897267
 20
3.749984
 30
0.000000
  0
VERTEX
  8
MERGEDLAYER-2
 10
4.897267
 20
3.557156
 30
0.000000
  0
VERTEX
  8
MERGEDLAYER-2
 10
4.889601
 20
3.557156
 30
0.000000
  0
SEQEND
  8
MERGEDLAYER-2
  0
POLYLINE
  8
MERGEDLAYER-2
 66
  1
 70
  1
 62
  0
  0
VERTEX
  8
MERGEDLAYER-2
 10
4.889601
 20
0.682184
 30
0.000000
  0
VERTEX
  8
MERGEDLAYER-2
 10
4.897267
 20
0.682184
 30
0.000000
  0
VERTEX
  8
MERGEDLAYER-2
 10
4.897267
 20
0.501579
 30
0.000000
  0
VERTEX
  8
MERGEDLAYER-2
 10
4.889601
 20
0.501579
 30
0.000000
  0
SEQEND
  8
MERGEDLAYER-2
  0
POLYLINE
  8
MERGEDLAYER-2
 66
  1
 70
  1
 62
  0
  0
VERTEX
  8
MERGEDLAYER-2
 10
4.897267
 20
0.835776
 30
0.000000
  0
VERTEX
  8
MERGEDLAYER-2
 10
4.904939
 20
0.835776
 30
0.000000
  0
VERTEX
  8
MERGEDLAYER-2
 10
4.904939
 20
0.642937
 30
0.000000
  0
VERTEX
  8
MERGEDLAYER-2
 10
4.897267
 20
0.642937
 30
0.000000
  0
SEQEND
  8
MERGEDLAYER-2
  0
POLYLINE
  8
MERGEDLAYER-2
 66
  1
 70
  1
 62
  0
  0
VERTEX
  8
MERGEDLAYER-2
 10
4.889601
 20
0.989155
 30
0.000000
  0
VERTEX
  8
MERGEDLAYER-2
 10
4.897267
 20
0.989155
 30
0.000000
  0
VERTEX
  8
MERGEDLAYER-2
 10
4.897267
 20
0.796316
 30
0.000000
  0
VERTEX
  8
MERGEDLAYER-2
 10
4.889601
 20
0.796316
 30
0.000000
  0
SEQEND
  8
MERGEDLAYER-2
  0
POLYLINE
  8
MERGEDLAYER-2
 66
  1
 70
  1
 62
  0
  0
VERTEX
  8
MERGEDLAYER-2
 10
4.897267
 20
1.142535
 30
0.000000
  0
VERTEX
  8
MERGEDLAYER-2
 10
4.904939
 20
1.142535
 30
0.000000
  0
VERTEX
  8
MERGEDLAYER-2
 10
4.904939
 20
0.949697
 30
0.000000
  0
VERTEX
  8
MERGEDLAYER-2
 10
4.897267
 20
0.949697
 30
0.000000
  0
SEQEND
  8
MERGEDLAYER-2
  0
POLYLINE
  8
MERGEDLAYER-2
 66
  1
 70
  1
 62
  0
  0
VERTEX
  8
MERGEDLAYER-2
 10
4.889601
 20
1.295913
 30
0.000000
  0
VERTEX
  8
MERGEDLAYER-2
 10
4.897267
 20
1.295913
 30
0.000000
  0
VERTEX
  8
MERGEDLAYER-2
 10
4.897267
 20
1.103077
 30
0.000000
  0
VERTEX
  8
MERGEDLAYER-2
 10
4.889601
 20
1.103077
 30
0.000000
  0
SEQEND
  8
MERGEDLAYER-2
  0
POLYLINE
  8
MERGEDLAYER-2
 66
  1
 70
  1
 62
  0
  0
VERTEX
  8
MERGEDLAYER-2
 10
4.897267
 20
1.449296
 30
0.000000
  0
VERTEX
  8
MERGEDLAYER-2
 10
4.904939
 20
1.449296
 30
0.000000
  0
VERTEX
  8
MERGEDLAYER-2
 10
4.904939
 20
1.256454
 30
0.000000
  0
VERTEX
  8
MERGEDLAYER-2
 10
4.897267
 20
1.256454
 30
0.000000
  0
SEQEND
  8
MERGEDLAYER-2
  0
POLYLINE
  8
MERGEDLAYER-2
 66
  1
 70
  1
 62
  0
  0
VERTEX
  8
MERGEDLAYER-2
 10
4.889601
 20
1.602673
 30
0.000000
  0
VERTEX
  8
MERGEDLAYER-2
 10
4.897267
 20
1.602673
 30
0.000000
  0
VERTEX
  8
MERGEDLAYER-2
 10
4.897267
 20
1.409835
 30
0.000000
  0
VERTEX
  8
MERGEDLAYER-2
 10
4.889601
 20
1.409835
 30
0.000000
  0
SEQEND
  8
MERGEDLAYER-2
  0
POLYLINE
  8
MERGEDLAYER-2
 66
  1
 70
  1
 62
  0
  0
VERTEX
  8
MERGEDLAYER-2
 10
4.897267
 20
1.756054
 30
0.000000
  0
VERTEX
  8
MERGEDLAYER-2
 10
4.904939
 20
1.756054
 30
0.000000
  0
VERTEX
  8
MERGEDLAYER-2
 10
4.904939
 20
1.563211
 30
0.000000
  0
VERTEX
  8
MERGEDLAYER-2
 10
4.897267
 20
1.563211
 30
0.000000
  0
SEQEND
  8
MERGEDLAYER-2
  0
POLYLINE
  8
MERGEDLAYER-2
 66
  1
 70
  1
 62
  0
  0
VERTEX
  8
MERGEDLAYER-2
 10
4.889601
 20
1.909434
 30
0.000000
  0
VERTEX
  8
MERGEDLAYER-2
 10
4.897267
 20
1.909434
 30
0.000000
  0
VERTEX
  8
MERGEDLAYER-2
 10
4.897267
 20
1.716593
 30
0.000000
  0
VERTEX
  8
MERGEDLAYER-2
 10
4.889601
 20
1.716593
 30
0.000000
  0
SEQEND
  8
MERGEDLAYER-2
  0
POLYLINE
  8
MERGEDLAYER-2
 66
  1
 70
  1
 62
  0
  0
VERTEX
  8
MERGEDLAYER-2
 10
4.897267
 20
2.062810
 30
0.000000
  0
VERTEX
  8
MERGEDLAYER-2
 10
4.904939
 20
2.062810
 30
0.000000
  0
VERTEX
  8
MERGEDLAYER-2
 10
4.904939
 20
1.869972
 30
0.000000
  0
VERTEX
  8
MERGEDLAYER-2
 10
4.897267
 20
1.869972
 30
0.000000
  0
SEQEND
  8
MERGEDLAYER-2
  0
POLYLINE
  8
MERGEDLAYER-2
 66
  1
 70
  1
 62
  0
  0
VERTEX
  8
MERGEDLAYER-2
 10
4.889601
 20
2.216192
 30
0.000000
  0
VERTEX
  8
MERGEDLAYER-2
 10
4.897267
 20
2.216192
 30
0.000000
  0
VERTEX
  8
MERGEDLAYER-2
 10
4.897267
 20
2.023350
 30
0.000000
  0
VERTEX
  8
MERGEDLAYER-2
 10
4.889601
 20
2.023350
 30
0.000000
  0
SEQEND
  8
MERGEDLAYER-2
  0
POLYLINE
  8
MERGEDLAYER-2
 66
  1
 70
  1
 62
  0
  0
VERTEX
  8
MERGEDLAYER-2
 10
4.897267
 20
2.369570
 30
0.000000
  0
VERTEX
  8
MERGEDLAYER-2
 10
4.904939
 20
2.369570
 30
0.000000
  0
VERTEX
  8
MERGEDLAYER-2
 10
4.904939
 20
2.176730
 30
0.000000
  0
VERTEX
  8
MERGEDLAYER-2
 10
4.897267
 20
2.176730
 30
0.000000
  0
SEQEND
  8
MERGEDLAYER-2
  0
POLYLINE
  8
MERGEDLAYER-2
 66
  1
 70
  1
 62
  0
  0
VERTEX
  8
MERGEDLAYER-2
 10
4.889601
 20
2.522951
 30
0.000000
  0
VERTEX
  8
MERGEDLAYER-2
 10
4.897267
 20
2.522951
 30
0.000000
  0
VERTEX
  8
MERGEDLAYER-2
 10
4.897267
 20
2.330111
 30
0.000000
  0
VERTEX
  8
MERGEDLAYER-2
 10
4.889601
 20
2.330111
 30
0.000000
  0
SEQEND
  8
MERGEDLAYER-2
  0
POLYLINE
  8
MERGEDLAYER-2
 66
  1
 70
  1
 62
  0
  0
VERTEX
  8
MERGEDLAYER-2
 10
4.897267
 20
2.676328
 30
0.000000
  0
VERTEX
  8
MERGEDLAYER-2
 10
4.904939
 20
2.676328
 30
0.000000
  0
VERTEX
  8
MERGEDLAYER-2
 10
4.904939
 20
2.483492
 30
0.000000
  0
VERTEX
  8
MERGEDLAYER-2
 10
4.897267
 20
2.483492
 30
0.000000
  0
SEQEND
  8
MERGEDLAYER-2
  0
POLYLINE
  8
MERGEDLAYER-2
 66
  1
 70
  1
 62
  0
  0
VERTEX
  8
MERGEDLAYER-2
 10
4.889601
 20
2.829707
 30
0.000000
  0
VERTEX
  8
MERGEDLAYER-2
 10
4.897267
 20
2.829707
 30
0.000000
  0
VERTEX
  8
MERGEDLAYER-2
 10
4.897267
 20
2.636870
 30
0.000000
  0
VERTEX
  8
MERGEDLAYER-2
 10
4.889601
 20
2.636870
 30
0.000000
  0
SEQEND
  8
MERGEDLAYER-2
  0
POLYLINE
  8
MERGEDLAYER-2
 66
  1
 70
  1
 62
  0
  0
VERTEX
  8
MERGEDLAYER-2
 10
4.897267
 20
2.983086
 30
0.000000
  0
VERTEX
  8
MERGEDLAYER-2
 10
4.904939
 20
2.983086
 30
0.000000
  0
VERTEX
  8
MERGEDLAYER-2
 10
4.904939
 20
2.790248
 30
0.000000
  0
VERTEX
  8
MERGEDLAYER-2
 10
4.897267
 20
2.790248
 30
0.000000
  0
SEQEND
  8
MERGEDLAYER-2
  0
POLYLINE
  8
MERGEDLAYER-2
 66
  1
 70
  1
 62
  0
  0
VERTEX
  8
MERGEDLAYER-2
 10
4.889601
 20
3.136466
 30
0.000000
  0
VERTEX
  8
MERGEDLAYER-2
 10
4.897267
 20
3.136466
 30
0.000000
  0
VERTEX
  8
MERGEDLAYER-2
 10
4.897267
 20
2.943627
 30
0.000000
  0
VERTEX
  8
MERGEDLAYER-2
 10
4.889601
 20
2.943627
 30
0.000000
  0
SEQEND
  8
MERGEDLAYER-2
  0
POLYLINE
  8
MERGEDLAYER-2
 66
  1
 70
  1
 62
  0
  0
VERTEX
  8
MERGEDLAYER-2
 10
4.897267
 20
3.289845
 30
0.000000
  0
VERTEX
  8
MERGEDLAYER-2
 10
4.904939
 20
3.289845
 30
0.000000
  0
VERTEX
  8
MERGEDLAYER-2
 10
4.904939
 20
3.097007
 30
0.000000
  0
VERTEX
  8
MERGEDLAYER-2
 10
4.897267
 20
3.097007
 30
0.000000
  0
SEQEND
  8
MERGEDLAYER-2
  0
POLYLINE
  8
MERGEDLAYER-2
 66
  1
 70
  1
 62
  0
  0
VERTEX
  8
MERGEDLAYER-2
 10
4.889601
 20
3.443225
 30
0.000000
  0
VERTEX
  8
MERGEDLAYER-2
 10
4.897267
 20
3.443225
 30
0.000000
  0
VERTEX
  8
MERGEDLAYER-2
 10
4.897267
 20
3.250387
 30
0.000000
  0
VERTEX
  8
MERGEDLAYER-2
 10
4.889601
 20
3.250387
 30
0.000000
  0
SEQEND
  8
MERGEDLAYER-2
  0
POLYLINE
  8
MERGEDLAYER-2
 66
  1
 70
  1
 62
  0
  0
VERTEX
  8
MERGEDLAYER-2
 10
4.897267
 20
3.902890
 30
0.000000
  0
VERTEX
  8
MERGEDLAYER-2
 10
4.904939
 20
3.902890
 30
0.000000
  0
VERTEX
  8
MERGEDLAYER-2
 10
4.904939
 20
3.710052
 30
0.000000
  0
VERTEX
  8
MERGEDLAYER-2
 10
4.897267
 20
3.710052
 30
0.000000
  0
SEQEND
  8
MERGEDLAYER-2
  0
POLYLINE
  8
MERGEDLAYER-2
 66
  1
 70
  1
 62
  0
  0
VERTEX
  8
MERGEDLAYER-2
 10
4.889601
 20
4.056269
 30
0.000000
  0
VERTEX
  8
MERGEDLAYER-2
 10
4.897267
 20
4.056269
 30
0.000000
  0
VERTEX
  8
MERGEDLAYER-2
 10
4.897267
 20
3.863442
 30
0.000000
  0
VERTEX
  8
MERGEDLAYER-2
 10
4.889601
 20
3.863442
 30
0.000000
  0
SEQEND
  8
MERGEDLAYER-2
  0
POLYLINE
  8
MERGEDLAYER-2
 66
  1
 70
  1
 62
  0
  0
VERTEX
  8
MERGEDLAYER-2
 10
4.897267
 20
4.209175
 30
0.000000
  0
VERTEX
  8
MERGEDLAYER-2
 10
4.904939
 20
4.209175
 30
0.000000
  0
VERTEX
  8
MERGEDLAYER-2
 10
4.904939
 20
4.016337
 30
0.000000
  0
VERTEX
  8
MERGEDLAYER-2
 10
4.897267
 20
4.016337
 30
0.000000
  0
SEQEND
  8
MERGEDLAYER-2
  0
POLYLINE
  8
MERGEDLAYER-2
 66
  1
 70
  1
 62
  0
  0
VERTEX
  8
MERGEDLAYER-2
 10
4.889601
 20
4.362554
 30
0.000000
  0
VERTEX
  8
MERGEDLAYER-2
 10
4.897267
 20
4.362554
 30
0.000000
  0
VERTEX
  8
MERGEDLAYER-2
 10
4.897267
 20
4.169727
 30
0.000000
  0
VERTEX
  8
MERGEDLAYER-2
 10
4.889601
 20
4.169727
 30
0.000000
  0
SEQEND
  8
MERGEDLAYER-2
  0
POLYLINE
  8
MERGEDLAYER-2
 66
  1
 70
  1
 62
  0
  0
VERTEX
  8
MERGEDLAYER-2
 10
4.897267
 20
4.515461
 30
0.000000
  0
VERTEX
  8
MERGEDLAYER-2
 10
4.904939
 20
4.515461
 30
0.000000
  0
VERTEX
  8
MERGEDLAYER-2
 10
4.904939
 20
4.322623
 30
0.000000
  0
VERTEX
  8
MERGEDLAYER-2
 10
4.897267
 20
4.322623
 30
0.000000
  0
SEQEND
  8
MERGEDLAYER-2
  0
POLYLINE
  8
MERGEDLAYER-2
 66
  1
 70
  1
 62
  0
  0
VERTEX
  8
MERGEDLAYER-2
 10
4.889601
 20
4.668841
 30
0.000000
  0
VERTEX
  8
MERGEDLAYER-2
 10
4.897267
 20
4.668841
 30
0.000000
  0
VERTEX
  8
MERGEDLAYER-2
 10
4.897267
 20
4.476014
 30
0.000000
  0
VERTEX
  8
MERGEDLAYER-2
 10
4.889601
 20
4.476014
 30
0.000000
  0
SEQEND
  8
MERGEDLAYER-2
  0
POLYLINE
  8
MERGEDLAYER-2
 66
  1
 70
  1
 62
  0
  0
VERTEX
  8
MERGEDLAYER-2
 10
4.897267
 20
4.821747
 30
0.000000
  0
VERTEX
  8
MERGEDLAYER-2
 10
4.904939
 20
4.821747
 30
0.000000
  0
VERTEX
  8
MERGEDLAYER-2
 10
4.904939
 20
4.628909
 30
0.000000
  0
VERTEX
  8
MERGEDLAYER-2
 10
4.897267
 20
4.628909
 30
0.000000
  0
SEQEND
  8
MERGEDLAYER-2
  0
POLYLINE
  8
MERGEDLAYER-2
 66
  1
 70
  1
 62
  0
  0
VERTEX
  8
MERGEDLAYER-2
 10
4.889601
 20
4.975127
 30
0.000000
  0
VERTEX
  8
MERGEDLAYER-2
 10
4.897267
 20
4.975127
 30
0.000000
  0
VERTEX
  8
MERGEDLAYER-2
 10
4.897267
 20
4.782299
 30
0.000000
  0
VERTEX
  8
MERGEDLAYER-2
 10
4.889601
 20
4.782299
 30
0.000000
  0
SEQEND
  8
MERGEDLAYER-2
  0
POLYLINE
  8
MERGEDLAYER-2
 66
  1
 70
  1
 62
  0
  0
VERTEX
  8
MERGEDLAYER-2
 10
4.897267
 20
5.128032
 30
0.000000
  0
VERTEX
  8
MERGEDLAYER-2
 10
4.904939
 20
5.128032
 30
0.000000
  0
VERTEX
  8
MERGEDLAYER-2
 10
4.904939
 20
4.935195
 30
0.000000
  0
VERTEX
  8
MERGEDLAYER-2
 10
4.897267
 20
4.935195
 30
0.000000
  0
SEQEND
  8
MERGEDLAYER-2
  0
POLYLINE
  8
MERGEDLAYER-2
 66
  1
 70
  1
 62
  0
  0
VERTEX
  8
MERGEDLAYER-2
 10
4.889601
 20
5.281412
 30
0.000000
  0
VERTEX
  8
MERGEDLAYER-2
 10
4.897267
 20
5.281412
 30
0.000000
  0
VERTEX
  8
MERGEDLAYER-2
 10
4.897267
 20
5.088585
 30
0.000000
  0
VERTEX
  8
MERGEDLAYER-2
 10
4.889601
 20
5.088585
 30
0.000000
  0
SEQEND
  8
MERGEDLAYER-2
  0
POLYLINE
  8
MERGEDLAYER-2
 66
  1
 70
  1
 62
  0
  0
VERTEX
  8
MERGEDLAYER-2
 10
5.457067
 20
3.596605
 30
0.000000
  0
VERTEX
  8
MERGEDLAYER-2
 10
5.464739
 20
3.596605
 30
0.000000
  0
VERTEX
  8
MERGEDLAYER-2
 10
5.464739
 20
3.403766
 30
0.000000
  0
VERTEX
  8
MERGEDLAYER-2
 10
5.457067
 20
3.403766
 30
0.000000
  0
SEQEND
  8
MERGEDLAYER-2
  0
POLYLINE
  8
MERGEDLAYER-2
 66
  1
 70
  1
 62
  0
  0
VERTEX
  8
MERGEDLAYER-2
 10
5.449401
 20
3.749984
 30
0.000000
  0
VERTEX
  8
MERGEDLAYER-2
 10
5.457067
 20
3.749984
 30
0.000000
  0
VERTEX
  8
MERGEDLAYER-2
 10
5.457067
 20
3.557156
 30
0.000000
  0
VERTEX
  8
MERGEDLAYER-2
 10
5.449401
 20
3.557156
 30
0.000000
  0
SEQEND
  8
MERGEDLAYER-2
  0
POLYLINE
  8
MERGEDLAYER-2
 66
  1
 70
  1
 62
  0
  0
VERTEX
  8
MERGEDLAYER-2
 10
5.449401
 20
0.682184
 30
0.000000
  0
VERTEX
  8
MERGEDLAYER-2
 10
5.457067
 20
0.682184
 30
0.000000
  0
VERTEX
  8
MERGEDLAYER-2
 10
5.457067
 20
0.501579
 30
0.000000
  0
VERTEX
  8
MERGEDLAYER-2
 10
5.449401
 20
0.501579
 30
0.000000
  0
SEQEND
  8
MERGEDLAYER-2
  0
POLYLINE
  8
MERGEDLAYER-2
 66
  1
 70
  1
 62
  0
  0
VERTEX
  8
MERGEDLAYER-2
 10
5.457067
 20
0.835776
 30
0.000000
  0
VERTEX
  8
MERGEDLAYER-2
 10
5.464739
 20
0.835776
 30
0.000000
  0
VERTEX
  8
MERGEDLAYER-2
 10
5.464739
 20
0.642937
 30
0.000000
  0
VERTEX
  8
MERGEDLAYER-2
 10
5.457067
 20
0.642937
 30
0.000000
  0
SEQEND
  8
MERGEDLAYER-2
  0
POLYLINE
  8
MERGEDLAYER-2
 66
  1
 70
  1
 62
  0
  0
VERTEX
  8
MERGEDLAYER-2
 10
5.449401
 20
0.989155
 30
0.000000
  0
VERTEX
  8
MERGEDLAYER-2
 10
5.457067
 20
0.989155
 30
0.000000
  0
VERTEX
  8
MERGEDLAYER-2
 10
5.457067
 20
0.796316
 30
0.000000
  0
VERTEX
  8
MERGEDLAYER-2
 10
5.449401
 20
0.796316
 30
0.000000
  0
SEQEND
  8
MERGEDLAYER-2
  0
POLYLINE
  8
MERGEDLAYER-2
 66
  1
 70
  1
 62
  0
  0
VERTEX
  8
MERGEDLAYER-2
 10
5.457067
 20
1.142535
 30
0.000000
  0
VERTEX
  8
MERGEDLAYER-2
 10
5.464739
 20
1.142535
 30
0.000000
  0
VERTEX
  8
MERGEDLAYER-2
 10
5.464739
 20
0.949697
 30
0.000000
  0
VERTEX
  8
MERGEDLAYER-2
 10
5.457067
 20
0.949697
 30
0.000000
  0
SEQEND
  8
MERGEDLAYER-2
  0
POLYLINE
  8
MERGEDLAYER-2
 66
  1
 70
  1
 62
  0
  0
VERTEX
  8
MERGEDLAYER-2
 10
5.449401
 20
1.295913
 30
0.000000
  0
VERTEX
  8
MERGEDLAYER-2
 10
5.457067
 20
1.295913
 30
0.000000
  0
VERTEX
  8
MERGEDLAYER-2
 10
5.457067
 20
1.103077
 30
0.000000
  0
VERTEX
  8
MERGEDLAYER-2
 10
5.449401
 20
1.103077
 30
0.000000
  0
SEQEND
  8
MERGEDLAYER-2
  0
POLYLINE
  8
MERGEDLAYER-2
 66
  1
 70
  1
 62
  0
  0
VERTEX
  8
MERGEDLAYER-2
 10
5.457067
 20
1.449296
 30
0.000000
  0
VERTEX
  8
MERGEDLAYER-2
 10
5.464739
 20
1.449296
 30
0.000000
  0
VERTEX
  8
MERGEDLAYER-2
 10
5.464739
 20
1.256454
 30
0.000000
  0
VERTEX
  8
MERGEDLAYER-2
 10
5.457067
 20
1.256454
 30
0.000000
  0
SEQEND
  8
MERGEDLAYER-2
  0
POLYLINE
  8
MERGEDLAYER-2
 66
  1
 70
  1
 62
  0
  0
VERTEX
  8
MERGEDLAYER-2
 10
5.449401
 20
1.602673
 30
0.000000
  0
VERTEX
  8
MERGEDLAYER-2
 10
5.457067
 20
1.602673
 30
0.000000
  0
VERTEX
  8
MERGEDLAYER-2
 10
5.457067
 20
1.409835
 30
0.000000
  0
VERTEX
  8
MERGEDLAYER-2
 10
5.449401
 20
1.409835
 30
0.000000
  0
SEQEND
  8
MERGEDLAYER-2
  0
POLYLINE
  8
MERGEDLAYER-2
 66
  1
 70
  1
 62
  0
  0
VERTEX
  8
MERGEDLAYER-2
 10
5.457067
 20
1.756054
 30
0.000000
  0
VERTEX
  8
MERGEDLAYER-2
 10
5.464739
 20
1.756054
 30
0.000000
  0
VERTEX
  8
MERGEDLAYER-2
 10
5.464739
 20
1.563211
 30
0.000000
  0
VERTEX
  8
MERGEDLAYER-2
 10
5.457067
 20
1.563211
 30
0.000000
  0
SEQEND
  8
MERGEDLAYER-2
  0
POLYLINE
  8
MERGEDLAYER-2
 66
  1
 70
  1
 62
  0
  0
VERTEX
  8
MERGEDLAYER-2
 10
5.449401
 20
1.909434
 30
0.000000
  0
VERTEX
  8
MERGEDLAYER-2
 10
5.457067
 20
1.909434
 30
0.000000
  0
VERTEX
  8
MERGEDLAYER-2
 10
5.457067
 20
1.716593
 30
0.000000
  0
VERTEX
  8
MERGEDLAYER-2
 10
5.449401
 20
1.716593
 30
0.000000
  0
SEQEND
  8
MERGEDLAYER-2
  0
POLYLINE
  8
MERGEDLAYER-2
 66
  1
 70
  1
 62
  0
  0
VERTEX
  8
MERGEDLAYER-2
 10
5.457067
 20
2.062810
 30
0.000000
  0
VERTEX
  8
MERGEDLAYER-2
 10
5.464739
 20
2.062810
 30
0.000000
  0
VERTEX
  8
MERGEDLAYER-2
 10
5.464739
 20
1.869972
 30
0.000000
  0
VERTEX
  8
MERGEDLAYER-2
 10
5.457067
 20
1.869972
 30
0.000000
  0
SEQEND
  8
MERGEDLAYER-2
  0
POLYLINE
  8
MERGEDLAYER-2
 66
  1
 70
  1
 62
  0
  0
VERTEX
  8
MERGEDLAYER-2
 10
5.449401
 20
2.216192
 30
0.000000
  0
VERTEX
  8
MERGEDLAYER-2
 10
5.457067
 20
2.216192
 30
0.000000
  0
VERTEX
  8
MERGEDLAYER-2
 10
5.457067
 20
2.023350
 30
0.000000
  0
VERTEX
  8
MERGEDLAYER-2
 10
5.449401
 20
2.023350
 30
0.000000
  0
SEQEND
  8
MERGEDLAYER-2
  0
POLYLINE
  8
MERGEDLAYER-2
 66
  1
 70
  1
 62
  0
  0
VERTEX
  8
MERGEDLAYER-2
 10
5.457067
 20
2.369570
 30
0.000000
  0
VERTEX
  8
MERGEDLAYER-2
 10
5.464739
 20
2.369570
 30
0.000000
  0
VERTEX
  8
MERGEDLAYER-2
 10
5.464739
 20
2.176730
 30
0.000000
  0
VERTEX
  8
MERGEDLAYER-2
 10
5.457067
 20
2.176730
 30
0.000000
  0
SEQEND
  8
MERGEDLAYER-2
  0
POLYLINE
  8
MERGEDLAYER-2
 66
  1
 70
  1
 62
  0
  0
VERTEX
  8
MERGEDLAYER-2
 10
5.449401
 20
2.522951
 30
0.000000
  0
VERTEX
  8
MERGEDLAYER-2
 10
5.457067
 20
2.522951
 30
0.000000
  0
VERTEX
  8
MERGEDLAYER-2
 10
5.457067
 20
2.330111
 30
0.000000
  0
VERTEX
  8
MERGEDLAYER-2
 10
5.449401
 20
2.330111
 30
0.000000
  0
SEQEND
  8
MERGEDLAYER-2
  0
POLYLINE
  8
MERGEDLAYER-2
 66
  1
 70
  1
 62
  0
  0
VERTEX
  8
MERGEDLAYER-2
 10
5.457067
 20
2.676328
 30
0.000000
  0
VERTEX
  8
MERGEDLAYER-2
 10
5.464739
 20
2.676328
 30
0.000000
  0
VERTEX
  8
MERGEDLAYER-2
 10
5.464739
 20
2.483492
 30
0.000000
  0
VERTEX
  8
MERGEDLAYER-2
 10
5.457067
 20
2.483492
 30
0.000000
  0
SEQEND
  8
MERGEDLAYER-2
  0
POLYLINE
  8
MERGEDLAYER-2
 66
  1
 70
  1
 62
  0
  0
VERTEX
  8
MERGEDLAYER-2
 10
5.449401
 20
2.829707
 30
0.000000
  0
VERTEX
  8
MERGEDLAYER-2
 10
5.457067
 20
2.829707
 30
0.000000
  0
VERTEX
  8
MERGEDLAYER-2
 10
5.457067
 20
2.636870
 30
0.000000
  0
VERTEX
  8
MERGEDLAYER-2
 10
5.449401
 20
2.636870
 30
0.000000
  0
SEQEND
  8
MERGEDLAYER-2
  0
POLYLINE
  8
MERGEDLAYER-2
 66
  1
 70
  1
 62
  0
  0
VERTEX
  8
MERGEDLAYER-2
 10
5.457067
 20
2.983086
 30
0.000000
  0
VERTEX
  8
MERGEDLAYER-2
 10
5.464739
 20
2.983086
 30
0.000000
  0
VERTEX
  8
MERGEDLAYER-2
 10
5.464739
 20
2.790248
 30
0.000000
  0
VERTEX
  8
MERGEDLAYER-2
 10
5.457067
 20
2.790248
 30
0.000000
  0
SEQEND
  8
MERGEDLAYER-2
  0
POLYLINE
  8
MERGEDLAYER-2
 66
  1
 70
  1
 62
  0
  0
VERTEX
  8
MERGEDLAYER-2
 10
5.449401
 20
3.136466
 30
0.000000
  0
VERTEX
  8
MERGEDLAYER-2
 10
5.457067
 20
3.136466
 30
0.000000
  0
VERTEX
  8
MERGEDLAYER-2
 10
5.457067
 20
2.943627
 30
0.000000
  0
VERTEX
  8
MERGEDLAYER-2
 10
5.449401
 20
2.943627
 30
0.000000
  0
SEQEND
  8
MERGEDLAYER-2
  0
POLYLINE
  8
MERGEDLAYER-2
 66
  1
 70
  1
 62
  0
  0
VERTEX
  8
MERGEDLAYER-2
 10
5.457067
 20
3.289845
 30
0.000000
  0
VERTEX
  8
MERGEDLAYER-2
 10
5.464739
 20
3.289845
 30
0.000000
  0
VERTEX
  8
MERGEDLAYER-2
 10
5.464739
 20
3.097007
 30
0.000000
  0
VERTEX
  8
MERGEDLAYER-2
 10
5.457067
 20
3.097007
 30
0.000000
  0
SEQEND
  8
MERGEDLAYER-2
  0
POLYLINE
  8
MERGEDLAYER-2
 66
  1
 70
  1
 62
  0
  0
VERTEX
  8
MERGEDLAYER-2
 10
5.449401
 20
3.443225
 30
0.000000
  0
VERTEX
  8
MERGEDLAYER-2
 10
5.457067
 20
3.443225
 30
0.000000
  0
VERTEX
  8
MERGEDLAYER-2
 10
5.457067
 20
3.250387
 30
0.000000
  0
VERTEX
  8
MERGEDLAYER-2
 10
5.449401
 20
3.250387
 30
0.000000
  0
SEQEND
  8
MERGEDLAYER-2
  0
POLYLINE
  8
MERGEDLAYER-2
 66
  1
 70
  1
 62
  0
  0
VERTEX
  8
MERGEDLAYER-2
 10
5.457067
 20
3.902890
 30
0.000000
  0
VERTEX
  8
MERGEDLAYER-2
 10
5.464739
 20
3.902890
 30
0.000000
  0
VERTEX
  8
MERGEDLAYER-2
 10
5.464739
 20
3.710052
 30
0.000000
  0
VERTEX
  8
MERGEDLAYER-2
 10
5.457067
 20
3.710052
 30
0.000000
  0
SEQEND
  8
MERGEDLAYER-2
  0
POLYLINE
  8
MERGEDLAYER-2
 66
  1
 70
  1
 62
  0
  0
VERTEX
  8
MERGEDLAYER-2
 10
5.449401
 20
4.056269
 30
0.000000
  0
VERTEX
  8
MERGEDLAYER-2
 10
5.457067
 20
4.056269
 30
0.000000
  0
VERTEX
  8
MERGEDLAYER-2
 10
5.457067
 20
3.863442
 30
0.000000
  0
VERTEX
  8
MERGEDLAYER-2
 10
5.449401
 20
3.863442
 30
0.000000
  0
SEQEND
  8
MERGEDLAYER-2
  0
POLYLINE
  8
MERGEDLAYER-2
 66
  1
 70
  1
 62
  0
  0
VERTEX
  8
MERGEDLAYER-2
 10
5.457067
 20
4.209175
 30
0.000000
  0
VERTEX
  8
MERGEDLAYER-2
 10
5.464739
 20
4.209175
 30
0.000000
  0
VERTEX
  8
MERGEDLAYER-2
 10
5.464739
 20
4.016337
 30
0.000000
  0
VERTEX
  8
MERGEDLAYER-2
 10
5.457067
 20
4.016337
 30
0.000000
  0
SEQEND
  8
MERGEDLAYER-2
  0
POLYLINE
  8
MERGEDLAYER-2
 66
  1
 70
  1
 62
  0
  0
VERTEX
  8
MERGEDLAYER-2
 10
5.449401
 20
4.362554
 30
0.000000
  0
VERTEX
  8
MERGEDLAYER-2
 10
5.457067
 20
4.362554
 30
0.000000
  0
VERTEX
  8
MERGEDLAYER-2
 10
5.457067
 20
4.169727
 30
0.000000
  0
VERTEX
  8
MERGEDLAYER-2
 10
5.449401
 20
4.169727
 30
0.000000
  0
SEQEND
  8
MERGEDLAYER-2
  0
POLYLINE
  8
MERGEDLAYER-2
 66
  1
 70
  1
 62
  0
  0
VERTEX
  8
MERGEDLAYER-2
 10
5.457067
 20
4.515461
 30
0.000000
  0
VERTEX
  8
MERGEDLAYER-2
 10
5.464739
 20
4.515461
 30
0.000000
  0
VERTEX
  8
MERGEDLAYER-2
 10
5.464739
 20
4.322623
 30
0.000000
  0
VERTEX
  8
MERGEDLAYER-2
 10
5.457067
 20
4.322623
 30
0.000000
  0
SEQEND
  8
MERGEDLAYER-2
  0
POLYLINE
  8
MERGEDLAYER-2
 66
  1
 70
  1
 62
  0
  0
VERTEX
  8
MERGEDLAYER-2
 10
5.449401
 20
4.668841
 30
0.000000
  0
VERTEX
  8
MERGEDLAYER-2
 10
5.457067
 20
4.668841
 30
0.000000
  0
VERTEX
  8
MERGEDLAYER-2
 10
5.457067
 20
4.476014
 30
0.000000
  0
VERTEX
  8
MERGEDLAYER-2
 10
5.449401
 20
4.476014
 30
0.000000
  0
SEQEND
  8
MERGEDLAYER-2
  0
POLYLINE
  8
MERGEDLAYER-2
 66
  1
 70
  1
 62
  0
  0
VERTEX
  8
MERGEDLAYER-2
 10
5.457067
 20
4.821747
 30
0.000000
  0
VERTEX
  8
MERGEDLAYER-2
 10
5.464739
 20
4.821747
 30
0.000000
  0
VERTEX
  8
MERGEDLAYER-2
 10
5.464739
 20
4.628909
 30
0.000000
  0
VERTEX
  8
MERGEDLAYER-2
 10
5.457067
 20
4.628909
 30
0.000000
  0
SEQEND
  8
MERGEDLAYER-2
  0
POLYLINE
  8
MERGEDLAYER-2
 66
  1
 70
  1
 62
  0
  0
VERTEX
  8
MERGEDLAYER-2
 10
5.449401
 20
4.975127
 30
0.000000
  0
VERTEX
  8
MERGEDLAYER-2
 10
5.457067
 20
4.975127
 30
0.000000
  0
VERTEX
  8
MERGEDLAYER-2
 10
5.457067
 20
4.782299
 30
0.000000
  0
VERTEX
  8
MERGEDLAYER-2
 10
5.449401
 20
4.782299
 30
0.000000
  0
SEQEND
  8
MERGEDLAYER-2
  0
POLYLINE
  8
MERGEDLAYER-2
 66
  1
 70
  1
 62
  0
  0
VERTEX
  8
MERGEDLAYER-2
 10
5.457067
 20
5.128032
 30
0.000000
  0
VERTEX
  8
MERGEDLAYER-2
 10
5.464739
 20
5.128032
 30
0.000000
  0
VERTEX
  8
MERGEDLAYER-2
 10
5.464739
 20
4.935195
 30
0.000000
  0
VERTEX
  8
MERGEDLAYER-2
 10
5.457067
 20
4.935195
 30
0.000000
  0
SEQEND
  8
MERGEDLAYER-2
  0
POLYLINE
  8
MERGEDLAYER-2
 66
  1
 70
  1
 62
  0
  0
VERTEX
  8
MERGEDLAYER-2
 10
5.449401
 20
5.281412
 30
0.000000
  0
VERTEX
  8
MERGEDLAYER-2
 10
5.457067
 20
5.281412
 30
0.000000
  0
VERTEX
  8
MERGEDLAYER-2
 10
5.457067
 20
5.088585
 30
0.000000
  0
VERTEX
  8
MERGEDLAYER-2
 10
5.449401
 20
5.088585
 30
0.000000
  0
SEQEND
  8
MERGEDLAYER-2
  0
POLYLINE
  8
MERGEDLAYER-2
 66
  1
 70
  1
 62
  0
  0
VERTEX
  8
MERGEDLAYER-2
 10
6.016867
 20
3.596605
 30
0.000000
  0
VERTEX
  8
MERGEDLAYER-2
 10
6.024540
 20
3.596605
 30
0.000000
  0
VERTEX
  8
MERGEDLAYER-2
 10
6.024540
 20
3.403766
 30
0.000000
  0
VERTEX
  8
MERGEDLAYER-2
 10
6.016867
 20
3.403766
 30
0.000000
  0
SEQEND
  8
MERGEDLAYER-2
  0
POLYLINE
  8
MERGEDLAYER-2
 66
  1
 70
  1
 62
  0
  0
VERTEX
  8
MERGEDLAYER-2
 10
6.009201
 20
3.749984
 30
0.000000
  0
VERTEX
  8
MERGEDLAYER-2
 10
6.016867
 20
3.749984
 30
0.000000
  0
VERTEX
  8
MERGEDLAYER-2
 10
6.016867
 20
3.557156
 30
0.000000
  0
VERTEX
  8
MERGEDLAYER-2
 10
6.009201
 20
3.557156
 30
0.000000
  0
SEQEND
  8
MERGEDLAYER-2
  0
POLYLINE
  8
MERGEDLAYER-2
 66
  1
 70
  1
 62
  0
  0
VERTEX
  8
MERGEDLAYER-2
 10
6.009201
 20
0.682184
 30
0.000000
  0
VERTEX
  8
MERGEDLAYER-2
 10
6.016867
 20
0.682184
 30
0.000000
  0
VERTEX
  8
MERGEDLAYER-2
 10
6.016867
 20
0.501579
 30
0.000000
  0
VERTEX
  8
MERGEDLAYER-2
 10
6.009201
 20
0.501579
 30
0.000000
  0
SEQEND
  8
MERGEDLAYER-2
  0
POLYLINE
  8
MERGEDLAYER-2
 66
  1
 70
  1
 62
  0
  0
VERTEX
  8
MERGEDLAYER-2
 10
6.016867
 20
0.835776
 30
0.000000
  0
VERTEX
  8
MERGEDLAYER-2
 10
6.024540
 20
0.835776
 30
0.000000
  0
VERTEX
  8
MERGEDLAYER-2
 10
6.024540
 20
0.642937
 30
0.000000
  0
VERTEX
  8
MERGEDLAYER-2
 10
6.016867
 20
0.642937
 30
0.000000
  0
SEQEND
  8
MERGEDLAYER-2
  0
POLYLINE
  8
MERGEDLAYER-2
 66
  1
 70
  1
 62
  0
  0
VERTEX
  8
MERGEDLAYER-2
 10
6.009201
 20
0.989155
 30
0.000000
  0
VERTEX
  8
MERGEDLAYER-2
 10
6.016867
 20
0.989155
 30
0.000000
  0
VERTEX
  8
MERGEDLAYER-2
 10
6.016867
 20
0.796316
 30
0.000000
  0
VERTEX
  8
MERGEDLAYER-2
 10
6.009201
 20
0.796316
 30
0.000000
  0
SEQEND
  8
MERGEDLAYER-2
  0
POLYLINE
  8
MERGEDLAYER-2
 66
  1
 70
  1
 62
  0
  0
VERTEX
  8
MERGEDLAYER-2
 10
6.016867
 20
1.142535
 30
0.000000
  0
VERTEX
  8
MERGEDLAYER-2
 10
6.024540
 20
1.142535
 30
0.000000
  0
VERTEX
  8
MERGEDLAYER-2
 10
6.024540
 20
0.949697
 30
0.000000
  0
VERTEX
  8
MERGEDLAYER-2
 10
6.016867
 20
0.949697
 30
0.000000
  0
SEQEND
  8
MERGEDLAYER-2
  0
POLYLINE
  8
MERGEDLAYER-2
 66
  1
 70
  1
 62
  0
  0
VERTEX
  8
MERGEDLAYER-2
 10
6.009201
 20
1.295913
 30
0.000000
  0
VERTEX
  8
MERGEDLAYER-2
 10
6.016867
 20
1.295913
 30
0.000000
  0
VERTEX
  8
MERGEDLAYER-2
 10
6.016867
 20
1.103077
 30
0.000000
  0
VERTEX
  8
MERGEDLAYER-2
 10
6.009201
 20
1.103077
 30
0.000000
  0
SEQEND
  8
MERGEDLAYER-2
  0
POLYLINE
  8
MERGEDLAYER-2
 66
  1
 70
  1
 62
  0
  0
VERTEX
  8
MERGEDLAYER-2
 10
6.016867
 20
1.449296
 30
0.000000
  0
VERTEX
  8
MERGEDLAYER-2
 10
6.024540
 20
1.449296
 30
0.000000
  0
VERTEX
  8
MERGEDLAYER-2
 10
6.024540
 20
1.256454
 30
0.000000
  0
VERTEX
  8
MERGEDLAYER-2
 10
6.016867
 20
1.256454
 30
0.000000
  0
SEQEND
  8
MERGEDLAYER-2
  0
POLYLINE
  8
MERGEDLAYER-2
 66
  1
 70
  1
 62
  0
  0
VERTEX
  8
MERGEDLAYER-2
 10
6.009201
 20
1.602673
 30
0.000000
  0
VERTEX
  8
MERGEDLAYER-2
 10
6.016867
 20
1.602673
 30
0.000000
  0
VERTEX
  8
MERGEDLAYER-2
 10
6.016867
 20
1.409835
 30
0.000000
  0
VERTEX
  8
MERGEDLAYER-2
 10
6.009201
 20
1.409835
 30
0.000000
  0
SEQEND
  8
MERGEDLAYER-2
  0
POLYLINE
  8
MERGEDLAYER-2
 66
  1
 70
  1
 62
  0
  0
VERTEX
  8
MERGEDLAYER-2
 10
6.016867
 20
1.756054
 30
0.000000
  0
VERTEX
  8
MERGEDLAYER-2
 10
6.024540
 20
1.756054
 30
0.000000
  0
VERTEX
  8
MERGEDLAYER-2
 10
6.024540
 20
1.563211
 30
0.000000
  0
VERTEX
  8
MERGEDLAYER-2
 10
6.016867
 20
1.563211
 30
0.000000
  0
SEQEND
  8
MERGEDLAYER-2
  0
POLYLINE
  8
MERGEDLAYER-2
 66
  1
 70
  1
 62
  0
  0
VERTEX
  8
MERGEDLAYER-2
 10
6.009201
 20
1.909434
 30
0.000000
  0
VERTEX
  8
MERGEDLAYER-2
 10
6.016867
 20
1.909434
 30
0.000000
  0
VERTEX
  8
MERGEDLAYER-2
 10
6.016867
 20
1.716593
 30
0.000000
  0
VERTEX
  8
MERGEDLAYER-2
 10
6.009201
 20
1.716593
 30
0.000000
  0
SEQEND
  8
MERGEDLAYER-2
  0
POLYLINE
  8
MERGEDLAYER-2
 66
  1
 70
  1
 62
  0
  0
VERTEX
  8
MERGEDLAYER-2
 10
6.016867
 20
2.062810
 30
0.000000
  0
VERTEX
  8
MERGEDLAYER-2
 10
6.024540
 20
2.062810
 30
0.000000
  0
VERTEX
  8
MERGEDLAYER-2
 10
6.024540
 20
1.869972
 30
0.000000
  0
VERTEX
  8
MERGEDLAYER-2
 10
6.016867
 20
1.869972
 30
0.000000
  0
SEQEND
  8
MERGEDLAYER-2
  0
POLYLINE
  8
MERGEDLAYER-2
 66
  1
 70
  1
 62
  0
  0
VERTEX
  8
MERGEDLAYER-2
 10
6.009201
 20
2.216192
 30
0.000000
  0
VERTEX
  8
MERGEDLAYER-2
 10
6.016867
 20
2.216192
 30
0.000000
  0
VERTEX
  8
MERGEDLAYER-2
 10
6.016867
 20
2.023350
 30
0.000000
  0
VERTEX
  8
MERGEDLAYER-2
 10
6.009201
 20
2.023350
 30
0.000000
  0
SEQEND
  8
MERGEDLAYER-2
  0
POLYLINE
  8
MERGEDLAYER-2
 66
  1
 70
  1
 62
  0
  0
VERTEX
  8
MERGEDLAYER-2
 10
6.016867
 20
2.369570
 30
0.000000
  0
VERTEX
  8
MERGEDLAYER-2
 10
6.024540
 20
2.369570
 30
0.000000
  0
VERTEX
  8
MERGEDLAYER-2
 10
6.024540
 20
2.176730
 30
0.000000
  0
VERTEX
  8
MERGEDLAYER-2
 10
6.016867
 20
2.176730
 30
0.000000
  0
SEQEND
  8
MERGEDLAYER-2
  0
POLYLINE
  8
MERGEDLAYER-2
 66
  1
 70
  1
 62
  0
  0
VERTEX
  8
MERGEDLAYER-2
 10
6.009201
 20
2.522951
 30
0.000000
  0
VERTEX
  8
MERGEDLAYER-2
 10
6.016867
 20
2.522951
 30
0.000000
  0
VERTEX
  8
MERGEDLAYER-2
 10
6.016867
 20
2.330111
 30
0.000000
  0
VERTEX
  8
MERGEDLAYER-2
 10
6.009201
 20
2.330111
 30
0.000000
  0
SEQEND
  8
MERGEDLAYER-2
  0
POLYLINE
  8
MERGEDLAYER-2
 66
  1
 70
  1
 62
  0
  0
VERTEX
  8
MERGEDLAYER-2
 10
6.016867
 20
2.676328
 30
0.000000
  0
VERTEX
  8
MERGEDLAYER-2
 10
6.024540
 20
2.676328
 30
0.000000
  0
VERTEX
  8
MERGEDLAYER-2
 10
6.024540
 20
2.483492
 30
0.000000
  0
VERTEX
  8
MERGEDLAYER-2
 10
6.016867
 20
2.483492
 30
0.000000
  0
SEQEND
  8
MERGEDLAYER-2
  0
POLYLINE
  8
MERGEDLAYER-2
 66
  1
 70
  1
 62
  0
  0
VERTEX
  8
MERGEDLAYER-2
 10
6.009201
 20
2.829707
 30
0.000000
  0
VERTEX
  8
MERGEDLAYER-2
 10
6.016867
 20
2.829707
 30
0.000000
  0
VERTEX
  8
MERGEDLAYER-2
 10
6.016867
 20
2.636870
 30
0.000000
  0
VERTEX
  8
MERGEDLAYER-2
 10
6.009201
 20
2.636870
 30
0.000000
  0
SEQEND
  8
MERGEDLAYER-2
  0
POLYLINE
  8
MERGEDLAYER-2
 66
  1
 70
  1
 62
  0
  0
VERTEX
  8
MERGEDLAYER-2
 10
6.016867
 20
2.983086
 30
0.000000
  0
VERTEX
  8
MERGEDLAYER-2
 10
6.024540
 20
2.983086
 30
0.000000
  0
VERTEX
  8
MERGEDLAYER-2
 10
6.024540
 20
2.790248
 30
0.000000
  0
VERTEX
  8
MERGEDLAYER-2
 10
6.016867
 20
2.790248
 30
0.000000
  0
SEQEND
  8
MERGEDLAYER-2
  0
POLYLINE
  8
MERGEDLAYER-2
 66
  1
 70
  1
 62
  0
  0
VERTEX
  8
MERGEDLAYER-2
 10
6.009201
 20
3.136466
 30
0.000000
  0
VERTEX
  8
MERGEDLAYER-2
 10
6.016867
 20
3.136466
 30
0.000000
  0
VERTEX
  8
MERGEDLAYER-2
 10
6.016867
 20
2.943627
 30
0.000000
  0
VERTEX
  8
MERGEDLAYER-2
 10
6.009201
 20
2.943627
 30
0.000000
  0
SEQEND
  8
MERGEDLAYER-2
  0
POLYLINE
  8
MERGEDLAYER-2
 66
  1
 70
  1
 62
  0
  0
VERTEX
  8
MERGEDLAYER-2
 10
6.016867
 20
3.289845
 30
0.000000
  0
VERTEX
  8
MERGEDLAYER-2
 10
6.024540
 20
3.289845
 30
0.000000
  0
VERTEX
  8
MERGEDLAYER-2
 10
6.024540
 20
3.097007
 30
0.000000
  0
VERTEX
  8
MERGEDLAYER-2
 10
6.016867
 20
3.097007
 30
0.000000
  0
SEQEND
  8
MERGEDLAYER-2
  0
POLYLINE
  8
MERGEDLAYER-2
 66
  1
 70
  1
 62
  0
  0
VERTEX
  8
MERGEDLAYER-2
 10
6.009201
 20
3.443225
 30
0.000000
  0
VERTEX
  8
MERGEDLAYER-2
 10
6.016867
 20
3.443225
 30
0.000000
  0
VERTEX
  8
MERGEDLAYER-2
 10
6.016867
 20
3.250387
 30
0.000000
  0
VERTEX
  8
MERGEDLAYER-2
 10
6.009201
 20
3.250387
 30
0.000000
  0
SEQEND
  8
MERGEDLAYER-2
  0
POLYLINE
  8
MERGEDLAYER-2
 66
  1
 70
  1
 62
  0
  0
VERTEX
  8
MERGEDLAYER-2
 10
6.016867
 20
3.902890
 30
0.000000
  0
VERTEX
  8
MERGEDLAYER-2
 10
6.024540
 20
3.902890
 30
0.000000
  0
VERTEX
  8
MERGEDLAYER-2
 10
6.024540
 20
3.710052
 30
0.000000
  0
VERTEX
  8
MERGEDLAYER-2
 10
6.016867
 20
3.710052
 30
0.000000
  0
SEQEND
  8
MERGEDLAYER-2
  0
POLYLINE
  8
MERGEDLAYER-2
 66
  1
 70
  1
 62
  0
  0
VERTEX
  8
MERGEDLAYER-2
 10
6.009201
 20
4.056269
 30
0.000000
  0
VERTEX
  8
MERGEDLAYER-2
 10
6.016867
 20
4.056269
 30
0.000000
  0
VERTEX
  8
MERGEDLAYER-2
 10
6.016867
 20
3.863442
 30
0.000000
  0
VERTEX
  8
MERGEDLAYER-2
 10
6.009201
 20
3.863442
 30
0.000000
  0
SEQEND
  8
MERGEDLAYER-2
  0
POLYLINE
  8
MERGEDLAYER-2
 66
  1
 70
  1
 62
  0
  0
VERTEX
  8
MERGEDLAYER-2
 10
6.016867
 20
4.209175
 30
0.000000
  0
VERTEX
  8
MERGEDLAYER-2
 10
6.024540
 20
4.209175
 30
0.000000
  0
VERTEX
  8
MERGEDLAYER-2
 10
6.024540
 20
4.016337
 30
0.000000
  0
VERTEX
  8
MERGEDLAYER-2
 10
6.016867
 20
4.016337
 30
0.000000
  0
SEQEND
  8
MERGEDLAYER-2
  0
POLYLINE
  8
MERGEDLAYER-2
 66
  1
 70
  1
 62
  0
  0
VERTEX
  8
MERGEDLAYER-2
 10
6.009201
 20
4.362554
 30
0.000000
  0
VERTEX
  8
MERGEDLAYER-2
 10
6.016867
 20
4.362554
 30
0.000000
  0
VERTEX
  8
MERGEDLAYER-2
 10
6.016867
 20
4.169727
 30
0.000000
  0
VERTEX
  8
MERGEDLAYER-2
 10
6.009201
 20
4.169727
 30
0.000000
  0
SEQEND
  8
MERGEDLAYER-2
  0
POLYLINE
  8
MERGEDLAYER-2
 66
  1
 70
  1
 62
  0
  0
VERTEX
  8
MERGEDLAYER-2
 10
6.016867
 20
4.515461
 30
0.000000
  0
VERTEX
  8
MERGEDLAYER-2
 10
6.024540
 20
4.515461
 30
0.000000
  0
VERTEX
  8
MERGEDLAYER-2
 10
6.024540
 20
4.322623
 30
0.000000
  0
VERTEX
  8
MERGEDLAYER-2
 10
6.016867
 20
4.322623
 30
0.000000
  0
SEQEND
  8
MERGEDLAYER-2
  0
POLYLINE
  8
MERGEDLAYER-2
 66
  1
 70
  1
 62
  0
  0
VERTEX
  8
MERGEDLAYER-2
 10
6.009201
 20
4.668841
 30
0.000000
  0
VERTEX
  8
MERGEDLAYER-2
 10
6.016867
 20
4.668841
 30
0.000000
  0
VERTEX
  8
MERGEDLAYER-2
 10
6.016867
 20
4.476014
 30
0.000000
  0
VERTEX
  8
MERGEDLAYER-2
 10
6.009201
 20
4.476014
 30
0.000000
  0
SEQEND
  8
MERGEDLAYER-2
  0
POLYLINE
  8
MERGEDLAYER-2
 66
  1
 70
  1
 62
  0
  0
VERTEX
  8
MERGEDLAYER-2
 10
6.016867
 20
4.821747
 30
0.000000
  0
VERTEX
  8
MERGEDLAYER-2
 10
6.024540
 20
4.821747
 30
0.000000
  0
VERTEX
  8
MERGEDLAYER-2
 10
6.024540
 20
4.628909
 30
0.000000
  0
VERTEX
  8
MERGEDLAYER-2
 10
6.016867
 20
4.628909
 30
0.000000
  0
SEQEND
  8
MERGEDLAYER-2
  0
POLYLINE
  8
MERGEDLAYER-2
 66
  1
 70
  1
 62
  0
  0
VERTEX
  8
MERGEDLAYER-2
 10
6.009201
 20
4.975127
 30
0.000000
  0
VERTEX
  8
MERGEDLAYER-2
 10
6.016867
 20
4.975127
 30
0.000000
  0
VERTEX
  8
MERGEDLAYER-2
 10
6.016867
 20
4.782299
 30
0.000000
  0
VERTEX
  8
MERGEDLAYER-2
 10
6.009201
 20
4.782299
 30
0.000000
  0
SEQEND
  8
MERGEDLAYER-2
  0
POLYLINE
  8
MERGEDLAYER-2
 66
  1
 70
  1
 62
  0
  0
VERTEX
  8
MERGEDLAYER-2
 10
6.016867
 20
5.128032
 30
0.000000
  0
VERTEX
  8
MERGEDLAYER-2
 10
6.024540
 20
5.128032
 30
0.000000
  0
VERTEX
  8
MERGEDLAYER-2
 10
6.024540
 20
4.935195
 30
0.000000
  0
VERTEX
  8
MERGEDLAYER-2
 10
6.016867
 20
4.935195
 30
0.000000
  0
SEQEND
  8
MERGEDLAYER-2
  0
POLYLINE
  8
MERGEDLAYER-2
 66
  1
 70
  1
 62
  0
  0
VERTEX
  8
MERGEDLAYER-2
 10
6.009201
 20
5.281412
 30
0.000000
  0
VERTEX
  8
MERGEDLAYER-2
 10
6.016867
 20
5.281412
 30
0.000000
  0
VERTEX
  8
MERGEDLAYER-2
 10
6.016867
 20
5.088585
 30
0.000000
  0
VERTEX
  8
MERGEDLAYER-2
 10
6.009201
 20
5.088585
 30
0.000000
  0
SEQEND
  8
MERGEDLAYER-2
  0
POLYLINE
  8
MERGEDLAYER-2
 66
  1
 70
  1
 62
  0
  0
VERTEX
  8
MERGEDLAYER-2
 10
3.892361
 20
0.482642
 30
0.000000
  0
VERTEX
  8
MERGEDLAYER-2
 10
4.297831
 20
0.482642
 30
0.000000
  0
VERTEX
  8
MERGEDLAYER-2
 10
4.297831
 20
0.356079
 30
0.000000
  0
VERTEX
  8
MERGEDLAYER-2
 10
3.892361
 20
0.356079
 30
0.000000
  0
SEQEND
  8
MERGEDLAYER-2
  0
POLYLINE
  8
MERGEDLAYER-2
 66
  1
 70
  1
 62
  0
  0
VERTEX
  8
MERGEDLAYER-2
 10
3.905252
 20
0.463775
 30
0.000000
  0
VERTEX
  8
MERGEDLAYER-2
 10
3.920838
 20
0.463775
 30
0.000000
  0
VERTEX
  8
MERGEDLAYER-2
 10
3.920838
 20
0.429908
 30
0.000000
  0
VERTEX
  8
MERGEDLAYER-2
 10
3.905252
 20
0.429908
 30
0.000000
  0
SEQEND
  8
MERGEDLAYER-2
  0
POLYLINE
  8
MERGEDLAYER-2
 66
  1
 70
  1
 62
  0
  0
VERTEX
  8
MERGEDLAYER-2
 10
3.926111
 20
0.463775
 30
0.000000
  0
VERTEX
  8
MERGEDLAYER-2
 10
3.941463
 20
0.463775
 30
0.000000
  0
VERTEX
  8
MERGEDLAYER-2
 10
3.941463
 20
0.429908
 30
0.000000
  0
VERTEX
  8
MERGEDLAYER-2
 10
3.926111
 20
0.429908
 30
0.000000
  0
SEQEND
  8
MERGEDLAYER-2
  0
POLYLINE
  8
MERGEDLAYER-2
 66
  1
 70
  1
 62
  0
  0
VERTEX
  8
MERGEDLAYER-2
 10
3.945916
 20
0.463775
 30
0.000000
  0
VERTEX
  8
MERGEDLAYER-2
 10
3.961268
 20
0.463775
 30
0.000000
  0
VERTEX
  8
MERGEDLAYER-2
 10
3.961268
 20
0.429908
 30
0.000000
  0
VERTEX
  8
MERGEDLAYER-2
 10
3.945916
 20
0.429908
 30
0.000000
  0
SEQEND
  8
MERGEDLAYER-2
  0
POLYLINE
  8
MERGEDLAYER-2
 66
  1
 70
  1
 62
  0
  0
VERTEX
  8
MERGEDLAYER-2
 10
3.966307
 20
0.463775
 30
0.000000
  0
VERTEX
  8
MERGEDLAYER-2
 10
3.981658
 20
0.463775
 30
0.000000
  0
VERTEX
  8
MERGEDLAYER-2
 10
3.981658
 20
0.429908
 30
0.000000
  0
VERTEX
  8
MERGEDLAYER-2
 10
3.966307
 20
0.429908
 30
0.000000
  0
SEQEND
  8
MERGEDLAYER-2
  0
POLYLINE
  8
MERGEDLAYER-2
 66
  1
 70
  1
 62
  0
  0
VERTEX
  8
MERGEDLAYER-2
 10
3.987166
 20
0.454517
 30
0.000000
  0
VERTEX
  8
MERGEDLAYER-2
 10
3.987166
 20
0.463306
 30
0.000000
  0
VERTEX
  8
MERGEDLAYER-2
 10
4.012128
 20
0.463306
 30
0.000000
  0
VERTEX
  8
MERGEDLAYER-2
 10
4.012128
 20
0.454517
 30
0.000000
  0
SEQEND
  8
MERGEDLAYER-2
  0
POLYLINE
  8
MERGEDLAYER-2
 66
  1
 70
  1
 62
  0
  0
VERTEX
  8
MERGEDLAYER-2
 10
3.987167
 20
0.439634
 30
0.000000
  0
VERTEX
  8
MERGEDLAYER-2
 10
3.987167
 20
0.448423
 30
0.000000
  0
VERTEX
  8
MERGEDLAYER-2
 10
4.007557
 20
0.448423
 30
0.000000
  0
VERTEX
  8
MERGEDLAYER-2
 10
4.007557
 20
0.439634
 30
0.000000
  0
SEQEND
  8
MERGEDLAYER-2
  0
POLYLINE
  8
MERGEDLAYER-2
 66
  1
 70
  0
 62
  0
 10
3.905252
 20
0.419361
 30
0.000000
  0
VERTEX
  8
MERGEDLAYER-2
 10
3.905252
 20
0.419361
 30
0.000000
  0
VERTEX
  8
MERGEDLAYER-2
 10
4.292499
 20
0.419244
 30
0.000000
  0
SEQEND
  8
MERGEDLAYER-2
  0
TEXT
  8
MERGEDLAYER-2
 62
  0
 10
4.097222
 20
0.434030
 30
0.000000
 40
0.020833
  1
mobilflex.com
 72
  5
 11
4.375000
 21
0.434030
 31
0.000000
  0
TEXT
  8
MERGEDLAYER-2
 62
  0
 10
3.902778
 20
0.364586
 30
0.000000
 40
0.041667
  1
MobilFlex
 72
  5
 11
4.194444
 21
0.364586
 31
0.000000
  0
TEXT
  8
MERGEDLAYER-2
 62
  0
 10
5.194444
 20
7.072919
 30
0.000000
 40
0.125000
  1
1 
 72
  5
 11
5.402778
 21
7.072919
 31
0.000000
  0
TEXT
  8
MERGEDLAYER-2
 62
  0
 10
5.402778
 20
7.072919
 30
0.000000
 40
0.104167
  1
1/4
 72
  5
 11
5.680556
 21
7.072919
 31
0.000000
  0
TEXT
  8
MERGEDLAYER-2
 62
  0
 10
5.680556
 20
7.072919
 30
0.000000
 40
0.125000
  1
"
 72
  5
 11
5.805556
 21
7.072919
 31
0.000000
  0
TEXT
  8
MERGEDLAYER-2
 62
  0
 10
5.194444
 20
6.878475
 30
0.000000
 40
0.125000
  1
32
 72
  5
 11
5.458333
 21
6.878475
 31
0.000000
  0
TEXT
  8
MERGEDLAYER-2
 62
  0
 10
5.458333
 20
6.878475
 30
0.000000
 40
0.104167
  1
mm
 72
  5
 11
5.750000
 21
6.878475
 31
0.000000
  0
POLYLINE
  8
MERGEDLAYER-2
  6
LTYPE05
 66
  1
 70
  0
 62
  0
  6
LTYPE05
 10
3.965280
 20
7.128474
 30
0.000000
  0
VERTEX
  8
MERGEDLAYER-2
  6
LTYPE05
 10
3.965280
 20
7.128474
 30
0.000000
  0
VERTEX
  8
MERGEDLAYER-2
  6
LTYPE05
 10
5.170139
 20
7.128474
 30
0.000000
  0
SEQEND
  8
MERGEDLAYER-2
  0
TEXT
  8
MERGEDLAYER-2
 62
  0
 10
1.791667
 20
8.559030
 30
0.000000
 40
0.125000
  1
OPEN STYLE ROLLING GRILLE (CLOSER RODS)
 72
  5
 11
5.680556
 21
8.559030
 31
0.000000
  0
ENDSEC
  0
EOF
