  0
SECTION
  2
HEADER
999
MacDraft 5.0\0
  9
$ACADVER
  1
AC1006
  9
$CLAYER
  8
MERGEDLAYER-2
  9
$EXTMIN
 10
0.000000
 20
0.000000
  9
$EXTMAX
 10
7.555556
 20
10.145833
  9
$FASTZOOM
 70
0
  9
$FILLMODE
 70
1
  0
ENDSEC
  0
SECTION
  2
TABLES
  0
TABLE
  2
LTYPE
 70
16
  0
LTYPE
  2
CONTINUOUS
 70
64
  3
Solid Line
 72
65
 73
0
 40
0.000000
  0
LTYPE
  2
LTYPE01
 70
64
  3
CUSTOM
 72
65
 73
2
 40
0.111111
 49
0.083333
 49
-0.027778
  0
LTYPE
  2
LTYPE02
 70
64
  3
CUSTOM
 72
65
 73
2
 40
0.194444
 49
0.166667
 49
-0.027778
  0
LTYPE
  2
LTYPE03
 70
64
  3
CUSTOM
 72
65
 73
2
 40
0.375000
 49
0.333333
 49
-0.041667
  0
LTYPE
  2
LTYPE04
 70
64
  3
CUSTOM
 72
65
 73
2
 40
0.722222
 49
0.666667
 49
-0.055556
  0
LTYPE
  2
LTYPE05
 70
64
  3
CUSTOM
 72
65
 73
4
 40
0.152778
 49
0.083333
 49
-0.027778
 49
0.013889
 49
-0.027778
  0
LTYPE
  2
LTYPE06
 70
64
  3
CUSTOM
 72
65
 73
4
 40
0.236111
 49
0.166667
 49
-0.027778
 49
0.013889
 49
-0.027778
  0
LTYPE
  2
LTYPE07
 70
64
  3
CUSTOM
 72
65
 73
4
 40
0.444444
 49
0.333333
 49
-0.041667
 49
0.027778
 49
-0.041667
  0
LTYPE
  2
LTYPE08
 70
64
  3
CUSTOM
 72
65
 73
4
 40
0.805556
 49
0.666667
 49
-0.055556
 49
0.027778
 49
-0.055556
  0
LTYPE
  2
LTYPE09
 70
64
  3
CUSTOM
 72
65
 73
6
 40
0.194444
 49
0.083333
 49
-0.027778
 49
0.013889
 49
-0.027778
 49
0.013889
 49
-0.027778
  0
LTYPE
  2
LTYPE10
 70
64
  3
CUSTOM
 72
65
 73
6
 40
0.277778
 49
0.166667
 49
-0.027778
 49
0.013889
 49
-0.027778
 49
0.013889
 49
-0.027778
  0
LTYPE
  2
LTYPE11
 70
64
  3
CUSTOM
 72
65
 73
6
 40
0.500000
 49
0.333333
 49
-0.041667
 49
0.027778
 49
-0.027778
 49
0.027778
 49
-0.041667
  0
LTYPE
  2
LTYPE12
 70
64
  3
CUSTOM
 72
65
 73
6
 40
0.861111
 49
0.666667
 49
-0.055556
 49
0.027778
 49
-0.027778
 49
0.027778
 49
-0.055556
  0
LTYPE
  2
LTYPE13
 70
64
  3
CUSTOM
 72
65
 73
8
 40
0.319444
 49
0.166667
 49
-0.027778
 49
0.013889
 49
-0.027778
 49
0.013889
 49
-0.027778
 49
0.013889
 49
-0.027778
  0
LTYPE
  2
LTYPE14
 70
64
  3
CUSTOM
 72
65
 73
8
 40
0.555556
 49
0.333333
 49
-0.041667
 49
0.027778
 49
-0.027778
 49
0.027778
 49
-0.027778
 49
0.027778
 49
-0.041667
  0
LTYPE
  2
LTYPE15
 70
64
  3
CUSTOM
 72
65
 73
8
 40
0.944444
 49
0.666667
 49
-0.055556
 49
0.027778
 49
-0.041667
 49
0.027778
 49
-0.041667
 49
0.027778
 49
-0.055556
  0
ENDTAB
  0
TABLE
  2
LAYER
 70
1
  0
LAYER
  2
MERGEDLAYER-2
 70
0
 62
7
  6
CONTINUOUS
  0
ENDTAB
  0
ENDSEC
  0
SECTION
  2
BLOCKS
  0
ENDSEC
  0
SECTION
  2
ENTITIES
  0
ARC
  8
MERGEDLAYER-2
 62
  0
 10
5.479391
 20
9.074366
 30
0.000000
 40
0.254425
 50
270.000000
 51
90.000000
  0
POLYLINE
  8
MERGEDLAYER-2
 66
  1
 70
  0
 62
  0
 10
5.479391
 20
9.328791
 30
0.000000
  0
VERTEX
  8
MERGEDLAYER-2
 10
5.479391
 20
9.328791
 30
0.000000
  0
VERTEX
  8
MERGEDLAYER-2
 10
1.814469
 20
9.328791
 30
0.000000
  0
SEQEND
  8
MERGEDLAYER-2
  0
POLYLINE
  8
MERGEDLAYER-2
 66
  1
 70
  0
 62
  0
 10
1.814469
 20
9.328791
 30
0.000000
  0
VERTEX
  8
MERGEDLAYER-2
 10
1.814469
 20
9.328791
 30
0.000000
  0
VERTEX
  8
MERGEDLAYER-2
 10
1.814469
 20
8.819942
 30
0.000000
  0
SEQEND
  8
MERGEDLAYER-2
  0
POLYLINE
  8
MERGEDLAYER-2
 66
  1
 70
  0
 62
  0
 10
5.479391
 20
8.819942
 30
0.000000
  0
VERTEX
  8
MERGEDLAYER-2
 10
5.479391
 20
8.819942
 30
0.000000
  0
VERTEX
  8
MERGEDLAYER-2
 10
1.814469
 20
8.819942
 30
0.000000
  0
SEQEND
  8
MERGEDLAYER-2
  0
TEXT
  8
MERGEDLAYER-2
 62
  0
 10
3.625000
 20
9.625000
 30
0.000000
 40
0.333333
  1
MobilFlex
 72
  5
 11
5.777778
 21
9.625000
 31
0.000000
  0
POLYLINE
  8
MERGEDLAYER-2
 66
  1
 70
  1
 62
  0
  0
VERTEX
  8
MERGEDLAYER-2
 10
1.815972
 20
10.144167
 30
0.000000
  0
VERTEX
  8
MERGEDLAYER-2
 10
2.053819
 20
10.144167
 30
0.000000
  0
VERTEX
  8
MERGEDLAYER-2
 10
2.053819
 20
9.627222
 30
0.000000
  0
VERTEX
  8
MERGEDLAYER-2
 10
1.815972
 20
9.627222
 30
0.000000
  0
SEQEND
  8
MERGEDLAYER-2
  0
POLYLINE
  8
MERGEDLAYER-2
 66
  1
 70
  1
 62
  0
  0
VERTEX
  8
MERGEDLAYER-2
 10
2.128472
 20
10.144167
 30
0.000000
  0
VERTEX
  8
MERGEDLAYER-2
 10
2.366319
 20
10.144167
 30
0.000000
  0
VERTEX
  8
MERGEDLAYER-2
 10
2.366319
 20
9.627222
 30
0.000000
  0
VERTEX
  8
MERGEDLAYER-2
 10
2.128472
 20
9.627222
 30
0.000000
  0
SEQEND
  8
MERGEDLAYER-2
  0
POLYLINE
  8
MERGEDLAYER-2
 66
  1
 70
  1
 62
  0
  0
VERTEX
  8
MERGEDLAYER-2
 10
2.428819
 20
10.144167
 30
0.000000
  0
VERTEX
  8
MERGEDLAYER-2
 10
2.666667
 20
10.144167
 30
0.000000
  0
VERTEX
  8
MERGEDLAYER-2
 10
2.666667
 20
9.627222
 30
0.000000
  0
VERTEX
  8
MERGEDLAYER-2
 10
2.428819
 20
9.627222
 30
0.000000
  0
SEQEND
  8
MERGEDLAYER-2
  0
POLYLINE
  8
MERGEDLAYER-2
 66
  1
 70
  1
 62
  0
  0
VERTEX
  8
MERGEDLAYER-2
 10
2.732639
 20
10.144167
 30
0.000000
  0
VERTEX
  8
MERGEDLAYER-2
 10
2.970486
 20
10.144167
 30
0.000000
  0
VERTEX
  8
MERGEDLAYER-2
 10
2.970486
 20
9.627222
 30
0.000000
  0
VERTEX
  8
MERGEDLAYER-2
 10
2.732639
 20
9.627222
 30
0.000000
  0
SEQEND
  8
MERGEDLAYER-2
  0
POLYLINE
  8
MERGEDLAYER-2
 66
  1
 70
  1
 62
  0
  0
VERTEX
  8
MERGEDLAYER-2
 10
3.049479
 20
10.140251
 30
0.000000
  0
VERTEX
  8
MERGEDLAYER-2
 10
3.424913
 20
10.140251
 30
0.000000
  0
VERTEX
  8
MERGEDLAYER-2
 10
3.424913
 20
10.002230
 30
0.000000
  0
VERTEX
  8
MERGEDLAYER-2
 10
3.049479
 20
10.002230
 30
0.000000
  0
SEQEND
  8
MERGEDLAYER-2
  0
POLYLINE
  8
MERGEDLAYER-2
 66
  1
 70
  1
 62
  0
  0
VERTEX
  8
MERGEDLAYER-2
 10
3.049045
 20
9.912821
 30
0.000000
  0
VERTEX
  8
MERGEDLAYER-2
 10
3.357205
 20
9.912821
 30
0.000000
  0
VERTEX
  8
MERGEDLAYER-2
 10
3.357205
 20
9.778706
 30
0.000000
  0
VERTEX
  8
MERGEDLAYER-2
 10
3.049045
 20
9.778706
 30
0.000000
  0
SEQEND
  8
MERGEDLAYER-2
  0
POLYLINE
  8
MERGEDLAYER-2
 66
  1
 70
  1
 62
  0
  0
VERTEX
  8
MERGEDLAYER-2
 10
1.815972
 20
9.542595
 30
0.000000
  0
VERTEX
  8
MERGEDLAYER-2
 10
5.734376
 20
9.542595
 30
0.000000
  0
VERTEX
  8
MERGEDLAYER-2
 10
5.734376
 20
9.499192
 30
0.000000
  0
VERTEX
  8
MERGEDLAYER-2
 10
1.815972
 20
9.499192
 30
0.000000
  0
SEQEND
  8
MERGEDLAYER-2
  0
POLYLINE
  8
MERGEDLAYER-2
 66
  1
 70
  0
 62
  0
 10
5.765264
 20
6.935660
 30
0.000000
  0
VERTEX
  8
MERGEDLAYER-2
 10
5.765264
 20
6.935660
 30
0.000000
  0
VERTEX
  8
MERGEDLAYER-2
 10
5.755647
 20
7.062577
 30
0.000000
  0
VERTEX
  8
MERGEDLAYER-2
 10
5.726890
 20
7.188271
 30
0.000000
  0
VERTEX
  8
MERGEDLAYER-2
 10
5.679268
 20
7.311534
 30
0.000000
  0
VERTEX
  8
MERGEDLAYER-2
 10
5.613240
 20
7.431175
 30
0.000000
  0
VERTEX
  8
MERGEDLAYER-2
 10
5.529444
 20
7.546045
 30
0.000000
  0
VERTEX
  8
MERGEDLAYER-2
 10
5.428684
 20
7.655037
 30
0.000000
  0
VERTEX
  8
MERGEDLAYER-2
 10
5.311932
 20
7.757100
 30
0.000000
  0
VERTEX
  8
MERGEDLAYER-2
 10
5.180313
 20
7.851253
 30
0.000000
  0
VERTEX
  8
MERGEDLAYER-2
 10
5.035093
 20
7.936589
 30
0.000000
  0
VERTEX
  8
MERGEDLAYER-2
 10
4.877672
 20
8.012284
 30
0.000000
  0
VERTEX
  8
MERGEDLAYER-2
 10
4.709565
 20
8.077611
 30
0.000000
  0
VERTEX
  8
MERGEDLAYER-2
 10
4.532391
 20
8.131941
 30
0.000000
  0
VERTEX
  8
MERGEDLAYER-2
 10
4.347858
 20
8.174749
 30
0.000000
  0
VERTEX
  8
MERGEDLAYER-2
 10
4.157740
 20
8.205624
 30
0.000000
  0
VERTEX
  8
MERGEDLAYER-2
 10
3.963871
 20
8.224269
 30
0.000000
  0
VERTEX
  8
MERGEDLAYER-2
 10
3.768116
 20
8.230504
 30
0.000000
  0
VERTEX
  8
MERGEDLAYER-2
 10
3.572361
 20
8.224269
 30
0.000000
  0
VERTEX
  8
MERGEDLAYER-2
 10
3.378491
 20
8.205624
 30
0.000000
  0
VERTEX
  8
MERGEDLAYER-2
 10
3.188374
 20
8.174749
 30
0.000000
  0
VERTEX
  8
MERGEDLAYER-2
 10
3.003840
 20
8.131941
 30
0.000000
  0
VERTEX
  8
MERGEDLAYER-2
 10
2.826666
 20
8.077611
 30
0.000000
  0
VERTEX
  8
MERGEDLAYER-2
 10
2.658559
 20
8.012284
 30
0.000000
  0
VERTEX
  8
MERGEDLAYER-2
 10
2.501138
 20
7.936589
 30
0.000000
  0
VERTEX
  8
MERGEDLAYER-2
 10
2.355918
 20
7.851253
 30
0.000000
  0
VERTEX
  8
MERGEDLAYER-2
 10
2.224299
 20
7.757100
 30
0.000000
  0
VERTEX
  8
MERGEDLAYER-2
 10
2.107547
 20
7.655037
 30
0.000000
  0
VERTEX
  8
MERGEDLAYER-2
 10
2.006788
 20
7.546045
 30
0.000000
  0
VERTEX
  8
MERGEDLAYER-2
 10
1.922991
 20
7.431175
 30
0.000000
  0
VERTEX
  8
MERGEDLAYER-2
 10
1.856964
 20
7.311534
 30
0.000000
  0
VERTEX
  8
MERGEDLAYER-2
 10
1.809342
 20
7.188271
 30
0.000000
  0
VERTEX
  8
MERGEDLAYER-2
 10
1.780584
 20
7.062577
 30
0.000000
  0
VERTEX
  8
MERGEDLAYER-2
 10
1.770967
 20
6.935660
 30
0.000000
  0
VERTEX
  8
MERGEDLAYER-2
 10
1.780584
 20
6.808743
 30
0.000000
  0
VERTEX
  8
MERGEDLAYER-2
 10
1.809342
 20
6.683048
 30
0.000000
  0
VERTEX
  8
MERGEDLAYER-2
 10
1.856964
 20
6.559786
 30
0.000000
  0
VERTEX
  8
MERGEDLAYER-2
 10
1.922991
 20
6.440144
 30
0.000000
  0
VERTEX
  8
MERGEDLAYER-2
 10
2.006788
 20
6.325274
 30
0.000000
  0
VERTEX
  8
MERGEDLAYER-2
 10
2.107547
 20
6.216282
 30
0.000000
  0
VERTEX
  8
MERGEDLAYER-2
 10
2.224299
 20
6.114219
 30
0.000000
  0
VERTEX
  8
MERGEDLAYER-2
 10
2.355918
 20
6.020066
 30
0.000000
  0
VERTEX
  8
MERGEDLAYER-2
 10
2.501138
 20
5.934731
 30
0.000000
  0
VERTEX
  8
MERGEDLAYER-2
 10
2.658559
 20
5.859035
 30
0.000000
  0
VERTEX
  8
MERGEDLAYER-2
 10
2.826666
 20
5.793708
 30
0.000000
  0
VERTEX
  8
MERGEDLAYER-2
 10
3.003840
 20
5.739379
 30
0.000000
  0
VERTEX
  8
MERGEDLAYER-2
 10
3.188374
 20
5.696570
 30
0.000000
  0
VERTEX
  8
MERGEDLAYER-2
 10
3.378491
 20
5.665695
 30
0.000000
  0
VERTEX
  8
MERGEDLAYER-2
 10
3.572361
 20
5.647050
 30
0.000000
  0
VERTEX
  8
MERGEDLAYER-2
 10
3.768116
 20
5.640814
 30
0.000000
  0
VERTEX
  8
MERGEDLAYER-2
 10
3.963871
 20
5.647050
 30
0.000000
  0
VERTEX
  8
MERGEDLAYER-2
 10
4.157740
 20
5.665695
 30
0.000000
  0
VERTEX
  8
MERGEDLAYER-2
 10
4.347858
 20
5.696570
 30
0.000000
  0
VERTEX
  8
MERGEDLAYER-2
 10
4.532391
 20
5.739379
 30
0.000000
  0
VERTEX
  8
MERGEDLAYER-2
 10
4.709565
 20
5.793708
 30
0.000000
  0
VERTEX
  8
MERGEDLAYER-2
 10
4.877672
 20
5.859035
 30
0.000000
  0
VERTEX
  8
MERGEDLAYER-2
 10
5.035093
 20
5.934731
 30
0.000000
  0
VERTEX
  8
MERGEDLAYER-2
 10
5.180313
 20
6.020066
 30
0.000000
  0
VERTEX
  8
MERGEDLAYER-2
 10
5.311932
 20
6.114219
 30
0.000000
  0
VERTEX
  8
MERGEDLAYER-2
 10
5.428684
 20
6.216282
 30
0.000000
  0
VERTEX
  8
MERGEDLAYER-2
 10
5.529444
 20
6.325274
 30
0.000000
  0
VERTEX
  8
MERGEDLAYER-2
 10
5.613240
 20
6.440144
 30
0.000000
  0
VERTEX
  8
MERGEDLAYER-2
 10
5.679268
 20
6.559786
 30
0.000000
  0
VERTEX
  8
MERGEDLAYER-2
 10
5.726890
 20
6.683048
 30
0.000000
  0
VERTEX
  8
MERGEDLAYER-2
 10
5.755647
 20
6.808743
 30
0.000000
  0
VERTEX
  8
MERGEDLAYER-2
 10
5.765264
 20
6.935660
 30
0.000000
  0
SEQEND
  8
MERGEDLAYER-2
  0
POLYLINE
  8
MERGEDLAYER-2
 66
  1
 70
  0
 62
  0
 10
2.215683
 20
6.865125
 30
0.000000
  0
VERTEX
  8
MERGEDLAYER-2
 10
2.215683
 20
6.865125
 30
0.000000
  0
VERTEX
  8
MERGEDLAYER-2
 10
2.215683
 20
7.362986
 30
0.000000
  0
SEQEND
  8
MERGEDLAYER-2
  0
POLYLINE
  8
MERGEDLAYER-2
 66
  1
 70
  0
 62
  0
 10
2.276377
 20
7.423679
 30
0.000000
  0
VERTEX
  8
MERGEDLAYER-2
 10
2.276377
 20
7.423679
 30
0.000000
  0
VERTEX
  8
MERGEDLAYER-2
 10
2.276377
 20
7.423679
 30
0.000000
  0
SEQEND
  8
MERGEDLAYER-2
  0
POLYLINE
  8
MERGEDLAYER-2
 66
  1
 70
  0
 62
  0
 10
2.337070
 20
7.362986
 30
0.000000
  0
VERTEX
  8
MERGEDLAYER-2
 10
2.337070
 20
7.362986
 30
0.000000
  0
VERTEX
  8
MERGEDLAYER-2
 10
2.337070
 20
6.865125
 30
0.000000
  0
SEQEND
  8
MERGEDLAYER-2
  0
POLYLINE
  8
MERGEDLAYER-2
 66
  1
 70
  0
 62
  0
 10
2.276377
 20
6.804432
 30
0.000000
  0
VERTEX
  8
MERGEDLAYER-2
 10
2.276377
 20
6.804432
 30
0.000000
  0
VERTEX
  8
MERGEDLAYER-2
 10
2.276377
 20
6.804432
 30
0.000000
  0
SEQEND
  8
MERGEDLAYER-2
  0
ARC
  8
MERGEDLAYER-2
 62
  0
 10
2.276377
 20
6.865125
 30
0.000000
 40
0.060693
 50
180.000000
 51
270.000000
  0
ARC
  8
MERGEDLAYER-2
 62
  0
 10
2.276377
 20
6.865125
 30
0.000000
 40
0.060693
 50
270.000000
 51
0.000000
  0
ARC
  8
MERGEDLAYER-2
 62
  0
 10
2.276377
 20
7.362986
 30
0.000000
 40
0.060693
 50
0.000000
 51
90.000000
  0
ARC
  8
MERGEDLAYER-2
 62
  0
 10
2.276377
 20
7.362986
 30
0.000000
 40
0.060693
 50
90.000000
 51
180.000000
  0
CIRCLE
  8
MERGEDLAYER-2
 62
  0
 10
2.276377
 20
7.356837
 30
0.000000
 40
0.032370
  0
CIRCLE
  8
MERGEDLAYER-2
 62
  0
 10
2.276377
 20
6.871291
 30
0.000000
 40
0.033044
  0
POLYLINE
  8
MERGEDLAYER-2
 66
  1
 70
  0
 62
  0
 10
2.215988
 20
6.380873
 30
0.000000
  0
VERTEX
  8
MERGEDLAYER-2
 10
2.215988
 20
6.380873
 30
0.000000
  0
VERTEX
  8
MERGEDLAYER-2
 10
2.215988
 20
6.878734
 30
0.000000
  0
SEQEND
  8
MERGEDLAYER-2
  0
POLYLINE
  8
MERGEDLAYER-2
 66
  1
 70
  0
 62
  0
 10
2.276681
 20
6.939427
 30
0.000000
  0
VERTEX
  8
MERGEDLAYER-2
 10
2.276681
 20
6.939427
 30
0.000000
  0
VERTEX
  8
MERGEDLAYER-2
 10
2.276681
 20
6.939427
 30
0.000000
  0
SEQEND
  8
MERGEDLAYER-2
  0
POLYLINE
  8
MERGEDLAYER-2
 66
  1
 70
  0
 62
  0
 10
2.337374
 20
6.878734
 30
0.000000
  0
VERTEX
  8
MERGEDLAYER-2
 10
2.337374
 20
6.878734
 30
0.000000
  0
VERTEX
  8
MERGEDLAYER-2
 10
2.337374
 20
6.380873
 30
0.000000
  0
SEQEND
  8
MERGEDLAYER-2
  0
POLYLINE
  8
MERGEDLAYER-2
 66
  1
 70
  0
 62
  0
 10
2.276681
 20
6.320180
 30
0.000000
  0
VERTEX
  8
MERGEDLAYER-2
 10
2.276681
 20
6.320180
 30
0.000000
  0
VERTEX
  8
MERGEDLAYER-2
 10
2.276681
 20
6.320180
 30
0.000000
  0
SEQEND
  8
MERGEDLAYER-2
  0
ARC
  8
MERGEDLAYER-2
 62
  0
 10
2.276681
 20
6.380873
 30
0.000000
 40
0.060693
 50
180.000000
 51
270.000000
  0
ARC
  8
MERGEDLAYER-2
 62
  0
 10
2.276681
 20
6.380873
 30
0.000000
 40
0.060693
 50
270.000000
 51
0.000000
  0
ARC
  8
MERGEDLAYER-2
 62
  0
 10
2.276681
 20
6.878734
 30
0.000000
 40
0.060693
 50
0.000000
 51
90.000000
  0
ARC
  8
MERGEDLAYER-2
 62
  0
 10
2.276681
 20
6.878734
 30
0.000000
 40
0.060693
 50
90.000000
 51
180.000000
  0
CIRCLE
  8
MERGEDLAYER-2
 62
  0
 10
2.276681
 20
6.872584
 30
0.000000
 40
0.032370
  0
CIRCLE
  8
MERGEDLAYER-2
 62
  0
 10
2.276681
 20
6.387039
 30
0.000000
 40
0.033044
  0
CIRCLE
  8
MERGEDLAYER-2
 62
  0
 10
2.276681
 20
6.872584
 30
0.000000
 40
0.042862
  0
CIRCLE
  8
MERGEDLAYER-2
 62
  0
 10
2.276681
 20
6.872584
 30
0.000000
 40
0.029283
  0
CIRCLE
  8
MERGEDLAYER-2
 62
  0
 10
2.276752
 20
7.359478
 30
0.000000
 40
0.042862
  0
CIRCLE
  8
MERGEDLAYER-2
 62
  0
 10
2.276752
 20
7.359478
 30
0.000000
 40
0.029283
  0
CIRCLE
  8
MERGEDLAYER-2
 62
  0
 10
2.276681
 20
6.385461
 30
0.000000
 40
0.042862
  0
CIRCLE
  8
MERGEDLAYER-2
 62
  0
 10
2.276681
 20
6.385461
 30
0.000000
 40
0.029283
  0
POLYLINE
  8
MERGEDLAYER-2
 66
  1
 70
  1
 62
  0
  0
VERTEX
  8
MERGEDLAYER-2
 10
0.986542
 20
5.271452
 30
0.000000
  0
VERTEX
  8
MERGEDLAYER-2
 10
6.571757
 20
5.271452
 30
0.000000
  0
VERTEX
  8
MERGEDLAYER-2
 10
6.571757
 20
5.244609
 30
0.000000
  0
VERTEX
  8
MERGEDLAYER-2
 10
0.986542
 20
5.244609
 30
0.000000
  0
SEQEND
  8
MERGEDLAYER-2
  0
POLYLINE
  8
MERGEDLAYER-2
 66
  1
 70
  1
 62
  0
  0
VERTEX
  8
MERGEDLAYER-2
 10
0.986542
 20
5.118052
 30
0.000000
  0
VERTEX
  8
MERGEDLAYER-2
 10
6.571757
 20
5.118052
 30
0.000000
  0
VERTEX
  8
MERGEDLAYER-2
 10
6.571757
 20
5.091209
 30
0.000000
  0
VERTEX
  8
MERGEDLAYER-2
 10
0.986542
 20
5.091209
 30
0.000000
  0
SEQEND
  8
MERGEDLAYER-2
  0
POLYLINE
  8
MERGEDLAYER-2
 66
  1
 70
  1
 62
  0
  0
VERTEX
  8
MERGEDLAYER-2
 10
0.986542
 20
4.964652
 30
0.000000
  0
VERTEX
  8
MERGEDLAYER-2
 10
6.571757
 20
4.964652
 30
0.000000
  0
VERTEX
  8
MERGEDLAYER-2
 10
6.571757
 20
4.937809
 30
0.000000
  0
VERTEX
  8
MERGEDLAYER-2
 10
0.986542
 20
4.937809
 30
0.000000
  0
SEQEND
  8
MERGEDLAYER-2
  0
POLYLINE
  8
MERGEDLAYER-2
 66
  1
 70
  1
 62
  0
  0
VERTEX
  8
MERGEDLAYER-2
 10
0.986542
 20
4.812120
 30
0.000000
  0
VERTEX
  8
MERGEDLAYER-2
 10
6.571757
 20
4.812120
 30
0.000000
  0
VERTEX
  8
MERGEDLAYER-2
 10
6.571757
 20
4.785277
 30
0.000000
  0
VERTEX
  8
MERGEDLAYER-2
 10
0.986542
 20
4.785277
 30
0.000000
  0
SEQEND
  8
MERGEDLAYER-2
  0
POLYLINE
  8
MERGEDLAYER-2
 66
  1
 70
  1
 62
  0
  0
VERTEX
  8
MERGEDLAYER-2
 10
0.986542
 20
4.658719
 30
0.000000
  0
VERTEX
  8
MERGEDLAYER-2
 10
6.571757
 20
4.658719
 30
0.000000
  0
VERTEX
  8
MERGEDLAYER-2
 10
6.571757
 20
4.631877
 30
0.000000
  0
VERTEX
  8
MERGEDLAYER-2
 10
0.986542
 20
4.631877
 30
0.000000
  0
SEQEND
  8
MERGEDLAYER-2
  0
POLYLINE
  8
MERGEDLAYER-2
 66
  1
 70
  1
 62
  0
  0
VERTEX
  8
MERGEDLAYER-2
 10
0.986542
 20
4.505753
 30
0.000000
  0
VERTEX
  8
MERGEDLAYER-2
 10
6.571757
 20
4.505753
 30
0.000000
  0
VERTEX
  8
MERGEDLAYER-2
 10
6.571757
 20
4.478910
 30
0.000000
  0
VERTEX
  8
MERGEDLAYER-2
 10
0.986542
 20
4.478910
 30
0.000000
  0
SEQEND
  8
MERGEDLAYER-2
  0
POLYLINE
  8
MERGEDLAYER-2
 66
  1
 70
  1
 62
  0
  0
VERTEX
  8
MERGEDLAYER-2
 10
0.986542
 20
4.352353
 30
0.000000
  0
VERTEX
  8
MERGEDLAYER-2
 10
6.571757
 20
4.352353
 30
0.000000
  0
VERTEX
  8
MERGEDLAYER-2
 10
6.571757
 20
4.325510
 30
0.000000
  0
VERTEX
  8
MERGEDLAYER-2
 10
0.986542
 20
4.325510
 30
0.000000
  0
SEQEND
  8
MERGEDLAYER-2
  0
POLYLINE
  8
MERGEDLAYER-2
 66
  1
 70
  1
 62
  0
  0
VERTEX
  8
MERGEDLAYER-2
 10
0.986542
 20
4.199387
 30
0.000000
  0
VERTEX
  8
MERGEDLAYER-2
 10
6.571757
 20
4.199387
 30
0.000000
  0
VERTEX
  8
MERGEDLAYER-2
 10
6.571757
 20
4.172544
 30
0.000000
  0
VERTEX
  8
MERGEDLAYER-2
 10
0.986542
 20
4.172544
 30
0.000000
  0
SEQEND
  8
MERGEDLAYER-2
  0
POLYLINE
  8
MERGEDLAYER-2
 66
  1
 70
  1
 62
  0
  0
VERTEX
  8
MERGEDLAYER-2
 10
0.986542
 20
4.045987
 30
0.000000
  0
VERTEX
  8
MERGEDLAYER-2
 10
6.571757
 20
4.045987
 30
0.000000
  0
VERTEX
  8
MERGEDLAYER-2
 10
6.571757
 20
4.019144
 30
0.000000
  0
VERTEX
  8
MERGEDLAYER-2
 10
0.986542
 20
4.019144
 30
0.000000
  0
SEQEND
  8
MERGEDLAYER-2
  0
POLYLINE
  8
MERGEDLAYER-2
 66
  1
 70
  1
 62
  0
  0
VERTEX
  8
MERGEDLAYER-2
 10
0.986542
 20
3.893021
 30
0.000000
  0
VERTEX
  8
MERGEDLAYER-2
 10
6.571757
 20
3.893021
 30
0.000000
  0
VERTEX
  8
MERGEDLAYER-2
 10
6.571757
 20
3.866178
 30
0.000000
  0
VERTEX
  8
MERGEDLAYER-2
 10
0.986542
 20
3.866178
 30
0.000000
  0
SEQEND
  8
MERGEDLAYER-2
  0
POLYLINE
  8
MERGEDLAYER-2
 66
  1
 70
  1
 62
  0
  0
VERTEX
  8
MERGEDLAYER-2
 10
0.986542
 20
3.739621
 30
0.000000
  0
VERTEX
  8
MERGEDLAYER-2
 10
6.571757
 20
3.739621
 30
0.000000
  0
VERTEX
  8
MERGEDLAYER-2
 10
6.571757
 20
3.712778
 30
0.000000
  0
VERTEX
  8
MERGEDLAYER-2
 10
0.986542
 20
3.712778
 30
0.000000
  0
SEQEND
  8
MERGEDLAYER-2
  0
POLYLINE
  8
MERGEDLAYER-2
 66
  1
 70
  1
 62
  0
  0
VERTEX
  8
MERGEDLAYER-2
 10
0.986542
 20
3.586655
 30
0.000000
  0
VERTEX
  8
MERGEDLAYER-2
 10
6.571757
 20
3.586655
 30
0.000000
  0
VERTEX
  8
MERGEDLAYER-2
 10
6.571757
 20
3.559812
 30
0.000000
  0
VERTEX
  8
MERGEDLAYER-2
 10
0.986542
 20
3.559812
 30
0.000000
  0
SEQEND
  8
MERGEDLAYER-2
  0
POLYLINE
  8
MERGEDLAYER-2
 66
  1
 70
  1
 62
  0
  0
VERTEX
  8
MERGEDLAYER-2
 10
0.986542
 20
3.433689
 30
0.000000
  0
VERTEX
  8
MERGEDLAYER-2
 10
6.571757
 20
3.433689
 30
0.000000
  0
VERTEX
  8
MERGEDLAYER-2
 10
6.571757
 20
3.406846
 30
0.000000
  0
VERTEX
  8
MERGEDLAYER-2
 10
0.986542
 20
3.406846
 30
0.000000
  0
SEQEND
  8
MERGEDLAYER-2
  0
POLYLINE
  8
MERGEDLAYER-2
 66
  1
 70
  1
 62
  0
  0
VERTEX
  8
MERGEDLAYER-2
 10
0.986542
 20
3.279855
 30
0.000000
  0
VERTEX
  8
MERGEDLAYER-2
 10
6.571757
 20
3.279855
 30
0.000000
  0
VERTEX
  8
MERGEDLAYER-2
 10
6.571757
 20
3.253012
 30
0.000000
  0
VERTEX
  8
MERGEDLAYER-2
 10
0.986542
 20
3.253012
 30
0.000000
  0
SEQEND
  8
MERGEDLAYER-2
  0
POLYLINE
  8
MERGEDLAYER-2
 66
  1
 70
  1
 62
  0
  0
VERTEX
  8
MERGEDLAYER-2
 10
0.986542
 20
3.126455
 30
0.000000
  0
VERTEX
  8
MERGEDLAYER-2
 10
6.571757
 20
3.126455
 30
0.000000
  0
VERTEX
  8
MERGEDLAYER-2
 10
6.571757
 20
3.099611
 30
0.000000
  0
VERTEX
  8
MERGEDLAYER-2
 10
0.986542
 20
3.099611
 30
0.000000
  0
SEQEND
  8
MERGEDLAYER-2
  0
POLYLINE
  8
MERGEDLAYER-2
 66
  1
 70
  1
 62
  0
  0
VERTEX
  8
MERGEDLAYER-2
 10
0.986542
 20
2.973055
 30
0.000000
  0
VERTEX
  8
MERGEDLAYER-2
 10
6.571757
 20
2.973055
 30
0.000000
  0
VERTEX
  8
MERGEDLAYER-2
 10
6.571757
 20
2.946211
 30
0.000000
  0
VERTEX
  8
MERGEDLAYER-2
 10
0.986542
 20
2.946211
 30
0.000000
  0
SEQEND
  8
MERGEDLAYER-2
  0
POLYLINE
  8
MERGEDLAYER-2
 66
  1
 70
  1
 62
  0
  0
VERTEX
  8
MERGEDLAYER-2
 10
0.986542
 20
2.819654
 30
0.000000
  0
VERTEX
  8
MERGEDLAYER-2
 10
6.571757
 20
2.819654
 30
0.000000
  0
VERTEX
  8
MERGEDLAYER-2
 10
6.571757
 20
2.792811
 30
0.000000
  0
VERTEX
  8
MERGEDLAYER-2
 10
0.986542
 20
2.792811
 30
0.000000
  0
SEQEND
  8
MERGEDLAYER-2
  0
POLYLINE
  8
MERGEDLAYER-2
 66
  1
 70
  1
 62
  0
  0
VERTEX
  8
MERGEDLAYER-2
 10
0.986542
 20
2.666688
 30
0.000000
  0
VERTEX
  8
MERGEDLAYER-2
 10
6.571757
 20
2.666688
 30
0.000000
  0
VERTEX
  8
MERGEDLAYER-2
 10
6.571757
 20
2.639845
 30
0.000000
  0
VERTEX
  8
MERGEDLAYER-2
 10
0.986542
 20
2.639845
 30
0.000000
  0
SEQEND
  8
MERGEDLAYER-2
  0
POLYLINE
  8
MERGEDLAYER-2
 66
  1
 70
  1
 62
  0
  0
VERTEX
  8
MERGEDLAYER-2
 10
0.986542
 20
2.512854
 30
0.000000
  0
VERTEX
  8
MERGEDLAYER-2
 10
6.571757
 20
2.512854
 30
0.000000
  0
VERTEX
  8
MERGEDLAYER-2
 10
6.571757
 20
2.486011
 30
0.000000
  0
VERTEX
  8
MERGEDLAYER-2
 10
0.986542
 20
2.486011
 30
0.000000
  0
SEQEND
  8
MERGEDLAYER-2
  0
POLYLINE
  8
MERGEDLAYER-2
 66
  1
 70
  1
 62
  0
  0
VERTEX
  8
MERGEDLAYER-2
 10
0.986542
 20
2.359891
 30
0.000000
  0
VERTEX
  8
MERGEDLAYER-2
 10
6.571757
 20
2.359891
 30
0.000000
  0
VERTEX
  8
MERGEDLAYER-2
 10
6.571757
 20
2.333049
 30
0.000000
  0
VERTEX
  8
MERGEDLAYER-2
 10
0.986542
 20
2.333049
 30
0.000000
  0
SEQEND
  8
MERGEDLAYER-2
  0
POLYLINE
  8
MERGEDLAYER-2
 66
  1
 70
  1
 62
  0
  0
VERTEX
  8
MERGEDLAYER-2
 10
0.986542
 20
2.206491
 30
0.000000
  0
VERTEX
  8
MERGEDLAYER-2
 10
6.571757
 20
2.206491
 30
0.000000
  0
VERTEX
  8
MERGEDLAYER-2
 10
6.571757
 20
2.179649
 30
0.000000
  0
VERTEX
  8
MERGEDLAYER-2
 10
0.986542
 20
2.179649
 30
0.000000
  0
SEQEND
  8
MERGEDLAYER-2
  0
POLYLINE
  8
MERGEDLAYER-2
 66
  1
 70
  1
 62
  0
  0
VERTEX
  8
MERGEDLAYER-2
 10
0.986542
 20
2.053091
 30
0.000000
  0
VERTEX
  8
MERGEDLAYER-2
 10
6.571757
 20
2.053091
 30
0.000000
  0
VERTEX
  8
MERGEDLAYER-2
 10
6.571757
 20
2.026249
 30
0.000000
  0
VERTEX
  8
MERGEDLAYER-2
 10
0.986542
 20
2.026249
 30
0.000000
  0
SEQEND
  8
MERGEDLAYER-2
  0
POLYLINE
  8
MERGEDLAYER-2
 66
  1
 70
  1
 62
  0
  0
VERTEX
  8
MERGEDLAYER-2
 10
0.986542
 20
1.899691
 30
0.000000
  0
VERTEX
  8
MERGEDLAYER-2
 10
6.571757
 20
1.899691
 30
0.000000
  0
VERTEX
  8
MERGEDLAYER-2
 10
6.571757
 20
1.872848
 30
0.000000
  0
VERTEX
  8
MERGEDLAYER-2
 10
0.986542
 20
1.872848
 30
0.000000
  0
SEQEND
  8
MERGEDLAYER-2
  0
POLYLINE
  8
MERGEDLAYER-2
 66
  1
 70
  1
 62
  0
  0
VERTEX
  8
MERGEDLAYER-2
 10
0.986542
 20
1.746291
 30
0.000000
  0
VERTEX
  8
MERGEDLAYER-2
 10
6.571757
 20
1.746291
 30
0.000000
  0
VERTEX
  8
MERGEDLAYER-2
 10
6.571757
 20
1.719448
 30
0.000000
  0
VERTEX
  8
MERGEDLAYER-2
 10
0.986542
 20
1.719448
 30
0.000000
  0
SEQEND
  8
MERGEDLAYER-2
  0
POLYLINE
  8
MERGEDLAYER-2
 66
  1
 70
  1
 62
  0
  0
VERTEX
  8
MERGEDLAYER-2
 10
0.986542
 20
1.592890
 30
0.000000
  0
VERTEX
  8
MERGEDLAYER-2
 10
6.571757
 20
1.592890
 30
0.000000
  0
VERTEX
  8
MERGEDLAYER-2
 10
6.571757
 20
1.566048
 30
0.000000
  0
VERTEX
  8
MERGEDLAYER-2
 10
0.986542
 20
1.566048
 30
0.000000
  0
SEQEND
  8
MERGEDLAYER-2
  0
POLYLINE
  8
MERGEDLAYER-2
 66
  1
 70
  1
 62
  0
  0
VERTEX
  8
MERGEDLAYER-2
 10
0.986542
 20
1.439490
 30
0.000000
  0
VERTEX
  8
MERGEDLAYER-2
 10
6.571757
 20
1.439490
 30
0.000000
  0
VERTEX
  8
MERGEDLAYER-2
 10
6.571757
 20
1.412648
 30
0.000000
  0
VERTEX
  8
MERGEDLAYER-2
 10
0.986542
 20
1.412648
 30
0.000000
  0
SEQEND
  8
MERGEDLAYER-2
  0
POLYLINE
  8
MERGEDLAYER-2
 66
  1
 70
  1
 62
  0
  0
VERTEX
  8
MERGEDLAYER-2
 10
0.986542
 20
1.286090
 30
0.000000
  0
VERTEX
  8
MERGEDLAYER-2
 10
6.571757
 20
1.286090
 30
0.000000
  0
VERTEX
  8
MERGEDLAYER-2
 10
6.571757
 20
1.259248
 30
0.000000
  0
VERTEX
  8
MERGEDLAYER-2
 10
0.986542
 20
1.259248
 30
0.000000
  0
SEQEND
  8
MERGEDLAYER-2
  0
POLYLINE
  8
MERGEDLAYER-2
 66
  1
 70
  1
 62
  0
  0
VERTEX
  8
MERGEDLAYER-2
 10
0.986542
 20
1.132690
 30
0.000000
  0
VERTEX
  8
MERGEDLAYER-2
 10
6.571757
 20
1.132690
 30
0.000000
  0
VERTEX
  8
MERGEDLAYER-2
 10
6.571757
 20
1.105848
 30
0.000000
  0
VERTEX
  8
MERGEDLAYER-2
 10
0.986542
 20
1.105848
 30
0.000000
  0
SEQEND
  8
MERGEDLAYER-2
  0
POLYLINE
  8
MERGEDLAYER-2
 66
  1
 70
  1
 62
  0
  0
VERTEX
  8
MERGEDLAYER-2
 10
0.986542
 20
0.979290
 30
0.000000
  0
VERTEX
  8
MERGEDLAYER-2
 10
6.571757
 20
0.979290
 30
0.000000
  0
VERTEX
  8
MERGEDLAYER-2
 10
6.571757
 20
0.952448
 30
0.000000
  0
VERTEX
  8
MERGEDLAYER-2
 10
0.986542
 20
0.952448
 30
0.000000
  0
SEQEND
  8
MERGEDLAYER-2
  0
POLYLINE
  8
MERGEDLAYER-2
 66
  1
 70
  1
 62
  0
  0
VERTEX
  8
MERGEDLAYER-2
 10
0.986542
 20
0.825890
 30
0.000000
  0
VERTEX
  8
MERGEDLAYER-2
 10
6.571757
 20
0.825890
 30
0.000000
  0
VERTEX
  8
MERGEDLAYER-2
 10
6.571757
 20
0.799048
 30
0.000000
  0
VERTEX
  8
MERGEDLAYER-2
 10
0.986542
 20
0.799048
 30
0.000000
  0
SEQEND
  8
MERGEDLAYER-2
  0
POLYLINE
  8
MERGEDLAYER-2
 66
  1
 70
  1
 62
  0
  0
VERTEX
  8
MERGEDLAYER-2
 10
0.986542
 20
0.672490
 30
0.000000
  0
VERTEX
  8
MERGEDLAYER-2
 10
6.571757
 20
0.672490
 30
0.000000
  0
VERTEX
  8
MERGEDLAYER-2
 10
6.571757
 20
0.645647
 30
0.000000
  0
VERTEX
  8
MERGEDLAYER-2
 10
0.986542
 20
0.645647
 30
0.000000
  0
SEQEND
  8
MERGEDLAYER-2
  0
POLYLINE
  8
MERGEDLAYER-2
 66
  1
 70
  1
 62
  0
  0
VERTEX
  8
MERGEDLAYER-2
 10
0.998683
 20
0.513479
 30
0.000000
  0
VERTEX
  8
MERGEDLAYER-2
 10
6.558483
 20
0.513479
 30
0.000000
  0
VERTEX
  8
MERGEDLAYER-2
 10
6.558483
 20
0.277779
 30
0.000000
  0
VERTEX
  8
MERGEDLAYER-2
 10
0.998683
 20
0.277779
 30
0.000000
  0
SEQEND
  8
MERGEDLAYER-2
  0
POLYLINE
  8
MERGEDLAYER-2
 66
  1
 70
  0
 62
  0
 10
0.999618
 20
0.343425
 30
0.000000
  0
VERTEX
  8
MERGEDLAYER-2
 10
0.999618
 20
0.343425
 30
0.000000
  0
VERTEX
  8
MERGEDLAYER-2
 10
6.558929
 20
0.343425
 30
0.000000
  0
SEQEND
  8
MERGEDLAYER-2
  0
POLYLINE
  8
MERGEDLAYER-2
 66
  1
 70
  0
 62
  0
 10
0.999618
 20
0.322122
 30
0.000000
  0
VERTEX
  8
MERGEDLAYER-2
 10
0.999618
 20
0.322122
 30
0.000000
  0
VERTEX
  8
MERGEDLAYER-2
 10
6.558929
 20
0.322122
 30
0.000000
  0
SEQEND
  8
MERGEDLAYER-2
  0
POLYLINE
  8
MERGEDLAYER-2
 66
  1
 70
  0
 62
  0
 10
0.998683
 20
0.498135
 30
0.000000
  0
VERTEX
  8
MERGEDLAYER-2
 10
0.998683
 20
0.498135
 30
0.000000
  0
VERTEX
  8
MERGEDLAYER-2
 10
6.557738
 20
0.498135
 30
0.000000
  0
SEQEND
  8
MERGEDLAYER-2
  0
TEXT
  8
MERGEDLAYER-2
 62
  7
 10
2.027778
 20
8.944444
 30
0.000000
 40
0.187500
  1
âlÄvation modÅle Roll-126
 72
  5
 11
5.194444
 21
8.944444
 31
0.000000
  0
POLYLINE
  8
MERGEDLAYER-2
 66
  1
 70
  1
 62
  0
  0
VERTEX
  8
MERGEDLAYER-2
 10
6.569915
 20
5.271120
 30
0.000000
  0
VERTEX
  8
MERGEDLAYER-2
 10
6.731799
 20
5.271120
 30
0.000000
  0
VERTEX
  8
MERGEDLAYER-2
 10
6.731799
 20
0.279016
 30
0.000000
  0
VERTEX
  8
MERGEDLAYER-2
 10
6.569915
 20
0.279016
 30
0.000000
  0
SEQEND
  8
MERGEDLAYER-2
  0
POLYLINE
  8
MERGEDLAYER-2
 66
  1
 70
  1
 62
  0
  0
VERTEX
  8
MERGEDLAYER-2
 10
0.823815
 20
5.271695
 30
0.000000
  0
VERTEX
  8
MERGEDLAYER-2
 10
0.985699
 20
5.271695
 30
0.000000
  0
VERTEX
  8
MERGEDLAYER-2
 10
0.985699
 20
0.279684
 30
0.000000
  0
VERTEX
  8
MERGEDLAYER-2
 10
0.823815
 20
0.279684
 30
0.000000
  0
SEQEND
  8
MERGEDLAYER-2
  0
POLYLINE
  8
MERGEDLAYER-2
 66
  1
 70
  0
 62
  0
 10
3.665080
 20
0.406315
 30
0.000000
  0
VERTEX
  8
MERGEDLAYER-2
 10
3.665080
 20
0.406315
 30
0.000000
  0
VERTEX
  8
MERGEDLAYER-2
 10
3.657874
 20
0.423470
 30
0.000000
  0
VERTEX
  8
MERGEDLAYER-2
 10
3.637353
 20
0.438015
 30
0.000000
  0
VERTEX
  8
MERGEDLAYER-2
 10
3.606642
 20
0.447733
 30
0.000000
  0
VERTEX
  8
MERGEDLAYER-2
 10
3.570415
 20
0.451145
 30
0.000000
  0
VERTEX
  8
MERGEDLAYER-2
 10
3.534188
 20
0.447733
 30
0.000000
  0
VERTEX
  8
MERGEDLAYER-2
 10
3.503476
 20
0.438015
 30
0.000000
  0
VERTEX
  8
MERGEDLAYER-2
 10
3.482955
 20
0.423470
 30
0.000000
  0
VERTEX
  8
MERGEDLAYER-2
 10
3.475749
 20
0.406315
 30
0.000000
  0
VERTEX
  8
MERGEDLAYER-2
 10
3.482955
 20
0.389160
 30
0.000000
  0
VERTEX
  8
MERGEDLAYER-2
 10
3.503476
 20
0.374617
 30
0.000000
  0
VERTEX
  8
MERGEDLAYER-2
 10
3.534188
 20
0.364898
 30
0.000000
  0
VERTEX
  8
MERGEDLAYER-2
 10
3.570415
 20
0.361486
 30
0.000000
  0
VERTEX
  8
MERGEDLAYER-2
 10
3.606642
 20
0.364898
 30
0.000000
  0
VERTEX
  8
MERGEDLAYER-2
 10
3.637353
 20
0.374617
 30
0.000000
  0
VERTEX
  8
MERGEDLAYER-2
 10
3.657874
 20
0.389160
 30
0.000000
  0
VERTEX
  8
MERGEDLAYER-2
 10
3.665080
 20
0.406315
 30
0.000000
  0
SEQEND
  8
MERGEDLAYER-2
  0
POLYLINE
  8
MERGEDLAYER-2
 66
  1
 70
  0
 62
  0
 10
3.352217
 20
0.394352
 30
0.000000
  0
VERTEX
  8
MERGEDLAYER-2
 10
3.352217
 20
0.394352
 30
0.000000
  0
VERTEX
  8
MERGEDLAYER-2
 10
3.572611
 20
0.381592
 30
0.000000
  0
SEQEND
  8
MERGEDLAYER-2
  0
POLYLINE
  8
MERGEDLAYER-2
 66
  1
 70
  0
 62
  0
 10
3.352195
 20
0.414342
 30
0.000000
  0
VERTEX
  8
MERGEDLAYER-2
 10
3.352195
 20
0.414342
 30
0.000000
  0
VERTEX
  8
MERGEDLAYER-2
 10
3.340821
 20
0.405726
 30
0.000000
  0
VERTEX
  8
MERGEDLAYER-2
 10
3.352215
 20
0.394351
 30
0.000000
  0
SEQEND
  8
MERGEDLAYER-2
  0
POLYLINE
  8
MERGEDLAYER-2
 66
  1
 70
  0
 62
  0
 10
3.352193
 20
0.414343
 30
0.000000
  0
VERTEX
  8
MERGEDLAYER-2
 10
3.352193
 20
0.414343
 30
0.000000
  0
VERTEX
  8
MERGEDLAYER-2
 10
3.572383
 20
0.427102
 30
0.000000
  0
SEQEND
  8
MERGEDLAYER-2
  0
POLYLINE
  8
MERGEDLAYER-2
 66
  1
 70
  0
 62
  0
 10
3.572611
 20
0.381592
 30
0.000000
  0
VERTEX
  8
MERGEDLAYER-2
 10
3.572611
 20
0.381592
 30
0.000000
  0
VERTEX
  8
MERGEDLAYER-2
 10
3.586666
 20
0.390386
 30
0.000000
  0
VERTEX
  8
MERGEDLAYER-2
 10
3.593170
 20
0.406543
 30
0.000000
  0
VERTEX
  8
MERGEDLAYER-2
 10
3.586344
 20
0.422566
 30
0.000000
  0
VERTEX
  8
MERGEDLAYER-2
 10
3.572383
 20
0.427103
 30
0.000000
  0
SEQEND
  8
MERGEDLAYER-2
  0
POLYLINE
  8
MERGEDLAYER-2
 66
  1
 70
  1
 62
  0
  0
VERTEX
  8
MERGEDLAYER-2
 10
3.761987
 20
0.426017
 30
0.000000
  0
VERTEX
  8
MERGEDLAYER-2
 10
3.807703
 20
0.426017
 30
0.000000
  0
VERTEX
  8
MERGEDLAYER-2
 10
3.807703
 20
0.413824
 30
0.000000
  0
VERTEX
  8
MERGEDLAYER-2
 10
3.761987
 20
0.413824
 30
0.000000
  0
SEQEND
  8
MERGEDLAYER-2
  0
TEXT
  8
MERGEDLAYER-2
 62
  0
 10
2.902778
 20
7.875000
 30
0.000000
 40
0.145833
  1
Tube d'aluminium
 72
  5
 11
4.541667
 21
7.875000
 31
0.000000
  0
TEXT
  8
MERGEDLAYER-2
 62
  0
 10
2.944444
 20
7.652778
 30
0.000000
 40
0.125000
  1
7/16
 72
  5
 11
3.347222
 21
7.652778
 31
0.000000
  0
TEXT
  8
MERGEDLAYER-2
 62
  0
 10
3.347222
 20
7.652778
 30
0.000000
 40
0.145833
  1
" (11
 72
  5
 11
3.833333
 21
7.652778
 31
0.000000
  0
TEXT
  8
MERGEDLAYER-2
 62
  0
 10
3.833333
 20
7.652778
 30
0.000000
 40
0.125000
  1
mm)
 72
  5
 11
4.263889
 21
7.652778
 31
0.000000
  0
TEXT
  8
MERGEDLAYER-2
 62
  0
 10
4.263889
 20
7.652778
 30
0.000000
 40
0.145833
  1
 dia.
 72
  5
 11
4.708333
 21
7.652778
 31
0.000000
  0
TEXT
  8
MERGEDLAYER-2
 62
  0
 10
3.111111
 20
7.430556
 30
0.000000
 40
0.145833
  1
x 9" (229
 72
  5
 11
3.972222
 21
7.430556
 31
0.000000
  0
TEXT
  8
MERGEDLAYER-2
 62
  0
 10
3.972222
 20
7.430556
 30
0.000000
 40
0.125000
  1
mm
 72
  5
 11
4.347222
 21
7.430556
 31
0.000000
  0
TEXT
  8
MERGEDLAYER-2
 62
  0
 10
4.347222
 20
7.430556
 30
0.000000
 40
0.145833
  1
)
 72
  5
 11
4.486111
 21
7.430556
 31
0.000000
  0
POLYLINE
  8
MERGEDLAYER-2
 66
  1
 70
  0
 62
  0
 10
2.662730
 20
6.342897
 30
0.000000
  0
VERTEX
  8
MERGEDLAYER-2
 10
2.662730
 20
6.342897
 30
0.000000
  0
VERTEX
  8
MERGEDLAYER-2
 10
4.627187
 20
6.342897
 30
0.000000
  0
SEQEND
  8
MERGEDLAYER-2
  0
POLYLINE
  8
MERGEDLAYER-2
 66
  1
 70
  0
 62
  0
 10
2.662730
 20
6.427929
 30
0.000000
  0
VERTEX
  8
MERGEDLAYER-2
 10
2.662730
 20
6.427929
 30
0.000000
  0
VERTEX
  8
MERGEDLAYER-2
 10
4.627187
 20
6.427929
 30
0.000000
  0
SEQEND
  8
MERGEDLAYER-2
  0
POLYLINE
  8
MERGEDLAYER-2
 66
  1
 70
  0
 62
  0
 10
2.662730
 20
6.828768
 30
0.000000
  0
VERTEX
  8
MERGEDLAYER-2
 10
2.662730
 20
6.828768
 30
0.000000
  0
VERTEX
  8
MERGEDLAYER-2
 10
4.627187
 20
6.828768
 30
0.000000
  0
SEQEND
  8
MERGEDLAYER-2
  0
POLYLINE
  8
MERGEDLAYER-2
 66
  1
 70
  0
 62
  0
 10
2.662730
 20
6.913800
 30
0.000000
  0
VERTEX
  8
MERGEDLAYER-2
 10
2.662730
 20
6.913800
 30
0.000000
  0
VERTEX
  8
MERGEDLAYER-2
 10
4.627187
 20
6.913800
 30
0.000000
  0
SEQEND
  8
MERGEDLAYER-2
  0
POLYLINE
  8
MERGEDLAYER-2
 66
  1
 70
  0
 62
  0
 10
2.662730
 20
7.314635
 30
0.000000
  0
VERTEX
  8
MERGEDLAYER-2
 10
2.662730
 20
7.314635
 30
0.000000
  0
VERTEX
  8
MERGEDLAYER-2
 10
4.627187
 20
7.314635
 30
0.000000
  0
SEQEND
  8
MERGEDLAYER-2
  0
POLYLINE
  8
MERGEDLAYER-2
 66
  1
 70
  0
 62
  0
 10
2.662730
 20
7.399668
 30
0.000000
  0
VERTEX
  8
MERGEDLAYER-2
 10
2.662730
 20
7.399668
 30
0.000000
  0
VERTEX
  8
MERGEDLAYER-2
 10
4.627187
 20
7.399668
 30
0.000000
  0
SEQEND
  8
MERGEDLAYER-2
  0
POLYLINE
  8
MERGEDLAYER-2
 66
  1
 70
  1
 62
  0
  0
VERTEX
  8
MERGEDLAYER-2
 10
2.854924
 20
6.937237
 30
0.000000
  0
VERTEX
  8
MERGEDLAYER-2
 10
2.879227
 20
6.937237
 30
0.000000
  0
VERTEX
  8
MERGEDLAYER-2
 10
2.879227
 20
6.321196
 30
0.000000
  0
VERTEX
  8
MERGEDLAYER-2
 10
2.854924
 20
6.321196
 30
0.000000
  0
SEQEND
  8
MERGEDLAYER-2
  0
POLYLINE
  8
MERGEDLAYER-2
 66
  1
 70
  1
 62
  0
  0
VERTEX
  8
MERGEDLAYER-2
 10
2.830630
 20
7.423973
 30
0.000000
  0
VERTEX
  8
MERGEDLAYER-2
 10
2.854924
 20
7.423973
 30
0.000000
  0
VERTEX
  8
MERGEDLAYER-2
 10
2.854924
 20
6.805330
 30
0.000000
  0
VERTEX
  8
MERGEDLAYER-2
 10
2.830630
 20
6.805330
 30
0.000000
  0
SEQEND
  8
MERGEDLAYER-2
  0
POLYLINE
  8
MERGEDLAYER-2
 66
  1
 70
  0
 62
  0
 10
4.624035
 20
7.326648
 30
0.000000
  0
VERTEX
  8
MERGEDLAYER-2
 10
4.624035
 20
7.326648
 30
0.000000
  0
VERTEX
  8
MERGEDLAYER-2
 10
5.201233
 20
7.326762
 30
0.000000
  0
SEQEND
  8
MERGEDLAYER-2
  0
POLYLINE
  8
MERGEDLAYER-2
 66
  1
 70
  0
 62
  0
 10
4.624035
 20
7.387386
 30
0.000000
  0
VERTEX
  8
MERGEDLAYER-2
 10
4.624035
 20
7.387386
 30
0.000000
  0
VERTEX
  8
MERGEDLAYER-2
 10
5.201233
 20
7.387386
 30
0.000000
  0
SEQEND
  8
MERGEDLAYER-2
  0
POLYLINE
  8
MERGEDLAYER-2
 66
  1
 70
  0
 62
  0
 10
4.650412
 20
6.842132
 30
0.000000
  0
VERTEX
  8
MERGEDLAYER-2
 10
4.650412
 20
6.842132
 30
0.000000
  0
VERTEX
  8
MERGEDLAYER-2
 10
5.202620
 20
6.842132
 30
0.000000
  0
SEQEND
  8
MERGEDLAYER-2
  0
POLYLINE
  8
MERGEDLAYER-2
 66
  1
 70
  0
 62
  0
 10
4.650412
 20
6.902868
 30
0.000000
  0
VERTEX
  8
MERGEDLAYER-2
 10
4.650412
 20
6.902868
 30
0.000000
  0
VERTEX
  8
MERGEDLAYER-2
 10
5.202620
 20
6.902868
 30
0.000000
  0
SEQEND
  8
MERGEDLAYER-2
  0
POLYLINE
  8
MERGEDLAYER-2
 66
  1
 70
  0
 62
  0
 10
4.650412
 20
6.356261
 30
0.000000
  0
VERTEX
  8
MERGEDLAYER-2
 10
4.650412
 20
6.356261
 30
0.000000
  0
VERTEX
  8
MERGEDLAYER-2
 10
5.200989
 20
6.356261
 30
0.000000
  0
SEQEND
  8
MERGEDLAYER-2
  0
POLYLINE
  8
MERGEDLAYER-2
 66
  1
 70
  0
 62
  0
 10
4.650412
 20
6.416997
 30
0.000000
  0
VERTEX
  8
MERGEDLAYER-2
 10
4.650412
 20
6.416997
 30
0.000000
  0
VERTEX
  8
MERGEDLAYER-2
 10
5.200989
 20
6.416997
 30
0.000000
  0
SEQEND
  8
MERGEDLAYER-2
  0
LINE
  8
MERGEDLAYER-2
 62
  0
 10
2.854924
 20
7.746919
 30
0.000000
 11
4.604046
 21
7.746919
 31
0.000000
  0
LINE
  8
MERGEDLAYER-2
 62
  0
 10
2.854924
 20
7.462168
 30
0.000000
 11
2.854924
 21
7.871919
 31
0.000000
  0
LINE
  8
MERGEDLAYER-2
 62
  0
 10
4.604046
 20
7.462168
 30
0.000000
 11
4.604046
 21
7.871919
 31
0.000000
  0
LINE
  8
MERGEDLAYER-2
 62
  0
 10
2.884386
 20
7.776382
 30
0.000000
 11
2.825461
 21
7.717456
 31
0.000000
  0
LINE
  8
MERGEDLAYER-2
 62
  0
 10
4.633509
 20
7.776382
 30
0.000000
 11
4.574583
 21
7.717456
 31
0.000000
  0
TEXT
  8
MERGEDLAYER-2
 62
  0
 10
3.531934
 20
7.728565
 30
0.000000
 40
0.093750
  1
                                
  0
POLYLINE
  8
MERGEDLAYER-2
 66
  1
 70
  1
 62
  0
  0
VERTEX
  8
MERGEDLAYER-2
 10
4.628351
 20
6.936369
 30
0.000000
  0
VERTEX
  8
MERGEDLAYER-2
 10
4.652633
 20
6.936369
 30
0.000000
  0
VERTEX
  8
MERGEDLAYER-2
 10
4.652633
 20
6.321195
 30
0.000000
  0
VERTEX
  8
MERGEDLAYER-2
 10
4.628351
 20
6.321195
 30
0.000000
  0
SEQEND
  8
MERGEDLAYER-2
  0
POLYLINE
  8
MERGEDLAYER-2
 66
  1
 70
  1
 62
  0
  0
VERTEX
  8
MERGEDLAYER-2
 10
4.604046
 20
7.423972
 30
0.000000
  0
VERTEX
  8
MERGEDLAYER-2
 10
4.628351
 20
7.423972
 30
0.000000
  0
VERTEX
  8
MERGEDLAYER-2
 10
4.628351
 20
6.805330
 30
0.000000
  0
VERTEX
  8
MERGEDLAYER-2
 10
4.604046
 20
6.805330
 30
0.000000
  0
SEQEND
  8
MERGEDLAYER-2
  0
POLYLINE
  8
MERGEDLAYER-2
 66
  1
 70
  0
 62
  0
 10
5.210598
 20
7.359041
 30
0.000000
  0
VERTEX
  8
MERGEDLAYER-2
 10
5.210598
 20
7.359041
 30
0.000000
  0
VERTEX
  8
MERGEDLAYER-2
 10
5.207279
 20
7.380475
 30
0.000000
  0
VERTEX
  8
MERGEDLAYER-2
 10
5.199265
 20
7.389353
 30
0.000000
  0
VERTEX
  8
MERGEDLAYER-2
 10
5.191251
 20
7.380475
 30
0.000000
  0
VERTEX
  8
MERGEDLAYER-2
 10
5.187931
 20
7.359041
 30
0.000000
  0
VERTEX
  8
MERGEDLAYER-2
 10
5.191251
 20
7.337607
 30
0.000000
  0
VERTEX
  8
MERGEDLAYER-2
 10
5.199265
 20
7.328729
 30
0.000000
  0
VERTEX
  8
MERGEDLAYER-2
 10
5.207279
 20
7.337607
 30
0.000000
  0
VERTEX
  8
MERGEDLAYER-2
 10
5.210598
 20
7.359041
 30
0.000000
  0
SEQEND
  8
MERGEDLAYER-2
  0
POLYLINE
  8
MERGEDLAYER-2
 66
  1
 70
  0
 62
  0
 10
5.210367
 20
6.874424
 30
0.000000
  0
VERTEX
  8
MERGEDLAYER-2
 10
5.210367
 20
6.874424
 30
0.000000
  0
VERTEX
  8
MERGEDLAYER-2
 10
5.207047
 20
6.895858
 30
0.000000
  0
VERTEX
  8
MERGEDLAYER-2
 10
5.199034
 20
6.904736
 30
0.000000
  0
VERTEX
  8
MERGEDLAYER-2
 10
5.191020
 20
6.895858
 30
0.000000
  0
VERTEX
  8
MERGEDLAYER-2
 10
5.187700
 20
6.874424
 30
0.000000
  0
VERTEX
  8
MERGEDLAYER-2
 10
5.191020
 20
6.852990
 30
0.000000
  0
VERTEX
  8
MERGEDLAYER-2
 10
5.199034
 20
6.844112
 30
0.000000
  0
VERTEX
  8
MERGEDLAYER-2
 10
5.207047
 20
6.852990
 30
0.000000
  0
VERTEX
  8
MERGEDLAYER-2
 10
5.210367
 20
6.874424
 30
0.000000
  0
SEQEND
  8
MERGEDLAYER-2
  0
POLYLINE
  8
MERGEDLAYER-2
 66
  1
 70
  0
 62
  0
 10
5.210367
 20
6.388519
 30
0.000000
  0
VERTEX
  8
MERGEDLAYER-2
 10
5.210367
 20
6.388519
 30
0.000000
  0
VERTEX
  8
MERGEDLAYER-2
 10
5.207047
 20
6.409953
 30
0.000000
  0
VERTEX
  8
MERGEDLAYER-2
 10
5.199034
 20
6.418831
 30
0.000000
  0
VERTEX
  8
MERGEDLAYER-2
 10
5.191020
 20
6.409953
 30
0.000000
  0
VERTEX
  8
MERGEDLAYER-2
 10
5.187700
 20
6.388519
 30
0.000000
  0
VERTEX
  8
MERGEDLAYER-2
 10
5.191020
 20
6.367085
 30
0.000000
  0
VERTEX
  8
MERGEDLAYER-2
 10
5.199034
 20
6.358206
 30
0.000000
  0
VERTEX
  8
MERGEDLAYER-2
 10
5.207047
 20
6.367085
 30
0.000000
  0
VERTEX
  8
MERGEDLAYER-2
 10
5.210367
 20
6.388519
 30
0.000000
  0
SEQEND
  8
MERGEDLAYER-2
  0
POLYLINE
  8
MERGEDLAYER-2
 66
  1
 70
  0
 62
  0
 10
2.662729
 20
7.399668
 30
0.000000
  0
VERTEX
  8
MERGEDLAYER-2
 10
2.662729
 20
7.399668
 30
0.000000
  0
VERTEX
  8
MERGEDLAYER-2
 10
2.649492
 20
7.373255
 30
0.000000
  0
VERTEX
  8
MERGEDLAYER-2
 10
2.649942
 20
7.342721
 30
0.000000
  0
VERTEX
  8
MERGEDLAYER-2
 10
2.662729
 20
7.314635
 30
0.000000
  0
SEQEND
  8
MERGEDLAYER-2
  0
POLYLINE
  8
MERGEDLAYER-2
 66
  1
 70
  0
 62
  0
 10
2.662728
 20
6.913801
 30
0.000000
  0
VERTEX
  8
MERGEDLAYER-2
 10
2.662728
 20
6.913801
 30
0.000000
  0
VERTEX
  8
MERGEDLAYER-2
 10
2.649516
 20
6.887266
 30
0.000000
  0
VERTEX
  8
MERGEDLAYER-2
 10
2.650035
 20
6.856628
 30
0.000000
  0
VERTEX
  8
MERGEDLAYER-2
 10
2.662728
 20
6.828768
 30
0.000000
  0
SEQEND
  8
MERGEDLAYER-2
  0
POLYLINE
  8
MERGEDLAYER-2
 66
  1
 70
  0
 62
  0
 10
2.662729
 20
6.427928
 30
0.000000
  0
VERTEX
  8
MERGEDLAYER-2
 10
2.662729
 20
6.427928
 30
0.000000
  0
VERTEX
  8
MERGEDLAYER-2
 10
2.649515
 20
6.401402
 30
0.000000
  0
VERTEX
  8
MERGEDLAYER-2
 10
2.650028
 20
6.370773
 30
0.000000
  0
VERTEX
  8
MERGEDLAYER-2
 10
2.662729
 20
6.342894
 30
0.000000
  0
SEQEND
  8
MERGEDLAYER-2
  0
POLYLINE
  8
MERGEDLAYER-2
 66
  1
 70
  0
 62
  0
 10
4.821818
 20
7.363486
 30
0.000000
  0
VERTEX
  8
MERGEDLAYER-2
 10
4.821818
 20
7.363486
 30
0.000000
  0
VERTEX
  8
MERGEDLAYER-2
 10
4.823743
 20
6.875799
 30
0.000000
  0
SEQEND
  8
MERGEDLAYER-2
  0
LINE
  8
MERGEDLAYER-2
 62
  0
 10
4.851397
 20
7.334139
 30
0.000000
 11
4.792239
 21
7.392832
 31
0.000000
  0
LINE
  8
MERGEDLAYER-2
 62
  0
 10
4.853322
 20
6.846453
 30
0.000000
 11
4.794164
 21
6.905145
 31
0.000000
  0
POLYLINE
  8
MERGEDLAYER-2
  6
LTYPE05
 66
  1
 70
  0
 62
  0
  6
LTYPE05
 10
4.122458
 20
7.360068
 30
0.000000
  0
VERTEX
  8
MERGEDLAYER-2
  6
LTYPE05
 10
4.122458
 20
7.360068
 30
0.000000
  0
VERTEX
  8
MERGEDLAYER-2
  6
LTYPE05
 10
5.283836
 20
7.360068
 30
0.000000
  0
SEQEND
  8
MERGEDLAYER-2
  0
POLYLINE
  8
MERGEDLAYER-2
  6
LTYPE05
 66
  1
 70
  0
 62
  0
  6
LTYPE05
 10
4.125871
 20
6.874541
 30
0.000000
  0
VERTEX
  8
MERGEDLAYER-2
  6
LTYPE05
 10
4.125871
 20
6.874541
 30
0.000000
  0
VERTEX
  8
MERGEDLAYER-2
  6
LTYPE05
 10
5.287253
 20
6.874541
 30
0.000000
  0
SEQEND
  8
MERGEDLAYER-2
  0
TEXT
  8
MERGEDLAYER-2
 62
  0
 10
4.888889
 20
7.111111
 30
0.000000
 40
0.145833
  1
2 
 72
  5
 11
5.125000
 21
7.111111
 31
0.000000
  0
TEXT
  8
MERGEDLAYER-2
 62
  0
 10
5.125000
 20
7.111111
 30
0.000000
 40
0.125000
  1
1/2
 72
  5
 11
5.430556
 21
7.111111
 31
0.000000
  0
TEXT
  8
MERGEDLAYER-2
 62
  0
 10
5.430556
 20
7.111111
 30
0.000000
 40
0.145833
  1
"
 72
  5
 11
5.569444
 21
7.111111
 31
0.000000
  0
POLYLINE
  8
MERGEDLAYER-2
 66
  1
 70
  0
 62
  0
 10
2.989584
 20
6.055555
 30
0.000000
  0
VERTEX
  8
MERGEDLAYER-2
 10
2.989584
 20
6.055555
 30
0.000000
  0
VERTEX
  8
MERGEDLAYER-2
 10
2.353598
 20
6.444589
 30
0.000000
  0
SEQEND
  8
MERGEDLAYER-2
  0
POLYLINE
  8
MERGEDLAYER-2
 66
  1
 70
  1
 62
  0
  0
VERTEX
  8
MERGEDLAYER-2
 10
2.336806
 20
6.454861
 30
0.000000
  0
VERTEX
  8
MERGEDLAYER-2
 10
2.417788
 20
6.454167
 30
0.000000
  0
VERTEX
  8
MERGEDLAYER-2
 10
2.396046
 20
6.418623
 30
0.000000
  0
VERTEX
  8
MERGEDLAYER-2
 10
2.374303
 20
6.383079
 30
0.000000
  0
VERTEX
  8
MERGEDLAYER-2
 10
2.336806
 20
6.454861
 30
0.000000
  0
SEQEND
  8
MERGEDLAYER-2
  0
POLYLINE
  8
MERGEDLAYER-2
 66
  1
 70
  0
 62
  0
 10
3.354283
 20
6.829033
 30
0.000000
  0
VERTEX
  8
MERGEDLAYER-2
 10
3.354283
 20
6.829033
 30
0.000000
  0
VERTEX
  8
MERGEDLAYER-2
 10
3.354283
 20
6.425822
 30
0.000000
  0
SEQEND
  8
MERGEDLAYER-2
  0
LINE
  8
MERGEDLAYER-2
 62
  0
 10
3.383746
 20
6.799571
 30
0.000000
 11
3.324820
 21
6.858496
 31
0.000000
  0
LINE
  8
MERGEDLAYER-2
 62
  0
 10
3.383746
 20
6.396360
 30
0.000000
 11
3.324820
 21
6.455285
 31
0.000000
  0
TEXT
  8
MERGEDLAYER-2
 62
  0
 10
4.972222
 20
6.958333
 30
0.000000
 40
0.145833
  1
64
 72
  5
 11
5.263889
 21
6.958333
 31
0.000000
  0
TEXT
  8
MERGEDLAYER-2
 62
  0
 10
5.263889
 20
6.958333
 30
0.000000
 40
0.125000
  1
mm
 72
  5
 11
5.638889
 21
6.958333
 31
0.000000
  0
TEXT
  8
MERGEDLAYER-2
 62
  0
 10
3.375000
 20
6.611111
 30
0.000000
 40
0.145833
  1
2
 72
  5
 11
3.555556
 21
6.611111
 31
0.000000
  0
TEXT
  8
MERGEDLAYER-2
 62
  0
 10
3.555556
 20
6.611111
 30
0.000000
 40
0.156250
  1
 
 72
  5
 11
3.680556
 21
6.611111
 31
0.000000
  0
TEXT
  8
MERGEDLAYER-2
 62
  0
 10
3.680556
 20
6.611111
 30
0.000000
 40
0.125000
  1
1/16
 72
  5
 11
4.083333
 21
6.611111
 31
0.000000
  0
TEXT
  8
MERGEDLAYER-2
 62
  0
 10
4.083333
 20
6.611111
 30
0.000000
 40
0.145833
  1
"
 72
  5
 11
4.222222
 21
6.611111
 31
0.000000
  0
TEXT
  8
MERGEDLAYER-2
 62
  0
 10
3.486111
 20
6.458333
 30
0.000000
 40
0.145833
  1
52
 72
  5
 11
3.777778
 21
6.458333
 31
0.000000
  0
TEXT
  8
MERGEDLAYER-2
 62
  0
 10
3.777778
 20
6.458333
 30
0.000000
 40
0.125000
  1
mm
 72
  5
 11
4.152778
 21
6.458333
 31
0.000000
  0
POLYLINE
  8
MERGEDLAYER-2
 66
  1
 70
  0
 62
  0
 40
0.027778
 41
0.027778
 10
0.027778
 20
0.277781
 30
0.000000
  0
VERTEX
  8
MERGEDLAYER-2
 10
0.027778
 20
0.277781
 30
0.000000
  0
VERTEX
  8
MERGEDLAYER-2
 10
7.527778
 20
0.277781
 30
0.000000
  0
SEQEND
  8
MERGEDLAYER-2
  0
POLYLINE
  8
MERGEDLAYER-2
 66
  1
 70
  1
 62
  0
  0
VERTEX
  8
MERGEDLAYER-2
 10
1.538467
 20
3.593130
 30
0.000000
  0
VERTEX
  8
MERGEDLAYER-2
 10
1.546139
 20
3.593130
 30
0.000000
  0
VERTEX
  8
MERGEDLAYER-2
 10
1.546139
 20
3.400291
 30
0.000000
  0
VERTEX
  8
MERGEDLAYER-2
 10
1.538467
 20
3.400291
 30
0.000000
  0
SEQEND
  8
MERGEDLAYER-2
  0
POLYLINE
  8
MERGEDLAYER-2
 66
  1
 70
  1
 62
  0
  0
VERTEX
  8
MERGEDLAYER-2
 10
1.530800
 20
3.746509
 30
0.000000
  0
VERTEX
  8
MERGEDLAYER-2
 10
1.538467
 20
3.746509
 30
0.000000
  0
VERTEX
  8
MERGEDLAYER-2
 10
1.538467
 20
3.553682
 30
0.000000
  0
VERTEX
  8
MERGEDLAYER-2
 10
1.530800
 20
3.553682
 30
0.000000
  0
SEQEND
  8
MERGEDLAYER-2
  0
POLYLINE
  8
MERGEDLAYER-2
 66
  1
 70
  1
 62
  0
  0
VERTEX
  8
MERGEDLAYER-2
 10
1.530800
 20
0.678709
 30
0.000000
  0
VERTEX
  8
MERGEDLAYER-2
 10
1.538467
 20
0.678709
 30
0.000000
  0
VERTEX
  8
MERGEDLAYER-2
 10
1.538467
 20
0.498105
 30
0.000000
  0
VERTEX
  8
MERGEDLAYER-2
 10
1.530800
 20
0.498105
 30
0.000000
  0
SEQEND
  8
MERGEDLAYER-2
  0
POLYLINE
  8
MERGEDLAYER-2
 66
  1
 70
  1
 62
  0
  0
VERTEX
  8
MERGEDLAYER-2
 10
1.538467
 20
0.832301
 30
0.000000
  0
VERTEX
  8
MERGEDLAYER-2
 10
1.546139
 20
0.832301
 30
0.000000
  0
VERTEX
  8
MERGEDLAYER-2
 10
1.546139
 20
0.639462
 30
0.000000
  0
VERTEX
  8
MERGEDLAYER-2
 10
1.538467
 20
0.639462
 30
0.000000
  0
SEQEND
  8
MERGEDLAYER-2
  0
POLYLINE
  8
MERGEDLAYER-2
 66
  1
 70
  1
 62
  0
  0
VERTEX
  8
MERGEDLAYER-2
 10
1.530800
 20
0.985680
 30
0.000000
  0
VERTEX
  8
MERGEDLAYER-2
 10
1.538467
 20
0.985680
 30
0.000000
  0
VERTEX
  8
MERGEDLAYER-2
 10
1.538467
 20
0.792842
 30
0.000000
  0
VERTEX
  8
MERGEDLAYER-2
 10
1.530800
 20
0.792842
 30
0.000000
  0
SEQEND
  8
MERGEDLAYER-2
  0
POLYLINE
  8
MERGEDLAYER-2
 66
  1
 70
  1
 62
  0
  0
VERTEX
  8
MERGEDLAYER-2
 10
1.538467
 20
1.139060
 30
0.000000
  0
VERTEX
  8
MERGEDLAYER-2
 10
1.546139
 20
1.139060
 30
0.000000
  0
VERTEX
  8
MERGEDLAYER-2
 10
1.546139
 20
0.946222
 30
0.000000
  0
VERTEX
  8
MERGEDLAYER-2
 10
1.538467
 20
0.946222
 30
0.000000
  0
SEQEND
  8
MERGEDLAYER-2
  0
POLYLINE
  8
MERGEDLAYER-2
 66
  1
 70
  1
 62
  0
  0
VERTEX
  8
MERGEDLAYER-2
 10
1.530800
 20
1.292438
 30
0.000000
  0
VERTEX
  8
MERGEDLAYER-2
 10
1.538467
 20
1.292438
 30
0.000000
  0
VERTEX
  8
MERGEDLAYER-2
 10
1.538467
 20
1.099602
 30
0.000000
  0
VERTEX
  8
MERGEDLAYER-2
 10
1.530800
 20
1.099602
 30
0.000000
  0
SEQEND
  8
MERGEDLAYER-2
  0
POLYLINE
  8
MERGEDLAYER-2
 66
  1
 70
  1
 62
  0
  0
VERTEX
  8
MERGEDLAYER-2
 10
1.538467
 20
1.445821
 30
0.000000
  0
VERTEX
  8
MERGEDLAYER-2
 10
1.546139
 20
1.445821
 30
0.000000
  0
VERTEX
  8
MERGEDLAYER-2
 10
1.546139
 20
1.252979
 30
0.000000
  0
VERTEX
  8
MERGEDLAYER-2
 10
1.538467
 20
1.252979
 30
0.000000
  0
SEQEND
  8
MERGEDLAYER-2
  0
POLYLINE
  8
MERGEDLAYER-2
 66
  1
 70
  1
 62
  0
  0
VERTEX
  8
MERGEDLAYER-2
 10
1.530800
 20
1.599198
 30
0.000000
  0
VERTEX
  8
MERGEDLAYER-2
 10
1.538467
 20
1.599198
 30
0.000000
  0
VERTEX
  8
MERGEDLAYER-2
 10
1.538467
 20
1.406360
 30
0.000000
  0
VERTEX
  8
MERGEDLAYER-2
 10
1.530800
 20
1.406360
 30
0.000000
  0
SEQEND
  8
MERGEDLAYER-2
  0
POLYLINE
  8
MERGEDLAYER-2
 66
  1
 70
  1
 62
  0
  0
VERTEX
  8
MERGEDLAYER-2
 10
1.538467
 20
1.752579
 30
0.000000
  0
VERTEX
  8
MERGEDLAYER-2
 10
1.546139
 20
1.752579
 30
0.000000
  0
VERTEX
  8
MERGEDLAYER-2
 10
1.546139
 20
1.559736
 30
0.000000
  0
VERTEX
  8
MERGEDLAYER-2
 10
1.538467
 20
1.559736
 30
0.000000
  0
SEQEND
  8
MERGEDLAYER-2
  0
POLYLINE
  8
MERGEDLAYER-2
 66
  1
 70
  1
 62
  0
  0
VERTEX
  8
MERGEDLAYER-2
 10
1.530800
 20
1.905959
 30
0.000000
  0
VERTEX
  8
MERGEDLAYER-2
 10
1.538467
 20
1.905959
 30
0.000000
  0
VERTEX
  8
MERGEDLAYER-2
 10
1.538467
 20
1.713119
 30
0.000000
  0
VERTEX
  8
MERGEDLAYER-2
 10
1.530800
 20
1.713119
 30
0.000000
  0
SEQEND
  8
MERGEDLAYER-2
  0
POLYLINE
  8
MERGEDLAYER-2
 66
  1
 70
  1
 62
  0
  0
VERTEX
  8
MERGEDLAYER-2
 10
1.538467
 20
2.059335
 30
0.000000
  0
VERTEX
  8
MERGEDLAYER-2
 10
1.546139
 20
2.059335
 30
0.000000
  0
VERTEX
  8
MERGEDLAYER-2
 10
1.546139
 20
1.866497
 30
0.000000
  0
VERTEX
  8
MERGEDLAYER-2
 10
1.538467
 20
1.866497
 30
0.000000
  0
SEQEND
  8
MERGEDLAYER-2
  0
POLYLINE
  8
MERGEDLAYER-2
 66
  1
 70
  1
 62
  0
  0
VERTEX
  8
MERGEDLAYER-2
 10
1.530800
 20
2.212717
 30
0.000000
  0
VERTEX
  8
MERGEDLAYER-2
 10
1.538467
 20
2.212717
 30
0.000000
  0
VERTEX
  8
MERGEDLAYER-2
 10
1.538467
 20
2.019875
 30
0.000000
  0
VERTEX
  8
MERGEDLAYER-2
 10
1.530800
 20
2.019875
 30
0.000000
  0
SEQEND
  8
MERGEDLAYER-2
  0
POLYLINE
  8
MERGEDLAYER-2
 66
  1
 70
  1
 62
  0
  0
VERTEX
  8
MERGEDLAYER-2
 10
1.538467
 20
2.366095
 30
0.000000
  0
VERTEX
  8
MERGEDLAYER-2
 10
1.546139
 20
2.366095
 30
0.000000
  0
VERTEX
  8
MERGEDLAYER-2
 10
1.546139
 20
2.173255
 30
0.000000
  0
VERTEX
  8
MERGEDLAYER-2
 10
1.538467
 20
2.173255
 30
0.000000
  0
SEQEND
  8
MERGEDLAYER-2
  0
POLYLINE
  8
MERGEDLAYER-2
 66
  1
 70
  1
 62
  0
  0
VERTEX
  8
MERGEDLAYER-2
 10
1.530800
 20
2.519476
 30
0.000000
  0
VERTEX
  8
MERGEDLAYER-2
 10
1.538467
 20
2.519476
 30
0.000000
  0
VERTEX
  8
MERGEDLAYER-2
 10
1.538467
 20
2.326636
 30
0.000000
  0
VERTEX
  8
MERGEDLAYER-2
 10
1.530800
 20
2.326636
 30
0.000000
  0
SEQEND
  8
MERGEDLAYER-2
  0
POLYLINE
  8
MERGEDLAYER-2
 66
  1
 70
  1
 62
  0
  0
VERTEX
  8
MERGEDLAYER-2
 10
1.538467
 20
2.672853
 30
0.000000
  0
VERTEX
  8
MERGEDLAYER-2
 10
1.546139
 20
2.672853
 30
0.000000
  0
VERTEX
  8
MERGEDLAYER-2
 10
1.546139
 20
2.480017
 30
0.000000
  0
VERTEX
  8
MERGEDLAYER-2
 10
1.538467
 20
2.480017
 30
0.000000
  0
SEQEND
  8
MERGEDLAYER-2
  0
POLYLINE
  8
MERGEDLAYER-2
 66
  1
 70
  1
 62
  0
  0
VERTEX
  8
MERGEDLAYER-2
 10
1.530800
 20
2.826232
 30
0.000000
  0
VERTEX
  8
MERGEDLAYER-2
 10
1.538467
 20
2.826232
 30
0.000000
  0
VERTEX
  8
MERGEDLAYER-2
 10
1.538467
 20
2.633396
 30
0.000000
  0
VERTEX
  8
MERGEDLAYER-2
 10
1.530800
 20
2.633396
 30
0.000000
  0
SEQEND
  8
MERGEDLAYER-2
  0
POLYLINE
  8
MERGEDLAYER-2
 66
  1
 70
  1
 62
  0
  0
VERTEX
  8
MERGEDLAYER-2
 10
1.538467
 20
2.979612
 30
0.000000
  0
VERTEX
  8
MERGEDLAYER-2
 10
1.546139
 20
2.979612
 30
0.000000
  0
VERTEX
  8
MERGEDLAYER-2
 10
1.546139
 20
2.786773
 30
0.000000
  0
VERTEX
  8
MERGEDLAYER-2
 10
1.538467
 20
2.786773
 30
0.000000
  0
SEQEND
  8
MERGEDLAYER-2
  0
POLYLINE
  8
MERGEDLAYER-2
 66
  1
 70
  1
 62
  0
  0
VERTEX
  8
MERGEDLAYER-2
 10
1.530800
 20
3.132991
 30
0.000000
  0
VERTEX
  8
MERGEDLAYER-2
 10
1.538467
 20
3.132991
 30
0.000000
  0
VERTEX
  8
MERGEDLAYER-2
 10
1.538467
 20
2.940152
 30
0.000000
  0
VERTEX
  8
MERGEDLAYER-2
 10
1.530800
 20
2.940152
 30
0.000000
  0
SEQEND
  8
MERGEDLAYER-2
  0
POLYLINE
  8
MERGEDLAYER-2
 66
  1
 70
  1
 62
  0
  0
VERTEX
  8
MERGEDLAYER-2
 10
1.538467
 20
3.286370
 30
0.000000
  0
VERTEX
  8
MERGEDLAYER-2
 10
1.546139
 20
3.286370
 30
0.000000
  0
VERTEX
  8
MERGEDLAYER-2
 10
1.546139
 20
3.093532
 30
0.000000
  0
VERTEX
  8
MERGEDLAYER-2
 10
1.538467
 20
3.093532
 30
0.000000
  0
SEQEND
  8
MERGEDLAYER-2
  0
POLYLINE
  8
MERGEDLAYER-2
 66
  1
 70
  1
 62
  0
  0
VERTEX
  8
MERGEDLAYER-2
 10
1.530800
 20
3.439750
 30
0.000000
  0
VERTEX
  8
MERGEDLAYER-2
 10
1.538467
 20
3.439750
 30
0.000000
  0
VERTEX
  8
MERGEDLAYER-2
 10
1.538467
 20
3.246912
 30
0.000000
  0
VERTEX
  8
MERGEDLAYER-2
 10
1.530800
 20
3.246912
 30
0.000000
  0
SEQEND
  8
MERGEDLAYER-2
  0
POLYLINE
  8
MERGEDLAYER-2
 66
  1
 70
  1
 62
  0
  0
VERTEX
  8
MERGEDLAYER-2
 10
1.538467
 20
3.899415
 30
0.000000
  0
VERTEX
  8
MERGEDLAYER-2
 10
1.546139
 20
3.899415
 30
0.000000
  0
VERTEX
  8
MERGEDLAYER-2
 10
1.546139
 20
3.706577
 30
0.000000
  0
VERTEX
  8
MERGEDLAYER-2
 10
1.538467
 20
3.706577
 30
0.000000
  0
SEQEND
  8
MERGEDLAYER-2
  0
POLYLINE
  8
MERGEDLAYER-2
 66
  1
 70
  1
 62
  0
  0
VERTEX
  8
MERGEDLAYER-2
 10
1.530800
 20
4.052794
 30
0.000000
  0
VERTEX
  8
MERGEDLAYER-2
 10
1.538467
 20
4.052794
 30
0.000000
  0
VERTEX
  8
MERGEDLAYER-2
 10
1.538467
 20
3.859967
 30
0.000000
  0
VERTEX
  8
MERGEDLAYER-2
 10
1.530800
 20
3.859967
 30
0.000000
  0
SEQEND
  8
MERGEDLAYER-2
  0
POLYLINE
  8
MERGEDLAYER-2
 66
  1
 70
  1
 62
  0
  0
VERTEX
  8
MERGEDLAYER-2
 10
1.538467
 20
4.205700
 30
0.000000
  0
VERTEX
  8
MERGEDLAYER-2
 10
1.546139
 20
4.205700
 30
0.000000
  0
VERTEX
  8
MERGEDLAYER-2
 10
1.546139
 20
4.012862
 30
0.000000
  0
VERTEX
  8
MERGEDLAYER-2
 10
1.538467
 20
4.012862
 30
0.000000
  0
SEQEND
  8
MERGEDLAYER-2
  0
POLYLINE
  8
MERGEDLAYER-2
 66
  1
 70
  1
 62
  0
  0
VERTEX
  8
MERGEDLAYER-2
 10
1.530800
 20
4.359080
 30
0.000000
  0
VERTEX
  8
MERGEDLAYER-2
 10
1.538467
 20
4.359080
 30
0.000000
  0
VERTEX
  8
MERGEDLAYER-2
 10
1.538467
 20
4.166252
 30
0.000000
  0
VERTEX
  8
MERGEDLAYER-2
 10
1.530800
 20
4.166252
 30
0.000000
  0
SEQEND
  8
MERGEDLAYER-2
  0
POLYLINE
  8
MERGEDLAYER-2
 66
  1
 70
  1
 62
  0
  0
VERTEX
  8
MERGEDLAYER-2
 10
1.538467
 20
4.511986
 30
0.000000
  0
VERTEX
  8
MERGEDLAYER-2
 10
1.546139
 20
4.511986
 30
0.000000
  0
VERTEX
  8
MERGEDLAYER-2
 10
1.546139
 20
4.319149
 30
0.000000
  0
VERTEX
  8
MERGEDLAYER-2
 10
1.538467
 20
4.319149
 30
0.000000
  0
SEQEND
  8
MERGEDLAYER-2
  0
POLYLINE
  8
MERGEDLAYER-2
 66
  1
 70
  1
 62
  0
  0
VERTEX
  8
MERGEDLAYER-2
 10
1.530800
 20
4.665366
 30
0.000000
  0
VERTEX
  8
MERGEDLAYER-2
 10
1.538467
 20
4.665366
 30
0.000000
  0
VERTEX
  8
MERGEDLAYER-2
 10
1.538467
 20
4.472539
 30
0.000000
  0
VERTEX
  8
MERGEDLAYER-2
 10
1.530800
 20
4.472539
 30
0.000000
  0
SEQEND
  8
MERGEDLAYER-2
  0
POLYLINE
  8
MERGEDLAYER-2
 66
  1
 70
  1
 62
  0
  0
VERTEX
  8
MERGEDLAYER-2
 10
1.538467
 20
4.818272
 30
0.000000
  0
VERTEX
  8
MERGEDLAYER-2
 10
1.546139
 20
4.818272
 30
0.000000
  0
VERTEX
  8
MERGEDLAYER-2
 10
1.546139
 20
4.625434
 30
0.000000
  0
VERTEX
  8
MERGEDLAYER-2
 10
1.538467
 20
4.625434
 30
0.000000
  0
SEQEND
  8
MERGEDLAYER-2
  0
POLYLINE
  8
MERGEDLAYER-2
 66
  1
 70
  1
 62
  0
  0
VERTEX
  8
MERGEDLAYER-2
 10
1.530800
 20
4.971652
 30
0.000000
  0
VERTEX
  8
MERGEDLAYER-2
 10
1.538467
 20
4.971652
 30
0.000000
  0
VERTEX
  8
MERGEDLAYER-2
 10
1.538467
 20
4.778825
 30
0.000000
  0
VERTEX
  8
MERGEDLAYER-2
 10
1.530800
 20
4.778825
 30
0.000000
  0
SEQEND
  8
MERGEDLAYER-2
  0
POLYLINE
  8
MERGEDLAYER-2
 66
  1
 70
  1
 62
  0
  0
VERTEX
  8
MERGEDLAYER-2
 10
1.538467
 20
5.124557
 30
0.000000
  0
VERTEX
  8
MERGEDLAYER-2
 10
1.546139
 20
5.124557
 30
0.000000
  0
VERTEX
  8
MERGEDLAYER-2
 10
1.546139
 20
4.931720
 30
0.000000
  0
VERTEX
  8
MERGEDLAYER-2
 10
1.538467
 20
4.931720
 30
0.000000
  0
SEQEND
  8
MERGEDLAYER-2
  0
POLYLINE
  8
MERGEDLAYER-2
 66
  1
 70
  1
 62
  0
  0
VERTEX
  8
MERGEDLAYER-2
 10
1.530800
 20
5.277937
 30
0.000000
  0
VERTEX
  8
MERGEDLAYER-2
 10
1.538467
 20
5.277937
 30
0.000000
  0
VERTEX
  8
MERGEDLAYER-2
 10
1.538467
 20
5.085110
 30
0.000000
  0
VERTEX
  8
MERGEDLAYER-2
 10
1.530800
 20
5.085110
 30
0.000000
  0
SEQEND
  8
MERGEDLAYER-2
  0
CIRCLE
  8
MERGEDLAYER-2
 62
  0
 10
3.776728
 20
0.420804
 30
0.000000
 40
0.064283
  0
CIRCLE
  8
MERGEDLAYER-2
 62
  7
 10
3.776487
 20
0.420804
 30
0.000000
 40
0.047124
  0
CIRCLE
  8
MERGEDLAYER-2
 62
  0
 10
3.776487
 20
0.420804
 30
0.000000
 40
0.042287
  0
CIRCLE
  8
MERGEDLAYER-2
 62
  0
 10
3.759691
 20
0.420804
 30
0.000000
 40
0.018794
  0
CIRCLE
  8
MERGEDLAYER-2
 62
  0
 10
3.751656
 20
0.420804
 30
0.000000
 40
0.008035
  0
TEXT
  8
MERGEDLAYER-2
 62
  0
 10
3.777778
 20
0.444444
 30
0.000000
 40
0.010417
  1
MobilFlex
 50
270.000000
 72
  5
 11
3.777778
 21
0.291667
 31
0.000000
  0
POLYLINE
  8
MERGEDLAYER-2
 66
  1
 70
  1
 62
  0
 10
3.741445
 20
0.424430
 30
0.000000
  0
VERTEX
  8
MERGEDLAYER-2
 10
3.741445
 20
0.424430
 30
0.000000
  0
VERTEX
  8
MERGEDLAYER-2
 10
3.750146
 20
0.424430
 30
0.000000
  0
VERTEX
  8
MERGEDLAYER-2
 10
3.750146
 20
0.421047
 30
0.000000
  0
VERTEX
  8
MERGEDLAYER-2
 10
3.753529
 20
0.421047
 30
0.000000
  0
VERTEX
  8
MERGEDLAYER-2
 10
3.757154
 20
0.424670
 30
0.000000
  0
VERTEX
  8
MERGEDLAYER-2
 10
3.759570
 20
0.424670
 30
0.000000
  0
VERTEX
  8
MERGEDLAYER-2
 10
3.766821
 20
0.422254
 30
0.000000
  0
VERTEX
  8
MERGEDLAYER-2
 10
3.766821
 20
0.419112
 30
0.000000
  0
VERTEX
  8
MERGEDLAYER-2
 10
3.761503
 20
0.419837
 30
0.000000
  0
VERTEX
  8
MERGEDLAYER-2
 10
3.759570
 20
0.419596
 30
0.000000
  0
VERTEX
  8
MERGEDLAYER-2
 10
3.759570
 20
0.418146
 30
0.000000
  0
VERTEX
  8
MERGEDLAYER-2
 10
3.747246
 20
0.418146
 30
0.000000
  0
VERTEX
  8
MERGEDLAYER-2
 10
3.746037
 20
0.420804
 30
0.000000
  0
VERTEX
  8
MERGEDLAYER-2
 10
3.743621
 20
0.420804
 30
0.000000
  0
VERTEX
  8
MERGEDLAYER-2
 10
3.743137
 20
0.418146
 30
0.000000
  0
VERTEX
  8
MERGEDLAYER-2
 10
3.741445
 20
0.418146
 30
0.000000
  0
SEQEND
  8
MERGEDLAYER-2
  0
TEXT
  8
MERGEDLAYER-2
 62
  0
 10
5.819444
 20
5.347222
 30
0.000000
 40
0.125000
  1
Guide
 72
  5
 11
6.347222
 21
5.347222
 31
0.000000
  0
TEXT
  8
MERGEDLAYER-2
 62
  0
 10
5.819444
 20
0.083333
 30
0.000000
 40
0.125000
  1
Barre du bas
 72
  5
 11
6.875000
 21
0.083333
 31
0.000000
  0
POLYLINE
  8
MERGEDLAYER-2
 66
  1
 70
  0
 62
  0
 10
6.312500
 20
5.399306
 30
0.000000
  0
VERTEX
  8
MERGEDLAYER-2
 10
6.312500
 20
5.399306
 30
0.000000
  0
VERTEX
  8
MERGEDLAYER-2
 10
6.552294
 20
5.279895
 30
0.000000
  0
SEQEND
  8
MERGEDLAYER-2
  0
POLYLINE
  8
MERGEDLAYER-2
 66
  1
 70
  1
 62
  0
  0
VERTEX
  8
MERGEDLAYER-2
 10
6.569915
 20
5.271120
 30
0.000000
  0
VERTEX
  8
MERGEDLAYER-2
 10
6.489179
 20
5.264778
 30
0.000000
  0
VERTEX
  8
MERGEDLAYER-2
 10
6.507752
 20
5.302076
 30
0.000000
  0
VERTEX
  8
MERGEDLAYER-2
 10
6.526326
 20
5.339374
 30
0.000000
  0
VERTEX
  8
MERGEDLAYER-2
 10
6.569915
 20
5.271120
 30
0.000000
  0
SEQEND
  8
MERGEDLAYER-2
  0
POLYLINE
  8
MERGEDLAYER-2
 66
  1
 70
  0
 62
  0
 10
5.788666
 20
0.149593
 30
0.000000
  0
VERTEX
  8
MERGEDLAYER-2
 10
5.788666
 20
0.149593
 30
0.000000
  0
VERTEX
  8
MERGEDLAYER-2
 10
5.548871
 20
0.269004
 30
0.000000
  0
SEQEND
  8
MERGEDLAYER-2
  0
POLYLINE
  8
MERGEDLAYER-2
 66
  1
 70
  1
 62
  0
  0
VERTEX
  8
MERGEDLAYER-2
 10
5.531250
 20
0.277779
 30
0.000000
  0
VERTEX
  8
MERGEDLAYER-2
 10
5.611986
 20
0.284122
 30
0.000000
  0
VERTEX
  8
MERGEDLAYER-2
 10
5.593413
 20
0.246824
 30
0.000000
  0
VERTEX
  8
MERGEDLAYER-2
 10
5.574840
 20
0.209525
 30
0.000000
  0
VERTEX
  8
MERGEDLAYER-2
 10
5.531250
 20
0.277779
 30
0.000000
  0
SEQEND
  8
MERGEDLAYER-2
  0
POLYLINE
  8
MERGEDLAYER-2
 66
  1
 70
  1
 62
  0
  0
VERTEX
  8
MERGEDLAYER-2
 10
2.098267
 20
3.593130
 30
0.000000
  0
VERTEX
  8
MERGEDLAYER-2
 10
2.105939
 20
3.593130
 30
0.000000
  0
VERTEX
  8
MERGEDLAYER-2
 10
2.105939
 20
3.400291
 30
0.000000
  0
VERTEX
  8
MERGEDLAYER-2
 10
2.098267
 20
3.400291
 30
0.000000
  0
SEQEND
  8
MERGEDLAYER-2
  0
POLYLINE
  8
MERGEDLAYER-2
 66
  1
 70
  1
 62
  0
  0
VERTEX
  8
MERGEDLAYER-2
 10
2.090600
 20
3.746509
 30
0.000000
  0
VERTEX
  8
MERGEDLAYER-2
 10
2.098267
 20
3.746509
 30
0.000000
  0
VERTEX
  8
MERGEDLAYER-2
 10
2.098267
 20
3.553682
 30
0.000000
  0
VERTEX
  8
MERGEDLAYER-2
 10
2.090600
 20
3.553682
 30
0.000000
  0
SEQEND
  8
MERGEDLAYER-2
  0
POLYLINE
  8
MERGEDLAYER-2
 66
  1
 70
  1
 62
  0
  0
VERTEX
  8
MERGEDLAYER-2
 10
2.090600
 20
0.678709
 30
0.000000
  0
VERTEX
  8
MERGEDLAYER-2
 10
2.098267
 20
0.678709
 30
0.000000
  0
VERTEX
  8
MERGEDLAYER-2
 10
2.098267
 20
0.498105
 30
0.000000
  0
VERTEX
  8
MERGEDLAYER-2
 10
2.090600
 20
0.498105
 30
0.000000
  0
SEQEND
  8
MERGEDLAYER-2
  0
POLYLINE
  8
MERGEDLAYER-2
 66
  1
 70
  1
 62
  0
  0
VERTEX
  8
MERGEDLAYER-2
 10
2.098267
 20
0.832301
 30
0.000000
  0
VERTEX
  8
MERGEDLAYER-2
 10
2.105939
 20
0.832301
 30
0.000000
  0
VERTEX
  8
MERGEDLAYER-2
 10
2.105939
 20
0.639462
 30
0.000000
  0
VERTEX
  8
MERGEDLAYER-2
 10
2.098267
 20
0.639462
 30
0.000000
  0
SEQEND
  8
MERGEDLAYER-2
  0
POLYLINE
  8
MERGEDLAYER-2
 66
  1
 70
  1
 62
  0
  0
VERTEX
  8
MERGEDLAYER-2
 10
2.090600
 20
0.985680
 30
0.000000
  0
VERTEX
  8
MERGEDLAYER-2
 10
2.098267
 20
0.985680
 30
0.000000
  0
VERTEX
  8
MERGEDLAYER-2
 10
2.098267
 20
0.792842
 30
0.000000
  0
VERTEX
  8
MERGEDLAYER-2
 10
2.090600
 20
0.792842
 30
0.000000
  0
SEQEND
  8
MERGEDLAYER-2
  0
POLYLINE
  8
MERGEDLAYER-2
 66
  1
 70
  1
 62
  0
  0
VERTEX
  8
MERGEDLAYER-2
 10
2.098267
 20
1.139060
 30
0.000000
  0
VERTEX
  8
MERGEDLAYER-2
 10
2.105939
 20
1.139060
 30
0.000000
  0
VERTEX
  8
MERGEDLAYER-2
 10
2.105939
 20
0.946222
 30
0.000000
  0
VERTEX
  8
MERGEDLAYER-2
 10
2.098267
 20
0.946222
 30
0.000000
  0
SEQEND
  8
MERGEDLAYER-2
  0
POLYLINE
  8
MERGEDLAYER-2
 66
  1
 70
  1
 62
  0
  0
VERTEX
  8
MERGEDLAYER-2
 10
2.090600
 20
1.292438
 30
0.000000
  0
VERTEX
  8
MERGEDLAYER-2
 10
2.098267
 20
1.292438
 30
0.000000
  0
VERTEX
  8
MERGEDLAYER-2
 10
2.098267
 20
1.099602
 30
0.000000
  0
VERTEX
  8
MERGEDLAYER-2
 10
2.090600
 20
1.099602
 30
0.000000
  0
SEQEND
  8
MERGEDLAYER-2
  0
POLYLINE
  8
MERGEDLAYER-2
 66
  1
 70
  1
 62
  0
  0
VERTEX
  8
MERGEDLAYER-2
 10
2.098267
 20
1.445821
 30
0.000000
  0
VERTEX
  8
MERGEDLAYER-2
 10
2.105939
 20
1.445821
 30
0.000000
  0
VERTEX
  8
MERGEDLAYER-2
 10
2.105939
 20
1.252979
 30
0.000000
  0
VERTEX
  8
MERGEDLAYER-2
 10
2.098267
 20
1.252979
 30
0.000000
  0
SEQEND
  8
MERGEDLAYER-2
  0
POLYLINE
  8
MERGEDLAYER-2
 66
  1
 70
  1
 62
  0
  0
VERTEX
  8
MERGEDLAYER-2
 10
2.090600
 20
1.599198
 30
0.000000
  0
VERTEX
  8
MERGEDLAYER-2
 10
2.098267
 20
1.599198
 30
0.000000
  0
VERTEX
  8
MERGEDLAYER-2
 10
2.098267
 20
1.406360
 30
0.000000
  0
VERTEX
  8
MERGEDLAYER-2
 10
2.090600
 20
1.406360
 30
0.000000
  0
SEQEND
  8
MERGEDLAYER-2
  0
POLYLINE
  8
MERGEDLAYER-2
 66
  1
 70
  1
 62
  0
  0
VERTEX
  8
MERGEDLAYER-2
 10
2.098267
 20
1.752579
 30
0.000000
  0
VERTEX
  8
MERGEDLAYER-2
 10
2.105939
 20
1.752579
 30
0.000000
  0
VERTEX
  8
MERGEDLAYER-2
 10
2.105939
 20
1.559736
 30
0.000000
  0
VERTEX
  8
MERGEDLAYER-2
 10
2.098267
 20
1.559736
 30
0.000000
  0
SEQEND
  8
MERGEDLAYER-2
  0
POLYLINE
  8
MERGEDLAYER-2
 66
  1
 70
  1
 62
  0
  0
VERTEX
  8
MERGEDLAYER-2
 10
2.090600
 20
1.905959
 30
0.000000
  0
VERTEX
  8
MERGEDLAYER-2
 10
2.098267
 20
1.905959
 30
0.000000
  0
VERTEX
  8
MERGEDLAYER-2
 10
2.098267
 20
1.713119
 30
0.000000
  0
VERTEX
  8
MERGEDLAYER-2
 10
2.090600
 20
1.713119
 30
0.000000
  0
SEQEND
  8
MERGEDLAYER-2
  0
POLYLINE
  8
MERGEDLAYER-2
 66
  1
 70
  1
 62
  0
  0
VERTEX
  8
MERGEDLAYER-2
 10
2.098267
 20
2.059335
 30
0.000000
  0
VERTEX
  8
MERGEDLAYER-2
 10
2.105939
 20
2.059335
 30
0.000000
  0
VERTEX
  8
MERGEDLAYER-2
 10
2.105939
 20
1.866497
 30
0.000000
  0
VERTEX
  8
MERGEDLAYER-2
 10
2.098267
 20
1.866497
 30
0.000000
  0
SEQEND
  8
MERGEDLAYER-2
  0
POLYLINE
  8
MERGEDLAYER-2
 66
  1
 70
  1
 62
  0
  0
VERTEX
  8
MERGEDLAYER-2
 10
2.090600
 20
2.212717
 30
0.000000
  0
VERTEX
  8
MERGEDLAYER-2
 10
2.098267
 20
2.212717
 30
0.000000
  0
VERTEX
  8
MERGEDLAYER-2
 10
2.098267
 20
2.019875
 30
0.000000
  0
VERTEX
  8
MERGEDLAYER-2
 10
2.090600
 20
2.019875
 30
0.000000
  0
SEQEND
  8
MERGEDLAYER-2
  0
POLYLINE
  8
MERGEDLAYER-2
 66
  1
 70
  1
 62
  0
  0
VERTEX
  8
MERGEDLAYER-2
 10
2.098267
 20
2.366095
 30
0.000000
  0
VERTEX
  8
MERGEDLAYER-2
 10
2.105939
 20
2.366095
 30
0.000000
  0
VERTEX
  8
MERGEDLAYER-2
 10
2.105939
 20
2.173255
 30
0.000000
  0
VERTEX
  8
MERGEDLAYER-2
 10
2.098267
 20
2.173255
 30
0.000000
  0
SEQEND
  8
MERGEDLAYER-2
  0
POLYLINE
  8
MERGEDLAYER-2
 66
  1
 70
  1
 62
  0
  0
VERTEX
  8
MERGEDLAYER-2
 10
2.090600
 20
2.519476
 30
0.000000
  0
VERTEX
  8
MERGEDLAYER-2
 10
2.098267
 20
2.519476
 30
0.000000
  0
VERTEX
  8
MERGEDLAYER-2
 10
2.098267
 20
2.326636
 30
0.000000
  0
VERTEX
  8
MERGEDLAYER-2
 10
2.090600
 20
2.326636
 30
0.000000
  0
SEQEND
  8
MERGEDLAYER-2
  0
POLYLINE
  8
MERGEDLAYER-2
 66
  1
 70
  1
 62
  0
  0
VERTEX
  8
MERGEDLAYER-2
 10
2.098267
 20
2.672853
 30
0.000000
  0
VERTEX
  8
MERGEDLAYER-2
 10
2.105939
 20
2.672853
 30
0.000000
  0
VERTEX
  8
MERGEDLAYER-2
 10
2.105939
 20
2.480017
 30
0.000000
  0
VERTEX
  8
MERGEDLAYER-2
 10
2.098267
 20
2.480017
 30
0.000000
  0
SEQEND
  8
MERGEDLAYER-2
  0
POLYLINE
  8
MERGEDLAYER-2
 66
  1
 70
  1
 62
  0
  0
VERTEX
  8
MERGEDLAYER-2
 10
2.090600
 20
2.826232
 30
0.000000
  0
VERTEX
  8
MERGEDLAYER-2
 10
2.098267
 20
2.826232
 30
0.000000
  0
VERTEX
  8
MERGEDLAYER-2
 10
2.098267
 20
2.633396
 30
0.000000
  0
VERTEX
  8
MERGEDLAYER-2
 10
2.090600
 20
2.633396
 30
0.000000
  0
SEQEND
  8
MERGEDLAYER-2
  0
POLYLINE
  8
MERGEDLAYER-2
 66
  1
 70
  1
 62
  0
  0
VERTEX
  8
MERGEDLAYER-2
 10
2.098267
 20
2.979612
 30
0.000000
  0
VERTEX
  8
MERGEDLAYER-2
 10
2.105939
 20
2.979612
 30
0.000000
  0
VERTEX
  8
MERGEDLAYER-2
 10
2.105939
 20
2.786773
 30
0.000000
  0
VERTEX
  8
MERGEDLAYER-2
 10
2.098267
 20
2.786773
 30
0.000000
  0
SEQEND
  8
MERGEDLAYER-2
  0
POLYLINE
  8
MERGEDLAYER-2
 66
  1
 70
  1
 62
  0
  0
VERTEX
  8
MERGEDLAYER-2
 10
2.090600
 20
3.132991
 30
0.000000
  0
VERTEX
  8
MERGEDLAYER-2
 10
2.098267
 20
3.132991
 30
0.000000
  0
VERTEX
  8
MERGEDLAYER-2
 10
2.098267
 20
2.940152
 30
0.000000
  0
VERTEX
  8
MERGEDLAYER-2
 10
2.090600
 20
2.940152
 30
0.000000
  0
SEQEND
  8
MERGEDLAYER-2
  0
POLYLINE
  8
MERGEDLAYER-2
 66
  1
 70
  1
 62
  0
  0
VERTEX
  8
MERGEDLAYER-2
 10
2.098267
 20
3.286370
 30
0.000000
  0
VERTEX
  8
MERGEDLAYER-2
 10
2.105939
 20
3.286370
 30
0.000000
  0
VERTEX
  8
MERGEDLAYER-2
 10
2.105939
 20
3.093532
 30
0.000000
  0
VERTEX
  8
MERGEDLAYER-2
 10
2.098267
 20
3.093532
 30
0.000000
  0
SEQEND
  8
MERGEDLAYER-2
  0
POLYLINE
  8
MERGEDLAYER-2
 66
  1
 70
  1
 62
  0
  0
VERTEX
  8
MERGEDLAYER-2
 10
2.090600
 20
3.439750
 30
0.000000
  0
VERTEX
  8
MERGEDLAYER-2
 10
2.098267
 20
3.439750
 30
0.000000
  0
VERTEX
  8
MERGEDLAYER-2
 10
2.098267
 20
3.246912
 30
0.000000
  0
VERTEX
  8
MERGEDLAYER-2
 10
2.090600
 20
3.246912
 30
0.000000
  0
SEQEND
  8
MERGEDLAYER-2
  0
POLYLINE
  8
MERGEDLAYER-2
 66
  1
 70
  1
 62
  0
  0
VERTEX
  8
MERGEDLAYER-2
 10
2.098267
 20
3.899415
 30
0.000000
  0
VERTEX
  8
MERGEDLAYER-2
 10
2.105939
 20
3.899415
 30
0.000000
  0
VERTEX
  8
MERGEDLAYER-2
 10
2.105939
 20
3.706577
 30
0.000000
  0
VERTEX
  8
MERGEDLAYER-2
 10
2.098267
 20
3.706577
 30
0.000000
  0
SEQEND
  8
MERGEDLAYER-2
  0
POLYLINE
  8
MERGEDLAYER-2
 66
  1
 70
  1
 62
  0
  0
VERTEX
  8
MERGEDLAYER-2
 10
2.090600
 20
4.052794
 30
0.000000
  0
VERTEX
  8
MERGEDLAYER-2
 10
2.098267
 20
4.052794
 30
0.000000
  0
VERTEX
  8
MERGEDLAYER-2
 10
2.098267
 20
3.859967
 30
0.000000
  0
VERTEX
  8
MERGEDLAYER-2
 10
2.090600
 20
3.859967
 30
0.000000
  0
SEQEND
  8
MERGEDLAYER-2
  0
POLYLINE
  8
MERGEDLAYER-2
 66
  1
 70
  1
 62
  0
  0
VERTEX
  8
MERGEDLAYER-2
 10
2.098267
 20
4.205700
 30
0.000000
  0
VERTEX
  8
MERGEDLAYER-2
 10
2.105939
 20
4.205700
 30
0.000000
  0
VERTEX
  8
MERGEDLAYER-2
 10
2.105939
 20
4.012862
 30
0.000000
  0
VERTEX
  8
MERGEDLAYER-2
 10
2.098267
 20
4.012862
 30
0.000000
  0
SEQEND
  8
MERGEDLAYER-2
  0
POLYLINE
  8
MERGEDLAYER-2
 66
  1
 70
  1
 62
  0
  0
VERTEX
  8
MERGEDLAYER-2
 10
2.090600
 20
4.359080
 30
0.000000
  0
VERTEX
  8
MERGEDLAYER-2
 10
2.098267
 20
4.359080
 30
0.000000
  0
VERTEX
  8
MERGEDLAYER-2
 10
2.098267
 20
4.166252
 30
0.000000
  0
VERTEX
  8
MERGEDLAYER-2
 10
2.090600
 20
4.166252
 30
0.000000
  0
SEQEND
  8
MERGEDLAYER-2
  0
POLYLINE
  8
MERGEDLAYER-2
 66
  1
 70
  1
 62
  0
  0
VERTEX
  8
MERGEDLAYER-2
 10
2.098267
 20
4.511986
 30
0.000000
  0
VERTEX
  8
MERGEDLAYER-2
 10
2.105939
 20
4.511986
 30
0.000000
  0
VERTEX
  8
MERGEDLAYER-2
 10
2.105939
 20
4.319149
 30
0.000000
  0
VERTEX
  8
MERGEDLAYER-2
 10
2.098267
 20
4.319149
 30
0.000000
  0
SEQEND
  8
MERGEDLAYER-2
  0
POLYLINE
  8
MERGEDLAYER-2
 66
  1
 70
  1
 62
  0
  0
VERTEX
  8
MERGEDLAYER-2
 10
2.090600
 20
4.665366
 30
0.000000
  0
VERTEX
  8
MERGEDLAYER-2
 10
2.098267
 20
4.665366
 30
0.000000
  0
VERTEX
  8
MERGEDLAYER-2
 10
2.098267
 20
4.472539
 30
0.000000
  0
VERTEX
  8
MERGEDLAYER-2
 10
2.090600
 20
4.472539
 30
0.000000
  0
SEQEND
  8
MERGEDLAYER-2
  0
POLYLINE
  8
MERGEDLAYER-2
 66
  1
 70
  1
 62
  0
  0
VERTEX
  8
MERGEDLAYER-2
 10
2.098267
 20
4.818272
 30
0.000000
  0
VERTEX
  8
MERGEDLAYER-2
 10
2.105939
 20
4.818272
 30
0.000000
  0
VERTEX
  8
MERGEDLAYER-2
 10
2.105939
 20
4.625434
 30
0.000000
  0
VERTEX
  8
MERGEDLAYER-2
 10
2.098267
 20
4.625434
 30
0.000000
  0
SEQEND
  8
MERGEDLAYER-2
  0
POLYLINE
  8
MERGEDLAYER-2
 66
  1
 70
  1
 62
  0
  0
VERTEX
  8
MERGEDLAYER-2
 10
2.090600
 20
4.971652
 30
0.000000
  0
VERTEX
  8
MERGEDLAYER-2
 10
2.098267
 20
4.971652
 30
0.000000
  0
VERTEX
  8
MERGEDLAYER-2
 10
2.098267
 20
4.778825
 30
0.000000
  0
VERTEX
  8
MERGEDLAYER-2
 10
2.090600
 20
4.778825
 30
0.000000
  0
SEQEND
  8
MERGEDLAYER-2
  0
POLYLINE
  8
MERGEDLAYER-2
 66
  1
 70
  1
 62
  0
  0
VERTEX
  8
MERGEDLAYER-2
 10
2.098267
 20
5.124557
 30
0.000000
  0
VERTEX
  8
MERGEDLAYER-2
 10
2.105939
 20
5.124557
 30
0.000000
  0
VERTEX
  8
MERGEDLAYER-2
 10
2.105939
 20
4.931720
 30
0.000000
  0
VERTEX
  8
MERGEDLAYER-2
 10
2.098267
 20
4.931720
 30
0.000000
  0
SEQEND
  8
MERGEDLAYER-2
  0
POLYLINE
  8
MERGEDLAYER-2
 66
  1
 70
  1
 62
  0
  0
VERTEX
  8
MERGEDLAYER-2
 10
2.090600
 20
5.277937
 30
0.000000
  0
VERTEX
  8
MERGEDLAYER-2
 10
2.098267
 20
5.277937
 30
0.000000
  0
VERTEX
  8
MERGEDLAYER-2
 10
2.098267
 20
5.085110
 30
0.000000
  0
VERTEX
  8
MERGEDLAYER-2
 10
2.090600
 20
5.085110
 30
0.000000
  0
SEQEND
  8
MERGEDLAYER-2
  0
POLYLINE
  8
MERGEDLAYER-2
 66
  1
 70
  1
 62
  0
  0
VERTEX
  8
MERGEDLAYER-2
 10
2.658067
 20
3.593130
 30
0.000000
  0
VERTEX
  8
MERGEDLAYER-2
 10
2.665739
 20
3.593130
 30
0.000000
  0
VERTEX
  8
MERGEDLAYER-2
 10
2.665739
 20
3.400291
 30
0.000000
  0
VERTEX
  8
MERGEDLAYER-2
 10
2.658067
 20
3.400291
 30
0.000000
  0
SEQEND
  8
MERGEDLAYER-2
  0
POLYLINE
  8
MERGEDLAYER-2
 66
  1
 70
  1
 62
  0
  0
VERTEX
  8
MERGEDLAYER-2
 10
2.650401
 20
3.746509
 30
0.000000
  0
VERTEX
  8
MERGEDLAYER-2
 10
2.658067
 20
3.746509
 30
0.000000
  0
VERTEX
  8
MERGEDLAYER-2
 10
2.658067
 20
3.553682
 30
0.000000
  0
VERTEX
  8
MERGEDLAYER-2
 10
2.650401
 20
3.553682
 30
0.000000
  0
SEQEND
  8
MERGEDLAYER-2
  0
POLYLINE
  8
MERGEDLAYER-2
 66
  1
 70
  1
 62
  0
  0
VERTEX
  8
MERGEDLAYER-2
 10
2.650401
 20
0.678709
 30
0.000000
  0
VERTEX
  8
MERGEDLAYER-2
 10
2.658067
 20
0.678709
 30
0.000000
  0
VERTEX
  8
MERGEDLAYER-2
 10
2.658067
 20
0.498105
 30
0.000000
  0
VERTEX
  8
MERGEDLAYER-2
 10
2.650401
 20
0.498105
 30
0.000000
  0
SEQEND
  8
MERGEDLAYER-2
  0
POLYLINE
  8
MERGEDLAYER-2
 66
  1
 70
  1
 62
  0
  0
VERTEX
  8
MERGEDLAYER-2
 10
2.658067
 20
0.832301
 30
0.000000
  0
VERTEX
  8
MERGEDLAYER-2
 10
2.665739
 20
0.832301
 30
0.000000
  0
VERTEX
  8
MERGEDLAYER-2
 10
2.665739
 20
0.639462
 30
0.000000
  0
VERTEX
  8
MERGEDLAYER-2
 10
2.658067
 20
0.639462
 30
0.000000
  0
SEQEND
  8
MERGEDLAYER-2
  0
POLYLINE
  8
MERGEDLAYER-2
 66
  1
 70
  1
 62
  0
  0
VERTEX
  8
MERGEDLAYER-2
 10
2.650401
 20
0.985680
 30
0.000000
  0
VERTEX
  8
MERGEDLAYER-2
 10
2.658067
 20
0.985680
 30
0.000000
  0
VERTEX
  8
MERGEDLAYER-2
 10
2.658067
 20
0.792842
 30
0.000000
  0
VERTEX
  8
MERGEDLAYER-2
 10
2.650401
 20
0.792842
 30
0.000000
  0
SEQEND
  8
MERGEDLAYER-2
  0
POLYLINE
  8
MERGEDLAYER-2
 66
  1
 70
  1
 62
  0
  0
VERTEX
  8
MERGEDLAYER-2
 10
2.658067
 20
1.139060
 30
0.000000
  0
VERTEX
  8
MERGEDLAYER-2
 10
2.665739
 20
1.139060
 30
0.000000
  0
VERTEX
  8
MERGEDLAYER-2
 10
2.665739
 20
0.946222
 30
0.000000
  0
VERTEX
  8
MERGEDLAYER-2
 10
2.658067
 20
0.946222
 30
0.000000
  0
SEQEND
  8
MERGEDLAYER-2
  0
POLYLINE
  8
MERGEDLAYER-2
 66
  1
 70
  1
 62
  0
  0
VERTEX
  8
MERGEDLAYER-2
 10
2.650401
 20
1.292438
 30
0.000000
  0
VERTEX
  8
MERGEDLAYER-2
 10
2.658067
 20
1.292438
 30
0.000000
  0
VERTEX
  8
MERGEDLAYER-2
 10
2.658067
 20
1.099602
 30
0.000000
  0
VERTEX
  8
MERGEDLAYER-2
 10
2.650401
 20
1.099602
 30
0.000000
  0
SEQEND
  8
MERGEDLAYER-2
  0
POLYLINE
  8
MERGEDLAYER-2
 66
  1
 70
  1
 62
  0
  0
VERTEX
  8
MERGEDLAYER-2
 10
2.658067
 20
1.445821
 30
0.000000
  0
VERTEX
  8
MERGEDLAYER-2
 10
2.665739
 20
1.445821
 30
0.000000
  0
VERTEX
  8
MERGEDLAYER-2
 10
2.665739
 20
1.252979
 30
0.000000
  0
VERTEX
  8
MERGEDLAYER-2
 10
2.658067
 20
1.252979
 30
0.000000
  0
SEQEND
  8
MERGEDLAYER-2
  0
POLYLINE
  8
MERGEDLAYER-2
 66
  1
 70
  1
 62
  0
  0
VERTEX
  8
MERGEDLAYER-2
 10
2.650401
 20
1.599198
 30
0.000000
  0
VERTEX
  8
MERGEDLAYER-2
 10
2.658067
 20
1.599198
 30
0.000000
  0
VERTEX
  8
MERGEDLAYER-2
 10
2.658067
 20
1.406360
 30
0.000000
  0
VERTEX
  8
MERGEDLAYER-2
 10
2.650401
 20
1.406360
 30
0.000000
  0
SEQEND
  8
MERGEDLAYER-2
  0
POLYLINE
  8
MERGEDLAYER-2
 66
  1
 70
  1
 62
  0
  0
VERTEX
  8
MERGEDLAYER-2
 10
2.658067
 20
1.752579
 30
0.000000
  0
VERTEX
  8
MERGEDLAYER-2
 10
2.665739
 20
1.752579
 30
0.000000
  0
VERTEX
  8
MERGEDLAYER-2
 10
2.665739
 20
1.559736
 30
0.000000
  0
VERTEX
  8
MERGEDLAYER-2
 10
2.658067
 20
1.559736
 30
0.000000
  0
SEQEND
  8
MERGEDLAYER-2
  0
POLYLINE
  8
MERGEDLAYER-2
 66
  1
 70
  1
 62
  0
  0
VERTEX
  8
MERGEDLAYER-2
 10
2.650401
 20
1.905959
 30
0.000000
  0
VERTEX
  8
MERGEDLAYER-2
 10
2.658067
 20
1.905959
 30
0.000000
  0
VERTEX
  8
MERGEDLAYER-2
 10
2.658067
 20
1.713119
 30
0.000000
  0
VERTEX
  8
MERGEDLAYER-2
 10
2.650401
 20
1.713119
 30
0.000000
  0
SEQEND
  8
MERGEDLAYER-2
  0
POLYLINE
  8
MERGEDLAYER-2
 66
  1
 70
  1
 62
  0
  0
VERTEX
  8
MERGEDLAYER-2
 10
2.658067
 20
2.059335
 30
0.000000
  0
VERTEX
  8
MERGEDLAYER-2
 10
2.665739
 20
2.059335
 30
0.000000
  0
VERTEX
  8
MERGEDLAYER-2
 10
2.665739
 20
1.866497
 30
0.000000
  0
VERTEX
  8
MERGEDLAYER-2
 10
2.658067
 20
1.866497
 30
0.000000
  0
SEQEND
  8
MERGEDLAYER-2
  0
POLYLINE
  8
MERGEDLAYER-2
 66
  1
 70
  1
 62
  0
  0
VERTEX
  8
MERGEDLAYER-2
 10
2.650401
 20
2.212717
 30
0.000000
  0
VERTEX
  8
MERGEDLAYER-2
 10
2.658067
 20
2.212717
 30
0.000000
  0
VERTEX
  8
MERGEDLAYER-2
 10
2.658067
 20
2.019875
 30
0.000000
  0
VERTEX
  8
MERGEDLAYER-2
 10
2.650401
 20
2.019875
 30
0.000000
  0
SEQEND
  8
MERGEDLAYER-2
  0
POLYLINE
  8
MERGEDLAYER-2
 66
  1
 70
  1
 62
  0
  0
VERTEX
  8
MERGEDLAYER-2
 10
2.658067
 20
2.366095
 30
0.000000
  0
VERTEX
  8
MERGEDLAYER-2
 10
2.665739
 20
2.366095
 30
0.000000
  0
VERTEX
  8
MERGEDLAYER-2
 10
2.665739
 20
2.173255
 30
0.000000
  0
VERTEX
  8
MERGEDLAYER-2
 10
2.658067
 20
2.173255
 30
0.000000
  0
SEQEND
  8
MERGEDLAYER-2
  0
POLYLINE
  8
MERGEDLAYER-2
 66
  1
 70
  1
 62
  0
  0
VERTEX
  8
MERGEDLAYER-2
 10
2.650401
 20
2.519476
 30
0.000000
  0
VERTEX
  8
MERGEDLAYER-2
 10
2.658067
 20
2.519476
 30
0.000000
  0
VERTEX
  8
MERGEDLAYER-2
 10
2.658067
 20
2.326636
 30
0.000000
  0
VERTEX
  8
MERGEDLAYER-2
 10
2.650401
 20
2.326636
 30
0.000000
  0
SEQEND
  8
MERGEDLAYER-2
  0
POLYLINE
  8
MERGEDLAYER-2
 66
  1
 70
  1
 62
  0
  0
VERTEX
  8
MERGEDLAYER-2
 10
2.658067
 20
2.672853
 30
0.000000
  0
VERTEX
  8
MERGEDLAYER-2
 10
2.665739
 20
2.672853
 30
0.000000
  0
VERTEX
  8
MERGEDLAYER-2
 10
2.665739
 20
2.480017
 30
0.000000
  0
VERTEX
  8
MERGEDLAYER-2
 10
2.658067
 20
2.480017
 30
0.000000
  0
SEQEND
  8
MERGEDLAYER-2
  0
POLYLINE
  8
MERGEDLAYER-2
 66
  1
 70
  1
 62
  0
  0
VERTEX
  8
MERGEDLAYER-2
 10
2.650401
 20
2.826232
 30
0.000000
  0
VERTEX
  8
MERGEDLAYER-2
 10
2.658067
 20
2.826232
 30
0.000000
  0
VERTEX
  8
MERGEDLAYER-2
 10
2.658067
 20
2.633396
 30
0.000000
  0
VERTEX
  8
MERGEDLAYER-2
 10
2.650401
 20
2.633396
 30
0.000000
  0
SEQEND
  8
MERGEDLAYER-2
  0
POLYLINE
  8
MERGEDLAYER-2
 66
  1
 70
  1
 62
  0
  0
VERTEX
  8
MERGEDLAYER-2
 10
2.658067
 20
2.979612
 30
0.000000
  0
VERTEX
  8
MERGEDLAYER-2
 10
2.665739
 20
2.979612
 30
0.000000
  0
VERTEX
  8
MERGEDLAYER-2
 10
2.665739
 20
2.786773
 30
0.000000
  0
VERTEX
  8
MERGEDLAYER-2
 10
2.658067
 20
2.786773
 30
0.000000
  0
SEQEND
  8
MERGEDLAYER-2
  0
POLYLINE
  8
MERGEDLAYER-2
 66
  1
 70
  1
 62
  0
  0
VERTEX
  8
MERGEDLAYER-2
 10
2.650401
 20
3.132991
 30
0.000000
  0
VERTEX
  8
MERGEDLAYER-2
 10
2.658067
 20
3.132991
 30
0.000000
  0
VERTEX
  8
MERGEDLAYER-2
 10
2.658067
 20
2.940152
 30
0.000000
  0
VERTEX
  8
MERGEDLAYER-2
 10
2.650401
 20
2.940152
 30
0.000000
  0
SEQEND
  8
MERGEDLAYER-2
  0
POLYLINE
  8
MERGEDLAYER-2
 66
  1
 70
  1
 62
  0
  0
VERTEX
  8
MERGEDLAYER-2
 10
2.658067
 20
3.286370
 30
0.000000
  0
VERTEX
  8
MERGEDLAYER-2
 10
2.665739
 20
3.286370
 30
0.000000
  0
VERTEX
  8
MERGEDLAYER-2
 10
2.665739
 20
3.093532
 30
0.000000
  0
VERTEX
  8
MERGEDLAYER-2
 10
2.658067
 20
3.093532
 30
0.000000
  0
SEQEND
  8
MERGEDLAYER-2
  0
POLYLINE
  8
MERGEDLAYER-2
 66
  1
 70
  1
 62
  0
  0
VERTEX
  8
MERGEDLAYER-2
 10
2.650401
 20
3.439750
 30
0.000000
  0
VERTEX
  8
MERGEDLAYER-2
 10
2.658067
 20
3.439750
 30
0.000000
  0
VERTEX
  8
MERGEDLAYER-2
 10
2.658067
 20
3.246912
 30
0.000000
  0
VERTEX
  8
MERGEDLAYER-2
 10
2.650401
 20
3.246912
 30
0.000000
  0
SEQEND
  8
MERGEDLAYER-2
  0
POLYLINE
  8
MERGEDLAYER-2
 66
  1
 70
  1
 62
  0
  0
VERTEX
  8
MERGEDLAYER-2
 10
2.658067
 20
3.899415
 30
0.000000
  0
VERTEX
  8
MERGEDLAYER-2
 10
2.665739
 20
3.899415
 30
0.000000
  0
VERTEX
  8
MERGEDLAYER-2
 10
2.665739
 20
3.706577
 30
0.000000
  0
VERTEX
  8
MERGEDLAYER-2
 10
2.658067
 20
3.706577
 30
0.000000
  0
SEQEND
  8
MERGEDLAYER-2
  0
POLYLINE
  8
MERGEDLAYER-2
 66
  1
 70
  1
 62
  0
  0
VERTEX
  8
MERGEDLAYER-2
 10
2.650401
 20
4.052794
 30
0.000000
  0
VERTEX
  8
MERGEDLAYER-2
 10
2.658067
 20
4.052794
 30
0.000000
  0
VERTEX
  8
MERGEDLAYER-2
 10
2.658067
 20
3.859967
 30
0.000000
  0
VERTEX
  8
MERGEDLAYER-2
 10
2.650401
 20
3.859967
 30
0.000000
  0
SEQEND
  8
MERGEDLAYER-2
  0
POLYLINE
  8
MERGEDLAYER-2
 66
  1
 70
  1
 62
  0
  0
VERTEX
  8
MERGEDLAYER-2
 10
2.658067
 20
4.205700
 30
0.000000
  0
VERTEX
  8
MERGEDLAYER-2
 10
2.665739
 20
4.205700
 30
0.000000
  0
VERTEX
  8
MERGEDLAYER-2
 10
2.665739
 20
4.012862
 30
0.000000
  0
VERTEX
  8
MERGEDLAYER-2
 10
2.658067
 20
4.012862
 30
0.000000
  0
SEQEND
  8
MERGEDLAYER-2
  0
POLYLINE
  8
MERGEDLAYER-2
 66
  1
 70
  1
 62
  0
  0
VERTEX
  8
MERGEDLAYER-2
 10
2.650401
 20
4.359080
 30
0.000000
  0
VERTEX
  8
MERGEDLAYER-2
 10
2.658067
 20
4.359080
 30
0.000000
  0
VERTEX
  8
MERGEDLAYER-2
 10
2.658067
 20
4.166252
 30
0.000000
  0
VERTEX
  8
MERGEDLAYER-2
 10
2.650401
 20
4.166252
 30
0.000000
  0
SEQEND
  8
MERGEDLAYER-2
  0
POLYLINE
  8
MERGEDLAYER-2
 66
  1
 70
  1
 62
  0
  0
VERTEX
  8
MERGEDLAYER-2
 10
2.658067
 20
4.511986
 30
0.000000
  0
VERTEX
  8
MERGEDLAYER-2
 10
2.665739
 20
4.511986
 30
0.000000
  0
VERTEX
  8
MERGEDLAYER-2
 10
2.665739
 20
4.319149
 30
0.000000
  0
VERTEX
  8
MERGEDLAYER-2
 10
2.658067
 20
4.319149
 30
0.000000
  0
SEQEND
  8
MERGEDLAYER-2
  0
POLYLINE
  8
MERGEDLAYER-2
 66
  1
 70
  1
 62
  0
  0
VERTEX
  8
MERGEDLAYER-2
 10
2.650401
 20
4.665366
 30
0.000000
  0
VERTEX
  8
MERGEDLAYER-2
 10
2.658067
 20
4.665366
 30
0.000000
  0
VERTEX
  8
MERGEDLAYER-2
 10
2.658067
 20
4.472539
 30
0.000000
  0
VERTEX
  8
MERGEDLAYER-2
 10
2.650401
 20
4.472539
 30
0.000000
  0
SEQEND
  8
MERGEDLAYER-2
  0
POLYLINE
  8
MERGEDLAYER-2
 66
  1
 70
  1
 62
  0
  0
VERTEX
  8
MERGEDLAYER-2
 10
2.658067
 20
4.818272
 30
0.000000
  0
VERTEX
  8
MERGEDLAYER-2
 10
2.665739
 20
4.818272
 30
0.000000
  0
VERTEX
  8
MERGEDLAYER-2
 10
2.665739
 20
4.625434
 30
0.000000
  0
VERTEX
  8
MERGEDLAYER-2
 10
2.658067
 20
4.625434
 30
0.000000
  0
SEQEND
  8
MERGEDLAYER-2
  0
POLYLINE
  8
MERGEDLAYER-2
 66
  1
 70
  1
 62
  0
  0
VERTEX
  8
MERGEDLAYER-2
 10
2.650401
 20
4.971652
 30
0.000000
  0
VERTEX
  8
MERGEDLAYER-2
 10
2.658067
 20
4.971652
 30
0.000000
  0
VERTEX
  8
MERGEDLAYER-2
 10
2.658067
 20
4.778825
 30
0.000000
  0
VERTEX
  8
MERGEDLAYER-2
 10
2.650401
 20
4.778825
 30
0.000000
  0
SEQEND
  8
MERGEDLAYER-2
  0
POLYLINE
  8
MERGEDLAYER-2
 66
  1
 70
  1
 62
  0
  0
VERTEX
  8
MERGEDLAYER-2
 10
2.658067
 20
5.124557
 30
0.000000
  0
VERTEX
  8
MERGEDLAYER-2
 10
2.665739
 20
5.124557
 30
0.000000
  0
VERTEX
  8
MERGEDLAYER-2
 10
2.665739
 20
4.931720
 30
0.000000
  0
VERTEX
  8
MERGEDLAYER-2
 10
2.658067
 20
4.931720
 30
0.000000
  0
SEQEND
  8
MERGEDLAYER-2
  0
POLYLINE
  8
MERGEDLAYER-2
 66
  1
 70
  1
 62
  0
  0
VERTEX
  8
MERGEDLAYER-2
 10
2.650401
 20
5.277937
 30
0.000000
  0
VERTEX
  8
MERGEDLAYER-2
 10
2.658067
 20
5.277937
 30
0.000000
  0
VERTEX
  8
MERGEDLAYER-2
 10
2.658067
 20
5.085110
 30
0.000000
  0
VERTEX
  8
MERGEDLAYER-2
 10
2.650401
 20
5.085110
 30
0.000000
  0
SEQEND
  8
MERGEDLAYER-2
  0
POLYLINE
  8
MERGEDLAYER-2
 66
  1
 70
  1
 62
  0
  0
VERTEX
  8
MERGEDLAYER-2
 10
3.217867
 20
3.593130
 30
0.000000
  0
VERTEX
  8
MERGEDLAYER-2
 10
3.225539
 20
3.593130
 30
0.000000
  0
VERTEX
  8
MERGEDLAYER-2
 10
3.225539
 20
3.400291
 30
0.000000
  0
VERTEX
  8
MERGEDLAYER-2
 10
3.217867
 20
3.400291
 30
0.000000
  0
SEQEND
  8
MERGEDLAYER-2
  0
POLYLINE
  8
MERGEDLAYER-2
 66
  1
 70
  1
 62
  0
  0
VERTEX
  8
MERGEDLAYER-2
 10
3.210200
 20
3.746509
 30
0.000000
  0
VERTEX
  8
MERGEDLAYER-2
 10
3.217867
 20
3.746509
 30
0.000000
  0
VERTEX
  8
MERGEDLAYER-2
 10
3.217867
 20
3.553682
 30
0.000000
  0
VERTEX
  8
MERGEDLAYER-2
 10
3.210200
 20
3.553682
 30
0.000000
  0
SEQEND
  8
MERGEDLAYER-2
  0
POLYLINE
  8
MERGEDLAYER-2
 66
  1
 70
  1
 62
  0
  0
VERTEX
  8
MERGEDLAYER-2
 10
3.210200
 20
0.678709
 30
0.000000
  0
VERTEX
  8
MERGEDLAYER-2
 10
3.217867
 20
0.678709
 30
0.000000
  0
VERTEX
  8
MERGEDLAYER-2
 10
3.217867
 20
0.498105
 30
0.000000
  0
VERTEX
  8
MERGEDLAYER-2
 10
3.210200
 20
0.498105
 30
0.000000
  0
SEQEND
  8
MERGEDLAYER-2
  0
POLYLINE
  8
MERGEDLAYER-2
 66
  1
 70
  1
 62
  0
  0
VERTEX
  8
MERGEDLAYER-2
 10
3.217867
 20
0.832301
 30
0.000000
  0
VERTEX
  8
MERGEDLAYER-2
 10
3.225539
 20
0.832301
 30
0.000000
  0
VERTEX
  8
MERGEDLAYER-2
 10
3.225539
 20
0.639462
 30
0.000000
  0
VERTEX
  8
MERGEDLAYER-2
 10
3.217867
 20
0.639462
 30
0.000000
  0
SEQEND
  8
MERGEDLAYER-2
  0
POLYLINE
  8
MERGEDLAYER-2
 66
  1
 70
  1
 62
  0
  0
VERTEX
  8
MERGEDLAYER-2
 10
3.210200
 20
0.985680
 30
0.000000
  0
VERTEX
  8
MERGEDLAYER-2
 10
3.217867
 20
0.985680
 30
0.000000
  0
VERTEX
  8
MERGEDLAYER-2
 10
3.217867
 20
0.792842
 30
0.000000
  0
VERTEX
  8
MERGEDLAYER-2
 10
3.210200
 20
0.792842
 30
0.000000
  0
SEQEND
  8
MERGEDLAYER-2
  0
POLYLINE
  8
MERGEDLAYER-2
 66
  1
 70
  1
 62
  0
  0
VERTEX
  8
MERGEDLAYER-2
 10
3.217867
 20
1.139060
 30
0.000000
  0
VERTEX
  8
MERGEDLAYER-2
 10
3.225539
 20
1.139060
 30
0.000000
  0
VERTEX
  8
MERGEDLAYER-2
 10
3.225539
 20
0.946222
 30
0.000000
  0
VERTEX
  8
MERGEDLAYER-2
 10
3.217867
 20
0.946222
 30
0.000000
  0
SEQEND
  8
MERGEDLAYER-2
  0
POLYLINE
  8
MERGEDLAYER-2
 66
  1
 70
  1
 62
  0
  0
VERTEX
  8
MERGEDLAYER-2
 10
3.210200
 20
1.292438
 30
0.000000
  0
VERTEX
  8
MERGEDLAYER-2
 10
3.217867
 20
1.292438
 30
0.000000
  0
VERTEX
  8
MERGEDLAYER-2
 10
3.217867
 20
1.099602
 30
0.000000
  0
VERTEX
  8
MERGEDLAYER-2
 10
3.210200
 20
1.099602
 30
0.000000
  0
SEQEND
  8
MERGEDLAYER-2
  0
POLYLINE
  8
MERGEDLAYER-2
 66
  1
 70
  1
 62
  0
  0
VERTEX
  8
MERGEDLAYER-2
 10
3.217867
 20
1.445821
 30
0.000000
  0
VERTEX
  8
MERGEDLAYER-2
 10
3.225539
 20
1.445821
 30
0.000000
  0
VERTEX
  8
MERGEDLAYER-2
 10
3.225539
 20
1.252979
 30
0.000000
  0
VERTEX
  8
MERGEDLAYER-2
 10
3.217867
 20
1.252979
 30
0.000000
  0
SEQEND
  8
MERGEDLAYER-2
  0
POLYLINE
  8
MERGEDLAYER-2
 66
  1
 70
  1
 62
  0
  0
VERTEX
  8
MERGEDLAYER-2
 10
3.210200
 20
1.599198
 30
0.000000
  0
VERTEX
  8
MERGEDLAYER-2
 10
3.217867
 20
1.599198
 30
0.000000
  0
VERTEX
  8
MERGEDLAYER-2
 10
3.217867
 20
1.406360
 30
0.000000
  0
VERTEX
  8
MERGEDLAYER-2
 10
3.210200
 20
1.406360
 30
0.000000
  0
SEQEND
  8
MERGEDLAYER-2
  0
POLYLINE
  8
MERGEDLAYER-2
 66
  1
 70
  1
 62
  0
  0
VERTEX
  8
MERGEDLAYER-2
 10
3.217867
 20
1.752579
 30
0.000000
  0
VERTEX
  8
MERGEDLAYER-2
 10
3.225539
 20
1.752579
 30
0.000000
  0
VERTEX
  8
MERGEDLAYER-2
 10
3.225539
 20
1.559736
 30
0.000000
  0
VERTEX
  8
MERGEDLAYER-2
 10
3.217867
 20
1.559736
 30
0.000000
  0
SEQEND
  8
MERGEDLAYER-2
  0
POLYLINE
  8
MERGEDLAYER-2
 66
  1
 70
  1
 62
  0
  0
VERTEX
  8
MERGEDLAYER-2
 10
3.210200
 20
1.905959
 30
0.000000
  0
VERTEX
  8
MERGEDLAYER-2
 10
3.217867
 20
1.905959
 30
0.000000
  0
VERTEX
  8
MERGEDLAYER-2
 10
3.217867
 20
1.713119
 30
0.000000
  0
VERTEX
  8
MERGEDLAYER-2
 10
3.210200
 20
1.713119
 30
0.000000
  0
SEQEND
  8
MERGEDLAYER-2
  0
POLYLINE
  8
MERGEDLAYER-2
 66
  1
 70
  1
 62
  0
  0
VERTEX
  8
MERGEDLAYER-2
 10
3.217867
 20
2.059335
 30
0.000000
  0
VERTEX
  8
MERGEDLAYER-2
 10
3.225539
 20
2.059335
 30
0.000000
  0
VERTEX
  8
MERGEDLAYER-2
 10
3.225539
 20
1.866497
 30
0.000000
  0
VERTEX
  8
MERGEDLAYER-2
 10
3.217867
 20
1.866497
 30
0.000000
  0
SEQEND
  8
MERGEDLAYER-2
  0
POLYLINE
  8
MERGEDLAYER-2
 66
  1
 70
  1
 62
  0
  0
VERTEX
  8
MERGEDLAYER-2
 10
3.210200
 20
2.212717
 30
0.000000
  0
VERTEX
  8
MERGEDLAYER-2
 10
3.217867
 20
2.212717
 30
0.000000
  0
VERTEX
  8
MERGEDLAYER-2
 10
3.217867
 20
2.019875
 30
0.000000
  0
VERTEX
  8
MERGEDLAYER-2
 10
3.210200
 20
2.019875
 30
0.000000
  0
SEQEND
  8
MERGEDLAYER-2
  0
POLYLINE
  8
MERGEDLAYER-2
 66
  1
 70
  1
 62
  0
  0
VERTEX
  8
MERGEDLAYER-2
 10
3.217867
 20
2.366095
 30
0.000000
  0
VERTEX
  8
MERGEDLAYER-2
 10
3.225539
 20
2.366095
 30
0.000000
  0
VERTEX
  8
MERGEDLAYER-2
 10
3.225539
 20
2.173255
 30
0.000000
  0
VERTEX
  8
MERGEDLAYER-2
 10
3.217867
 20
2.173255
 30
0.000000
  0
SEQEND
  8
MERGEDLAYER-2
  0
POLYLINE
  8
MERGEDLAYER-2
 66
  1
 70
  1
 62
  0
  0
VERTEX
  8
MERGEDLAYER-2
 10
3.210200
 20
2.519476
 30
0.000000
  0
VERTEX
  8
MERGEDLAYER-2
 10
3.217867
 20
2.519476
 30
0.000000
  0
VERTEX
  8
MERGEDLAYER-2
 10
3.217867
 20
2.326636
 30
0.000000
  0
VERTEX
  8
MERGEDLAYER-2
 10
3.210200
 20
2.326636
 30
0.000000
  0
SEQEND
  8
MERGEDLAYER-2
  0
POLYLINE
  8
MERGEDLAYER-2
 66
  1
 70
  1
 62
  0
  0
VERTEX
  8
MERGEDLAYER-2
 10
3.217867
 20
2.672853
 30
0.000000
  0
VERTEX
  8
MERGEDLAYER-2
 10
3.225539
 20
2.672853
 30
0.000000
  0
VERTEX
  8
MERGEDLAYER-2
 10
3.225539
 20
2.480017
 30
0.000000
  0
VERTEX
  8
MERGEDLAYER-2
 10
3.217867
 20
2.480017
 30
0.000000
  0
SEQEND
  8
MERGEDLAYER-2
  0
POLYLINE
  8
MERGEDLAYER-2
 66
  1
 70
  1
 62
  0
  0
VERTEX
  8
MERGEDLAYER-2
 10
3.210200
 20
2.826232
 30
0.000000
  0
VERTEX
  8
MERGEDLAYER-2
 10
3.217867
 20
2.826232
 30
0.000000
  0
VERTEX
  8
MERGEDLAYER-2
 10
3.217867
 20
2.633396
 30
0.000000
  0
VERTEX
  8
MERGEDLAYER-2
 10
3.210200
 20
2.633396
 30
0.000000
  0
SEQEND
  8
MERGEDLAYER-2
  0
POLYLINE
  8
MERGEDLAYER-2
 66
  1
 70
  1
 62
  0
  0
VERTEX
  8
MERGEDLAYER-2
 10
3.217867
 20
2.979612
 30
0.000000
  0
VERTEX
  8
MERGEDLAYER-2
 10
3.225539
 20
2.979612
 30
0.000000
  0
VERTEX
  8
MERGEDLAYER-2
 10
3.225539
 20
2.786773
 30
0.000000
  0
VERTEX
  8
MERGEDLAYER-2
 10
3.217867
 20
2.786773
 30
0.000000
  0
SEQEND
  8
MERGEDLAYER-2
  0
POLYLINE
  8
MERGEDLAYER-2
 66
  1
 70
  1
 62
  0
  0
VERTEX
  8
MERGEDLAYER-2
 10
3.210200
 20
3.132991
 30
0.000000
  0
VERTEX
  8
MERGEDLAYER-2
 10
3.217867
 20
3.132991
 30
0.000000
  0
VERTEX
  8
MERGEDLAYER-2
 10
3.217867
 20
2.940152
 30
0.000000
  0
VERTEX
  8
MERGEDLAYER-2
 10
3.210200
 20
2.940152
 30
0.000000
  0
SEQEND
  8
MERGEDLAYER-2
  0
POLYLINE
  8
MERGEDLAYER-2
 66
  1
 70
  1
 62
  0
  0
VERTEX
  8
MERGEDLAYER-2
 10
3.217867
 20
3.286370
 30
0.000000
  0
VERTEX
  8
MERGEDLAYER-2
 10
3.225539
 20
3.286370
 30
0.000000
  0
VERTEX
  8
MERGEDLAYER-2
 10
3.225539
 20
3.093532
 30
0.000000
  0
VERTEX
  8
MERGEDLAYER-2
 10
3.217867
 20
3.093532
 30
0.000000
  0
SEQEND
  8
MERGEDLAYER-2
  0
POLYLINE
  8
MERGEDLAYER-2
 66
  1
 70
  1
 62
  0
  0
VERTEX
  8
MERGEDLAYER-2
 10
3.210200
 20
3.439750
 30
0.000000
  0
VERTEX
  8
MERGEDLAYER-2
 10
3.217867
 20
3.439750
 30
0.000000
  0
VERTEX
  8
MERGEDLAYER-2
 10
3.217867
 20
3.246912
 30
0.000000
  0
VERTEX
  8
MERGEDLAYER-2
 10
3.210200
 20
3.246912
 30
0.000000
  0
SEQEND
  8
MERGEDLAYER-2
  0
POLYLINE
  8
MERGEDLAYER-2
 66
  1
 70
  1
 62
  0
  0
VERTEX
  8
MERGEDLAYER-2
 10
3.217867
 20
3.899415
 30
0.000000
  0
VERTEX
  8
MERGEDLAYER-2
 10
3.225539
 20
3.899415
 30
0.000000
  0
VERTEX
  8
MERGEDLAYER-2
 10
3.225539
 20
3.706577
 30
0.000000
  0
VERTEX
  8
MERGEDLAYER-2
 10
3.217867
 20
3.706577
 30
0.000000
  0
SEQEND
  8
MERGEDLAYER-2
  0
POLYLINE
  8
MERGEDLAYER-2
 66
  1
 70
  1
 62
  0
  0
VERTEX
  8
MERGEDLAYER-2
 10
3.210200
 20
4.052794
 30
0.000000
  0
VERTEX
  8
MERGEDLAYER-2
 10
3.217867
 20
4.052794
 30
0.000000
  0
VERTEX
  8
MERGEDLAYER-2
 10
3.217867
 20
3.859967
 30
0.000000
  0
VERTEX
  8
MERGEDLAYER-2
 10
3.210200
 20
3.859967
 30
0.000000
  0
SEQEND
  8
MERGEDLAYER-2
  0
POLYLINE
  8
MERGEDLAYER-2
 66
  1
 70
  1
 62
  0
  0
VERTEX
  8
MERGEDLAYER-2
 10
3.217867
 20
4.205700
 30
0.000000
  0
VERTEX
  8
MERGEDLAYER-2
 10
3.225539
 20
4.205700
 30
0.000000
  0
VERTEX
  8
MERGEDLAYER-2
 10
3.225539
 20
4.012862
 30
0.000000
  0
VERTEX
  8
MERGEDLAYER-2
 10
3.217867
 20
4.012862
 30
0.000000
  0
SEQEND
  8
MERGEDLAYER-2
  0
POLYLINE
  8
MERGEDLAYER-2
 66
  1
 70
  1
 62
  0
  0
VERTEX
  8
MERGEDLAYER-2
 10
3.210200
 20
4.359080
 30
0.000000
  0
VERTEX
  8
MERGEDLAYER-2
 10
3.217867
 20
4.359080
 30
0.000000
  0
VERTEX
  8
MERGEDLAYER-2
 10
3.217867
 20
4.166252
 30
0.000000
  0
VERTEX
  8
MERGEDLAYER-2
 10
3.210200
 20
4.166252
 30
0.000000
  0
SEQEND
  8
MERGEDLAYER-2
  0
POLYLINE
  8
MERGEDLAYER-2
 66
  1
 70
  1
 62
  0
  0
VERTEX
  8
MERGEDLAYER-2
 10
3.217867
 20
4.511986
 30
0.000000
  0
VERTEX
  8
MERGEDLAYER-2
 10
3.225539
 20
4.511986
 30
0.000000
  0
VERTEX
  8
MERGEDLAYER-2
 10
3.225539
 20
4.319149
 30
0.000000
  0
VERTEX
  8
MERGEDLAYER-2
 10
3.217867
 20
4.319149
 30
0.000000
  0
SEQEND
  8
MERGEDLAYER-2
  0
POLYLINE
  8
MERGEDLAYER-2
 66
  1
 70
  1
 62
  0
  0
VERTEX
  8
MERGEDLAYER-2
 10
3.210200
 20
4.665366
 30
0.000000
  0
VERTEX
  8
MERGEDLAYER-2
 10
3.217867
 20
4.665366
 30
0.000000
  0
VERTEX
  8
MERGEDLAYER-2
 10
3.217867
 20
4.472539
 30
0.000000
  0
VERTEX
  8
MERGEDLAYER-2
 10
3.210200
 20
4.472539
 30
0.000000
  0
SEQEND
  8
MERGEDLAYER-2
  0
POLYLINE
  8
MERGEDLAYER-2
 66
  1
 70
  1
 62
  0
  0
VERTEX
  8
MERGEDLAYER-2
 10
3.217867
 20
4.818272
 30
0.000000
  0
VERTEX
  8
MERGEDLAYER-2
 10
3.225539
 20
4.818272
 30
0.000000
  0
VERTEX
  8
MERGEDLAYER-2
 10
3.225539
 20
4.625434
 30
0.000000
  0
VERTEX
  8
MERGEDLAYER-2
 10
3.217867
 20
4.625434
 30
0.000000
  0
SEQEND
  8
MERGEDLAYER-2
  0
POLYLINE
  8
MERGEDLAYER-2
 66
  1
 70
  1
 62
  0
  0
VERTEX
  8
MERGEDLAYER-2
 10
3.210200
 20
4.971652
 30
0.000000
  0
VERTEX
  8
MERGEDLAYER-2
 10
3.217867
 20
4.971652
 30
0.000000
  0
VERTEX
  8
MERGEDLAYER-2
 10
3.217867
 20
4.778825
 30
0.000000
  0
VERTEX
  8
MERGEDLAYER-2
 10
3.210200
 20
4.778825
 30
0.000000
  0
SEQEND
  8
MERGEDLAYER-2
  0
POLYLINE
  8
MERGEDLAYER-2
 66
  1
 70
  1
 62
  0
  0
VERTEX
  8
MERGEDLAYER-2
 10
3.217867
 20
5.124557
 30
0.000000
  0
VERTEX
  8
MERGEDLAYER-2
 10
3.225539
 20
5.124557
 30
0.000000
  0
VERTEX
  8
MERGEDLAYER-2
 10
3.225539
 20
4.931720
 30
0.000000
  0
VERTEX
  8
MERGEDLAYER-2
 10
3.217867
 20
4.931720
 30
0.000000
  0
SEQEND
  8
MERGEDLAYER-2
  0
POLYLINE
  8
MERGEDLAYER-2
 66
  1
 70
  1
 62
  0
  0
VERTEX
  8
MERGEDLAYER-2
 10
3.210200
 20
5.277937
 30
0.000000
  0
VERTEX
  8
MERGEDLAYER-2
 10
3.217867
 20
5.277937
 30
0.000000
  0
VERTEX
  8
MERGEDLAYER-2
 10
3.217867
 20
5.085110
 30
0.000000
  0
VERTEX
  8
MERGEDLAYER-2
 10
3.210200
 20
5.085110
 30
0.000000
  0
SEQEND
  8
MERGEDLAYER-2
  0
POLYLINE
  8
MERGEDLAYER-2
 66
  1
 70
  1
 62
  0
  0
VERTEX
  8
MERGEDLAYER-2
 10
3.777667
 20
3.593130
 30
0.000000
  0
VERTEX
  8
MERGEDLAYER-2
 10
3.785339
 20
3.593130
 30
0.000000
  0
VERTEX
  8
MERGEDLAYER-2
 10
3.785339
 20
3.400291
 30
0.000000
  0
VERTEX
  8
MERGEDLAYER-2
 10
3.777667
 20
3.400291
 30
0.000000
  0
SEQEND
  8
MERGEDLAYER-2
  0
POLYLINE
  8
MERGEDLAYER-2
 66
  1
 70
  1
 62
  0
  0
VERTEX
  8
MERGEDLAYER-2
 10
3.770000
 20
3.746509
 30
0.000000
  0
VERTEX
  8
MERGEDLAYER-2
 10
3.777667
 20
3.746509
 30
0.000000
  0
VERTEX
  8
MERGEDLAYER-2
 10
3.777667
 20
3.553682
 30
0.000000
  0
VERTEX
  8
MERGEDLAYER-2
 10
3.770000
 20
3.553682
 30
0.000000
  0
SEQEND
  8
MERGEDLAYER-2
  0
POLYLINE
  8
MERGEDLAYER-2
 66
  1
 70
  1
 62
  0
  0
VERTEX
  8
MERGEDLAYER-2
 10
3.770000
 20
0.678709
 30
0.000000
  0
VERTEX
  8
MERGEDLAYER-2
 10
3.777667
 20
0.678709
 30
0.000000
  0
VERTEX
  8
MERGEDLAYER-2
 10
3.777667
 20
0.498105
 30
0.000000
  0
VERTEX
  8
MERGEDLAYER-2
 10
3.770000
 20
0.498105
 30
0.000000
  0
SEQEND
  8
MERGEDLAYER-2
  0
POLYLINE
  8
MERGEDLAYER-2
 66
  1
 70
  1
 62
  0
  0
VERTEX
  8
MERGEDLAYER-2
 10
3.777667
 20
0.832301
 30
0.000000
  0
VERTEX
  8
MERGEDLAYER-2
 10
3.785339
 20
0.832301
 30
0.000000
  0
VERTEX
  8
MERGEDLAYER-2
 10
3.785339
 20
0.639462
 30
0.000000
  0
VERTEX
  8
MERGEDLAYER-2
 10
3.777667
 20
0.639462
 30
0.000000
  0
SEQEND
  8
MERGEDLAYER-2
  0
POLYLINE
  8
MERGEDLAYER-2
 66
  1
 70
  1
 62
  0
  0
VERTEX
  8
MERGEDLAYER-2
 10
3.770000
 20
0.985680
 30
0.000000
  0
VERTEX
  8
MERGEDLAYER-2
 10
3.777667
 20
0.985680
 30
0.000000
  0
VERTEX
  8
MERGEDLAYER-2
 10
3.777667
 20
0.792842
 30
0.000000
  0
VERTEX
  8
MERGEDLAYER-2
 10
3.770000
 20
0.792842
 30
0.000000
  0
SEQEND
  8
MERGEDLAYER-2
  0
POLYLINE
  8
MERGEDLAYER-2
 66
  1
 70
  1
 62
  0
  0
VERTEX
  8
MERGEDLAYER-2
 10
3.777667
 20
1.139060
 30
0.000000
  0
VERTEX
  8
MERGEDLAYER-2
 10
3.785339
 20
1.139060
 30
0.000000
  0
VERTEX
  8
MERGEDLAYER-2
 10
3.785339
 20
0.946222
 30
0.000000
  0
VERTEX
  8
MERGEDLAYER-2
 10
3.777667
 20
0.946222
 30
0.000000
  0
SEQEND
  8
MERGEDLAYER-2
  0
POLYLINE
  8
MERGEDLAYER-2
 66
  1
 70
  1
 62
  0
  0
VERTEX
  8
MERGEDLAYER-2
 10
3.770000
 20
1.292438
 30
0.000000
  0
VERTEX
  8
MERGEDLAYER-2
 10
3.777667
 20
1.292438
 30
0.000000
  0
VERTEX
  8
MERGEDLAYER-2
 10
3.777667
 20
1.099602
 30
0.000000
  0
VERTEX
  8
MERGEDLAYER-2
 10
3.770000
 20
1.099602
 30
0.000000
  0
SEQEND
  8
MERGEDLAYER-2
  0
POLYLINE
  8
MERGEDLAYER-2
 66
  1
 70
  1
 62
  0
  0
VERTEX
  8
MERGEDLAYER-2
 10
3.777667
 20
1.445821
 30
0.000000
  0
VERTEX
  8
MERGEDLAYER-2
 10
3.785339
 20
1.445821
 30
0.000000
  0
VERTEX
  8
MERGEDLAYER-2
 10
3.785339
 20
1.252979
 30
0.000000
  0
VERTEX
  8
MERGEDLAYER-2
 10
3.777667
 20
1.252979
 30
0.000000
  0
SEQEND
  8
MERGEDLAYER-2
  0
POLYLINE
  8
MERGEDLAYER-2
 66
  1
 70
  1
 62
  0
  0
VERTEX
  8
MERGEDLAYER-2
 10
3.770000
 20
1.599198
 30
0.000000
  0
VERTEX
  8
MERGEDLAYER-2
 10
3.777667
 20
1.599198
 30
0.000000
  0
VERTEX
  8
MERGEDLAYER-2
 10
3.777667
 20
1.406360
 30
0.000000
  0
VERTEX
  8
MERGEDLAYER-2
 10
3.770000
 20
1.406360
 30
0.000000
  0
SEQEND
  8
MERGEDLAYER-2
  0
POLYLINE
  8
MERGEDLAYER-2
 66
  1
 70
  1
 62
  0
  0
VERTEX
  8
MERGEDLAYER-2
 10
3.777667
 20
1.752579
 30
0.000000
  0
VERTEX
  8
MERGEDLAYER-2
 10
3.785339
 20
1.752579
 30
0.000000
  0
VERTEX
  8
MERGEDLAYER-2
 10
3.785339
 20
1.559736
 30
0.000000
  0
VERTEX
  8
MERGEDLAYER-2
 10
3.777667
 20
1.559736
 30
0.000000
  0
SEQEND
  8
MERGEDLAYER-2
  0
POLYLINE
  8
MERGEDLAYER-2
 66
  1
 70
  1
 62
  0
  0
VERTEX
  8
MERGEDLAYER-2
 10
3.770000
 20
1.905959
 30
0.000000
  0
VERTEX
  8
MERGEDLAYER-2
 10
3.777667
 20
1.905959
 30
0.000000
  0
VERTEX
  8
MERGEDLAYER-2
 10
3.777667
 20
1.713119
 30
0.000000
  0
VERTEX
  8
MERGEDLAYER-2
 10
3.770000
 20
1.713119
 30
0.000000
  0
SEQEND
  8
MERGEDLAYER-2
  0
POLYLINE
  8
MERGEDLAYER-2
 66
  1
 70
  1
 62
  0
  0
VERTEX
  8
MERGEDLAYER-2
 10
3.777667
 20
2.059335
 30
0.000000
  0
VERTEX
  8
MERGEDLAYER-2
 10
3.785339
 20
2.059335
 30
0.000000
  0
VERTEX
  8
MERGEDLAYER-2
 10
3.785339
 20
1.866497
 30
0.000000
  0
VERTEX
  8
MERGEDLAYER-2
 10
3.777667
 20
1.866497
 30
0.000000
  0
SEQEND
  8
MERGEDLAYER-2
  0
POLYLINE
  8
MERGEDLAYER-2
 66
  1
 70
  1
 62
  0
  0
VERTEX
  8
MERGEDLAYER-2
 10
3.770000
 20
2.212717
 30
0.000000
  0
VERTEX
  8
MERGEDLAYER-2
 10
3.777667
 20
2.212717
 30
0.000000
  0
VERTEX
  8
MERGEDLAYER-2
 10
3.777667
 20
2.019875
 30
0.000000
  0
VERTEX
  8
MERGEDLAYER-2
 10
3.770000
 20
2.019875
 30
0.000000
  0
SEQEND
  8
MERGEDLAYER-2
  0
POLYLINE
  8
MERGEDLAYER-2
 66
  1
 70
  1
 62
  0
  0
VERTEX
  8
MERGEDLAYER-2
 10
3.777667
 20
2.366095
 30
0.000000
  0
VERTEX
  8
MERGEDLAYER-2
 10
3.785339
 20
2.366095
 30
0.000000
  0
VERTEX
  8
MERGEDLAYER-2
 10
3.785339
 20
2.173255
 30
0.000000
  0
VERTEX
  8
MERGEDLAYER-2
 10
3.777667
 20
2.173255
 30
0.000000
  0
SEQEND
  8
MERGEDLAYER-2
  0
POLYLINE
  8
MERGEDLAYER-2
 66
  1
 70
  1
 62
  0
  0
VERTEX
  8
MERGEDLAYER-2
 10
3.770000
 20
2.519476
 30
0.000000
  0
VERTEX
  8
MERGEDLAYER-2
 10
3.777667
 20
2.519476
 30
0.000000
  0
VERTEX
  8
MERGEDLAYER-2
 10
3.777667
 20
2.326636
 30
0.000000
  0
VERTEX
  8
MERGEDLAYER-2
 10
3.770000
 20
2.326636
 30
0.000000
  0
SEQEND
  8
MERGEDLAYER-2
  0
POLYLINE
  8
MERGEDLAYER-2
 66
  1
 70
  1
 62
  0
  0
VERTEX
  8
MERGEDLAYER-2
 10
3.777667
 20
2.672853
 30
0.000000
  0
VERTEX
  8
MERGEDLAYER-2
 10
3.785339
 20
2.672853
 30
0.000000
  0
VERTEX
  8
MERGEDLAYER-2
 10
3.785339
 20
2.480017
 30
0.000000
  0
VERTEX
  8
MERGEDLAYER-2
 10
3.777667
 20
2.480017
 30
0.000000
  0
SEQEND
  8
MERGEDLAYER-2
  0
POLYLINE
  8
MERGEDLAYER-2
 66
  1
 70
  1
 62
  0
  0
VERTEX
  8
MERGEDLAYER-2
 10
3.770000
 20
2.826232
 30
0.000000
  0
VERTEX
  8
MERGEDLAYER-2
 10
3.777667
 20
2.826232
 30
0.000000
  0
VERTEX
  8
MERGEDLAYER-2
 10
3.777667
 20
2.633396
 30
0.000000
  0
VERTEX
  8
MERGEDLAYER-2
 10
3.770000
 20
2.633396
 30
0.000000
  0
SEQEND
  8
MERGEDLAYER-2
  0
POLYLINE
  8
MERGEDLAYER-2
 66
  1
 70
  1
 62
  0
  0
VERTEX
  8
MERGEDLAYER-2
 10
3.777667
 20
2.979612
 30
0.000000
  0
VERTEX
  8
MERGEDLAYER-2
 10
3.785339
 20
2.979612
 30
0.000000
  0
VERTEX
  8
MERGEDLAYER-2
 10
3.785339
 20
2.786773
 30
0.000000
  0
VERTEX
  8
MERGEDLAYER-2
 10
3.777667
 20
2.786773
 30
0.000000
  0
SEQEND
  8
MERGEDLAYER-2
  0
POLYLINE
  8
MERGEDLAYER-2
 66
  1
 70
  1
 62
  0
  0
VERTEX
  8
MERGEDLAYER-2
 10
3.770000
 20
3.132991
 30
0.000000
  0
VERTEX
  8
MERGEDLAYER-2
 10
3.777667
 20
3.132991
 30
0.000000
  0
VERTEX
  8
MERGEDLAYER-2
 10
3.777667
 20
2.940152
 30
0.000000
  0
VERTEX
  8
MERGEDLAYER-2
 10
3.770000
 20
2.940152
 30
0.000000
  0
SEQEND
  8
MERGEDLAYER-2
  0
POLYLINE
  8
MERGEDLAYER-2
 66
  1
 70
  1
 62
  0
  0
VERTEX
  8
MERGEDLAYER-2
 10
3.777667
 20
3.286370
 30
0.000000
  0
VERTEX
  8
MERGEDLAYER-2
 10
3.785339
 20
3.286370
 30
0.000000
  0
VERTEX
  8
MERGEDLAYER-2
 10
3.785339
 20
3.093532
 30
0.000000
  0
VERTEX
  8
MERGEDLAYER-2
 10
3.777667
 20
3.093532
 30
0.000000
  0
SEQEND
  8
MERGEDLAYER-2
  0
POLYLINE
  8
MERGEDLAYER-2
 66
  1
 70
  1
 62
  0
  0
VERTEX
  8
MERGEDLAYER-2
 10
3.770000
 20
3.439750
 30
0.000000
  0
VERTEX
  8
MERGEDLAYER-2
 10
3.777667
 20
3.439750
 30
0.000000
  0
VERTEX
  8
MERGEDLAYER-2
 10
3.777667
 20
3.246912
 30
0.000000
  0
VERTEX
  8
MERGEDLAYER-2
 10
3.770000
 20
3.246912
 30
0.000000
  0
SEQEND
  8
MERGEDLAYER-2
  0
POLYLINE
  8
MERGEDLAYER-2
 66
  1
 70
  1
 62
  0
  0
VERTEX
  8
MERGEDLAYER-2
 10
3.777667
 20
3.899415
 30
0.000000
  0
VERTEX
  8
MERGEDLAYER-2
 10
3.785339
 20
3.899415
 30
0.000000
  0
VERTEX
  8
MERGEDLAYER-2
 10
3.785339
 20
3.706577
 30
0.000000
  0
VERTEX
  8
MERGEDLAYER-2
 10
3.777667
 20
3.706577
 30
0.000000
  0
SEQEND
  8
MERGEDLAYER-2
  0
POLYLINE
  8
MERGEDLAYER-2
 66
  1
 70
  1
 62
  0
  0
VERTEX
  8
MERGEDLAYER-2
 10
3.770000
 20
4.052794
 30
0.000000
  0
VERTEX
  8
MERGEDLAYER-2
 10
3.777667
 20
4.052794
 30
0.000000
  0
VERTEX
  8
MERGEDLAYER-2
 10
3.777667
 20
3.859967
 30
0.000000
  0
VERTEX
  8
MERGEDLAYER-2
 10
3.770000
 20
3.859967
 30
0.000000
  0
SEQEND
  8
MERGEDLAYER-2
  0
POLYLINE
  8
MERGEDLAYER-2
 66
  1
 70
  1
 62
  0
  0
VERTEX
  8
MERGEDLAYER-2
 10
3.777667
 20
4.205700
 30
0.000000
  0
VERTEX
  8
MERGEDLAYER-2
 10
3.785339
 20
4.205700
 30
0.000000
  0
VERTEX
  8
MERGEDLAYER-2
 10
3.785339
 20
4.012862
 30
0.000000
  0
VERTEX
  8
MERGEDLAYER-2
 10
3.777667
 20
4.012862
 30
0.000000
  0
SEQEND
  8
MERGEDLAYER-2
  0
POLYLINE
  8
MERGEDLAYER-2
 66
  1
 70
  1
 62
  0
  0
VERTEX
  8
MERGEDLAYER-2
 10
3.770000
 20
4.359080
 30
0.000000
  0
VERTEX
  8
MERGEDLAYER-2
 10
3.777667
 20
4.359080
 30
0.000000
  0
VERTEX
  8
MERGEDLAYER-2
 10
3.777667
 20
4.166252
 30
0.000000
  0
VERTEX
  8
MERGEDLAYER-2
 10
3.770000
 20
4.166252
 30
0.000000
  0
SEQEND
  8
MERGEDLAYER-2
  0
POLYLINE
  8
MERGEDLAYER-2
 66
  1
 70
  1
 62
  0
  0
VERTEX
  8
MERGEDLAYER-2
 10
3.777667
 20
4.511986
 30
0.000000
  0
VERTEX
  8
MERGEDLAYER-2
 10
3.785339
 20
4.511986
 30
0.000000
  0
VERTEX
  8
MERGEDLAYER-2
 10
3.785339
 20
4.319149
 30
0.000000
  0
VERTEX
  8
MERGEDLAYER-2
 10
3.777667
 20
4.319149
 30
0.000000
  0
SEQEND
  8
MERGEDLAYER-2
  0
POLYLINE
  8
MERGEDLAYER-2
 66
  1
 70
  1
 62
  0
  0
VERTEX
  8
MERGEDLAYER-2
 10
3.770000
 20
4.665366
 30
0.000000
  0
VERTEX
  8
MERGEDLAYER-2
 10
3.777667
 20
4.665366
 30
0.000000
  0
VERTEX
  8
MERGEDLAYER-2
 10
3.777667
 20
4.472539
 30
0.000000
  0
VERTEX
  8
MERGEDLAYER-2
 10
3.770000
 20
4.472539
 30
0.000000
  0
SEQEND
  8
MERGEDLAYER-2
  0
POLYLINE
  8
MERGEDLAYER-2
 66
  1
 70
  1
 62
  0
  0
VERTEX
  8
MERGEDLAYER-2
 10
3.777667
 20
4.818272
 30
0.000000
  0
VERTEX
  8
MERGEDLAYER-2
 10
3.785339
 20
4.818272
 30
0.000000
  0
VERTEX
  8
MERGEDLAYER-2
 10
3.785339
 20
4.625434
 30
0.000000
  0
VERTEX
  8
MERGEDLAYER-2
 10
3.777667
 20
4.625434
 30
0.000000
  0
SEQEND
  8
MERGEDLAYER-2
  0
POLYLINE
  8
MERGEDLAYER-2
 66
  1
 70
  1
 62
  0
  0
VERTEX
  8
MERGEDLAYER-2
 10
3.770000
 20
4.971652
 30
0.000000
  0
VERTEX
  8
MERGEDLAYER-2
 10
3.777667
 20
4.971652
 30
0.000000
  0
VERTEX
  8
MERGEDLAYER-2
 10
3.777667
 20
4.778825
 30
0.000000
  0
VERTEX
  8
MERGEDLAYER-2
 10
3.770000
 20
4.778825
 30
0.000000
  0
SEQEND
  8
MERGEDLAYER-2
  0
POLYLINE
  8
MERGEDLAYER-2
 66
  1
 70
  1
 62
  0
  0
VERTEX
  8
MERGEDLAYER-2
 10
3.777667
 20
5.124557
 30
0.000000
  0
VERTEX
  8
MERGEDLAYER-2
 10
3.785339
 20
5.124557
 30
0.000000
  0
VERTEX
  8
MERGEDLAYER-2
 10
3.785339
 20
4.931720
 30
0.000000
  0
VERTEX
  8
MERGEDLAYER-2
 10
3.777667
 20
4.931720
 30
0.000000
  0
SEQEND
  8
MERGEDLAYER-2
  0
POLYLINE
  8
MERGEDLAYER-2
 66
  1
 70
  1
 62
  0
  0
VERTEX
  8
MERGEDLAYER-2
 10
3.770000
 20
5.277937
 30
0.000000
  0
VERTEX
  8
MERGEDLAYER-2
 10
3.777667
 20
5.277937
 30
0.000000
  0
VERTEX
  8
MERGEDLAYER-2
 10
3.777667
 20
5.085110
 30
0.000000
  0
VERTEX
  8
MERGEDLAYER-2
 10
3.770000
 20
5.085110
 30
0.000000
  0
SEQEND
  8
MERGEDLAYER-2
  0
POLYLINE
  8
MERGEDLAYER-2
 66
  1
 70
  1
 62
  0
  0
VERTEX
  8
MERGEDLAYER-2
 10
4.337467
 20
3.593130
 30
0.000000
  0
VERTEX
  8
MERGEDLAYER-2
 10
4.345139
 20
3.593130
 30
0.000000
  0
VERTEX
  8
MERGEDLAYER-2
 10
4.345139
 20
3.400291
 30
0.000000
  0
VERTEX
  8
MERGEDLAYER-2
 10
4.337467
 20
3.400291
 30
0.000000
  0
SEQEND
  8
MERGEDLAYER-2
  0
POLYLINE
  8
MERGEDLAYER-2
 66
  1
 70
  1
 62
  0
  0
VERTEX
  8
MERGEDLAYER-2
 10
4.329800
 20
3.746509
 30
0.000000
  0
VERTEX
  8
MERGEDLAYER-2
 10
4.337467
 20
3.746509
 30
0.000000
  0
VERTEX
  8
MERGEDLAYER-2
 10
4.337467
 20
3.553682
 30
0.000000
  0
VERTEX
  8
MERGEDLAYER-2
 10
4.329800
 20
3.553682
 30
0.000000
  0
SEQEND
  8
MERGEDLAYER-2
  0
POLYLINE
  8
MERGEDLAYER-2
 66
  1
 70
  1
 62
  0
  0
VERTEX
  8
MERGEDLAYER-2
 10
4.329800
 20
0.678709
 30
0.000000
  0
VERTEX
  8
MERGEDLAYER-2
 10
4.337467
 20
0.678709
 30
0.000000
  0
VERTEX
  8
MERGEDLAYER-2
 10
4.337467
 20
0.498105
 30
0.000000
  0
VERTEX
  8
MERGEDLAYER-2
 10
4.329800
 20
0.498105
 30
0.000000
  0
SEQEND
  8
MERGEDLAYER-2
  0
POLYLINE
  8
MERGEDLAYER-2
 66
  1
 70
  1
 62
  0
  0
VERTEX
  8
MERGEDLAYER-2
 10
4.337467
 20
0.832301
 30
0.000000
  0
VERTEX
  8
MERGEDLAYER-2
 10
4.345139
 20
0.832301
 30
0.000000
  0
VERTEX
  8
MERGEDLAYER-2
 10
4.345139
 20
0.639462
 30
0.000000
  0
VERTEX
  8
MERGEDLAYER-2
 10
4.337467
 20
0.639462
 30
0.000000
  0
SEQEND
  8
MERGEDLAYER-2
  0
POLYLINE
  8
MERGEDLAYER-2
 66
  1
 70
  1
 62
  0
  0
VERTEX
  8
MERGEDLAYER-2
 10
4.329800
 20
0.985680
 30
0.000000
  0
VERTEX
  8
MERGEDLAYER-2
 10
4.337467
 20
0.985680
 30
0.000000
  0
VERTEX
  8
MERGEDLAYER-2
 10
4.337467
 20
0.792842
 30
0.000000
  0
VERTEX
  8
MERGEDLAYER-2
 10
4.329800
 20
0.792842
 30
0.000000
  0
SEQEND
  8
MERGEDLAYER-2
  0
POLYLINE
  8
MERGEDLAYER-2
 66
  1
 70
  1
 62
  0
  0
VERTEX
  8
MERGEDLAYER-2
 10
4.337467
 20
1.139060
 30
0.000000
  0
VERTEX
  8
MERGEDLAYER-2
 10
4.345139
 20
1.139060
 30
0.000000
  0
VERTEX
  8
MERGEDLAYER-2
 10
4.345139
 20
0.946222
 30
0.000000
  0
VERTEX
  8
MERGEDLAYER-2
 10
4.337467
 20
0.946222
 30
0.000000
  0
SEQEND
  8
MERGEDLAYER-2
  0
POLYLINE
  8
MERGEDLAYER-2
 66
  1
 70
  1
 62
  0
  0
VERTEX
  8
MERGEDLAYER-2
 10
4.329800
 20
1.292438
 30
0.000000
  0
VERTEX
  8
MERGEDLAYER-2
 10
4.337467
 20
1.292438
 30
0.000000
  0
VERTEX
  8
MERGEDLAYER-2
 10
4.337467
 20
1.099602
 30
0.000000
  0
VERTEX
  8
MERGEDLAYER-2
 10
4.329800
 20
1.099602
 30
0.000000
  0
SEQEND
  8
MERGEDLAYER-2
  0
POLYLINE
  8
MERGEDLAYER-2
 66
  1
 70
  1
 62
  0
  0
VERTEX
  8
MERGEDLAYER-2
 10
4.337467
 20
1.445821
 30
0.000000
  0
VERTEX
  8
MERGEDLAYER-2
 10
4.345139
 20
1.445821
 30
0.000000
  0
VERTEX
  8
MERGEDLAYER-2
 10
4.345139
 20
1.252979
 30
0.000000
  0
VERTEX
  8
MERGEDLAYER-2
 10
4.337467
 20
1.252979
 30
0.000000
  0
SEQEND
  8
MERGEDLAYER-2
  0
POLYLINE
  8
MERGEDLAYER-2
 66
  1
 70
  1
 62
  0
  0
VERTEX
  8
MERGEDLAYER-2
 10
4.329800
 20
1.599198
 30
0.000000
  0
VERTEX
  8
MERGEDLAYER-2
 10
4.337467
 20
1.599198
 30
0.000000
  0
VERTEX
  8
MERGEDLAYER-2
 10
4.337467
 20
1.406360
 30
0.000000
  0
VERTEX
  8
MERGEDLAYER-2
 10
4.329800
 20
1.406360
 30
0.000000
  0
SEQEND
  8
MERGEDLAYER-2
  0
POLYLINE
  8
MERGEDLAYER-2
 66
  1
 70
  1
 62
  0
  0
VERTEX
  8
MERGEDLAYER-2
 10
4.337467
 20
1.752579
 30
0.000000
  0
VERTEX
  8
MERGEDLAYER-2
 10
4.345139
 20
1.752579
 30
0.000000
  0
VERTEX
  8
MERGEDLAYER-2
 10
4.345139
 20
1.559736
 30
0.000000
  0
VERTEX
  8
MERGEDLAYER-2
 10
4.337467
 20
1.559736
 30
0.000000
  0
SEQEND
  8
MERGEDLAYER-2
  0
POLYLINE
  8
MERGEDLAYER-2
 66
  1
 70
  1
 62
  0
  0
VERTEX
  8
MERGEDLAYER-2
 10
4.329800
 20
1.905959
 30
0.000000
  0
VERTEX
  8
MERGEDLAYER-2
 10
4.337467
 20
1.905959
 30
0.000000
  0
VERTEX
  8
MERGEDLAYER-2
 10
4.337467
 20
1.713119
 30
0.000000
  0
VERTEX
  8
MERGEDLAYER-2
 10
4.329800
 20
1.713119
 30
0.000000
  0
SEQEND
  8
MERGEDLAYER-2
  0
POLYLINE
  8
MERGEDLAYER-2
 66
  1
 70
  1
 62
  0
  0
VERTEX
  8
MERGEDLAYER-2
 10
4.337467
 20
2.059335
 30
0.000000
  0
VERTEX
  8
MERGEDLAYER-2
 10
4.345139
 20
2.059335
 30
0.000000
  0
VERTEX
  8
MERGEDLAYER-2
 10
4.345139
 20
1.866497
 30
0.000000
  0
VERTEX
  8
MERGEDLAYER-2
 10
4.337467
 20
1.866497
 30
0.000000
  0
SEQEND
  8
MERGEDLAYER-2
  0
POLYLINE
  8
MERGEDLAYER-2
 66
  1
 70
  1
 62
  0
  0
VERTEX
  8
MERGEDLAYER-2
 10
4.329800
 20
2.212717
 30
0.000000
  0
VERTEX
  8
MERGEDLAYER-2
 10
4.337467
 20
2.212717
 30
0.000000
  0
VERTEX
  8
MERGEDLAYER-2
 10
4.337467
 20
2.019875
 30
0.000000
  0
VERTEX
  8
MERGEDLAYER-2
 10
4.329800
 20
2.019875
 30
0.000000
  0
SEQEND
  8
MERGEDLAYER-2
  0
POLYLINE
  8
MERGEDLAYER-2
 66
  1
 70
  1
 62
  0
  0
VERTEX
  8
MERGEDLAYER-2
 10
4.337467
 20
2.366095
 30
0.000000
  0
VERTEX
  8
MERGEDLAYER-2
 10
4.345139
 20
2.366095
 30
0.000000
  0
VERTEX
  8
MERGEDLAYER-2
 10
4.345139
 20
2.173255
 30
0.000000
  0
VERTEX
  8
MERGEDLAYER-2
 10
4.337467
 20
2.173255
 30
0.000000
  0
SEQEND
  8
MERGEDLAYER-2
  0
POLYLINE
  8
MERGEDLAYER-2
 66
  1
 70
  1
 62
  0
  0
VERTEX
  8
MERGEDLAYER-2
 10
4.329800
 20
2.519476
 30
0.000000
  0
VERTEX
  8
MERGEDLAYER-2
 10
4.337467
 20
2.519476
 30
0.000000
  0
VERTEX
  8
MERGEDLAYER-2
 10
4.337467
 20
2.326636
 30
0.000000
  0
VERTEX
  8
MERGEDLAYER-2
 10
4.329800
 20
2.326636
 30
0.000000
  0
SEQEND
  8
MERGEDLAYER-2
  0
POLYLINE
  8
MERGEDLAYER-2
 66
  1
 70
  1
 62
  0
  0
VERTEX
  8
MERGEDLAYER-2
 10
4.337467
 20
2.672853
 30
0.000000
  0
VERTEX
  8
MERGEDLAYER-2
 10
4.345139
 20
2.672853
 30
0.000000
  0
VERTEX
  8
MERGEDLAYER-2
 10
4.345139
 20
2.480017
 30
0.000000
  0
VERTEX
  8
MERGEDLAYER-2
 10
4.337467
 20
2.480017
 30
0.000000
  0
SEQEND
  8
MERGEDLAYER-2
  0
POLYLINE
  8
MERGEDLAYER-2
 66
  1
 70
  1
 62
  0
  0
VERTEX
  8
MERGEDLAYER-2
 10
4.329800
 20
2.826232
 30
0.000000
  0
VERTEX
  8
MERGEDLAYER-2
 10
4.337467
 20
2.826232
 30
0.000000
  0
VERTEX
  8
MERGEDLAYER-2
 10
4.337467
 20
2.633396
 30
0.000000
  0
VERTEX
  8
MERGEDLAYER-2
 10
4.329800
 20
2.633396
 30
0.000000
  0
SEQEND
  8
MERGEDLAYER-2
  0
POLYLINE
  8
MERGEDLAYER-2
 66
  1
 70
  1
 62
  0
  0
VERTEX
  8
MERGEDLAYER-2
 10
4.337467
 20
2.979612
 30
0.000000
  0
VERTEX
  8
MERGEDLAYER-2
 10
4.345139
 20
2.979612
 30
0.000000
  0
VERTEX
  8
MERGEDLAYER-2
 10
4.345139
 20
2.786773
 30
0.000000
  0
VERTEX
  8
MERGEDLAYER-2
 10
4.337467
 20
2.786773
 30
0.000000
  0
SEQEND
  8
MERGEDLAYER-2
  0
POLYLINE
  8
MERGEDLAYER-2
 66
  1
 70
  1
 62
  0
  0
VERTEX
  8
MERGEDLAYER-2
 10
4.329800
 20
3.132991
 30
0.000000
  0
VERTEX
  8
MERGEDLAYER-2
 10
4.337467
 20
3.132991
 30
0.000000
  0
VERTEX
  8
MERGEDLAYER-2
 10
4.337467
 20
2.940152
 30
0.000000
  0
VERTEX
  8
MERGEDLAYER-2
 10
4.329800
 20
2.940152
 30
0.000000
  0
SEQEND
  8
MERGEDLAYER-2
  0
POLYLINE
  8
MERGEDLAYER-2
 66
  1
 70
  1
 62
  0
  0
VERTEX
  8
MERGEDLAYER-2
 10
4.337467
 20
3.286370
 30
0.000000
  0
VERTEX
  8
MERGEDLAYER-2
 10
4.345139
 20
3.286370
 30
0.000000
  0
VERTEX
  8
MERGEDLAYER-2
 10
4.345139
 20
3.093532
 30
0.000000
  0
VERTEX
  8
MERGEDLAYER-2
 10
4.337467
 20
3.093532
 30
0.000000
  0
SEQEND
  8
MERGEDLAYER-2
  0
POLYLINE
  8
MERGEDLAYER-2
 66
  1
 70
  1
 62
  0
  0
VERTEX
  8
MERGEDLAYER-2
 10
4.329800
 20
3.439750
 30
0.000000
  0
VERTEX
  8
MERGEDLAYER-2
 10
4.337467
 20
3.439750
 30
0.000000
  0
VERTEX
  8
MERGEDLAYER-2
 10
4.337467
 20
3.246912
 30
0.000000
  0
VERTEX
  8
MERGEDLAYER-2
 10
4.329800
 20
3.246912
 30
0.000000
  0
SEQEND
  8
MERGEDLAYER-2
  0
POLYLINE
  8
MERGEDLAYER-2
 66
  1
 70
  1
 62
  0
  0
VERTEX
  8
MERGEDLAYER-2
 10
4.337467
 20
3.899415
 30
0.000000
  0
VERTEX
  8
MERGEDLAYER-2
 10
4.345139
 20
3.899415
 30
0.000000
  0
VERTEX
  8
MERGEDLAYER-2
 10
4.345139
 20
3.706577
 30
0.000000
  0
VERTEX
  8
MERGEDLAYER-2
 10
4.337467
 20
3.706577
 30
0.000000
  0
SEQEND
  8
MERGEDLAYER-2
  0
POLYLINE
  8
MERGEDLAYER-2
 66
  1
 70
  1
 62
  0
  0
VERTEX
  8
MERGEDLAYER-2
 10
4.329800
 20
4.052794
 30
0.000000
  0
VERTEX
  8
MERGEDLAYER-2
 10
4.337467
 20
4.052794
 30
0.000000
  0
VERTEX
  8
MERGEDLAYER-2
 10
4.337467
 20
3.859967
 30
0.000000
  0
VERTEX
  8
MERGEDLAYER-2
 10
4.329800
 20
3.859967
 30
0.000000
  0
SEQEND
  8
MERGEDLAYER-2
  0
POLYLINE
  8
MERGEDLAYER-2
 66
  1
 70
  1
 62
  0
  0
VERTEX
  8
MERGEDLAYER-2
 10
4.337467
 20
4.205700
 30
0.000000
  0
VERTEX
  8
MERGEDLAYER-2
 10
4.345139
 20
4.205700
 30
0.000000
  0
VERTEX
  8
MERGEDLAYER-2
 10
4.345139
 20
4.012862
 30
0.000000
  0
VERTEX
  8
MERGEDLAYER-2
 10
4.337467
 20
4.012862
 30
0.000000
  0
SEQEND
  8
MERGEDLAYER-2
  0
POLYLINE
  8
MERGEDLAYER-2
 66
  1
 70
  1
 62
  0
  0
VERTEX
  8
MERGEDLAYER-2
 10
4.329800
 20
4.359080
 30
0.000000
  0
VERTEX
  8
MERGEDLAYER-2
 10
4.337467
 20
4.359080
 30
0.000000
  0
VERTEX
  8
MERGEDLAYER-2
 10
4.337467
 20
4.166252
 30
0.000000
  0
VERTEX
  8
MERGEDLAYER-2
 10
4.329800
 20
4.166252
 30
0.000000
  0
SEQEND
  8
MERGEDLAYER-2
  0
POLYLINE
  8
MERGEDLAYER-2
 66
  1
 70
  1
 62
  0
  0
VERTEX
  8
MERGEDLAYER-2
 10
4.337467
 20
4.511986
 30
0.000000
  0
VERTEX
  8
MERGEDLAYER-2
 10
4.345139
 20
4.511986
 30
0.000000
  0
VERTEX
  8
MERGEDLAYER-2
 10
4.345139
 20
4.319149
 30
0.000000
  0
VERTEX
  8
MERGEDLAYER-2
 10
4.337467
 20
4.319149
 30
0.000000
  0
SEQEND
  8
MERGEDLAYER-2
  0
POLYLINE
  8
MERGEDLAYER-2
 66
  1
 70
  1
 62
  0
  0
VERTEX
  8
MERGEDLAYER-2
 10
4.329800
 20
4.665366
 30
0.000000
  0
VERTEX
  8
MERGEDLAYER-2
 10
4.337467
 20
4.665366
 30
0.000000
  0
VERTEX
  8
MERGEDLAYER-2
 10
4.337467
 20
4.472539
 30
0.000000
  0
VERTEX
  8
MERGEDLAYER-2
 10
4.329800
 20
4.472539
 30
0.000000
  0
SEQEND
  8
MERGEDLAYER-2
  0
POLYLINE
  8
MERGEDLAYER-2
 66
  1
 70
  1
 62
  0
  0
VERTEX
  8
MERGEDLAYER-2
 10
4.337467
 20
4.818272
 30
0.000000
  0
VERTEX
  8
MERGEDLAYER-2
 10
4.345139
 20
4.818272
 30
0.000000
  0
VERTEX
  8
MERGEDLAYER-2
 10
4.345139
 20
4.625434
 30
0.000000
  0
VERTEX
  8
MERGEDLAYER-2
 10
4.337467
 20
4.625434
 30
0.000000
  0
SEQEND
  8
MERGEDLAYER-2
  0
POLYLINE
  8
MERGEDLAYER-2
 66
  1
 70
  1
 62
  0
  0
VERTEX
  8
MERGEDLAYER-2
 10
4.329800
 20
4.971652
 30
0.000000
  0
VERTEX
  8
MERGEDLAYER-2
 10
4.337467
 20
4.971652
 30
0.000000
  0
VERTEX
  8
MERGEDLAYER-2
 10
4.337467
 20
4.778825
 30
0.000000
  0
VERTEX
  8
MERGEDLAYER-2
 10
4.329800
 20
4.778825
 30
0.000000
  0
SEQEND
  8
MERGEDLAYER-2
  0
POLYLINE
  8
MERGEDLAYER-2
 66
  1
 70
  1
 62
  0
  0
VERTEX
  8
MERGEDLAYER-2
 10
4.337467
 20
5.124557
 30
0.000000
  0
VERTEX
  8
MERGEDLAYER-2
 10
4.345139
 20
5.124557
 30
0.000000
  0
VERTEX
  8
MERGEDLAYER-2
 10
4.345139
 20
4.931720
 30
0.000000
  0
VERTEX
  8
MERGEDLAYER-2
 10
4.337467
 20
4.931720
 30
0.000000
  0
SEQEND
  8
MERGEDLAYER-2
  0
POLYLINE
  8
MERGEDLAYER-2
 66
  1
 70
  1
 62
  0
  0
VERTEX
  8
MERGEDLAYER-2
 10
4.329800
 20
5.277937
 30
0.000000
  0
VERTEX
  8
MERGEDLAYER-2
 10
4.337467
 20
5.277937
 30
0.000000
  0
VERTEX
  8
MERGEDLAYER-2
 10
4.337467
 20
5.085110
 30
0.000000
  0
VERTEX
  8
MERGEDLAYER-2
 10
4.329800
 20
5.085110
 30
0.000000
  0
SEQEND
  8
MERGEDLAYER-2
  0
POLYLINE
  8
MERGEDLAYER-2
 66
  1
 70
  1
 62
  0
  0
VERTEX
  8
MERGEDLAYER-2
 10
4.897267
 20
3.593130
 30
0.000000
  0
VERTEX
  8
MERGEDLAYER-2
 10
4.904939
 20
3.593130
 30
0.000000
  0
VERTEX
  8
MERGEDLAYER-2
 10
4.904939
 20
3.400291
 30
0.000000
  0
VERTEX
  8
MERGEDLAYER-2
 10
4.897267
 20
3.400291
 30
0.000000
  0
SEQEND
  8
MERGEDLAYER-2
  0
POLYLINE
  8
MERGEDLAYER-2
 66
  1
 70
  1
 62
  0
  0
VERTEX
  8
MERGEDLAYER-2
 10
4.889601
 20
3.746509
 30
0.000000
  0
VERTEX
  8
MERGEDLAYER-2
 10
4.897267
 20
3.746509
 30
0.000000
  0
VERTEX
  8
MERGEDLAYER-2
 10
4.897267
 20
3.553682
 30
0.000000
  0
VERTEX
  8
MERGEDLAYER-2
 10
4.889601
 20
3.553682
 30
0.000000
  0
SEQEND
  8
MERGEDLAYER-2
  0
POLYLINE
  8
MERGEDLAYER-2
 66
  1
 70
  1
 62
  0
  0
VERTEX
  8
MERGEDLAYER-2
 10
4.889601
 20
0.678709
 30
0.000000
  0
VERTEX
  8
MERGEDLAYER-2
 10
4.897267
 20
0.678709
 30
0.000000
  0
VERTEX
  8
MERGEDLAYER-2
 10
4.897267
 20
0.498105
 30
0.000000
  0
VERTEX
  8
MERGEDLAYER-2
 10
4.889601
 20
0.498105
 30
0.000000
  0
SEQEND
  8
MERGEDLAYER-2
  0
POLYLINE
  8
MERGEDLAYER-2
 66
  1
 70
  1
 62
  0
  0
VERTEX
  8
MERGEDLAYER-2
 10
4.897267
 20
0.832301
 30
0.000000
  0
VERTEX
  8
MERGEDLAYER-2
 10
4.904939
 20
0.832301
 30
0.000000
  0
VERTEX
  8
MERGEDLAYER-2
 10
4.904939
 20
0.639462
 30
0.000000
  0
VERTEX
  8
MERGEDLAYER-2
 10
4.897267
 20
0.639462
 30
0.000000
  0
SEQEND
  8
MERGEDLAYER-2
  0
POLYLINE
  8
MERGEDLAYER-2
 66
  1
 70
  1
 62
  0
  0
VERTEX
  8
MERGEDLAYER-2
 10
4.889601
 20
0.985680
 30
0.000000
  0
VERTEX
  8
MERGEDLAYER-2
 10
4.897267
 20
0.985680
 30
0.000000
  0
VERTEX
  8
MERGEDLAYER-2
 10
4.897267
 20
0.792842
 30
0.000000
  0
VERTEX
  8
MERGEDLAYER-2
 10
4.889601
 20
0.792842
 30
0.000000
  0
SEQEND
  8
MERGEDLAYER-2
  0
POLYLINE
  8
MERGEDLAYER-2
 66
  1
 70
  1
 62
  0
  0
VERTEX
  8
MERGEDLAYER-2
 10
4.897267
 20
1.139060
 30
0.000000
  0
VERTEX
  8
MERGEDLAYER-2
 10
4.904939
 20
1.139060
 30
0.000000
  0
VERTEX
  8
MERGEDLAYER-2
 10
4.904939
 20
0.946222
 30
0.000000
  0
VERTEX
  8
MERGEDLAYER-2
 10
4.897267
 20
0.946222
 30
0.000000
  0
SEQEND
  8
MERGEDLAYER-2
  0
POLYLINE
  8
MERGEDLAYER-2
 66
  1
 70
  1
 62
  0
  0
VERTEX
  8
MERGEDLAYER-2
 10
4.889601
 20
1.292438
 30
0.000000
  0
VERTEX
  8
MERGEDLAYER-2
 10
4.897267
 20
1.292438
 30
0.000000
  0
VERTEX
  8
MERGEDLAYER-2
 10
4.897267
 20
1.099602
 30
0.000000
  0
VERTEX
  8
MERGEDLAYER-2
 10
4.889601
 20
1.099602
 30
0.000000
  0
SEQEND
  8
MERGEDLAYER-2
  0
POLYLINE
  8
MERGEDLAYER-2
 66
  1
 70
  1
 62
  0
  0
VERTEX
  8
MERGEDLAYER-2
 10
4.897267
 20
1.445821
 30
0.000000
  0
VERTEX
  8
MERGEDLAYER-2
 10
4.904939
 20
1.445821
 30
0.000000
  0
VERTEX
  8
MERGEDLAYER-2
 10
4.904939
 20
1.252979
 30
0.000000
  0
VERTEX
  8
MERGEDLAYER-2
 10
4.897267
 20
1.252979
 30
0.000000
  0
SEQEND
  8
MERGEDLAYER-2
  0
POLYLINE
  8
MERGEDLAYER-2
 66
  1
 70
  1
 62
  0
  0
VERTEX
  8
MERGEDLAYER-2
 10
4.889601
 20
1.599198
 30
0.000000
  0
VERTEX
  8
MERGEDLAYER-2
 10
4.897267
 20
1.599198
 30
0.000000
  0
VERTEX
  8
MERGEDLAYER-2
 10
4.897267
 20
1.406360
 30
0.000000
  0
VERTEX
  8
MERGEDLAYER-2
 10
4.889601
 20
1.406360
 30
0.000000
  0
SEQEND
  8
MERGEDLAYER-2
  0
POLYLINE
  8
MERGEDLAYER-2
 66
  1
 70
  1
 62
  0
  0
VERTEX
  8
MERGEDLAYER-2
 10
4.897267
 20
1.752579
 30
0.000000
  0
VERTEX
  8
MERGEDLAYER-2
 10
4.904939
 20
1.752579
 30
0.000000
  0
VERTEX
  8
MERGEDLAYER-2
 10
4.904939
 20
1.559736
 30
0.000000
  0
VERTEX
  8
MERGEDLAYER-2
 10
4.897267
 20
1.559736
 30
0.000000
  0
SEQEND
  8
MERGEDLAYER-2
  0
POLYLINE
  8
MERGEDLAYER-2
 66
  1
 70
  1
 62
  0
  0
VERTEX
  8
MERGEDLAYER-2
 10
4.889601
 20
1.905959
 30
0.000000
  0
VERTEX
  8
MERGEDLAYER-2
 10
4.897267
 20
1.905959
 30
0.000000
  0
VERTEX
  8
MERGEDLAYER-2
 10
4.897267
 20
1.713119
 30
0.000000
  0
VERTEX
  8
MERGEDLAYER-2
 10
4.889601
 20
1.713119
 30
0.000000
  0
SEQEND
  8
MERGEDLAYER-2
  0
POLYLINE
  8
MERGEDLAYER-2
 66
  1
 70
  1
 62
  0
  0
VERTEX
  8
MERGEDLAYER-2
 10
4.897267
 20
2.059335
 30
0.000000
  0
VERTEX
  8
MERGEDLAYER-2
 10
4.904939
 20
2.059335
 30
0.000000
  0
VERTEX
  8
MERGEDLAYER-2
 10
4.904939
 20
1.866497
 30
0.000000
  0
VERTEX
  8
MERGEDLAYER-2
 10
4.897267
 20
1.866497
 30
0.000000
  0
SEQEND
  8
MERGEDLAYER-2
  0
POLYLINE
  8
MERGEDLAYER-2
 66
  1
 70
  1
 62
  0
  0
VERTEX
  8
MERGEDLAYER-2
 10
4.889601
 20
2.212717
 30
0.000000
  0
VERTEX
  8
MERGEDLAYER-2
 10
4.897267
 20
2.212717
 30
0.000000
  0
VERTEX
  8
MERGEDLAYER-2
 10
4.897267
 20
2.019875
 30
0.000000
  0
VERTEX
  8
MERGEDLAYER-2
 10
4.889601
 20
2.019875
 30
0.000000
  0
SEQEND
  8
MERGEDLAYER-2
  0
POLYLINE
  8
MERGEDLAYER-2
 66
  1
 70
  1
 62
  0
  0
VERTEX
  8
MERGEDLAYER-2
 10
4.897267
 20
2.366095
 30
0.000000
  0
VERTEX
  8
MERGEDLAYER-2
 10
4.904939
 20
2.366095
 30
0.000000
  0
VERTEX
  8
MERGEDLAYER-2
 10
4.904939
 20
2.173255
 30
0.000000
  0
VERTEX
  8
MERGEDLAYER-2
 10
4.897267
 20
2.173255
 30
0.000000
  0
SEQEND
  8
MERGEDLAYER-2
  0
POLYLINE
  8
MERGEDLAYER-2
 66
  1
 70
  1
 62
  0
  0
VERTEX
  8
MERGEDLAYER-2
 10
4.889601
 20
2.519476
 30
0.000000
  0
VERTEX
  8
MERGEDLAYER-2
 10
4.897267
 20
2.519476
 30
0.000000
  0
VERTEX
  8
MERGEDLAYER-2
 10
4.897267
 20
2.326636
 30
0.000000
  0
VERTEX
  8
MERGEDLAYER-2
 10
4.889601
 20
2.326636
 30
0.000000
  0
SEQEND
  8
MERGEDLAYER-2
  0
POLYLINE
  8
MERGEDLAYER-2
 66
  1
 70
  1
 62
  0
  0
VERTEX
  8
MERGEDLAYER-2
 10
4.897267
 20
2.672853
 30
0.000000
  0
VERTEX
  8
MERGEDLAYER-2
 10
4.904939
 20
2.672853
 30
0.000000
  0
VERTEX
  8
MERGEDLAYER-2
 10
4.904939
 20
2.480017
 30
0.000000
  0
VERTEX
  8
MERGEDLAYER-2
 10
4.897267
 20
2.480017
 30
0.000000
  0
SEQEND
  8
MERGEDLAYER-2
  0
POLYLINE
  8
MERGEDLAYER-2
 66
  1
 70
  1
 62
  0
  0
VERTEX
  8
MERGEDLAYER-2
 10
4.889601
 20
2.826232
 30
0.000000
  0
VERTEX
  8
MERGEDLAYER-2
 10
4.897267
 20
2.826232
 30
0.000000
  0
VERTEX
  8
MERGEDLAYER-2
 10
4.897267
 20
2.633396
 30
0.000000
  0
VERTEX
  8
MERGEDLAYER-2
 10
4.889601
 20
2.633396
 30
0.000000
  0
SEQEND
  8
MERGEDLAYER-2
  0
POLYLINE
  8
MERGEDLAYER-2
 66
  1
 70
  1
 62
  0
  0
VERTEX
  8
MERGEDLAYER-2
 10
4.897267
 20
2.979612
 30
0.000000
  0
VERTEX
  8
MERGEDLAYER-2
 10
4.904939
 20
2.979612
 30
0.000000
  0
VERTEX
  8
MERGEDLAYER-2
 10
4.904939
 20
2.786773
 30
0.000000
  0
VERTEX
  8
MERGEDLAYER-2
 10
4.897267
 20
2.786773
 30
0.000000
  0
SEQEND
  8
MERGEDLAYER-2
  0
POLYLINE
  8
MERGEDLAYER-2
 66
  1
 70
  1
 62
  0
  0
VERTEX
  8
MERGEDLAYER-2
 10
4.889601
 20
3.132991
 30
0.000000
  0
VERTEX
  8
MERGEDLAYER-2
 10
4.897267
 20
3.132991
 30
0.000000
  0
VERTEX
  8
MERGEDLAYER-2
 10
4.897267
 20
2.940152
 30
0.000000
  0
VERTEX
  8
MERGEDLAYER-2
 10
4.889601
 20
2.940152
 30
0.000000
  0
SEQEND
  8
MERGEDLAYER-2
  0
POLYLINE
  8
MERGEDLAYER-2
 66
  1
 70
  1
 62
  0
  0
VERTEX
  8
MERGEDLAYER-2
 10
4.897267
 20
3.286370
 30
0.000000
  0
VERTEX
  8
MERGEDLAYER-2
 10
4.904939
 20
3.286370
 30
0.000000
  0
VERTEX
  8
MERGEDLAYER-2
 10
4.904939
 20
3.093532
 30
0.000000
  0
VERTEX
  8
MERGEDLAYER-2
 10
4.897267
 20
3.093532
 30
0.000000
  0
SEQEND
  8
MERGEDLAYER-2
  0
POLYLINE
  8
MERGEDLAYER-2
 66
  1
 70
  1
 62
  0
  0
VERTEX
  8
MERGEDLAYER-2
 10
4.889601
 20
3.439750
 30
0.000000
  0
VERTEX
  8
MERGEDLAYER-2
 10
4.897267
 20
3.439750
 30
0.000000
  0
VERTEX
  8
MERGEDLAYER-2
 10
4.897267
 20
3.246912
 30
0.000000
  0
VERTEX
  8
MERGEDLAYER-2
 10
4.889601
 20
3.246912
 30
0.000000
  0
SEQEND
  8
MERGEDLAYER-2
  0
POLYLINE
  8
MERGEDLAYER-2
 66
  1
 70
  1
 62
  0
  0
VERTEX
  8
MERGEDLAYER-2
 10
4.897267
 20
3.899415
 30
0.000000
  0
VERTEX
  8
MERGEDLAYER-2
 10
4.904939
 20
3.899415
 30
0.000000
  0
VERTEX
  8
MERGEDLAYER-2
 10
4.904939
 20
3.706577
 30
0.000000
  0
VERTEX
  8
MERGEDLAYER-2
 10
4.897267
 20
3.706577
 30
0.000000
  0
SEQEND
  8
MERGEDLAYER-2
  0
POLYLINE
  8
MERGEDLAYER-2
 66
  1
 70
  1
 62
  0
  0
VERTEX
  8
MERGEDLAYER-2
 10
4.889601
 20
4.052794
 30
0.000000
  0
VERTEX
  8
MERGEDLAYER-2
 10
4.897267
 20
4.052794
 30
0.000000
  0
VERTEX
  8
MERGEDLAYER-2
 10
4.897267
 20
3.859967
 30
0.000000
  0
VERTEX
  8
MERGEDLAYER-2
 10
4.889601
 20
3.859967
 30
0.000000
  0
SEQEND
  8
MERGEDLAYER-2
  0
POLYLINE
  8
MERGEDLAYER-2
 66
  1
 70
  1
 62
  0
  0
VERTEX
  8
MERGEDLAYER-2
 10
4.897267
 20
4.205700
 30
0.000000
  0
VERTEX
  8
MERGEDLAYER-2
 10
4.904939
 20
4.205700
 30
0.000000
  0
VERTEX
  8
MERGEDLAYER-2
 10
4.904939
 20
4.012862
 30
0.000000
  0
VERTEX
  8
MERGEDLAYER-2
 10
4.897267
 20
4.012862
 30
0.000000
  0
SEQEND
  8
MERGEDLAYER-2
  0
POLYLINE
  8
MERGEDLAYER-2
 66
  1
 70
  1
 62
  0
  0
VERTEX
  8
MERGEDLAYER-2
 10
4.889601
 20
4.359080
 30
0.000000
  0
VERTEX
  8
MERGEDLAYER-2
 10
4.897267
 20
4.359080
 30
0.000000
  0
VERTEX
  8
MERGEDLAYER-2
 10
4.897267
 20
4.166252
 30
0.000000
  0
VERTEX
  8
MERGEDLAYER-2
 10
4.889601
 20
4.166252
 30
0.000000
  0
SEQEND
  8
MERGEDLAYER-2
  0
POLYLINE
  8
MERGEDLAYER-2
 66
  1
 70
  1
 62
  0
  0
VERTEX
  8
MERGEDLAYER-2
 10
4.897267
 20
4.511986
 30
0.000000
  0
VERTEX
  8
MERGEDLAYER-2
 10
4.904939
 20
4.511986
 30
0.000000
  0
VERTEX
  8
MERGEDLAYER-2
 10
4.904939
 20
4.319149
 30
0.000000
  0
VERTEX
  8
MERGEDLAYER-2
 10
4.897267
 20
4.319149
 30
0.000000
  0
SEQEND
  8
MERGEDLAYER-2
  0
POLYLINE
  8
MERGEDLAYER-2
 66
  1
 70
  1
 62
  0
  0
VERTEX
  8
MERGEDLAYER-2
 10
4.889601
 20
4.665366
 30
0.000000
  0
VERTEX
  8
MERGEDLAYER-2
 10
4.897267
 20
4.665366
 30
0.000000
  0
VERTEX
  8
MERGEDLAYER-2
 10
4.897267
 20
4.472539
 30
0.000000
  0
VERTEX
  8
MERGEDLAYER-2
 10
4.889601
 20
4.472539
 30
0.000000
  0
SEQEND
  8
MERGEDLAYER-2
  0
POLYLINE
  8
MERGEDLAYER-2
 66
  1
 70
  1
 62
  0
  0
VERTEX
  8
MERGEDLAYER-2
 10
4.897267
 20
4.818272
 30
0.000000
  0
VERTEX
  8
MERGEDLAYER-2
 10
4.904939
 20
4.818272
 30
0.000000
  0
VERTEX
  8
MERGEDLAYER-2
 10
4.904939
 20
4.625434
 30
0.000000
  0
VERTEX
  8
MERGEDLAYER-2
 10
4.897267
 20
4.625434
 30
0.000000
  0
SEQEND
  8
MERGEDLAYER-2
  0
POLYLINE
  8
MERGEDLAYER-2
 66
  1
 70
  1
 62
  0
  0
VERTEX
  8
MERGEDLAYER-2
 10
4.889601
 20
4.971652
 30
0.000000
  0
VERTEX
  8
MERGEDLAYER-2
 10
4.897267
 20
4.971652
 30
0.000000
  0
VERTEX
  8
MERGEDLAYER-2
 10
4.897267
 20
4.778825
 30
0.000000
  0
VERTEX
  8
MERGEDLAYER-2
 10
4.889601
 20
4.778825
 30
0.000000
  0
SEQEND
  8
MERGEDLAYER-2
  0
POLYLINE
  8
MERGEDLAYER-2
 66
  1
 70
  1
 62
  0
  0
VERTEX
  8
MERGEDLAYER-2
 10
4.897267
 20
5.124557
 30
0.000000
  0
VERTEX
  8
MERGEDLAYER-2
 10
4.904939
 20
5.124557
 30
0.000000
  0
VERTEX
  8
MERGEDLAYER-2
 10
4.904939
 20
4.931720
 30
0.000000
  0
VERTEX
  8
MERGEDLAYER-2
 10
4.897267
 20
4.931720
 30
0.000000
  0
SEQEND
  8
MERGEDLAYER-2
  0
POLYLINE
  8
MERGEDLAYER-2
 66
  1
 70
  1
 62
  0
  0
VERTEX
  8
MERGEDLAYER-2
 10
4.889601
 20
5.277937
 30
0.000000
  0
VERTEX
  8
MERGEDLAYER-2
 10
4.897267
 20
5.277937
 30
0.000000
  0
VERTEX
  8
MERGEDLAYER-2
 10
4.897267
 20
5.085110
 30
0.000000
  0
VERTEX
  8
MERGEDLAYER-2
 10
4.889601
 20
5.085110
 30
0.000000
  0
SEQEND
  8
MERGEDLAYER-2
  0
POLYLINE
  8
MERGEDLAYER-2
 66
  1
 70
  1
 62
  0
  0
VERTEX
  8
MERGEDLAYER-2
 10
5.457067
 20
3.593130
 30
0.000000
  0
VERTEX
  8
MERGEDLAYER-2
 10
5.464739
 20
3.593130
 30
0.000000
  0
VERTEX
  8
MERGEDLAYER-2
 10
5.464739
 20
3.400291
 30
0.000000
  0
VERTEX
  8
MERGEDLAYER-2
 10
5.457067
 20
3.400291
 30
0.000000
  0
SEQEND
  8
MERGEDLAYER-2
  0
POLYLINE
  8
MERGEDLAYER-2
 66
  1
 70
  1
 62
  0
  0
VERTEX
  8
MERGEDLAYER-2
 10
5.449401
 20
3.746509
 30
0.000000
  0
VERTEX
  8
MERGEDLAYER-2
 10
5.457067
 20
3.746509
 30
0.000000
  0
VERTEX
  8
MERGEDLAYER-2
 10
5.457067
 20
3.553682
 30
0.000000
  0
VERTEX
  8
MERGEDLAYER-2
 10
5.449401
 20
3.553682
 30
0.000000
  0
SEQEND
  8
MERGEDLAYER-2
  0
POLYLINE
  8
MERGEDLAYER-2
 66
  1
 70
  1
 62
  0
  0
VERTEX
  8
MERGEDLAYER-2
 10
5.449401
 20
0.678709
 30
0.000000
  0
VERTEX
  8
MERGEDLAYER-2
 10
5.457067
 20
0.678709
 30
0.000000
  0
VERTEX
  8
MERGEDLAYER-2
 10
5.457067
 20
0.498105
 30
0.000000
  0
VERTEX
  8
MERGEDLAYER-2
 10
5.449401
 20
0.498105
 30
0.000000
  0
SEQEND
  8
MERGEDLAYER-2
  0
POLYLINE
  8
MERGEDLAYER-2
 66
  1
 70
  1
 62
  0
  0
VERTEX
  8
MERGEDLAYER-2
 10
5.457067
 20
0.832301
 30
0.000000
  0
VERTEX
  8
MERGEDLAYER-2
 10
5.464739
 20
0.832301
 30
0.000000
  0
VERTEX
  8
MERGEDLAYER-2
 10
5.464739
 20
0.639462
 30
0.000000
  0
VERTEX
  8
MERGEDLAYER-2
 10
5.457067
 20
0.639462
 30
0.000000
  0
SEQEND
  8
MERGEDLAYER-2
  0
POLYLINE
  8
MERGEDLAYER-2
 66
  1
 70
  1
 62
  0
  0
VERTEX
  8
MERGEDLAYER-2
 10
5.449401
 20
0.985680
 30
0.000000
  0
VERTEX
  8
MERGEDLAYER-2
 10
5.457067
 20
0.985680
 30
0.000000
  0
VERTEX
  8
MERGEDLAYER-2
 10
5.457067
 20
0.792842
 30
0.000000
  0
VERTEX
  8
MERGEDLAYER-2
 10
5.449401
 20
0.792842
 30
0.000000
  0
SEQEND
  8
MERGEDLAYER-2
  0
POLYLINE
  8
MERGEDLAYER-2
 66
  1
 70
  1
 62
  0
  0
VERTEX
  8
MERGEDLAYER-2
 10
5.457067
 20
1.139060
 30
0.000000
  0
VERTEX
  8
MERGEDLAYER-2
 10
5.464739
 20
1.139060
 30
0.000000
  0
VERTEX
  8
MERGEDLAYER-2
 10
5.464739
 20
0.946222
 30
0.000000
  0
VERTEX
  8
MERGEDLAYER-2
 10
5.457067
 20
0.946222
 30
0.000000
  0
SEQEND
  8
MERGEDLAYER-2
  0
POLYLINE
  8
MERGEDLAYER-2
 66
  1
 70
  1
 62
  0
  0
VERTEX
  8
MERGEDLAYER-2
 10
5.449401
 20
1.292438
 30
0.000000
  0
VERTEX
  8
MERGEDLAYER-2
 10
5.457067
 20
1.292438
 30
0.000000
  0
VERTEX
  8
MERGEDLAYER-2
 10
5.457067
 20
1.099602
 30
0.000000
  0
VERTEX
  8
MERGEDLAYER-2
 10
5.449401
 20
1.099602
 30
0.000000
  0
SEQEND
  8
MERGEDLAYER-2
  0
POLYLINE
  8
MERGEDLAYER-2
 66
  1
 70
  1
 62
  0
  0
VERTEX
  8
MERGEDLAYER-2
 10
5.457067
 20
1.445821
 30
0.000000
  0
VERTEX
  8
MERGEDLAYER-2
 10
5.464739
 20
1.445821
 30
0.000000
  0
VERTEX
  8
MERGEDLAYER-2
 10
5.464739
 20
1.252979
 30
0.000000
  0
VERTEX
  8
MERGEDLAYER-2
 10
5.457067
 20
1.252979
 30
0.000000
  0
SEQEND
  8
MERGEDLAYER-2
  0
POLYLINE
  8
MERGEDLAYER-2
 66
  1
 70
  1
 62
  0
  0
VERTEX
  8
MERGEDLAYER-2
 10
5.449401
 20
1.599198
 30
0.000000
  0
VERTEX
  8
MERGEDLAYER-2
 10
5.457067
 20
1.599198
 30
0.000000
  0
VERTEX
  8
MERGEDLAYER-2
 10
5.457067
 20
1.406360
 30
0.000000
  0
VERTEX
  8
MERGEDLAYER-2
 10
5.449401
 20
1.406360
 30
0.000000
  0
SEQEND
  8
MERGEDLAYER-2
  0
POLYLINE
  8
MERGEDLAYER-2
 66
  1
 70
  1
 62
  0
  0
VERTEX
  8
MERGEDLAYER-2
 10
5.457067
 20
1.752579
 30
0.000000
  0
VERTEX
  8
MERGEDLAYER-2
 10
5.464739
 20
1.752579
 30
0.000000
  0
VERTEX
  8
MERGEDLAYER-2
 10
5.464739
 20
1.559736
 30
0.000000
  0
VERTEX
  8
MERGEDLAYER-2
 10
5.457067
 20
1.559736
 30
0.000000
  0
SEQEND
  8
MERGEDLAYER-2
  0
POLYLINE
  8
MERGEDLAYER-2
 66
  1
 70
  1
 62
  0
  0
VERTEX
  8
MERGEDLAYER-2
 10
5.449401
 20
1.905959
 30
0.000000
  0
VERTEX
  8
MERGEDLAYER-2
 10
5.457067
 20
1.905959
 30
0.000000
  0
VERTEX
  8
MERGEDLAYER-2
 10
5.457067
 20
1.713119
 30
0.000000
  0
VERTEX
  8
MERGEDLAYER-2
 10
5.449401
 20
1.713119
 30
0.000000
  0
SEQEND
  8
MERGEDLAYER-2
  0
POLYLINE
  8
MERGEDLAYER-2
 66
  1
 70
  1
 62
  0
  0
VERTEX
  8
MERGEDLAYER-2
 10
5.457067
 20
2.059335
 30
0.000000
  0
VERTEX
  8
MERGEDLAYER-2
 10
5.464739
 20
2.059335
 30
0.000000
  0
VERTEX
  8
MERGEDLAYER-2
 10
5.464739
 20
1.866497
 30
0.000000
  0
VERTEX
  8
MERGEDLAYER-2
 10
5.457067
 20
1.866497
 30
0.000000
  0
SEQEND
  8
MERGEDLAYER-2
  0
POLYLINE
  8
MERGEDLAYER-2
 66
  1
 70
  1
 62
  0
  0
VERTEX
  8
MERGEDLAYER-2
 10
5.449401
 20
2.212717
 30
0.000000
  0
VERTEX
  8
MERGEDLAYER-2
 10
5.457067
 20
2.212717
 30
0.000000
  0
VERTEX
  8
MERGEDLAYER-2
 10
5.457067
 20
2.019875
 30
0.000000
  0
VERTEX
  8
MERGEDLAYER-2
 10
5.449401
 20
2.019875
 30
0.000000
  0
SEQEND
  8
MERGEDLAYER-2
  0
POLYLINE
  8
MERGEDLAYER-2
 66
  1
 70
  1
 62
  0
  0
VERTEX
  8
MERGEDLAYER-2
 10
5.457067
 20
2.366095
 30
0.000000
  0
VERTEX
  8
MERGEDLAYER-2
 10
5.464739
 20
2.366095
 30
0.000000
  0
VERTEX
  8
MERGEDLAYER-2
 10
5.464739
 20
2.173255
 30
0.000000
  0
VERTEX
  8
MERGEDLAYER-2
 10
5.457067
 20
2.173255
 30
0.000000
  0
SEQEND
  8
MERGEDLAYER-2
  0
POLYLINE
  8
MERGEDLAYER-2
 66
  1
 70
  1
 62
  0
  0
VERTEX
  8
MERGEDLAYER-2
 10
5.449401
 20
2.519476
 30
0.000000
  0
VERTEX
  8
MERGEDLAYER-2
 10
5.457067
 20
2.519476
 30
0.000000
  0
VERTEX
  8
MERGEDLAYER-2
 10
5.457067
 20
2.326636
 30
0.000000
  0
VERTEX
  8
MERGEDLAYER-2
 10
5.449401
 20
2.326636
 30
0.000000
  0
SEQEND
  8
MERGEDLAYER-2
  0
POLYLINE
  8
MERGEDLAYER-2
 66
  1
 70
  1
 62
  0
  0
VERTEX
  8
MERGEDLAYER-2
 10
5.457067
 20
2.672853
 30
0.000000
  0
VERTEX
  8
MERGEDLAYER-2
 10
5.464739
 20
2.672853
 30
0.000000
  0
VERTEX
  8
MERGEDLAYER-2
 10
5.464739
 20
2.480017
 30
0.000000
  0
VERTEX
  8
MERGEDLAYER-2
 10
5.457067
 20
2.480017
 30
0.000000
  0
SEQEND
  8
MERGEDLAYER-2
  0
POLYLINE
  8
MERGEDLAYER-2
 66
  1
 70
  1
 62
  0
  0
VERTEX
  8
MERGEDLAYER-2
 10
5.449401
 20
2.826232
 30
0.000000
  0
VERTEX
  8
MERGEDLAYER-2
 10
5.457067
 20
2.826232
 30
0.000000
  0
VERTEX
  8
MERGEDLAYER-2
 10
5.457067
 20
2.633396
 30
0.000000
  0
VERTEX
  8
MERGEDLAYER-2
 10
5.449401
 20
2.633396
 30
0.000000
  0
SEQEND
  8
MERGEDLAYER-2
  0
POLYLINE
  8
MERGEDLAYER-2
 66
  1
 70
  1
 62
  0
  0
VERTEX
  8
MERGEDLAYER-2
 10
5.457067
 20
2.979612
 30
0.000000
  0
VERTEX
  8
MERGEDLAYER-2
 10
5.464739
 20
2.979612
 30
0.000000
  0
VERTEX
  8
MERGEDLAYER-2
 10
5.464739
 20
2.786773
 30
0.000000
  0
VERTEX
  8
MERGEDLAYER-2
 10
5.457067
 20
2.786773
 30
0.000000
  0
SEQEND
  8
MERGEDLAYER-2
  0
POLYLINE
  8
MERGEDLAYER-2
 66
  1
 70
  1
 62
  0
  0
VERTEX
  8
MERGEDLAYER-2
 10
5.449401
 20
3.132991
 30
0.000000
  0
VERTEX
  8
MERGEDLAYER-2
 10
5.457067
 20
3.132991
 30
0.000000
  0
VERTEX
  8
MERGEDLAYER-2
 10
5.457067
 20
2.940152
 30
0.000000
  0
VERTEX
  8
MERGEDLAYER-2
 10
5.449401
 20
2.940152
 30
0.000000
  0
SEQEND
  8
MERGEDLAYER-2
  0
POLYLINE
  8
MERGEDLAYER-2
 66
  1
 70
  1
 62
  0
  0
VERTEX
  8
MERGEDLAYER-2
 10
5.457067
 20
3.286370
 30
0.000000
  0
VERTEX
  8
MERGEDLAYER-2
 10
5.464739
 20
3.286370
 30
0.000000
  0
VERTEX
  8
MERGEDLAYER-2
 10
5.464739
 20
3.093532
 30
0.000000
  0
VERTEX
  8
MERGEDLAYER-2
 10
5.457067
 20
3.093532
 30
0.000000
  0
SEQEND
  8
MERGEDLAYER-2
  0
POLYLINE
  8
MERGEDLAYER-2
 66
  1
 70
  1
 62
  0
  0
VERTEX
  8
MERGEDLAYER-2
 10
5.449401
 20
3.439750
 30
0.000000
  0
VERTEX
  8
MERGEDLAYER-2
 10
5.457067
 20
3.439750
 30
0.000000
  0
VERTEX
  8
MERGEDLAYER-2
 10
5.457067
 20
3.246912
 30
0.000000
  0
VERTEX
  8
MERGEDLAYER-2
 10
5.449401
 20
3.246912
 30
0.000000
  0
SEQEND
  8
MERGEDLAYER-2
  0
POLYLINE
  8
MERGEDLAYER-2
 66
  1
 70
  1
 62
  0
  0
VERTEX
  8
MERGEDLAYER-2
 10
5.457067
 20
3.899415
 30
0.000000
  0
VERTEX
  8
MERGEDLAYER-2
 10
5.464739
 20
3.899415
 30
0.000000
  0
VERTEX
  8
MERGEDLAYER-2
 10
5.464739
 20
3.706577
 30
0.000000
  0
VERTEX
  8
MERGEDLAYER-2
 10
5.457067
 20
3.706577
 30
0.000000
  0
SEQEND
  8
MERGEDLAYER-2
  0
POLYLINE
  8
MERGEDLAYER-2
 66
  1
 70
  1
 62
  0
  0
VERTEX
  8
MERGEDLAYER-2
 10
5.449401
 20
4.052794
 30
0.000000
  0
VERTEX
  8
MERGEDLAYER-2
 10
5.457067
 20
4.052794
 30
0.000000
  0
VERTEX
  8
MERGEDLAYER-2
 10
5.457067
 20
3.859967
 30
0.000000
  0
VERTEX
  8
MERGEDLAYER-2
 10
5.449401
 20
3.859967
 30
0.000000
  0
SEQEND
  8
MERGEDLAYER-2
  0
POLYLINE
  8
MERGEDLAYER-2
 66
  1
 70
  1
 62
  0
  0
VERTEX
  8
MERGEDLAYER-2
 10
5.457067
 20
4.205700
 30
0.000000
  0
VERTEX
  8
MERGEDLAYER-2
 10
5.464739
 20
4.205700
 30
0.000000
  0
VERTEX
  8
MERGEDLAYER-2
 10
5.464739
 20
4.012862
 30
0.000000
  0
VERTEX
  8
MERGEDLAYER-2
 10
5.457067
 20
4.012862
 30
0.000000
  0
SEQEND
  8
MERGEDLAYER-2
  0
POLYLINE
  8
MERGEDLAYER-2
 66
  1
 70
  1
 62
  0
  0
VERTEX
  8
MERGEDLAYER-2
 10
5.449401
 20
4.359080
 30
0.000000
  0
VERTEX
  8
MERGEDLAYER-2
 10
5.457067
 20
4.359080
 30
0.000000
  0
VERTEX
  8
MERGEDLAYER-2
 10
5.457067
 20
4.166252
 30
0.000000
  0
VERTEX
  8
MERGEDLAYER-2
 10
5.449401
 20
4.166252
 30
0.000000
  0
SEQEND
  8
MERGEDLAYER-2
  0
POLYLINE
  8
MERGEDLAYER-2
 66
  1
 70
  1
 62
  0
  0
VERTEX
  8
MERGEDLAYER-2
 10
5.457067
 20
4.511986
 30
0.000000
  0
VERTEX
  8
MERGEDLAYER-2
 10
5.464739
 20
4.511986
 30
0.000000
  0
VERTEX
  8
MERGEDLAYER-2
 10
5.464739
 20
4.319149
 30
0.000000
  0
VERTEX
  8
MERGEDLAYER-2
 10
5.457067
 20
4.319149
 30
0.000000
  0
SEQEND
  8
MERGEDLAYER-2
  0
POLYLINE
  8
MERGEDLAYER-2
 66
  1
 70
  1
 62
  0
  0
VERTEX
  8
MERGEDLAYER-2
 10
5.449401
 20
4.665366
 30
0.000000
  0
VERTEX
  8
MERGEDLAYER-2
 10
5.457067
 20
4.665366
 30
0.000000
  0
VERTEX
  8
MERGEDLAYER-2
 10
5.457067
 20
4.472539
 30
0.000000
  0
VERTEX
  8
MERGEDLAYER-2
 10
5.449401
 20
4.472539
 30
0.000000
  0
SEQEND
  8
MERGEDLAYER-2
  0
POLYLINE
  8
MERGEDLAYER-2
 66
  1
 70
  1
 62
  0
  0
VERTEX
  8
MERGEDLAYER-2
 10
5.457067
 20
4.818272
 30
0.000000
  0
VERTEX
  8
MERGEDLAYER-2
 10
5.464739
 20
4.818272
 30
0.000000
  0
VERTEX
  8
MERGEDLAYER-2
 10
5.464739
 20
4.625434
 30
0.000000
  0
VERTEX
  8
MERGEDLAYER-2
 10
5.457067
 20
4.625434
 30
0.000000
  0
SEQEND
  8
MERGEDLAYER-2
  0
POLYLINE
  8
MERGEDLAYER-2
 66
  1
 70
  1
 62
  0
  0
VERTEX
  8
MERGEDLAYER-2
 10
5.449401
 20
4.971652
 30
0.000000
  0
VERTEX
  8
MERGEDLAYER-2
 10
5.457067
 20
4.971652
 30
0.000000
  0
VERTEX
  8
MERGEDLAYER-2
 10
5.457067
 20
4.778825
 30
0.000000
  0
VERTEX
  8
MERGEDLAYER-2
 10
5.449401
 20
4.778825
 30
0.000000
  0
SEQEND
  8
MERGEDLAYER-2
  0
POLYLINE
  8
MERGEDLAYER-2
 66
  1
 70
  1
 62
  0
  0
VERTEX
  8
MERGEDLAYER-2
 10
5.457067
 20
5.124557
 30
0.000000
  0
VERTEX
  8
MERGEDLAYER-2
 10
5.464739
 20
5.124557
 30
0.000000
  0
VERTEX
  8
MERGEDLAYER-2
 10
5.464739
 20
4.931720
 30
0.000000
  0
VERTEX
  8
MERGEDLAYER-2
 10
5.457067
 20
4.931720
 30
0.000000
  0
SEQEND
  8
MERGEDLAYER-2
  0
POLYLINE
  8
MERGEDLAYER-2
 66
  1
 70
  1
 62
  0
  0
VERTEX
  8
MERGEDLAYER-2
 10
5.449401
 20
5.277937
 30
0.000000
  0
VERTEX
  8
MERGEDLAYER-2
 10
5.457067
 20
5.277937
 30
0.000000
  0
VERTEX
  8
MERGEDLAYER-2
 10
5.457067
 20
5.085110
 30
0.000000
  0
VERTEX
  8
MERGEDLAYER-2
 10
5.449401
 20
5.085110
 30
0.000000
  0
SEQEND
  8
MERGEDLAYER-2
  0
POLYLINE
  8
MERGEDLAYER-2
 66
  1
 70
  1
 62
  0
  0
VERTEX
  8
MERGEDLAYER-2
 10
6.016867
 20
3.593130
 30
0.000000
  0
VERTEX
  8
MERGEDLAYER-2
 10
6.024540
 20
3.593130
 30
0.000000
  0
VERTEX
  8
MERGEDLAYER-2
 10
6.024540
 20
3.400291
 30
0.000000
  0
VERTEX
  8
MERGEDLAYER-2
 10
6.016867
 20
3.400291
 30
0.000000
  0
SEQEND
  8
MERGEDLAYER-2
  0
POLYLINE
  8
MERGEDLAYER-2
 66
  1
 70
  1
 62
  0
  0
VERTEX
  8
MERGEDLAYER-2
 10
6.009201
 20
3.746509
 30
0.000000
  0
VERTEX
  8
MERGEDLAYER-2
 10
6.016867
 20
3.746509
 30
0.000000
  0
VERTEX
  8
MERGEDLAYER-2
 10
6.016867
 20
3.553682
 30
0.000000
  0
VERTEX
  8
MERGEDLAYER-2
 10
6.009201
 20
3.553682
 30
0.000000
  0
SEQEND
  8
MERGEDLAYER-2
  0
POLYLINE
  8
MERGEDLAYER-2
 66
  1
 70
  1
 62
  0
  0
VERTEX
  8
MERGEDLAYER-2
 10
6.009201
 20
0.678709
 30
0.000000
  0
VERTEX
  8
MERGEDLAYER-2
 10
6.016867
 20
0.678709
 30
0.000000
  0
VERTEX
  8
MERGEDLAYER-2
 10
6.016867
 20
0.498105
 30
0.000000
  0
VERTEX
  8
MERGEDLAYER-2
 10
6.009201
 20
0.498105
 30
0.000000
  0
SEQEND
  8
MERGEDLAYER-2
  0
POLYLINE
  8
MERGEDLAYER-2
 66
  1
 70
  1
 62
  0
  0
VERTEX
  8
MERGEDLAYER-2
 10
6.016867
 20
0.832301
 30
0.000000
  0
VERTEX
  8
MERGEDLAYER-2
 10
6.024540
 20
0.832301
 30
0.000000
  0
VERTEX
  8
MERGEDLAYER-2
 10
6.024540
 20
0.639462
 30
0.000000
  0
VERTEX
  8
MERGEDLAYER-2
 10
6.016867
 20
0.639462
 30
0.000000
  0
SEQEND
  8
MERGEDLAYER-2
  0
POLYLINE
  8
MERGEDLAYER-2
 66
  1
 70
  1
 62
  0
  0
VERTEX
  8
MERGEDLAYER-2
 10
6.009201
 20
0.985680
 30
0.000000
  0
VERTEX
  8
MERGEDLAYER-2
 10
6.016867
 20
0.985680
 30
0.000000
  0
VERTEX
  8
MERGEDLAYER-2
 10
6.016867
 20
0.792842
 30
0.000000
  0
VERTEX
  8
MERGEDLAYER-2
 10
6.009201
 20
0.792842
 30
0.000000
  0
SEQEND
  8
MERGEDLAYER-2
  0
POLYLINE
  8
MERGEDLAYER-2
 66
  1
 70
  1
 62
  0
  0
VERTEX
  8
MERGEDLAYER-2
 10
6.016867
 20
1.139060
 30
0.000000
  0
VERTEX
  8
MERGEDLAYER-2
 10
6.024540
 20
1.139060
 30
0.000000
  0
VERTEX
  8
MERGEDLAYER-2
 10
6.024540
 20
0.946222
 30
0.000000
  0
VERTEX
  8
MERGEDLAYER-2
 10
6.016867
 20
0.946222
 30
0.000000
  0
SEQEND
  8
MERGEDLAYER-2
  0
POLYLINE
  8
MERGEDLAYER-2
 66
  1
 70
  1
 62
  0
  0
VERTEX
  8
MERGEDLAYER-2
 10
6.009201
 20
1.292438
 30
0.000000
  0
VERTEX
  8
MERGEDLAYER-2
 10
6.016867
 20
1.292438
 30
0.000000
  0
VERTEX
  8
MERGEDLAYER-2
 10
6.016867
 20
1.099602
 30
0.000000
  0
VERTEX
  8
MERGEDLAYER-2
 10
6.009201
 20
1.099602
 30
0.000000
  0
SEQEND
  8
MERGEDLAYER-2
  0
POLYLINE
  8
MERGEDLAYER-2
 66
  1
 70
  1
 62
  0
  0
VERTEX
  8
MERGEDLAYER-2
 10
6.016867
 20
1.445821
 30
0.000000
  0
VERTEX
  8
MERGEDLAYER-2
 10
6.024540
 20
1.445821
 30
0.000000
  0
VERTEX
  8
MERGEDLAYER-2
 10
6.024540
 20
1.252979
 30
0.000000
  0
VERTEX
  8
MERGEDLAYER-2
 10
6.016867
 20
1.252979
 30
0.000000
  0
SEQEND
  8
MERGEDLAYER-2
  0
POLYLINE
  8
MERGEDLAYER-2
 66
  1
 70
  1
 62
  0
  0
VERTEX
  8
MERGEDLAYER-2
 10
6.009201
 20
1.599198
 30
0.000000
  0
VERTEX
  8
MERGEDLAYER-2
 10
6.016867
 20
1.599198
 30
0.000000
  0
VERTEX
  8
MERGEDLAYER-2
 10
6.016867
 20
1.406360
 30
0.000000
  0
VERTEX
  8
MERGEDLAYER-2
 10
6.009201
 20
1.406360
 30
0.000000
  0
SEQEND
  8
MERGEDLAYER-2
  0
POLYLINE
  8
MERGEDLAYER-2
 66
  1
 70
  1
 62
  0
  0
VERTEX
  8
MERGEDLAYER-2
 10
6.016867
 20
1.752579
 30
0.000000
  0
VERTEX
  8
MERGEDLAYER-2
 10
6.024540
 20
1.752579
 30
0.000000
  0
VERTEX
  8
MERGEDLAYER-2
 10
6.024540
 20
1.559736
 30
0.000000
  0
VERTEX
  8
MERGEDLAYER-2
 10
6.016867
 20
1.559736
 30
0.000000
  0
SEQEND
  8
MERGEDLAYER-2
  0
POLYLINE
  8
MERGEDLAYER-2
 66
  1
 70
  1
 62
  0
  0
VERTEX
  8
MERGEDLAYER-2
 10
6.009201
 20
1.905959
 30
0.000000
  0
VERTEX
  8
MERGEDLAYER-2
 10
6.016867
 20
1.905959
 30
0.000000
  0
VERTEX
  8
MERGEDLAYER-2
 10
6.016867
 20
1.713119
 30
0.000000
  0
VERTEX
  8
MERGEDLAYER-2
 10
6.009201
 20
1.713119
 30
0.000000
  0
SEQEND
  8
MERGEDLAYER-2
  0
POLYLINE
  8
MERGEDLAYER-2
 66
  1
 70
  1
 62
  0
  0
VERTEX
  8
MERGEDLAYER-2
 10
6.016867
 20
2.059335
 30
0.000000
  0
VERTEX
  8
MERGEDLAYER-2
 10
6.024540
 20
2.059335
 30
0.000000
  0
VERTEX
  8
MERGEDLAYER-2
 10
6.024540
 20
1.866497
 30
0.000000
  0
VERTEX
  8
MERGEDLAYER-2
 10
6.016867
 20
1.866497
 30
0.000000
  0
SEQEND
  8
MERGEDLAYER-2
  0
POLYLINE
  8
MERGEDLAYER-2
 66
  1
 70
  1
 62
  0
  0
VERTEX
  8
MERGEDLAYER-2
 10
6.009201
 20
2.212717
 30
0.000000
  0
VERTEX
  8
MERGEDLAYER-2
 10
6.016867
 20
2.212717
 30
0.000000
  0
VERTEX
  8
MERGEDLAYER-2
 10
6.016867
 20
2.019875
 30
0.000000
  0
VERTEX
  8
MERGEDLAYER-2
 10
6.009201
 20
2.019875
 30
0.000000
  0
SEQEND
  8
MERGEDLAYER-2
  0
POLYLINE
  8
MERGEDLAYER-2
 66
  1
 70
  1
 62
  0
  0
VERTEX
  8
MERGEDLAYER-2
 10
6.016867
 20
2.366095
 30
0.000000
  0
VERTEX
  8
MERGEDLAYER-2
 10
6.024540
 20
2.366095
 30
0.000000
  0
VERTEX
  8
MERGEDLAYER-2
 10
6.024540
 20
2.173255
 30
0.000000
  0
VERTEX
  8
MERGEDLAYER-2
 10
6.016867
 20
2.173255
 30
0.000000
  0
SEQEND
  8
MERGEDLAYER-2
  0
POLYLINE
  8
MERGEDLAYER-2
 66
  1
 70
  1
 62
  0
  0
VERTEX
  8
MERGEDLAYER-2
 10
6.009201
 20
2.519476
 30
0.000000
  0
VERTEX
  8
MERGEDLAYER-2
 10
6.016867
 20
2.519476
 30
0.000000
  0
VERTEX
  8
MERGEDLAYER-2
 10
6.016867
 20
2.326636
 30
0.000000
  0
VERTEX
  8
MERGEDLAYER-2
 10
6.009201
 20
2.326636
 30
0.000000
  0
SEQEND
  8
MERGEDLAYER-2
  0
POLYLINE
  8
MERGEDLAYER-2
 66
  1
 70
  1
 62
  0
  0
VERTEX
  8
MERGEDLAYER-2
 10
6.016867
 20
2.672853
 30
0.000000
  0
VERTEX
  8
MERGEDLAYER-2
 10
6.024540
 20
2.672853
 30
0.000000
  0
VERTEX
  8
MERGEDLAYER-2
 10
6.024540
 20
2.480017
 30
0.000000
  0
VERTEX
  8
MERGEDLAYER-2
 10
6.016867
 20
2.480017
 30
0.000000
  0
SEQEND
  8
MERGEDLAYER-2
  0
POLYLINE
  8
MERGEDLAYER-2
 66
  1
 70
  1
 62
  0
  0
VERTEX
  8
MERGEDLAYER-2
 10
6.009201
 20
2.826232
 30
0.000000
  0
VERTEX
  8
MERGEDLAYER-2
 10
6.016867
 20
2.826232
 30
0.000000
  0
VERTEX
  8
MERGEDLAYER-2
 10
6.016867
 20
2.633396
 30
0.000000
  0
VERTEX
  8
MERGEDLAYER-2
 10
6.009201
 20
2.633396
 30
0.000000
  0
SEQEND
  8
MERGEDLAYER-2
  0
POLYLINE
  8
MERGEDLAYER-2
 66
  1
 70
  1
 62
  0
  0
VERTEX
  8
MERGEDLAYER-2
 10
6.016867
 20
2.979612
 30
0.000000
  0
VERTEX
  8
MERGEDLAYER-2
 10
6.024540
 20
2.979612
 30
0.000000
  0
VERTEX
  8
MERGEDLAYER-2
 10
6.024540
 20
2.786773
 30
0.000000
  0
VERTEX
  8
MERGEDLAYER-2
 10
6.016867
 20
2.786773
 30
0.000000
  0
SEQEND
  8
MERGEDLAYER-2
  0
POLYLINE
  8
MERGEDLAYER-2
 66
  1
 70
  1
 62
  0
  0
VERTEX
  8
MERGEDLAYER-2
 10
6.009201
 20
3.132991
 30
0.000000
  0
VERTEX
  8
MERGEDLAYER-2
 10
6.016867
 20
3.132991
 30
0.000000
  0
VERTEX
  8
MERGEDLAYER-2
 10
6.016867
 20
2.940152
 30
0.000000
  0
VERTEX
  8
MERGEDLAYER-2
 10
6.009201
 20
2.940152
 30
0.000000
  0
SEQEND
  8
MERGEDLAYER-2
  0
POLYLINE
  8
MERGEDLAYER-2
 66
  1
 70
  1
 62
  0
  0
VERTEX
  8
MERGEDLAYER-2
 10
6.016867
 20
3.286370
 30
0.000000
  0
VERTEX
  8
MERGEDLAYER-2
 10
6.024540
 20
3.286370
 30
0.000000
  0
VERTEX
  8
MERGEDLAYER-2
 10
6.024540
 20
3.093532
 30
0.000000
  0
VERTEX
  8
MERGEDLAYER-2
 10
6.016867
 20
3.093532
 30
0.000000
  0
SEQEND
  8
MERGEDLAYER-2
  0
POLYLINE
  8
MERGEDLAYER-2
 66
  1
 70
  1
 62
  0
  0
VERTEX
  8
MERGEDLAYER-2
 10
6.009201
 20
3.439750
 30
0.000000
  0
VERTEX
  8
MERGEDLAYER-2
 10
6.016867
 20
3.439750
 30
0.000000
  0
VERTEX
  8
MERGEDLAYER-2
 10
6.016867
 20
3.246912
 30
0.000000
  0
VERTEX
  8
MERGEDLAYER-2
 10
6.009201
 20
3.246912
 30
0.000000
  0
SEQEND
  8
MERGEDLAYER-2
  0
POLYLINE
  8
MERGEDLAYER-2
 66
  1
 70
  1
 62
  0
  0
VERTEX
  8
MERGEDLAYER-2
 10
6.016867
 20
3.899415
 30
0.000000
  0
VERTEX
  8
MERGEDLAYER-2
 10
6.024540
 20
3.899415
 30
0.000000
  0
VERTEX
  8
MERGEDLAYER-2
 10
6.024540
 20
3.706577
 30
0.000000
  0
VERTEX
  8
MERGEDLAYER-2
 10
6.016867
 20
3.706577
 30
0.000000
  0
SEQEND
  8
MERGEDLAYER-2
  0
POLYLINE
  8
MERGEDLAYER-2
 66
  1
 70
  1
 62
  0
  0
VERTEX
  8
MERGEDLAYER-2
 10
6.009201
 20
4.052794
 30
0.000000
  0
VERTEX
  8
MERGEDLAYER-2
 10
6.016867
 20
4.052794
 30
0.000000
  0
VERTEX
  8
MERGEDLAYER-2
 10
6.016867
 20
3.859967
 30
0.000000
  0
VERTEX
  8
MERGEDLAYER-2
 10
6.009201
 20
3.859967
 30
0.000000
  0
SEQEND
  8
MERGEDLAYER-2
  0
POLYLINE
  8
MERGEDLAYER-2
 66
  1
 70
  1
 62
  0
  0
VERTEX
  8
MERGEDLAYER-2
 10
6.016867
 20
4.205700
 30
0.000000
  0
VERTEX
  8
MERGEDLAYER-2
 10
6.024540
 20
4.205700
 30
0.000000
  0
VERTEX
  8
MERGEDLAYER-2
 10
6.024540
 20
4.012862
 30
0.000000
  0
VERTEX
  8
MERGEDLAYER-2
 10
6.016867
 20
4.012862
 30
0.000000
  0
SEQEND
  8
MERGEDLAYER-2
  0
POLYLINE
  8
MERGEDLAYER-2
 66
  1
 70
  1
 62
  0
  0
VERTEX
  8
MERGEDLAYER-2
 10
6.009201
 20
4.359080
 30
0.000000
  0
VERTEX
  8
MERGEDLAYER-2
 10
6.016867
 20
4.359080
 30
0.000000
  0
VERTEX
  8
MERGEDLAYER-2
 10
6.016867
 20
4.166252
 30
0.000000
  0
VERTEX
  8
MERGEDLAYER-2
 10
6.009201
 20
4.166252
 30
0.000000
  0
SEQEND
  8
MERGEDLAYER-2
  0
POLYLINE
  8
MERGEDLAYER-2
 66
  1
 70
  1
 62
  0
  0
VERTEX
  8
MERGEDLAYER-2
 10
6.016867
 20
4.511986
 30
0.000000
  0
VERTEX
  8
MERGEDLAYER-2
 10
6.024540
 20
4.511986
 30
0.000000
  0
VERTEX
  8
MERGEDLAYER-2
 10
6.024540
 20
4.319149
 30
0.000000
  0
VERTEX
  8
MERGEDLAYER-2
 10
6.016867
 20
4.319149
 30
0.000000
  0
SEQEND
  8
MERGEDLAYER-2
  0
POLYLINE
  8
MERGEDLAYER-2
 66
  1
 70
  1
 62
  0
  0
VERTEX
  8
MERGEDLAYER-2
 10
6.009201
 20
4.665366
 30
0.000000
  0
VERTEX
  8
MERGEDLAYER-2
 10
6.016867
 20
4.665366
 30
0.000000
  0
VERTEX
  8
MERGEDLAYER-2
 10
6.016867
 20
4.472539
 30
0.000000
  0
VERTEX
  8
MERGEDLAYER-2
 10
6.009201
 20
4.472539
 30
0.000000
  0
SEQEND
  8
MERGEDLAYER-2
  0
POLYLINE
  8
MERGEDLAYER-2
 66
  1
 70
  1
 62
  0
  0
VERTEX
  8
MERGEDLAYER-2
 10
6.016867
 20
4.818272
 30
0.000000
  0
VERTEX
  8
MERGEDLAYER-2
 10
6.024540
 20
4.818272
 30
0.000000
  0
VERTEX
  8
MERGEDLAYER-2
 10
6.024540
 20
4.625434
 30
0.000000
  0
VERTEX
  8
MERGEDLAYER-2
 10
6.016867
 20
4.625434
 30
0.000000
  0
SEQEND
  8
MERGEDLAYER-2
  0
POLYLINE
  8
MERGEDLAYER-2
 66
  1
 70
  1
 62
  0
  0
VERTEX
  8
MERGEDLAYER-2
 10
6.009201
 20
4.971652
 30
0.000000
  0
VERTEX
  8
MERGEDLAYER-2
 10
6.016867
 20
4.971652
 30
0.000000
  0
VERTEX
  8
MERGEDLAYER-2
 10
6.016867
 20
4.778825
 30
0.000000
  0
VERTEX
  8
MERGEDLAYER-2
 10
6.009201
 20
4.778825
 30
0.000000
  0
SEQEND
  8
MERGEDLAYER-2
  0
POLYLINE
  8
MERGEDLAYER-2
 66
  1
 70
  1
 62
  0
  0
VERTEX
  8
MERGEDLAYER-2
 10
6.016867
 20
5.124557
 30
0.000000
  0
VERTEX
  8
MERGEDLAYER-2
 10
6.024540
 20
5.124557
 30
0.000000
  0
VERTEX
  8
MERGEDLAYER-2
 10
6.024540
 20
4.931720
 30
0.000000
  0
VERTEX
  8
MERGEDLAYER-2
 10
6.016867
 20
4.931720
 30
0.000000
  0
SEQEND
  8
MERGEDLAYER-2
  0
POLYLINE
  8
MERGEDLAYER-2
 66
  1
 70
  1
 62
  0
  0
VERTEX
  8
MERGEDLAYER-2
 10
6.009201
 20
5.277937
 30
0.000000
  0
VERTEX
  8
MERGEDLAYER-2
 10
6.016867
 20
5.277937
 30
0.000000
  0
VERTEX
  8
MERGEDLAYER-2
 10
6.016867
 20
5.085110
 30
0.000000
  0
VERTEX
  8
MERGEDLAYER-2
 10
6.009201
 20
5.085110
 30
0.000000
  0
SEQEND
  8
MERGEDLAYER-2
  0
POLYLINE
  8
MERGEDLAYER-2
 66
  1
 70
  1
 62
  0
  0
VERTEX
  8
MERGEDLAYER-2
 10
3.892361
 20
0.479168
 30
0.000000
  0
VERTEX
  8
MERGEDLAYER-2
 10
4.297831
 20
0.479168
 30
0.000000
  0
VERTEX
  8
MERGEDLAYER-2
 10
4.297831
 20
0.352604
 30
0.000000
  0
VERTEX
  8
MERGEDLAYER-2
 10
3.892361
 20
0.352604
 30
0.000000
  0
SEQEND
  8
MERGEDLAYER-2
  0
POLYLINE
  8
MERGEDLAYER-2
 66
  1
 70
  1
 62
  0
  0
VERTEX
  8
MERGEDLAYER-2
 10
3.905252
 20
0.460300
 30
0.000000
  0
VERTEX
  8
MERGEDLAYER-2
 10
3.920838
 20
0.460300
 30
0.000000
  0
VERTEX
  8
MERGEDLAYER-2
 10
3.920838
 20
0.426433
 30
0.000000
  0
VERTEX
  8
MERGEDLAYER-2
 10
3.905252
 20
0.426433
 30
0.000000
  0
SEQEND
  8
MERGEDLAYER-2
  0
POLYLINE
  8
MERGEDLAYER-2
 66
  1
 70
  1
 62
  0
  0
VERTEX
  8
MERGEDLAYER-2
 10
3.926111
 20
0.460300
 30
0.000000
  0
VERTEX
  8
MERGEDLAYER-2
 10
3.941463
 20
0.460300
 30
0.000000
  0
VERTEX
  8
MERGEDLAYER-2
 10
3.941463
 20
0.426433
 30
0.000000
  0
VERTEX
  8
MERGEDLAYER-2
 10
3.926111
 20
0.426433
 30
0.000000
  0
SEQEND
  8
MERGEDLAYER-2
  0
POLYLINE
  8
MERGEDLAYER-2
 66
  1
 70
  1
 62
  0
  0
VERTEX
  8
MERGEDLAYER-2
 10
3.945916
 20
0.460300
 30
0.000000
  0
VERTEX
  8
MERGEDLAYER-2
 10
3.961268
 20
0.460300
 30
0.000000
  0
VERTEX
  8
MERGEDLAYER-2
 10
3.961268
 20
0.426433
 30
0.000000
  0
VERTEX
  8
MERGEDLAYER-2
 10
3.945916
 20
0.426433
 30
0.000000
  0
SEQEND
  8
MERGEDLAYER-2
  0
POLYLINE
  8
MERGEDLAYER-2
 66
  1
 70
  1
 62
  0
  0
VERTEX
  8
MERGEDLAYER-2
 10
3.966307
 20
0.460300
 30
0.000000
  0
VERTEX
  8
MERGEDLAYER-2
 10
3.981658
 20
0.460300
 30
0.000000
  0
VERTEX
  8
MERGEDLAYER-2
 10
3.981658
 20
0.426433
 30
0.000000
  0
VERTEX
  8
MERGEDLAYER-2
 10
3.966307
 20
0.426433
 30
0.000000
  0
SEQEND
  8
MERGEDLAYER-2
  0
POLYLINE
  8
MERGEDLAYER-2
 66
  1
 70
  1
 62
  0
  0
VERTEX
  8
MERGEDLAYER-2
 10
3.987166
 20
0.451042
 30
0.000000
  0
VERTEX
  8
MERGEDLAYER-2
 10
3.987166
 20
0.459831
 30
0.000000
  0
VERTEX
  8
MERGEDLAYER-2
 10
4.012128
 20
0.459831
 30
0.000000
  0
VERTEX
  8
MERGEDLAYER-2
 10
4.012128
 20
0.451042
 30
0.000000
  0
SEQEND
  8
MERGEDLAYER-2
  0
POLYLINE
  8
MERGEDLAYER-2
 66
  1
 70
  1
 62
  0
  0
VERTEX
  8
MERGEDLAYER-2
 10
3.987167
 20
0.436159
 30
0.000000
  0
VERTEX
  8
MERGEDLAYER-2
 10
3.987167
 20
0.444948
 30
0.000000
  0
VERTEX
  8
MERGEDLAYER-2
 10
4.007557
 20
0.444948
 30
0.000000
  0
VERTEX
  8
MERGEDLAYER-2
 10
4.007557
 20
0.436159
 30
0.000000
  0
SEQEND
  8
MERGEDLAYER-2
  0
POLYLINE
  8
MERGEDLAYER-2
 66
  1
 70
  0
 62
  0
 10
3.905252
 20
0.415886
 30
0.000000
  0
VERTEX
  8
MERGEDLAYER-2
 10
3.905252
 20
0.415886
 30
0.000000
  0
VERTEX
  8
MERGEDLAYER-2
 10
4.292499
 20
0.415769
 30
0.000000
  0
SEQEND
  8
MERGEDLAYER-2
  0
TEXT
  8
MERGEDLAYER-2
 62
  0
 10
4.097222
 20
0.430556
 30
0.000000
 40
0.020833
  1
mobilflex.com
 72
  5
 11
4.375000
 21
0.430556
 31
0.000000
  0
TEXT
  8
MERGEDLAYER-2
 62
  0
 10
3.902778
 20
0.361111
 30
0.000000
 40
0.041667
  1
MobilFlex
 72
  5
 11
4.194444
 21
0.361111
 31
0.000000
  0
TEXT
  8
MERGEDLAYER-2
 62
  0
 10
2.472222
 20
0.083333
 30
0.000000
 40
0.125000
  1
PoignÄe
 72
  5
 11
3.180556
 21
0.083333
 31
0.000000
  0
POLYLINE
  8
MERGEDLAYER-2
 66
  1
 70
  0
 62
  0
 10
3.137152
 20
0.164931
 30
0.000000
  0
VERTEX
  8
MERGEDLAYER-2
 10
3.137152
 20
0.164931
 30
0.000000
  0
VERTEX
  8
MERGEDLAYER-2
 10
3.522725
 20
0.353897
 30
0.000000
  0
SEQEND
  8
MERGEDLAYER-2
  0
POLYLINE
  8
MERGEDLAYER-2
 66
  1
 70
  1
 62
  0
  0
VERTEX
  8
MERGEDLAYER-2
 10
3.540402
 20
0.362561
 30
0.000000
  0
VERTEX
  8
MERGEDLAYER-2
 10
3.496381
 20
0.294584
 30
0.000000
  0
VERTEX
  8
MERGEDLAYER-2
 10
3.478044
 20
0.331999
 30
0.000000
  0
VERTEX
  8
MERGEDLAYER-2
 10
3.459707
 20
0.369414
 30
0.000000
  0
VERTEX
  8
MERGEDLAYER-2
 10
3.540402
 20
0.362561
 30
0.000000
  0
SEQEND
  8
MERGEDLAYER-2
  0
TEXT
  8
MERGEDLAYER-2
 62
  0
 10
3.972222
 20
0.083333
 30
0.000000
 40
0.125000
  1
Cylindre
 72
  5
 11
4.666667
 21
0.083333
 31
0.000000
  0
POLYLINE
  8
MERGEDLAYER-2
 66
  1
 70
  0
 62
  0
 10
3.953125
 20
0.144098
 30
0.000000
  0
VERTEX
  8
MERGEDLAYER-2
 10
3.953125
 20
0.144098
 30
0.000000
  0
VERTEX
  8
MERGEDLAYER-2
 10
3.798631
 20
0.340433
 30
0.000000
  0
SEQEND
  8
MERGEDLAYER-2
  0
POLYLINE
  8
MERGEDLAYER-2
 66
  1
 70
  1
 62
  0
  0
VERTEX
  8
MERGEDLAYER-2
 10
3.786458
 20
0.355904
 30
0.000000
  0
VERTEX
  8
MERGEDLAYER-2
 10
3.862147
 20
0.327096
 30
0.000000
  0
VERTEX
  8
MERGEDLAYER-2
 10
3.829402
 20
0.301330
 30
0.000000
  0
VERTEX
  8
MERGEDLAYER-2
 10
3.796658
 20
0.275564
 30
0.000000
  0
VERTEX
  8
MERGEDLAYER-2
 10
3.786458
 20
0.355904
 30
0.000000
  0
SEQEND
  8
MERGEDLAYER-2
  0
TEXT
  8
MERGEDLAYER-2
 62
  0
 10
3.791667
 20
6.041667
 30
0.000000
 40
0.125000
  1
1/8
 72
  5
 11
4.097222
 21
6.041667
 31
0.000000
  0
TEXT
  8
MERGEDLAYER-2
 62
  0
 10
4.097222
 20
6.041667
 30
0.000000
 40
0.145833
  1
"x
 72
  5
 11
4.333333
 21
6.041667
 31
0.000000
  0
TEXT
  8
MERGEDLAYER-2
 62
  0
 10
4.333333
 20
6.041667
 30
0.000000
 40
0.125000
  1
5/8
 72
  5
 11
4.638889
 21
6.041667
 31
0.000000
  0
TEXT
  8
MERGEDLAYER-2
 62
  0
 10
4.638889
 20
6.041667
 30
0.000000
 40
0.145833
  1
"
 72
  5
 11
4.777778
 21
6.041667
 31
0.000000
  0
TEXT
  8
MERGEDLAYER-2
 62
  0
 10
3.791667
 20
5.805556
 30
0.000000
 40
0.145833
  1
3x16
 72
  5
 11
4.291667
 21
5.805556
 31
0.000000
  0
TEXT
  8
MERGEDLAYER-2
 62
  0
 10
4.291667
 20
5.805556
 30
0.000000
 40
0.125000
  1
mm
 72
  5
 11
4.666667
 21
5.805556
 31
0.000000
  0
TEXT
  8
MERGEDLAYER-2
 62
  0
 10
4.666667
 20
5.805556
 30
0.000000
 40
0.156250
  1
 
 72
  5
 11
4.791667
 21
5.805556
 31
0.000000
  0
TEXT
  8
MERGEDLAYER-2
 62
  0
 10
3.013889
 20
5.986111
 30
0.000000
 40
0.145833
  1
maillons
 72
  5
 11
3.805556
 21
5.986111
 31
0.000000
  0
TEXT
  8
MERGEDLAYER-2
 62
  0
 10
1.819444
 20
8.625000
 30
0.000000
 40
0.125000
  1
GRILLE ╦ ENROULEMENT AJOURâE
 72
  5
 11
4.763889
 21
8.625000
 31
0.000000
  0
ENDSEC
  0
EOF
