  0
SECTION
  2
HEADER
999
MacDraft 5.0\0
  9
$ACADVER
  1
AC1006
  9
$CLAYER
  8
MERGEDLAYER-2
  9
$EXTMIN
 10
0.000000
 20
0.000000
  9
$EXTMAX
 10
7.555556
 20
10.145834
  9
$FASTZOOM
 70
0
  9
$FILLMODE
 70
1
  0
ENDSEC
  0
SECTION
  2
TABLES
  0
TABLE
  2
LTYPE
 70
16
  0
LTYPE
  2
CONTINUOUS
 70
64
  3
Solid Line
 72
65
 73
0
 40
0.000000
  0
LTYPE
  2
LTYPE01
 70
64
  3
CUSTOM
 72
65
 73
2
 40
0.111111
 49
0.083333
 49
-0.027778
  0
LTYPE
  2
LTYPE02
 70
64
  3
CUSTOM
 72
65
 73
2
 40
0.194444
 49
0.166667
 49
-0.027778
  0
LTYPE
  2
LTYPE03
 70
64
  3
CUSTOM
 72
65
 73
2
 40
0.375000
 49
0.333333
 49
-0.041667
  0
LTYPE
  2
LTYPE04
 70
64
  3
CUSTOM
 72
65
 73
2
 40
0.722222
 49
0.666667
 49
-0.055556
  0
LTYPE
  2
LTYPE05
 70
64
  3
CUSTOM
 72
65
 73
4
 40
0.152778
 49
0.083333
 49
-0.027778
 49
0.013889
 49
-0.027778
  0
LTYPE
  2
LTYPE06
 70
64
  3
CUSTOM
 72
65
 73
4
 40
0.236111
 49
0.166667
 49
-0.027778
 49
0.013889
 49
-0.027778
  0
LTYPE
  2
LTYPE07
 70
64
  3
CUSTOM
 72
65
 73
4
 40
0.444444
 49
0.333333
 49
-0.041667
 49
0.027778
 49
-0.041667
  0
LTYPE
  2
LTYPE08
 70
64
  3
CUSTOM
 72
65
 73
4
 40
0.805556
 49
0.666667
 49
-0.055556
 49
0.027778
 49
-0.055556
  0
LTYPE
  2
LTYPE09
 70
64
  3
CUSTOM
 72
65
 73
6
 40
0.194444
 49
0.083333
 49
-0.027778
 49
0.013889
 49
-0.027778
 49
0.013889
 49
-0.027778
  0
LTYPE
  2
LTYPE10
 70
64
  3
CUSTOM
 72
65
 73
6
 40
0.277778
 49
0.166667
 49
-0.027778
 49
0.013889
 49
-0.027778
 49
0.013889
 49
-0.027778
  0
LTYPE
  2
LTYPE11
 70
64
  3
CUSTOM
 72
65
 73
6
 40
0.500000
 49
0.333333
 49
-0.041667
 49
0.027778
 49
-0.027778
 49
0.027778
 49
-0.041667
  0
LTYPE
  2
LTYPE12
 70
64
  3
CUSTOM
 72
65
 73
6
 40
0.861111
 49
0.666667
 49
-0.055556
 49
0.027778
 49
-0.027778
 49
0.027778
 49
-0.055556
  0
LTYPE
  2
LTYPE13
 70
64
  3
CUSTOM
 72
65
 73
8
 40
0.319444
 49
0.166667
 49
-0.027778
 49
0.013889
 49
-0.027778
 49
0.013889
 49
-0.027778
 49
0.013889
 49
-0.027778
  0
LTYPE
  2
LTYPE14
 70
64
  3
CUSTOM
 72
65
 73
8
 40
0.555556
 49
0.333333
 49
-0.041667
 49
0.027778
 49
-0.027778
 49
0.027778
 49
-0.027778
 49
0.027778
 49
-0.041667
  0
LTYPE
  2
LTYPE15
 70
64
  3
CUSTOM
 72
65
 73
8
 40
0.944444
 49
0.666667
 49
-0.055556
 49
0.027778
 49
-0.041667
 49
0.027778
 49
-0.041667
 49
0.027778
 49
-0.055556
  0
ENDTAB
  0
TABLE
  2
LAYER
 70
1
  0
LAYER
  2
MERGEDLAYER-2
 70
0
 62
7
  6
CONTINUOUS
  0
ENDTAB
  0
ENDSEC
  0
SECTION
  2
BLOCKS
  0
ENDSEC
  0
SECTION
  2
ENTITIES
  0
ARC
  8
MERGEDLAYER-2
 62
  0
 10
5.486337
 20
9.074367
 30
0.000000
 40
0.254425
 50
270.000000
 51
90.000000
  0
POLYLINE
  8
MERGEDLAYER-2
 66
  1
 70
  0
 62
  0
 10
5.486337
 20
9.328793
 30
0.000000
  0
VERTEX
  8
MERGEDLAYER-2
 10
5.486337
 20
9.328793
 30
0.000000
  0
VERTEX
  8
MERGEDLAYER-2
 10
1.821413
 20
9.328793
 30
0.000000
  0
SEQEND
  8
MERGEDLAYER-2
  0
POLYLINE
  8
MERGEDLAYER-2
 66
  1
 70
  0
 62
  0
 10
1.821413
 20
9.328793
 30
0.000000
  0
VERTEX
  8
MERGEDLAYER-2
 10
1.821413
 20
9.328793
 30
0.000000
  0
VERTEX
  8
MERGEDLAYER-2
 10
1.821413
 20
8.819943
 30
0.000000
  0
SEQEND
  8
MERGEDLAYER-2
  0
POLYLINE
  8
MERGEDLAYER-2
 66
  1
 70
  0
 62
  0
 10
5.486337
 20
8.819943
 30
0.000000
  0
VERTEX
  8
MERGEDLAYER-2
 10
5.486337
 20
8.819943
 30
0.000000
  0
VERTEX
  8
MERGEDLAYER-2
 10
1.821413
 20
8.819943
 30
0.000000
  0
SEQEND
  8
MERGEDLAYER-2
  0
TEXT
  8
MERGEDLAYER-2
 62
  0
 10
3.625000
 20
9.625001
 30
0.000000
 40
0.333333
  1
MobilFlex
 72
  5
 11
5.777778
 21
9.625001
 31
0.000000
  0
POLYLINE
  8
MERGEDLAYER-2
 66
  1
 70
  1
 62
  0
  0
VERTEX
  8
MERGEDLAYER-2
 10
1.822917
 20
10.144168
 30
0.000000
  0
VERTEX
  8
MERGEDLAYER-2
 10
2.060764
 20
10.144168
 30
0.000000
  0
VERTEX
  8
MERGEDLAYER-2
 10
2.060764
 20
9.627223
 30
0.000000
  0
VERTEX
  8
MERGEDLAYER-2
 10
1.822917
 20
9.627223
 30
0.000000
  0
SEQEND
  8
MERGEDLAYER-2
  0
POLYLINE
  8
MERGEDLAYER-2
 66
  1
 70
  1
 62
  0
  0
VERTEX
  8
MERGEDLAYER-2
 10
2.135417
 20
10.144168
 30
0.000000
  0
VERTEX
  8
MERGEDLAYER-2
 10
2.373264
 20
10.144168
 30
0.000000
  0
VERTEX
  8
MERGEDLAYER-2
 10
2.373264
 20
9.627223
 30
0.000000
  0
VERTEX
  8
MERGEDLAYER-2
 10
2.135417
 20
9.627223
 30
0.000000
  0
SEQEND
  8
MERGEDLAYER-2
  0
POLYLINE
  8
MERGEDLAYER-2
 66
  1
 70
  1
 62
  0
  0
VERTEX
  8
MERGEDLAYER-2
 10
2.435764
 20
10.144168
 30
0.000000
  0
VERTEX
  8
MERGEDLAYER-2
 10
2.673611
 20
10.144168
 30
0.000000
  0
VERTEX
  8
MERGEDLAYER-2
 10
2.673611
 20
9.627223
 30
0.000000
  0
VERTEX
  8
MERGEDLAYER-2
 10
2.435764
 20
9.627223
 30
0.000000
  0
SEQEND
  8
MERGEDLAYER-2
  0
POLYLINE
  8
MERGEDLAYER-2
 66
  1
 70
  1
 62
  0
  0
VERTEX
  8
MERGEDLAYER-2
 10
2.739583
 20
10.144168
 30
0.000000
  0
VERTEX
  8
MERGEDLAYER-2
 10
2.977431
 20
10.144168
 30
0.000000
  0
VERTEX
  8
MERGEDLAYER-2
 10
2.977431
 20
9.627223
 30
0.000000
  0
VERTEX
  8
MERGEDLAYER-2
 10
2.739583
 20
9.627223
 30
0.000000
  0
SEQEND
  8
MERGEDLAYER-2
  0
POLYLINE
  8
MERGEDLAYER-2
 66
  1
 70
  1
 62
  0
  0
VERTEX
  8
MERGEDLAYER-2
 10
3.056424
 20
10.140252
 30
0.000000
  0
VERTEX
  8
MERGEDLAYER-2
 10
3.431858
 20
10.140252
 30
0.000000
  0
VERTEX
  8
MERGEDLAYER-2
 10
3.431858
 20
10.002231
 30
0.000000
  0
VERTEX
  8
MERGEDLAYER-2
 10
3.056424
 20
10.002231
 30
0.000000
  0
SEQEND
  8
MERGEDLAYER-2
  0
POLYLINE
  8
MERGEDLAYER-2
 66
  1
 70
  1
 62
  0
  0
VERTEX
  8
MERGEDLAYER-2
 10
3.055990
 20
9.912821
 30
0.000000
  0
VERTEX
  8
MERGEDLAYER-2
 10
3.364149
 20
9.912821
 30
0.000000
  0
VERTEX
  8
MERGEDLAYER-2
 10
3.364149
 20
9.778707
 30
0.000000
  0
VERTEX
  8
MERGEDLAYER-2
 10
3.055990
 20
9.778707
 30
0.000000
  0
SEQEND
  8
MERGEDLAYER-2
  0
POLYLINE
  8
MERGEDLAYER-2
 66
  1
 70
  1
 62
  0
  0
VERTEX
  8
MERGEDLAYER-2
 10
1.822917
 20
9.542596
 30
0.000000
  0
VERTEX
  8
MERGEDLAYER-2
 10
5.741322
 20
9.542596
 30
0.000000
  0
VERTEX
  8
MERGEDLAYER-2
 10
5.741322
 20
9.499193
 30
0.000000
  0
VERTEX
  8
MERGEDLAYER-2
 10
1.822917
 20
9.499193
 30
0.000000
  0
SEQEND
  8
MERGEDLAYER-2
  0
POLYLINE
  8
MERGEDLAYER-2
 66
  1
 70
  1
 62
  0
  0
VERTEX
  8
MERGEDLAYER-2
 10
1.029920
 20
0.513479
 30
0.000000
  0
VERTEX
  8
MERGEDLAYER-2
 10
6.527246
 20
0.513479
 30
0.000000
  0
VERTEX
  8
MERGEDLAYER-2
 10
6.527246
 20
0.277779
 30
0.000000
  0
VERTEX
  8
MERGEDLAYER-2
 10
1.029920
 20
0.277779
 30
0.000000
  0
SEQEND
  8
MERGEDLAYER-2
  0
POLYLINE
  8
MERGEDLAYER-2
 66
  1
 70
  0
 62
  0
 10
1.030844
 20
0.343426
 30
0.000000
  0
VERTEX
  8
MERGEDLAYER-2
 10
1.030844
 20
0.343426
 30
0.000000
  0
VERTEX
  8
MERGEDLAYER-2
 10
6.527687
 20
0.343426
 30
0.000000
  0
SEQEND
  8
MERGEDLAYER-2
  0
POLYLINE
  8
MERGEDLAYER-2
 66
  1
 70
  0
 62
  0
 10
1.030844
 20
0.322123
 30
0.000000
  0
VERTEX
  8
MERGEDLAYER-2
 10
1.030844
 20
0.322123
 30
0.000000
  0
VERTEX
  8
MERGEDLAYER-2
 10
6.527687
 20
0.322123
 30
0.000000
  0
SEQEND
  8
MERGEDLAYER-2
  0
POLYLINE
  8
MERGEDLAYER-2
 66
  1
 70
  0
 62
  0
 10
1.029920
 20
0.498136
 30
0.000000
  0
VERTEX
  8
MERGEDLAYER-2
 10
1.029920
 20
0.498136
 30
0.000000
  0
VERTEX
  8
MERGEDLAYER-2
 10
6.526510
 20
0.498136
 30
0.000000
  0
SEQEND
  8
MERGEDLAYER-2
  0
TEXT
  8
MERGEDLAYER-2
 62
  7
 10
2.013889
 20
8.944445
 30
0.000000
 40
0.187500
  1
âlÄvation modÅle Roll-99
 72
  5
 11
5.041667
 21
8.944445
 31
0.000000
  0
POLYLINE
  8
MERGEDLAYER-2
 66
  1
 70
  1
 62
  0
  0
VERTEX
  8
MERGEDLAYER-2
 10
6.540403
 20
5.333621
 30
0.000000
  0
VERTEX
  8
MERGEDLAYER-2
 10
6.702287
 20
5.333621
 30
0.000000
  0
VERTEX
  8
MERGEDLAYER-2
 10
6.702287
 20
0.279017
 30
0.000000
  0
VERTEX
  8
MERGEDLAYER-2
 10
6.540403
 20
0.279017
 30
0.000000
  0
SEQEND
  8
MERGEDLAYER-2
  0
POLYLINE
  8
MERGEDLAYER-2
 66
  1
 70
  1
 62
  0
  0
VERTEX
  8
MERGEDLAYER-2
 10
0.855065
 20
5.330724
 30
0.000000
  0
VERTEX
  8
MERGEDLAYER-2
 10
1.016950
 20
5.330724
 30
0.000000
  0
VERTEX
  8
MERGEDLAYER-2
 10
1.016950
 20
0.279685
 30
0.000000
  0
VERTEX
  8
MERGEDLAYER-2
 10
0.855065
 20
0.279685
 30
0.000000
  0
SEQEND
  8
MERGEDLAYER-2
  0
POLYLINE
  8
MERGEDLAYER-2
 66
  1
 70
  0
 62
  0
 10
1.566599
 20
0.497871
 30
0.000000
  0
VERTEX
  8
MERGEDLAYER-2
 10
1.566599
 20
0.497871
 30
0.000000
  0
VERTEX
  8
MERGEDLAYER-2
 10
6.043245
 20
0.497869
 30
0.000000
  0
SEQEND
  8
MERGEDLAYER-2
  0
POLYLINE
  8
MERGEDLAYER-2
 66
  1
 70
  0
 62
  0
 10
1.565846
 20
0.513479
 30
0.000000
  0
VERTEX
  8
MERGEDLAYER-2
 10
1.565846
 20
0.513479
 30
0.000000
  0
VERTEX
  8
MERGEDLAYER-2
 10
6.044538
 20
0.513479
 30
0.000000
  0
SEQEND
  8
MERGEDLAYER-2
  0
POLYLINE
  8
MERGEDLAYER-2
 66
  1
 70
  0
 62
  0
 10
3.665080
 20
0.406316
 30
0.000000
  0
VERTEX
  8
MERGEDLAYER-2
 10
3.665080
 20
0.406316
 30
0.000000
  0
VERTEX
  8
MERGEDLAYER-2
 10
3.657874
 20
0.423471
 30
0.000000
  0
VERTEX
  8
MERGEDLAYER-2
 10
3.637353
 20
0.438015
 30
0.000000
  0
VERTEX
  8
MERGEDLAYER-2
 10
3.606642
 20
0.447734
 30
0.000000
  0
VERTEX
  8
MERGEDLAYER-2
 10
3.570415
 20
0.451146
 30
0.000000
  0
VERTEX
  8
MERGEDLAYER-2
 10
3.534188
 20
0.447734
 30
0.000000
  0
VERTEX
  8
MERGEDLAYER-2
 10
3.503476
 20
0.438015
 30
0.000000
  0
VERTEX
  8
MERGEDLAYER-2
 10
3.482955
 20
0.423471
 30
0.000000
  0
VERTEX
  8
MERGEDLAYER-2
 10
3.475749
 20
0.406316
 30
0.000000
  0
VERTEX
  8
MERGEDLAYER-2
 10
3.482955
 20
0.389161
 30
0.000000
  0
VERTEX
  8
MERGEDLAYER-2
 10
3.503476
 20
0.374618
 30
0.000000
  0
VERTEX
  8
MERGEDLAYER-2
 10
3.534188
 20
0.364899
 30
0.000000
  0
VERTEX
  8
MERGEDLAYER-2
 10
3.570415
 20
0.361487
 30
0.000000
  0
VERTEX
  8
MERGEDLAYER-2
 10
3.606642
 20
0.364899
 30
0.000000
  0
VERTEX
  8
MERGEDLAYER-2
 10
3.637353
 20
0.374618
 30
0.000000
  0
VERTEX
  8
MERGEDLAYER-2
 10
3.657874
 20
0.389161
 30
0.000000
  0
VERTEX
  8
MERGEDLAYER-2
 10
3.665080
 20
0.406316
 30
0.000000
  0
SEQEND
  8
MERGEDLAYER-2
  0
POLYLINE
  8
MERGEDLAYER-2
 66
  1
 70
  0
 62
  0
 10
3.352217
 20
0.394353
 30
0.000000
  0
VERTEX
  8
MERGEDLAYER-2
 10
3.352217
 20
0.394353
 30
0.000000
  0
VERTEX
  8
MERGEDLAYER-2
 10
3.572611
 20
0.381593
 30
0.000000
  0
SEQEND
  8
MERGEDLAYER-2
  0
POLYLINE
  8
MERGEDLAYER-2
 66
  1
 70
  0
 62
  0
 10
3.352195
 20
0.414343
 30
0.000000
  0
VERTEX
  8
MERGEDLAYER-2
 10
3.352195
 20
0.414343
 30
0.000000
  0
VERTEX
  8
MERGEDLAYER-2
 10
3.340821
 20
0.405727
 30
0.000000
  0
VERTEX
  8
MERGEDLAYER-2
 10
3.352215
 20
0.394352
 30
0.000000
  0
SEQEND
  8
MERGEDLAYER-2
  0
POLYLINE
  8
MERGEDLAYER-2
 66
  1
 70
  0
 62
  0
 10
3.352193
 20
0.414344
 30
0.000000
  0
VERTEX
  8
MERGEDLAYER-2
 10
3.352193
 20
0.414344
 30
0.000000
  0
VERTEX
  8
MERGEDLAYER-2
 10
3.572383
 20
0.427103
 30
0.000000
  0
SEQEND
  8
MERGEDLAYER-2
  0
POLYLINE
  8
MERGEDLAYER-2
 66
  1
 70
  0
 62
  0
 10
3.572611
 20
0.381593
 30
0.000000
  0
VERTEX
  8
MERGEDLAYER-2
 10
3.572611
 20
0.381593
 30
0.000000
  0
VERTEX
  8
MERGEDLAYER-2
 10
3.586666
 20
0.390387
 30
0.000000
  0
VERTEX
  8
MERGEDLAYER-2
 10
3.593170
 20
0.406544
 30
0.000000
  0
VERTEX
  8
MERGEDLAYER-2
 10
3.586344
 20
0.422567
 30
0.000000
  0
VERTEX
  8
MERGEDLAYER-2
 10
3.572383
 20
0.427104
 30
0.000000
  0
SEQEND
  8
MERGEDLAYER-2
  0
POLYLINE
  8
MERGEDLAYER-2
 66
  1
 70
  1
 62
  0
  0
VERTEX
  8
MERGEDLAYER-2
 10
3.761987
 20
0.426018
 30
0.000000
  0
VERTEX
  8
MERGEDLAYER-2
 10
3.807703
 20
0.426018
 30
0.000000
  0
VERTEX
  8
MERGEDLAYER-2
 10
3.807703
 20
0.413825
 30
0.000000
  0
VERTEX
  8
MERGEDLAYER-2
 10
3.761987
 20
0.413825
 30
0.000000
  0
SEQEND
  8
MERGEDLAYER-2
  0
POLYLINE
  8
MERGEDLAYER-2
 66
  1
 70
  0
 62
  0
 10
5.765266
 20
6.949550
 30
0.000000
  0
VERTEX
  8
MERGEDLAYER-2
 10
5.765266
 20
6.949550
 30
0.000000
  0
VERTEX
  8
MERGEDLAYER-2
 10
5.755648
 20
7.076467
 30
0.000000
  0
VERTEX
  8
MERGEDLAYER-2
 10
5.726891
 20
7.202161
 30
0.000000
  0
VERTEX
  8
MERGEDLAYER-2
 10
5.679269
 20
7.325423
 30
0.000000
  0
VERTEX
  8
MERGEDLAYER-2
 10
5.613241
 20
7.445065
 30
0.000000
  0
VERTEX
  8
MERGEDLAYER-2
 10
5.529445
 20
7.559935
 30
0.000000
  0
VERTEX
  8
MERGEDLAYER-2
 10
5.428686
 20
7.668927
 30
0.000000
  0
VERTEX
  8
MERGEDLAYER-2
 10
5.311933
 20
7.770991
 30
0.000000
  0
VERTEX
  8
MERGEDLAYER-2
 10
5.180314
 20
7.865144
 30
0.000000
  0
VERTEX
  8
MERGEDLAYER-2
 10
5.035094
 20
7.950478
 30
0.000000
  0
VERTEX
  8
MERGEDLAYER-2
 10
4.877673
 20
8.026174
 30
0.000000
  0
VERTEX
  8
MERGEDLAYER-2
 10
4.709566
 20
8.091501
 30
0.000000
  0
VERTEX
  8
MERGEDLAYER-2
 10
4.532392
 20
8.145831
 30
0.000000
  0
VERTEX
  8
MERGEDLAYER-2
 10
4.347858
 20
8.188639
 30
0.000000
  0
VERTEX
  8
MERGEDLAYER-2
 10
4.157741
 20
8.219515
 30
0.000000
  0
VERTEX
  8
MERGEDLAYER-2
 10
3.963871
 20
8.238159
 30
0.000000
  0
VERTEX
  8
MERGEDLAYER-2
 10
3.768117
 20
8.244395
 30
0.000000
  0
VERTEX
  8
MERGEDLAYER-2
 10
3.572362
 20
8.238159
 30
0.000000
  0
VERTEX
  8
MERGEDLAYER-2
 10
3.378492
 20
8.219515
 30
0.000000
  0
VERTEX
  8
MERGEDLAYER-2
 10
3.188375
 20
8.188639
 30
0.000000
  0
VERTEX
  8
MERGEDLAYER-2
 10
3.003841
 20
8.145831
 30
0.000000
  0
VERTEX
  8
MERGEDLAYER-2
 10
2.826667
 20
8.091501
 30
0.000000
  0
VERTEX
  8
MERGEDLAYER-2
 10
2.658560
 20
8.026174
 30
0.000000
  0
VERTEX
  8
MERGEDLAYER-2
 10
2.501139
 20
7.950478
 30
0.000000
  0
VERTEX
  8
MERGEDLAYER-2
 10
2.355919
 20
7.865144
 30
0.000000
  0
VERTEX
  8
MERGEDLAYER-2
 10
2.224300
 20
7.770991
 30
0.000000
  0
VERTEX
  8
MERGEDLAYER-2
 10
2.107548
 20
7.668927
 30
0.000000
  0
VERTEX
  8
MERGEDLAYER-2
 10
2.006789
 20
7.559935
 30
0.000000
  0
VERTEX
  8
MERGEDLAYER-2
 10
1.922992
 20
7.445065
 30
0.000000
  0
VERTEX
  8
MERGEDLAYER-2
 10
1.856965
 20
7.325423
 30
0.000000
  0
VERTEX
  8
MERGEDLAYER-2
 10
1.809343
 20
7.202161
 30
0.000000
  0
VERTEX
  8
MERGEDLAYER-2
 10
1.780585
 20
7.076467
 30
0.000000
  0
VERTEX
  8
MERGEDLAYER-2
 10
1.770968
 20
6.949550
 30
0.000000
  0
VERTEX
  8
MERGEDLAYER-2
 10
1.780585
 20
6.822633
 30
0.000000
  0
VERTEX
  8
MERGEDLAYER-2
 10
1.809343
 20
6.696938
 30
0.000000
  0
VERTEX
  8
MERGEDLAYER-2
 10
1.856965
 20
6.573676
 30
0.000000
  0
VERTEX
  8
MERGEDLAYER-2
 10
1.922992
 20
6.454034
 30
0.000000
  0
VERTEX
  8
MERGEDLAYER-2
 10
2.006789
 20
6.339164
 30
0.000000
  0
VERTEX
  8
MERGEDLAYER-2
 10
2.107548
 20
6.230172
 30
0.000000
  0
VERTEX
  8
MERGEDLAYER-2
 10
2.224300
 20
6.128109
 30
0.000000
  0
VERTEX
  8
MERGEDLAYER-2
 10
2.355919
 20
6.033956
 30
0.000000
  0
VERTEX
  8
MERGEDLAYER-2
 10
2.501139
 20
5.948621
 30
0.000000
  0
VERTEX
  8
MERGEDLAYER-2
 10
2.658560
 20
5.872926
 30
0.000000
  0
VERTEX
  8
MERGEDLAYER-2
 10
2.826667
 20
5.807598
 30
0.000000
  0
VERTEX
  8
MERGEDLAYER-2
 10
3.003841
 20
5.753269
 30
0.000000
  0
VERTEX
  8
MERGEDLAYER-2
 10
3.188375
 20
5.710460
 30
0.000000
  0
VERTEX
  8
MERGEDLAYER-2
 10
3.378492
 20
5.679585
 30
0.000000
  0
VERTEX
  8
MERGEDLAYER-2
 10
3.572362
 20
5.660940
 30
0.000000
  0
VERTEX
  8
MERGEDLAYER-2
 10
3.768117
 20
5.654705
 30
0.000000
  0
VERTEX
  8
MERGEDLAYER-2
 10
3.963871
 20
5.660940
 30
0.000000
  0
VERTEX
  8
MERGEDLAYER-2
 10
4.157741
 20
5.679585
 30
0.000000
  0
VERTEX
  8
MERGEDLAYER-2
 10
4.347858
 20
5.710460
 30
0.000000
  0
VERTEX
  8
MERGEDLAYER-2
 10
4.532392
 20
5.753269
 30
0.000000
  0
VERTEX
  8
MERGEDLAYER-2
 10
4.709566
 20
5.807598
 30
0.000000
  0
VERTEX
  8
MERGEDLAYER-2
 10
4.877673
 20
5.872926
 30
0.000000
  0
VERTEX
  8
MERGEDLAYER-2
 10
5.035094
 20
5.948621
 30
0.000000
  0
VERTEX
  8
MERGEDLAYER-2
 10
5.180314
 20
6.033956
 30
0.000000
  0
VERTEX
  8
MERGEDLAYER-2
 10
5.311933
 20
6.128109
 30
0.000000
  0
VERTEX
  8
MERGEDLAYER-2
 10
5.428686
 20
6.230172
 30
0.000000
  0
VERTEX
  8
MERGEDLAYER-2
 10
5.529445
 20
6.339164
 30
0.000000
  0
VERTEX
  8
MERGEDLAYER-2
 10
5.613241
 20
6.454034
 30
0.000000
  0
VERTEX
  8
MERGEDLAYER-2
 10
5.679269
 20
6.573676
 30
0.000000
  0
VERTEX
  8
MERGEDLAYER-2
 10
5.726891
 20
6.696938
 30
0.000000
  0
VERTEX
  8
MERGEDLAYER-2
 10
5.755648
 20
6.822633
 30
0.000000
  0
VERTEX
  8
MERGEDLAYER-2
 10
5.765266
 20
6.949550
 30
0.000000
  0
SEQEND
  8
MERGEDLAYER-2
  0
POLYLINE
  8
MERGEDLAYER-2
 66
  1
 70
  0
 62
  0
 40
0.027778
 41
0.027778
 10
0.027778
 20
0.277782
 30
0.000000
  0
VERTEX
  8
MERGEDLAYER-2
 10
0.027778
 20
0.277782
 30
0.000000
  0
VERTEX
  8
MERGEDLAYER-2
 10
7.527778
 20
0.277782
 30
0.000000
  0
SEQEND
  8
MERGEDLAYER-2
  0
CIRCLE
  8
MERGEDLAYER-2
 62
  0
 10
3.776728
 20
0.420805
 30
0.000000
 40
0.064283
  0
CIRCLE
  8
MERGEDLAYER-2
 62
  7
 10
3.776487
 20
0.420805
 30
0.000000
 40
0.047124
  0
CIRCLE
  8
MERGEDLAYER-2
 62
  0
 10
3.776487
 20
0.420805
 30
0.000000
 40
0.042287
  0
CIRCLE
  8
MERGEDLAYER-2
 62
  0
 10
3.759691
 20
0.420805
 30
0.000000
 40
0.018794
  0
CIRCLE
  8
MERGEDLAYER-2
 62
  0
 10
3.751656
 20
0.420805
 30
0.000000
 40
0.008035
  0
TEXT
  8
MERGEDLAYER-2
 62
  0
 10
3.777778
 20
0.444445
 30
0.000000
 40
0.010417
  1
MobilFlex
 50
270.000000
 72
  5
 11
3.777778
 21
0.291668
 31
0.000000
  0
POLYLINE
  8
MERGEDLAYER-2
 66
  1
 70
  1
 62
  0
 10
3.741445
 20
0.424431
 30
0.000000
  0
VERTEX
  8
MERGEDLAYER-2
 10
3.741445
 20
0.424431
 30
0.000000
  0
VERTEX
  8
MERGEDLAYER-2
 10
3.750146
 20
0.424431
 30
0.000000
  0
VERTEX
  8
MERGEDLAYER-2
 10
3.750146
 20
0.421048
 30
0.000000
  0
VERTEX
  8
MERGEDLAYER-2
 10
3.753529
 20
0.421048
 30
0.000000
  0
VERTEX
  8
MERGEDLAYER-2
 10
3.757154
 20
0.424671
 30
0.000000
  0
VERTEX
  8
MERGEDLAYER-2
 10
3.759570
 20
0.424671
 30
0.000000
  0
VERTEX
  8
MERGEDLAYER-2
 10
3.766821
 20
0.422255
 30
0.000000
  0
VERTEX
  8
MERGEDLAYER-2
 10
3.766821
 20
0.419113
 30
0.000000
  0
VERTEX
  8
MERGEDLAYER-2
 10
3.761503
 20
0.419838
 30
0.000000
  0
VERTEX
  8
MERGEDLAYER-2
 10
3.759570
 20
0.419596
 30
0.000000
  0
VERTEX
  8
MERGEDLAYER-2
 10
3.759570
 20
0.418147
 30
0.000000
  0
VERTEX
  8
MERGEDLAYER-2
 10
3.747246
 20
0.418147
 30
0.000000
  0
VERTEX
  8
MERGEDLAYER-2
 10
3.746037
 20
0.420805
 30
0.000000
  0
VERTEX
  8
MERGEDLAYER-2
 10
3.743621
 20
0.420805
 30
0.000000
  0
VERTEX
  8
MERGEDLAYER-2
 10
3.743137
 20
0.418147
 30
0.000000
  0
VERTEX
  8
MERGEDLAYER-2
 10
3.741445
 20
0.418147
 30
0.000000
  0
SEQEND
  8
MERGEDLAYER-2
  0
TEXT
  8
MERGEDLAYER-2
 62
  0
 10
5.819444
 20
5.416668
 30
0.000000
 40
0.125000
  1
Guide
 72
  5
 11
6.347222
 21
5.416668
 31
0.000000
  0
TEXT
  8
MERGEDLAYER-2
 62
  0
 10
5.819444
 20
0.083334
 30
0.000000
 40
0.125000
  1
Barre du bas
 72
  5
 11
6.875000
 21
0.083334
 31
0.000000
  0
TEXT
  8
MERGEDLAYER-2
 62
  0
 10
2.500000
 20
0.083334
 30
0.000000
 40
0.125000
  1
PoignÄe
 72
  5
 11
3.208333
 21
0.083334
 31
0.000000
  0
POLYLINE
  8
MERGEDLAYER-2
 66
  1
 70
  0
 62
  0
 10
6.312500
 20
5.468752
 30
0.000000
  0
VERTEX
  8
MERGEDLAYER-2
 10
6.312500
 20
5.468752
 30
0.000000
  0
VERTEX
  8
MERGEDLAYER-2
 10
6.523471
 20
5.343661
 30
0.000000
  0
SEQEND
  8
MERGEDLAYER-2
  0
POLYLINE
  8
MERGEDLAYER-2
 66
  1
 70
  1
 62
  0
  0
VERTEX
  8
MERGEDLAYER-2
 10
6.540403
 20
5.333621
 30
0.000000
  0
VERTEX
  8
MERGEDLAYER-2
 10
6.459419
 20
5.333199
 30
0.000000
  0
VERTEX
  8
MERGEDLAYER-2
 10
6.480670
 20
5.369039
 30
0.000000
  0
VERTEX
  8
MERGEDLAYER-2
 10
6.501920
 20
5.404879
 30
0.000000
  0
VERTEX
  8
MERGEDLAYER-2
 10
6.540403
 20
5.333621
 30
0.000000
  0
SEQEND
  8
MERGEDLAYER-2
  0
POLYLINE
  8
MERGEDLAYER-2
 66
  1
 70
  0
 62
  0
 10
3.138889
 20
0.163195
 30
0.000000
  0
VERTEX
  8
MERGEDLAYER-2
 10
3.138889
 20
0.163195
 30
0.000000
  0
VERTEX
  8
MERGEDLAYER-2
 10
3.524462
 20
0.352161
 30
0.000000
  0
SEQEND
  8
MERGEDLAYER-2
  0
POLYLINE
  8
MERGEDLAYER-2
 66
  1
 70
  1
 62
  0
  0
VERTEX
  8
MERGEDLAYER-2
 10
3.542138
 20
0.360825
 30
0.000000
  0
VERTEX
  8
MERGEDLAYER-2
 10
3.498117
 20
0.292848
 30
0.000000
  0
VERTEX
  8
MERGEDLAYER-2
 10
3.479780
 20
0.330263
 30
0.000000
  0
VERTEX
  8
MERGEDLAYER-2
 10
3.461443
 20
0.367677
 30
0.000000
  0
VERTEX
  8
MERGEDLAYER-2
 10
3.542138
 20
0.360825
 30
0.000000
  0
SEQEND
  8
MERGEDLAYER-2
  0
POLYLINE
  8
MERGEDLAYER-2
 66
  1
 70
  0
 62
  0
 10
5.788666
 20
0.149594
 30
0.000000
  0
VERTEX
  8
MERGEDLAYER-2
 10
5.788666
 20
0.149594
 30
0.000000
  0
VERTEX
  8
MERGEDLAYER-2
 10
5.548871
 20
0.269005
 30
0.000000
  0
SEQEND
  8
MERGEDLAYER-2
  0
POLYLINE
  8
MERGEDLAYER-2
 66
  1
 70
  1
 62
  0
  0
VERTEX
  8
MERGEDLAYER-2
 10
5.531250
 20
0.277779
 30
0.000000
  0
VERTEX
  8
MERGEDLAYER-2
 10
5.611986
 20
0.284123
 30
0.000000
  0
VERTEX
  8
MERGEDLAYER-2
 10
5.593413
 20
0.246824
 30
0.000000
  0
VERTEX
  8
MERGEDLAYER-2
 10
5.574840
 20
0.209526
 30
0.000000
  0
VERTEX
  8
MERGEDLAYER-2
 10
5.531250
 20
0.277779
 30
0.000000
  0
SEQEND
  8
MERGEDLAYER-2
  0
POLYLINE
  8
MERGEDLAYER-2
 66
  1
 70
  1
 62
  0
  0
VERTEX
  8
MERGEDLAYER-2
 10
2.121591
 20
3.855381
 30
0.000000
  0
VERTEX
  8
MERGEDLAYER-2
 10
2.673751
 20
3.855381
 30
0.000000
  0
VERTEX
  8
MERGEDLAYER-2
 10
2.673751
 20
3.643637
 30
0.000000
  0
VERTEX
  8
MERGEDLAYER-2
 10
2.121591
 20
3.643637
 30
0.000000
  0
SEQEND
  8
MERGEDLAYER-2
  0
POLYLINE
  8
MERGEDLAYER-2
 66
  1
 70
  0
 62
  8
 10
2.121591
 20
3.828115
 30
0.000000
  0
VERTEX
  8
MERGEDLAYER-2
 10
2.121591
 20
3.828115
 30
0.000000
  0
VERTEX
  8
MERGEDLAYER-2
 10
2.673751
 20
3.828115
 30
0.000000
  0
SEQEND
  8
MERGEDLAYER-2
  0
POLYLINE
  8
MERGEDLAYER-2
 66
  1
 70
  0
 62
  8
 10
2.121591
 20
3.671329
 30
0.000000
  0
VERTEX
  8
MERGEDLAYER-2
 10
2.121591
 20
3.671329
 30
0.000000
  0
VERTEX
  8
MERGEDLAYER-2
 10
2.673751
 20
3.671329
 30
0.000000
  0
SEQEND
  8
MERGEDLAYER-2
  0
POLYLINE
  8
MERGEDLAYER-2
 66
  1
 70
  1
 62
  0
  0
VERTEX
  8
MERGEDLAYER-2
 10
1.017189
 20
3.855381
 30
0.000000
  0
VERTEX
  8
MERGEDLAYER-2
 10
1.569349
 20
3.855381
 30
0.000000
  0
VERTEX
  8
MERGEDLAYER-2
 10
1.569349
 20
3.643637
 30
0.000000
  0
VERTEX
  8
MERGEDLAYER-2
 10
1.017189
 20
3.643637
 30
0.000000
  0
SEQEND
  8
MERGEDLAYER-2
  0
POLYLINE
  8
MERGEDLAYER-2
 66
  1
 70
  0
 62
  8
 10
1.017189
 20
3.828115
 30
0.000000
  0
VERTEX
  8
MERGEDLAYER-2
 10
1.017189
 20
3.828115
 30
0.000000
  0
VERTEX
  8
MERGEDLAYER-2
 10
1.569349
 20
3.828115
 30
0.000000
  0
SEQEND
  8
MERGEDLAYER-2
  0
POLYLINE
  8
MERGEDLAYER-2
 66
  1
 70
  0
 62
  8
 10
1.017189
 20
3.671329
 30
0.000000
  0
VERTEX
  8
MERGEDLAYER-2
 10
1.017189
 20
3.671329
 30
0.000000
  0
VERTEX
  8
MERGEDLAYER-2
 10
1.569349
 20
3.671329
 30
0.000000
  0
SEQEND
  8
MERGEDLAYER-2
  0
POLYLINE
  8
MERGEDLAYER-2
 66
  1
 70
  1
 62
  0
  0
VERTEX
  8
MERGEDLAYER-2
 10
3.225991
 20
3.855381
 30
0.000000
  0
VERTEX
  8
MERGEDLAYER-2
 10
3.778152
 20
3.855381
 30
0.000000
  0
VERTEX
  8
MERGEDLAYER-2
 10
3.778152
 20
3.643637
 30
0.000000
  0
VERTEX
  8
MERGEDLAYER-2
 10
3.225991
 20
3.643637
 30
0.000000
  0
SEQEND
  8
MERGEDLAYER-2
  0
POLYLINE
  8
MERGEDLAYER-2
 66
  1
 70
  0
 62
  8
 10
3.225991
 20
3.828115
 30
0.000000
  0
VERTEX
  8
MERGEDLAYER-2
 10
3.225991
 20
3.828115
 30
0.000000
  0
VERTEX
  8
MERGEDLAYER-2
 10
3.778152
 20
3.828115
 30
0.000000
  0
SEQEND
  8
MERGEDLAYER-2
  0
POLYLINE
  8
MERGEDLAYER-2
 66
  1
 70
  0
 62
  8
 10
3.225991
 20
3.671329
 30
0.000000
  0
VERTEX
  8
MERGEDLAYER-2
 10
3.225991
 20
3.671329
 30
0.000000
  0
VERTEX
  8
MERGEDLAYER-2
 10
3.778152
 20
3.671329
 30
0.000000
  0
SEQEND
  8
MERGEDLAYER-2
  0
POLYLINE
  8
MERGEDLAYER-2
 66
  1
 70
  1
 62
  0
  0
VERTEX
  8
MERGEDLAYER-2
 10
4.330392
 20
3.855381
 30
0.000000
  0
VERTEX
  8
MERGEDLAYER-2
 10
4.882552
 20
3.855381
 30
0.000000
  0
VERTEX
  8
MERGEDLAYER-2
 10
4.882552
 20
3.643637
 30
0.000000
  0
VERTEX
  8
MERGEDLAYER-2
 10
4.330392
 20
3.643637
 30
0.000000
  0
SEQEND
  8
MERGEDLAYER-2
  0
POLYLINE
  8
MERGEDLAYER-2
 66
  1
 70
  0
 62
  8
 10
4.330392
 20
3.828115
 30
0.000000
  0
VERTEX
  8
MERGEDLAYER-2
 10
4.330392
 20
3.828115
 30
0.000000
  0
VERTEX
  8
MERGEDLAYER-2
 10
4.882552
 20
3.828115
 30
0.000000
  0
SEQEND
  8
MERGEDLAYER-2
  0
POLYLINE
  8
MERGEDLAYER-2
 66
  1
 70
  0
 62
  8
 10
4.330392
 20
3.671329
 30
0.000000
  0
VERTEX
  8
MERGEDLAYER-2
 10
4.330392
 20
3.671329
 30
0.000000
  0
VERTEX
  8
MERGEDLAYER-2
 10
4.882552
 20
3.671329
 30
0.000000
  0
SEQEND
  8
MERGEDLAYER-2
  0
POLYLINE
  8
MERGEDLAYER-2
 66
  1
 70
  1
 62
  0
  0
VERTEX
  8
MERGEDLAYER-2
 10
2.673792
 20
3.671361
 30
0.000000
  0
VERTEX
  8
MERGEDLAYER-2
 10
3.225950
 20
3.671361
 30
0.000000
  0
VERTEX
  8
MERGEDLAYER-2
 10
3.225950
 20
3.459617
 30
0.000000
  0
VERTEX
  8
MERGEDLAYER-2
 10
2.673792
 20
3.459617
 30
0.000000
  0
SEQEND
  8
MERGEDLAYER-2
  0
POLYLINE
  8
MERGEDLAYER-2
 66
  1
 70
  0
 62
  8
 10
2.673792
 20
3.644096
 30
0.000000
  0
VERTEX
  8
MERGEDLAYER-2
 10
2.673792
 20
3.644096
 30
0.000000
  0
VERTEX
  8
MERGEDLAYER-2
 10
3.225950
 20
3.644096
 30
0.000000
  0
SEQEND
  8
MERGEDLAYER-2
  0
POLYLINE
  8
MERGEDLAYER-2
 66
  1
 70
  0
 62
  8
 10
2.673792
 20
3.487310
 30
0.000000
  0
VERTEX
  8
MERGEDLAYER-2
 10
2.673792
 20
3.487310
 30
0.000000
  0
VERTEX
  8
MERGEDLAYER-2
 10
3.225950
 20
3.487310
 30
0.000000
  0
SEQEND
  8
MERGEDLAYER-2
  0
POLYLINE
  8
MERGEDLAYER-2
 66
  1
 70
  1
 62
  0
  0
VERTEX
  8
MERGEDLAYER-2
 10
1.569389
 20
3.671361
 30
0.000000
  0
VERTEX
  8
MERGEDLAYER-2
 10
2.121549
 20
3.671361
 30
0.000000
  0
VERTEX
  8
MERGEDLAYER-2
 10
2.121549
 20
3.459617
 30
0.000000
  0
VERTEX
  8
MERGEDLAYER-2
 10
1.569389
 20
3.459617
 30
0.000000
  0
SEQEND
  8
MERGEDLAYER-2
  0
POLYLINE
  8
MERGEDLAYER-2
 66
  1
 70
  0
 62
  8
 10
1.569389
 20
3.644096
 30
0.000000
  0
VERTEX
  8
MERGEDLAYER-2
 10
1.569389
 20
3.644096
 30
0.000000
  0
VERTEX
  8
MERGEDLAYER-2
 10
2.121549
 20
3.644096
 30
0.000000
  0
SEQEND
  8
MERGEDLAYER-2
  0
POLYLINE
  8
MERGEDLAYER-2
 66
  1
 70
  0
 62
  8
 10
1.569389
 20
3.487310
 30
0.000000
  0
VERTEX
  8
MERGEDLAYER-2
 10
1.569389
 20
3.487310
 30
0.000000
  0
VERTEX
  8
MERGEDLAYER-2
 10
2.121549
 20
3.487310
 30
0.000000
  0
SEQEND
  8
MERGEDLAYER-2
  0
POLYLINE
  8
MERGEDLAYER-2
 66
  1
 70
  1
 62
  0
  0
VERTEX
  8
MERGEDLAYER-2
 10
3.778192
 20
3.671361
 30
0.000000
  0
VERTEX
  8
MERGEDLAYER-2
 10
4.330348
 20
3.671361
 30
0.000000
  0
VERTEX
  8
MERGEDLAYER-2
 10
4.330348
 20
3.459617
 30
0.000000
  0
VERTEX
  8
MERGEDLAYER-2
 10
3.778192
 20
3.459617
 30
0.000000
  0
SEQEND
  8
MERGEDLAYER-2
  0
POLYLINE
  8
MERGEDLAYER-2
 66
  1
 70
  0
 62
  8
 10
3.778192
 20
3.644096
 30
0.000000
  0
VERTEX
  8
MERGEDLAYER-2
 10
3.778192
 20
3.644096
 30
0.000000
  0
VERTEX
  8
MERGEDLAYER-2
 10
4.330348
 20
3.644096
 30
0.000000
  0
SEQEND
  8
MERGEDLAYER-2
  0
POLYLINE
  8
MERGEDLAYER-2
 66
  1
 70
  0
 62
  8
 10
3.778192
 20
3.487310
 30
0.000000
  0
VERTEX
  8
MERGEDLAYER-2
 10
3.778192
 20
3.487310
 30
0.000000
  0
VERTEX
  8
MERGEDLAYER-2
 10
4.330348
 20
3.487310
 30
0.000000
  0
SEQEND
  8
MERGEDLAYER-2
  0
POLYLINE
  8
MERGEDLAYER-2
 66
  1
 70
  1
 62
  0
  0
VERTEX
  8
MERGEDLAYER-2
 10
5.434792
 20
3.855381
 30
0.000000
  0
VERTEX
  8
MERGEDLAYER-2
 10
5.986952
 20
3.855381
 30
0.000000
  0
VERTEX
  8
MERGEDLAYER-2
 10
5.986952
 20
3.643637
 30
0.000000
  0
VERTEX
  8
MERGEDLAYER-2
 10
5.434792
 20
3.643637
 30
0.000000
  0
SEQEND
  8
MERGEDLAYER-2
  0
POLYLINE
  8
MERGEDLAYER-2
 66
  1
 70
  0
 62
  8
 10
5.434792
 20
3.828115
 30
0.000000
  0
VERTEX
  8
MERGEDLAYER-2
 10
5.434792
 20
3.828115
 30
0.000000
  0
VERTEX
  8
MERGEDLAYER-2
 10
5.986952
 20
3.828115
 30
0.000000
  0
SEQEND
  8
MERGEDLAYER-2
  0
POLYLINE
  8
MERGEDLAYER-2
 66
  1
 70
  0
 62
  8
 10
5.434792
 20
3.671329
 30
0.000000
  0
VERTEX
  8
MERGEDLAYER-2
 10
5.434792
 20
3.671329
 30
0.000000
  0
VERTEX
  8
MERGEDLAYER-2
 10
5.986952
 20
3.671329
 30
0.000000
  0
SEQEND
  8
MERGEDLAYER-2
  0
POLYLINE
  8
MERGEDLAYER-2
 66
  1
 70
  1
 62
  0
  0
VERTEX
  8
MERGEDLAYER-2
 10
4.882592
 20
3.671361
 30
0.000000
  0
VERTEX
  8
MERGEDLAYER-2
 10
5.434748
 20
3.671361
 30
0.000000
  0
VERTEX
  8
MERGEDLAYER-2
 10
5.434748
 20
3.459617
 30
0.000000
  0
VERTEX
  8
MERGEDLAYER-2
 10
4.882592
 20
3.459617
 30
0.000000
  0
SEQEND
  8
MERGEDLAYER-2
  0
POLYLINE
  8
MERGEDLAYER-2
 66
  1
 70
  0
 62
  8
 10
4.882592
 20
3.644096
 30
0.000000
  0
VERTEX
  8
MERGEDLAYER-2
 10
4.882592
 20
3.644096
 30
0.000000
  0
VERTEX
  8
MERGEDLAYER-2
 10
5.434748
 20
3.644096
 30
0.000000
  0
SEQEND
  8
MERGEDLAYER-2
  0
POLYLINE
  8
MERGEDLAYER-2
 66
  1
 70
  0
 62
  8
 10
4.882592
 20
3.487310
 30
0.000000
  0
VERTEX
  8
MERGEDLAYER-2
 10
4.882592
 20
3.487310
 30
0.000000
  0
VERTEX
  8
MERGEDLAYER-2
 10
5.434748
 20
3.487310
 30
0.000000
  0
SEQEND
  8
MERGEDLAYER-2
  0
POLYLINE
  8
MERGEDLAYER-2
 66
  1
 70
  1
 62
  0
  0
VERTEX
  8
MERGEDLAYER-2
 10
5.986992
 20
3.671361
 30
0.000000
  0
VERTEX
  8
MERGEDLAYER-2
 10
6.539148
 20
3.671361
 30
0.000000
  0
VERTEX
  8
MERGEDLAYER-2
 10
6.539148
 20
3.459617
 30
0.000000
  0
VERTEX
  8
MERGEDLAYER-2
 10
5.986992
 20
3.459617
 30
0.000000
  0
SEQEND
  8
MERGEDLAYER-2
  0
POLYLINE
  8
MERGEDLAYER-2
 66
  1
 70
  0
 62
  8
 10
5.986992
 20
3.644096
 30
0.000000
  0
VERTEX
  8
MERGEDLAYER-2
 10
5.986992
 20
3.644096
 30
0.000000
  0
VERTEX
  8
MERGEDLAYER-2
 10
6.539148
 20
3.644096
 30
0.000000
  0
SEQEND
  8
MERGEDLAYER-2
  0
POLYLINE
  8
MERGEDLAYER-2
 66
  1
 70
  0
 62
  8
 10
5.986992
 20
3.487310
 30
0.000000
  0
VERTEX
  8
MERGEDLAYER-2
 10
5.986992
 20
3.487310
 30
0.000000
  0
VERTEX
  8
MERGEDLAYER-2
 10
6.539148
 20
3.487310
 30
0.000000
  0
SEQEND
  8
MERGEDLAYER-2
  0
POLYLINE
  8
MERGEDLAYER-2
 66
  1
 70
  1
 62
  0
  0
VERTEX
  8
MERGEDLAYER-2
 10
2.673792
 20
0.726298
 30
0.000000
  0
VERTEX
  8
MERGEDLAYER-2
 10
3.225950
 20
0.726298
 30
0.000000
  0
VERTEX
  8
MERGEDLAYER-2
 10
3.225950
 20
0.514554
 30
0.000000
  0
VERTEX
  8
MERGEDLAYER-2
 10
2.673792
 20
0.514554
 30
0.000000
  0
SEQEND
  8
MERGEDLAYER-2
  0
POLYLINE
  8
MERGEDLAYER-2
 66
  1
 70
  0
 62
  8
 10
2.673792
 20
0.699031
 30
0.000000
  0
VERTEX
  8
MERGEDLAYER-2
 10
2.673792
 20
0.699031
 30
0.000000
  0
VERTEX
  8
MERGEDLAYER-2
 10
3.225950
 20
0.699031
 30
0.000000
  0
SEQEND
  8
MERGEDLAYER-2
  0
POLYLINE
  8
MERGEDLAYER-2
 66
  1
 70
  0
 62
  8
 10
2.673792
 20
0.542246
 30
0.000000
  0
VERTEX
  8
MERGEDLAYER-2
 10
2.673792
 20
0.542246
 30
0.000000
  0
VERTEX
  8
MERGEDLAYER-2
 10
3.225950
 20
0.542246
 30
0.000000
  0
SEQEND
  8
MERGEDLAYER-2
  0
POLYLINE
  8
MERGEDLAYER-2
 66
  1
 70
  1
 62
  0
  0
VERTEX
  8
MERGEDLAYER-2
 10
1.569389
 20
0.726298
 30
0.000000
  0
VERTEX
  8
MERGEDLAYER-2
 10
2.121549
 20
0.726298
 30
0.000000
  0
VERTEX
  8
MERGEDLAYER-2
 10
2.121549
 20
0.514554
 30
0.000000
  0
VERTEX
  8
MERGEDLAYER-2
 10
1.569389
 20
0.514554
 30
0.000000
  0
SEQEND
  8
MERGEDLAYER-2
  0
POLYLINE
  8
MERGEDLAYER-2
 66
  1
 70
  0
 62
  8
 10
1.569389
 20
0.699031
 30
0.000000
  0
VERTEX
  8
MERGEDLAYER-2
 10
1.569389
 20
0.699031
 30
0.000000
  0
VERTEX
  8
MERGEDLAYER-2
 10
2.121549
 20
0.699031
 30
0.000000
  0
SEQEND
  8
MERGEDLAYER-2
  0
POLYLINE
  8
MERGEDLAYER-2
 66
  1
 70
  0
 62
  8
 10
1.569389
 20
0.542246
 30
0.000000
  0
VERTEX
  8
MERGEDLAYER-2
 10
1.569389
 20
0.542246
 30
0.000000
  0
VERTEX
  8
MERGEDLAYER-2
 10
2.121549
 20
0.542246
 30
0.000000
  0
SEQEND
  8
MERGEDLAYER-2
  0
POLYLINE
  8
MERGEDLAYER-2
 66
  1
 70
  1
 62
  0
  0
VERTEX
  8
MERGEDLAYER-2
 10
3.778192
 20
0.726298
 30
0.000000
  0
VERTEX
  8
MERGEDLAYER-2
 10
4.330348
 20
0.726298
 30
0.000000
  0
VERTEX
  8
MERGEDLAYER-2
 10
4.330348
 20
0.514554
 30
0.000000
  0
VERTEX
  8
MERGEDLAYER-2
 10
3.778192
 20
0.514554
 30
0.000000
  0
SEQEND
  8
MERGEDLAYER-2
  0
POLYLINE
  8
MERGEDLAYER-2
 66
  1
 70
  0
 62
  8
 10
3.778192
 20
0.699031
 30
0.000000
  0
VERTEX
  8
MERGEDLAYER-2
 10
3.778192
 20
0.699031
 30
0.000000
  0
VERTEX
  8
MERGEDLAYER-2
 10
4.330348
 20
0.699031
 30
0.000000
  0
SEQEND
  8
MERGEDLAYER-2
  0
POLYLINE
  8
MERGEDLAYER-2
 66
  1
 70
  0
 62
  8
 10
3.778192
 20
0.542246
 30
0.000000
  0
VERTEX
  8
MERGEDLAYER-2
 10
3.778192
 20
0.542246
 30
0.000000
  0
VERTEX
  8
MERGEDLAYER-2
 10
4.330348
 20
0.542246
 30
0.000000
  0
SEQEND
  8
MERGEDLAYER-2
  0
POLYLINE
  8
MERGEDLAYER-2
 66
  1
 70
  1
 62
  0
  0
VERTEX
  8
MERGEDLAYER-2
 10
2.121591
 20
0.910366
 30
0.000000
  0
VERTEX
  8
MERGEDLAYER-2
 10
2.673751
 20
0.910366
 30
0.000000
  0
VERTEX
  8
MERGEDLAYER-2
 10
2.673751
 20
0.698622
 30
0.000000
  0
VERTEX
  8
MERGEDLAYER-2
 10
2.121591
 20
0.698622
 30
0.000000
  0
SEQEND
  8
MERGEDLAYER-2
  0
POLYLINE
  8
MERGEDLAYER-2
 66
  1
 70
  0
 62
  8
 10
2.121591
 20
0.883099
 30
0.000000
  0
VERTEX
  8
MERGEDLAYER-2
 10
2.121591
 20
0.883099
 30
0.000000
  0
VERTEX
  8
MERGEDLAYER-2
 10
2.673751
 20
0.883099
 30
0.000000
  0
SEQEND
  8
MERGEDLAYER-2
  0
POLYLINE
  8
MERGEDLAYER-2
 66
  1
 70
  0
 62
  8
 10
2.121591
 20
0.726313
 30
0.000000
  0
VERTEX
  8
MERGEDLAYER-2
 10
2.121591
 20
0.726313
 30
0.000000
  0
VERTEX
  8
MERGEDLAYER-2
 10
2.673751
 20
0.726313
 30
0.000000
  0
SEQEND
  8
MERGEDLAYER-2
  0
POLYLINE
  8
MERGEDLAYER-2
 66
  1
 70
  1
 62
  0
  0
VERTEX
  8
MERGEDLAYER-2
 10
2.673792
 20
1.094432
 30
0.000000
  0
VERTEX
  8
MERGEDLAYER-2
 10
3.225950
 20
1.094432
 30
0.000000
  0
VERTEX
  8
MERGEDLAYER-2
 10
3.225950
 20
0.882688
 30
0.000000
  0
VERTEX
  8
MERGEDLAYER-2
 10
2.673792
 20
0.882688
 30
0.000000
  0
SEQEND
  8
MERGEDLAYER-2
  0
POLYLINE
  8
MERGEDLAYER-2
 66
  1
 70
  0
 62
  8
 10
2.673792
 20
1.067166
 30
0.000000
  0
VERTEX
  8
MERGEDLAYER-2
 10
2.673792
 20
1.067166
 30
0.000000
  0
VERTEX
  8
MERGEDLAYER-2
 10
3.225950
 20
1.067166
 30
0.000000
  0
SEQEND
  8
MERGEDLAYER-2
  0
POLYLINE
  8
MERGEDLAYER-2
 66
  1
 70
  0
 62
  8
 10
2.673792
 20
0.910380
 30
0.000000
  0
VERTEX
  8
MERGEDLAYER-2
 10
2.673792
 20
0.910380
 30
0.000000
  0
VERTEX
  8
MERGEDLAYER-2
 10
3.225950
 20
0.910380
 30
0.000000
  0
SEQEND
  8
MERGEDLAYER-2
  0
POLYLINE
  8
MERGEDLAYER-2
 66
  1
 70
  1
 62
  0
  0
VERTEX
  8
MERGEDLAYER-2
 10
1.017189
 20
0.910366
 30
0.000000
  0
VERTEX
  8
MERGEDLAYER-2
 10
1.569349
 20
0.910366
 30
0.000000
  0
VERTEX
  8
MERGEDLAYER-2
 10
1.569349
 20
0.698622
 30
0.000000
  0
VERTEX
  8
MERGEDLAYER-2
 10
1.017189
 20
0.698622
 30
0.000000
  0
SEQEND
  8
MERGEDLAYER-2
  0
POLYLINE
  8
MERGEDLAYER-2
 66
  1
 70
  0
 62
  8
 10
1.017189
 20
0.883099
 30
0.000000
  0
VERTEX
  8
MERGEDLAYER-2
 10
1.017189
 20
0.883099
 30
0.000000
  0
VERTEX
  8
MERGEDLAYER-2
 10
1.569349
 20
0.883099
 30
0.000000
  0
SEQEND
  8
MERGEDLAYER-2
  0
POLYLINE
  8
MERGEDLAYER-2
 66
  1
 70
  0
 62
  8
 10
1.017189
 20
0.726313
 30
0.000000
  0
VERTEX
  8
MERGEDLAYER-2
 10
1.017189
 20
0.726313
 30
0.000000
  0
VERTEX
  8
MERGEDLAYER-2
 10
1.569349
 20
0.726313
 30
0.000000
  0
SEQEND
  8
MERGEDLAYER-2
  0
POLYLINE
  8
MERGEDLAYER-2
 66
  1
 70
  1
 62
  0
  0
VERTEX
  8
MERGEDLAYER-2
 10
1.569389
 20
1.094432
 30
0.000000
  0
VERTEX
  8
MERGEDLAYER-2
 10
2.121549
 20
1.094432
 30
0.000000
  0
VERTEX
  8
MERGEDLAYER-2
 10
2.121549
 20
0.882688
 30
0.000000
  0
VERTEX
  8
MERGEDLAYER-2
 10
1.569389
 20
0.882688
 30
0.000000
  0
SEQEND
  8
MERGEDLAYER-2
  0
POLYLINE
  8
MERGEDLAYER-2
 66
  1
 70
  0
 62
  8
 10
1.569389
 20
1.067166
 30
0.000000
  0
VERTEX
  8
MERGEDLAYER-2
 10
1.569389
 20
1.067166
 30
0.000000
  0
VERTEX
  8
MERGEDLAYER-2
 10
2.121549
 20
1.067166
 30
0.000000
  0
SEQEND
  8
MERGEDLAYER-2
  0
POLYLINE
  8
MERGEDLAYER-2
 66
  1
 70
  0
 62
  8
 10
1.569389
 20
0.910380
 30
0.000000
  0
VERTEX
  8
MERGEDLAYER-2
 10
1.569389
 20
0.910380
 30
0.000000
  0
VERTEX
  8
MERGEDLAYER-2
 10
2.121549
 20
0.910380
 30
0.000000
  0
SEQEND
  8
MERGEDLAYER-2
  0
POLYLINE
  8
MERGEDLAYER-2
 66
  1
 70
  1
 62
  0
  0
VERTEX
  8
MERGEDLAYER-2
 10
3.225991
 20
0.910366
 30
0.000000
  0
VERTEX
  8
MERGEDLAYER-2
 10
3.778152
 20
0.910366
 30
0.000000
  0
VERTEX
  8
MERGEDLAYER-2
 10
3.778152
 20
0.698622
 30
0.000000
  0
VERTEX
  8
MERGEDLAYER-2
 10
3.225991
 20
0.698622
 30
0.000000
  0
SEQEND
  8
MERGEDLAYER-2
  0
POLYLINE
  8
MERGEDLAYER-2
 66
  1
 70
  0
 62
  8
 10
3.225991
 20
0.883099
 30
0.000000
  0
VERTEX
  8
MERGEDLAYER-2
 10
3.225991
 20
0.883099
 30
0.000000
  0
VERTEX
  8
MERGEDLAYER-2
 10
3.778152
 20
0.883099
 30
0.000000
  0
SEQEND
  8
MERGEDLAYER-2
  0
POLYLINE
  8
MERGEDLAYER-2
 66
  1
 70
  0
 62
  8
 10
3.225991
 20
0.726313
 30
0.000000
  0
VERTEX
  8
MERGEDLAYER-2
 10
3.225991
 20
0.726313
 30
0.000000
  0
VERTEX
  8
MERGEDLAYER-2
 10
3.778152
 20
0.726313
 30
0.000000
  0
SEQEND
  8
MERGEDLAYER-2
  0
POLYLINE
  8
MERGEDLAYER-2
 66
  1
 70
  1
 62
  0
  0
VERTEX
  8
MERGEDLAYER-2
 10
3.778192
 20
1.094432
 30
0.000000
  0
VERTEX
  8
MERGEDLAYER-2
 10
4.330348
 20
1.094432
 30
0.000000
  0
VERTEX
  8
MERGEDLAYER-2
 10
4.330348
 20
0.882688
 30
0.000000
  0
VERTEX
  8
MERGEDLAYER-2
 10
3.778192
 20
0.882688
 30
0.000000
  0
SEQEND
  8
MERGEDLAYER-2
  0
POLYLINE
  8
MERGEDLAYER-2
 66
  1
 70
  0
 62
  8
 10
3.778192
 20
1.067166
 30
0.000000
  0
VERTEX
  8
MERGEDLAYER-2
 10
3.778192
 20
1.067166
 30
0.000000
  0
VERTEX
  8
MERGEDLAYER-2
 10
4.330348
 20
1.067166
 30
0.000000
  0
SEQEND
  8
MERGEDLAYER-2
  0
POLYLINE
  8
MERGEDLAYER-2
 66
  1
 70
  0
 62
  8
 10
3.778192
 20
0.910380
 30
0.000000
  0
VERTEX
  8
MERGEDLAYER-2
 10
3.778192
 20
0.910380
 30
0.000000
  0
VERTEX
  8
MERGEDLAYER-2
 10
4.330348
 20
0.910380
 30
0.000000
  0
SEQEND
  8
MERGEDLAYER-2
  0
POLYLINE
  8
MERGEDLAYER-2
 66
  1
 70
  1
 62
  0
  0
VERTEX
  8
MERGEDLAYER-2
 10
4.330392
 20
0.910366
 30
0.000000
  0
VERTEX
  8
MERGEDLAYER-2
 10
4.882552
 20
0.910366
 30
0.000000
  0
VERTEX
  8
MERGEDLAYER-2
 10
4.882552
 20
0.698622
 30
0.000000
  0
VERTEX
  8
MERGEDLAYER-2
 10
4.330392
 20
0.698622
 30
0.000000
  0
SEQEND
  8
MERGEDLAYER-2
  0
POLYLINE
  8
MERGEDLAYER-2
 66
  1
 70
  0
 62
  8
 10
4.330392
 20
0.883099
 30
0.000000
  0
VERTEX
  8
MERGEDLAYER-2
 10
4.330392
 20
0.883099
 30
0.000000
  0
VERTEX
  8
MERGEDLAYER-2
 10
4.882552
 20
0.883099
 30
0.000000
  0
SEQEND
  8
MERGEDLAYER-2
  0
POLYLINE
  8
MERGEDLAYER-2
 66
  1
 70
  0
 62
  8
 10
4.330392
 20
0.726313
 30
0.000000
  0
VERTEX
  8
MERGEDLAYER-2
 10
4.330392
 20
0.726313
 30
0.000000
  0
VERTEX
  8
MERGEDLAYER-2
 10
4.882552
 20
0.726313
 30
0.000000
  0
SEQEND
  8
MERGEDLAYER-2
  0
POLYLINE
  8
MERGEDLAYER-2
 66
  1
 70
  1
 62
  0
  0
VERTEX
  8
MERGEDLAYER-2
 10
2.121591
 20
1.278498
 30
0.000000
  0
VERTEX
  8
MERGEDLAYER-2
 10
2.673751
 20
1.278498
 30
0.000000
  0
VERTEX
  8
MERGEDLAYER-2
 10
2.673751
 20
1.066754
 30
0.000000
  0
VERTEX
  8
MERGEDLAYER-2
 10
2.121591
 20
1.066754
 30
0.000000
  0
SEQEND
  8
MERGEDLAYER-2
  0
POLYLINE
  8
MERGEDLAYER-2
 66
  1
 70
  0
 62
  8
 10
2.121591
 20
1.251233
 30
0.000000
  0
VERTEX
  8
MERGEDLAYER-2
 10
2.121591
 20
1.251233
 30
0.000000
  0
VERTEX
  8
MERGEDLAYER-2
 10
2.673751
 20
1.251233
 30
0.000000
  0
SEQEND
  8
MERGEDLAYER-2
  0
POLYLINE
  8
MERGEDLAYER-2
 66
  1
 70
  0
 62
  8
 10
2.121591
 20
1.094446
 30
0.000000
  0
VERTEX
  8
MERGEDLAYER-2
 10
2.121591
 20
1.094446
 30
0.000000
  0
VERTEX
  8
MERGEDLAYER-2
 10
2.673751
 20
1.094446
 30
0.000000
  0
SEQEND
  8
MERGEDLAYER-2
  0
POLYLINE
  8
MERGEDLAYER-2
 66
  1
 70
  1
 62
  0
  0
VERTEX
  8
MERGEDLAYER-2
 10
2.673792
 20
1.462563
 30
0.000000
  0
VERTEX
  8
MERGEDLAYER-2
 10
3.225950
 20
1.462563
 30
0.000000
  0
VERTEX
  8
MERGEDLAYER-2
 10
3.225950
 20
1.250821
 30
0.000000
  0
VERTEX
  8
MERGEDLAYER-2
 10
2.673792
 20
1.250821
 30
0.000000
  0
SEQEND
  8
MERGEDLAYER-2
  0
POLYLINE
  8
MERGEDLAYER-2
 66
  1
 70
  0
 62
  8
 10
2.673792
 20
1.435298
 30
0.000000
  0
VERTEX
  8
MERGEDLAYER-2
 10
2.673792
 20
1.435298
 30
0.000000
  0
VERTEX
  8
MERGEDLAYER-2
 10
3.225950
 20
1.435298
 30
0.000000
  0
SEQEND
  8
MERGEDLAYER-2
  0
POLYLINE
  8
MERGEDLAYER-2
 66
  1
 70
  0
 62
  8
 10
2.673792
 20
1.278513
 30
0.000000
  0
VERTEX
  8
MERGEDLAYER-2
 10
2.673792
 20
1.278513
 30
0.000000
  0
VERTEX
  8
MERGEDLAYER-2
 10
3.225950
 20
1.278513
 30
0.000000
  0
SEQEND
  8
MERGEDLAYER-2
  0
POLYLINE
  8
MERGEDLAYER-2
 66
  1
 70
  1
 62
  0
  0
VERTEX
  8
MERGEDLAYER-2
 10
1.017189
 20
1.278498
 30
0.000000
  0
VERTEX
  8
MERGEDLAYER-2
 10
1.569349
 20
1.278498
 30
0.000000
  0
VERTEX
  8
MERGEDLAYER-2
 10
1.569349
 20
1.066754
 30
0.000000
  0
VERTEX
  8
MERGEDLAYER-2
 10
1.017189
 20
1.066754
 30
0.000000
  0
SEQEND
  8
MERGEDLAYER-2
  0
POLYLINE
  8
MERGEDLAYER-2
 66
  1
 70
  0
 62
  8
 10
1.017189
 20
1.251233
 30
0.000000
  0
VERTEX
  8
MERGEDLAYER-2
 10
1.017189
 20
1.251233
 30
0.000000
  0
VERTEX
  8
MERGEDLAYER-2
 10
1.569349
 20
1.251233
 30
0.000000
  0
SEQEND
  8
MERGEDLAYER-2
  0
POLYLINE
  8
MERGEDLAYER-2
 66
  1
 70
  0
 62
  8
 10
1.017189
 20
1.094446
 30
0.000000
  0
VERTEX
  8
MERGEDLAYER-2
 10
1.017189
 20
1.094446
 30
0.000000
  0
VERTEX
  8
MERGEDLAYER-2
 10
1.569349
 20
1.094446
 30
0.000000
  0
SEQEND
  8
MERGEDLAYER-2
  0
POLYLINE
  8
MERGEDLAYER-2
 66
  1
 70
  1
 62
  0
  0
VERTEX
  8
MERGEDLAYER-2
 10
1.569389
 20
1.462563
 30
0.000000
  0
VERTEX
  8
MERGEDLAYER-2
 10
2.121549
 20
1.462563
 30
0.000000
  0
VERTEX
  8
MERGEDLAYER-2
 10
2.121549
 20
1.250821
 30
0.000000
  0
VERTEX
  8
MERGEDLAYER-2
 10
1.569389
 20
1.250821
 30
0.000000
  0
SEQEND
  8
MERGEDLAYER-2
  0
POLYLINE
  8
MERGEDLAYER-2
 66
  1
 70
  0
 62
  8
 10
1.569389
 20
1.435298
 30
0.000000
  0
VERTEX
  8
MERGEDLAYER-2
 10
1.569389
 20
1.435298
 30
0.000000
  0
VERTEX
  8
MERGEDLAYER-2
 10
2.121549
 20
1.435298
 30
0.000000
  0
SEQEND
  8
MERGEDLAYER-2
  0
POLYLINE
  8
MERGEDLAYER-2
 66
  1
 70
  0
 62
  8
 10
1.569389
 20
1.278513
 30
0.000000
  0
VERTEX
  8
MERGEDLAYER-2
 10
1.569389
 20
1.278513
 30
0.000000
  0
VERTEX
  8
MERGEDLAYER-2
 10
2.121549
 20
1.278513
 30
0.000000
  0
SEQEND
  8
MERGEDLAYER-2
  0
POLYLINE
  8
MERGEDLAYER-2
 66
  1
 70
  1
 62
  0
  0
VERTEX
  8
MERGEDLAYER-2
 10
3.225991
 20
1.278498
 30
0.000000
  0
VERTEX
  8
MERGEDLAYER-2
 10
3.778152
 20
1.278498
 30
0.000000
  0
VERTEX
  8
MERGEDLAYER-2
 10
3.778152
 20
1.066754
 30
0.000000
  0
VERTEX
  8
MERGEDLAYER-2
 10
3.225991
 20
1.066754
 30
0.000000
  0
SEQEND
  8
MERGEDLAYER-2
  0
POLYLINE
  8
MERGEDLAYER-2
 66
  1
 70
  0
 62
  8
 10
3.225991
 20
1.251233
 30
0.000000
  0
VERTEX
  8
MERGEDLAYER-2
 10
3.225991
 20
1.251233
 30
0.000000
  0
VERTEX
  8
MERGEDLAYER-2
 10
3.778152
 20
1.251233
 30
0.000000
  0
SEQEND
  8
MERGEDLAYER-2
  0
POLYLINE
  8
MERGEDLAYER-2
 66
  1
 70
  0
 62
  8
 10
3.225991
 20
1.094446
 30
0.000000
  0
VERTEX
  8
MERGEDLAYER-2
 10
3.225991
 20
1.094446
 30
0.000000
  0
VERTEX
  8
MERGEDLAYER-2
 10
3.778152
 20
1.094446
 30
0.000000
  0
SEQEND
  8
MERGEDLAYER-2
  0
POLYLINE
  8
MERGEDLAYER-2
 66
  1
 70
  1
 62
  0
  0
VERTEX
  8
MERGEDLAYER-2
 10
3.778192
 20
1.462563
 30
0.000000
  0
VERTEX
  8
MERGEDLAYER-2
 10
4.330348
 20
1.462563
 30
0.000000
  0
VERTEX
  8
MERGEDLAYER-2
 10
4.330348
 20
1.250821
 30
0.000000
  0
VERTEX
  8
MERGEDLAYER-2
 10
3.778192
 20
1.250821
 30
0.000000
  0
SEQEND
  8
MERGEDLAYER-2
  0
POLYLINE
  8
MERGEDLAYER-2
 66
  1
 70
  0
 62
  8
 10
3.778192
 20
1.435298
 30
0.000000
  0
VERTEX
  8
MERGEDLAYER-2
 10
3.778192
 20
1.435298
 30
0.000000
  0
VERTEX
  8
MERGEDLAYER-2
 10
4.330348
 20
1.435298
 30
0.000000
  0
SEQEND
  8
MERGEDLAYER-2
  0
POLYLINE
  8
MERGEDLAYER-2
 66
  1
 70
  0
 62
  8
 10
3.778192
 20
1.278513
 30
0.000000
  0
VERTEX
  8
MERGEDLAYER-2
 10
3.778192
 20
1.278513
 30
0.000000
  0
VERTEX
  8
MERGEDLAYER-2
 10
4.330348
 20
1.278513
 30
0.000000
  0
SEQEND
  8
MERGEDLAYER-2
  0
POLYLINE
  8
MERGEDLAYER-2
 66
  1
 70
  1
 62
  0
  0
VERTEX
  8
MERGEDLAYER-2
 10
4.330392
 20
1.278498
 30
0.000000
  0
VERTEX
  8
MERGEDLAYER-2
 10
4.882552
 20
1.278498
 30
0.000000
  0
VERTEX
  8
MERGEDLAYER-2
 10
4.882552
 20
1.066754
 30
0.000000
  0
VERTEX
  8
MERGEDLAYER-2
 10
4.330392
 20
1.066754
 30
0.000000
  0
SEQEND
  8
MERGEDLAYER-2
  0
POLYLINE
  8
MERGEDLAYER-2
 66
  1
 70
  0
 62
  8
 10
4.330392
 20
1.251233
 30
0.000000
  0
VERTEX
  8
MERGEDLAYER-2
 10
4.330392
 20
1.251233
 30
0.000000
  0
VERTEX
  8
MERGEDLAYER-2
 10
4.882552
 20
1.251233
 30
0.000000
  0
SEQEND
  8
MERGEDLAYER-2
  0
POLYLINE
  8
MERGEDLAYER-2
 66
  1
 70
  0
 62
  8
 10
4.330392
 20
1.094446
 30
0.000000
  0
VERTEX
  8
MERGEDLAYER-2
 10
4.330392
 20
1.094446
 30
0.000000
  0
VERTEX
  8
MERGEDLAYER-2
 10
4.882552
 20
1.094446
 30
0.000000
  0
SEQEND
  8
MERGEDLAYER-2
  0
POLYLINE
  8
MERGEDLAYER-2
 66
  1
 70
  1
 62
  0
  0
VERTEX
  8
MERGEDLAYER-2
 10
2.121591
 20
1.646633
 30
0.000000
  0
VERTEX
  8
MERGEDLAYER-2
 10
2.673751
 20
1.646633
 30
0.000000
  0
VERTEX
  8
MERGEDLAYER-2
 10
2.673751
 20
1.434888
 30
0.000000
  0
VERTEX
  8
MERGEDLAYER-2
 10
2.121591
 20
1.434888
 30
0.000000
  0
SEQEND
  8
MERGEDLAYER-2
  0
POLYLINE
  8
MERGEDLAYER-2
 66
  1
 70
  0
 62
  8
 10
2.121591
 20
1.619365
 30
0.000000
  0
VERTEX
  8
MERGEDLAYER-2
 10
2.121591
 20
1.619365
 30
0.000000
  0
VERTEX
  8
MERGEDLAYER-2
 10
2.673751
 20
1.619365
 30
0.000000
  0
SEQEND
  8
MERGEDLAYER-2
  0
POLYLINE
  8
MERGEDLAYER-2
 66
  1
 70
  0
 62
  8
 10
2.121591
 20
1.462580
 30
0.000000
  0
VERTEX
  8
MERGEDLAYER-2
 10
2.121591
 20
1.462580
 30
0.000000
  0
VERTEX
  8
MERGEDLAYER-2
 10
2.673751
 20
1.462580
 30
0.000000
  0
SEQEND
  8
MERGEDLAYER-2
  0
POLYLINE
  8
MERGEDLAYER-2
 66
  1
 70
  1
 62
  0
  0
VERTEX
  8
MERGEDLAYER-2
 10
2.673792
 20
1.830698
 30
0.000000
  0
VERTEX
  8
MERGEDLAYER-2
 10
3.225950
 20
1.830698
 30
0.000000
  0
VERTEX
  8
MERGEDLAYER-2
 10
3.225950
 20
1.618954
 30
0.000000
  0
VERTEX
  8
MERGEDLAYER-2
 10
2.673792
 20
1.618954
 30
0.000000
  0
SEQEND
  8
MERGEDLAYER-2
  0
POLYLINE
  8
MERGEDLAYER-2
 66
  1
 70
  0
 62
  8
 10
2.673792
 20
1.803432
 30
0.000000
  0
VERTEX
  8
MERGEDLAYER-2
 10
2.673792
 20
1.803432
 30
0.000000
  0
VERTEX
  8
MERGEDLAYER-2
 10
3.225950
 20
1.803432
 30
0.000000
  0
SEQEND
  8
MERGEDLAYER-2
  0
POLYLINE
  8
MERGEDLAYER-2
 66
  1
 70
  0
 62
  8
 10
2.673792
 20
1.646647
 30
0.000000
  0
VERTEX
  8
MERGEDLAYER-2
 10
2.673792
 20
1.646647
 30
0.000000
  0
VERTEX
  8
MERGEDLAYER-2
 10
3.225950
 20
1.646647
 30
0.000000
  0
SEQEND
  8
MERGEDLAYER-2
  0
POLYLINE
  8
MERGEDLAYER-2
 66
  1
 70
  1
 62
  0
  0
VERTEX
  8
MERGEDLAYER-2
 10
1.017189
 20
1.646633
 30
0.000000
  0
VERTEX
  8
MERGEDLAYER-2
 10
1.569349
 20
1.646633
 30
0.000000
  0
VERTEX
  8
MERGEDLAYER-2
 10
1.569349
 20
1.434888
 30
0.000000
  0
VERTEX
  8
MERGEDLAYER-2
 10
1.017189
 20
1.434888
 30
0.000000
  0
SEQEND
  8
MERGEDLAYER-2
  0
POLYLINE
  8
MERGEDLAYER-2
 66
  1
 70
  0
 62
  8
 10
1.017189
 20
1.619365
 30
0.000000
  0
VERTEX
  8
MERGEDLAYER-2
 10
1.017189
 20
1.619365
 30
0.000000
  0
VERTEX
  8
MERGEDLAYER-2
 10
1.569349
 20
1.619365
 30
0.000000
  0
SEQEND
  8
MERGEDLAYER-2
  0
POLYLINE
  8
MERGEDLAYER-2
 66
  1
 70
  0
 62
  8
 10
1.017189
 20
1.462580
 30
0.000000
  0
VERTEX
  8
MERGEDLAYER-2
 10
1.017189
 20
1.462580
 30
0.000000
  0
VERTEX
  8
MERGEDLAYER-2
 10
1.569349
 20
1.462580
 30
0.000000
  0
SEQEND
  8
MERGEDLAYER-2
  0
POLYLINE
  8
MERGEDLAYER-2
 66
  1
 70
  1
 62
  0
  0
VERTEX
  8
MERGEDLAYER-2
 10
1.569389
 20
1.830698
 30
0.000000
  0
VERTEX
  8
MERGEDLAYER-2
 10
2.121549
 20
1.830698
 30
0.000000
  0
VERTEX
  8
MERGEDLAYER-2
 10
2.121549
 20
1.618954
 30
0.000000
  0
VERTEX
  8
MERGEDLAYER-2
 10
1.569389
 20
1.618954
 30
0.000000
  0
SEQEND
  8
MERGEDLAYER-2
  0
POLYLINE
  8
MERGEDLAYER-2
 66
  1
 70
  0
 62
  8
 10
1.569389
 20
1.803432
 30
0.000000
  0
VERTEX
  8
MERGEDLAYER-2
 10
1.569389
 20
1.803432
 30
0.000000
  0
VERTEX
  8
MERGEDLAYER-2
 10
2.121549
 20
1.803432
 30
0.000000
  0
SEQEND
  8
MERGEDLAYER-2
  0
POLYLINE
  8
MERGEDLAYER-2
 66
  1
 70
  0
 62
  8
 10
1.569389
 20
1.646647
 30
0.000000
  0
VERTEX
  8
MERGEDLAYER-2
 10
1.569389
 20
1.646647
 30
0.000000
  0
VERTEX
  8
MERGEDLAYER-2
 10
2.121549
 20
1.646647
 30
0.000000
  0
SEQEND
  8
MERGEDLAYER-2
  0
POLYLINE
  8
MERGEDLAYER-2
 66
  1
 70
  1
 62
  0
  0
VERTEX
  8
MERGEDLAYER-2
 10
3.225991
 20
1.646633
 30
0.000000
  0
VERTEX
  8
MERGEDLAYER-2
 10
3.778152
 20
1.646633
 30
0.000000
  0
VERTEX
  8
MERGEDLAYER-2
 10
3.778152
 20
1.434888
 30
0.000000
  0
VERTEX
  8
MERGEDLAYER-2
 10
3.225991
 20
1.434888
 30
0.000000
  0
SEQEND
  8
MERGEDLAYER-2
  0
POLYLINE
  8
MERGEDLAYER-2
 66
  1
 70
  0
 62
  8
 10
3.225991
 20
1.619365
 30
0.000000
  0
VERTEX
  8
MERGEDLAYER-2
 10
3.225991
 20
1.619365
 30
0.000000
  0
VERTEX
  8
MERGEDLAYER-2
 10
3.778152
 20
1.619365
 30
0.000000
  0
SEQEND
  8
MERGEDLAYER-2
  0
POLYLINE
  8
MERGEDLAYER-2
 66
  1
 70
  0
 62
  8
 10
3.225991
 20
1.462580
 30
0.000000
  0
VERTEX
  8
MERGEDLAYER-2
 10
3.225991
 20
1.462580
 30
0.000000
  0
VERTEX
  8
MERGEDLAYER-2
 10
3.778152
 20
1.462580
 30
0.000000
  0
SEQEND
  8
MERGEDLAYER-2
  0
POLYLINE
  8
MERGEDLAYER-2
 66
  1
 70
  1
 62
  0
  0
VERTEX
  8
MERGEDLAYER-2
 10
3.778192
 20
1.830698
 30
0.000000
  0
VERTEX
  8
MERGEDLAYER-2
 10
4.330348
 20
1.830698
 30
0.000000
  0
VERTEX
  8
MERGEDLAYER-2
 10
4.330348
 20
1.618954
 30
0.000000
  0
VERTEX
  8
MERGEDLAYER-2
 10
3.778192
 20
1.618954
 30
0.000000
  0
SEQEND
  8
MERGEDLAYER-2
  0
POLYLINE
  8
MERGEDLAYER-2
 66
  1
 70
  0
 62
  8
 10
3.778192
 20
1.803432
 30
0.000000
  0
VERTEX
  8
MERGEDLAYER-2
 10
3.778192
 20
1.803432
 30
0.000000
  0
VERTEX
  8
MERGEDLAYER-2
 10
4.330348
 20
1.803432
 30
0.000000
  0
SEQEND
  8
MERGEDLAYER-2
  0
POLYLINE
  8
MERGEDLAYER-2
 66
  1
 70
  0
 62
  8
 10
3.778192
 20
1.646647
 30
0.000000
  0
VERTEX
  8
MERGEDLAYER-2
 10
3.778192
 20
1.646647
 30
0.000000
  0
VERTEX
  8
MERGEDLAYER-2
 10
4.330348
 20
1.646647
 30
0.000000
  0
SEQEND
  8
MERGEDLAYER-2
  0
POLYLINE
  8
MERGEDLAYER-2
 66
  1
 70
  1
 62
  0
  0
VERTEX
  8
MERGEDLAYER-2
 10
4.330392
 20
1.646633
 30
0.000000
  0
VERTEX
  8
MERGEDLAYER-2
 10
4.882552
 20
1.646633
 30
0.000000
  0
VERTEX
  8
MERGEDLAYER-2
 10
4.882552
 20
1.434888
 30
0.000000
  0
VERTEX
  8
MERGEDLAYER-2
 10
4.330392
 20
1.434888
 30
0.000000
  0
SEQEND
  8
MERGEDLAYER-2
  0
POLYLINE
  8
MERGEDLAYER-2
 66
  1
 70
  0
 62
  8
 10
4.330392
 20
1.619365
 30
0.000000
  0
VERTEX
  8
MERGEDLAYER-2
 10
4.330392
 20
1.619365
 30
0.000000
  0
VERTEX
  8
MERGEDLAYER-2
 10
4.882552
 20
1.619365
 30
0.000000
  0
SEQEND
  8
MERGEDLAYER-2
  0
POLYLINE
  8
MERGEDLAYER-2
 66
  1
 70
  0
 62
  8
 10
4.330392
 20
1.462580
 30
0.000000
  0
VERTEX
  8
MERGEDLAYER-2
 10
4.330392
 20
1.462580
 30
0.000000
  0
VERTEX
  8
MERGEDLAYER-2
 10
4.882552
 20
1.462580
 30
0.000000
  0
SEQEND
  8
MERGEDLAYER-2
  0
POLYLINE
  8
MERGEDLAYER-2
 66
  1
 70
  1
 62
  0
  0
VERTEX
  8
MERGEDLAYER-2
 10
2.121591
 20
2.014765
 30
0.000000
  0
VERTEX
  8
MERGEDLAYER-2
 10
2.673751
 20
2.014765
 30
0.000000
  0
VERTEX
  8
MERGEDLAYER-2
 10
2.673751
 20
1.803021
 30
0.000000
  0
VERTEX
  8
MERGEDLAYER-2
 10
2.121591
 20
1.803021
 30
0.000000
  0
SEQEND
  8
MERGEDLAYER-2
  0
POLYLINE
  8
MERGEDLAYER-2
 66
  1
 70
  0
 62
  8
 10
2.121591
 20
1.987499
 30
0.000000
  0
VERTEX
  8
MERGEDLAYER-2
 10
2.121591
 20
1.987499
 30
0.000000
  0
VERTEX
  8
MERGEDLAYER-2
 10
2.673751
 20
1.987499
 30
0.000000
  0
SEQEND
  8
MERGEDLAYER-2
  0
POLYLINE
  8
MERGEDLAYER-2
 66
  1
 70
  0
 62
  8
 10
2.121591
 20
1.830712
 30
0.000000
  0
VERTEX
  8
MERGEDLAYER-2
 10
2.121591
 20
1.830712
 30
0.000000
  0
VERTEX
  8
MERGEDLAYER-2
 10
2.673751
 20
1.830712
 30
0.000000
  0
SEQEND
  8
MERGEDLAYER-2
  0
POLYLINE
  8
MERGEDLAYER-2
 66
  1
 70
  1
 62
  0
  0
VERTEX
  8
MERGEDLAYER-2
 10
2.673792
 20
2.198830
 30
0.000000
  0
VERTEX
  8
MERGEDLAYER-2
 10
3.225950
 20
2.198830
 30
0.000000
  0
VERTEX
  8
MERGEDLAYER-2
 10
3.225950
 20
1.987088
 30
0.000000
  0
VERTEX
  8
MERGEDLAYER-2
 10
2.673792
 20
1.987088
 30
0.000000
  0
SEQEND
  8
MERGEDLAYER-2
  0
POLYLINE
  8
MERGEDLAYER-2
 66
  1
 70
  0
 62
  8
 10
2.673792
 20
2.171565
 30
0.000000
  0
VERTEX
  8
MERGEDLAYER-2
 10
2.673792
 20
2.171565
 30
0.000000
  0
VERTEX
  8
MERGEDLAYER-2
 10
3.225950
 20
2.171565
 30
0.000000
  0
SEQEND
  8
MERGEDLAYER-2
  0
POLYLINE
  8
MERGEDLAYER-2
 66
  1
 70
  0
 62
  8
 10
2.673792
 20
2.014779
 30
0.000000
  0
VERTEX
  8
MERGEDLAYER-2
 10
2.673792
 20
2.014779
 30
0.000000
  0
VERTEX
  8
MERGEDLAYER-2
 10
3.225950
 20
2.014779
 30
0.000000
  0
SEQEND
  8
MERGEDLAYER-2
  0
POLYLINE
  8
MERGEDLAYER-2
 66
  1
 70
  1
 62
  0
  0
VERTEX
  8
MERGEDLAYER-2
 10
1.017189
 20
2.014765
 30
0.000000
  0
VERTEX
  8
MERGEDLAYER-2
 10
1.569349
 20
2.014765
 30
0.000000
  0
VERTEX
  8
MERGEDLAYER-2
 10
1.569349
 20
1.803021
 30
0.000000
  0
VERTEX
  8
MERGEDLAYER-2
 10
1.017189
 20
1.803021
 30
0.000000
  0
SEQEND
  8
MERGEDLAYER-2
  0
POLYLINE
  8
MERGEDLAYER-2
 66
  1
 70
  0
 62
  8
 10
1.017189
 20
1.987499
 30
0.000000
  0
VERTEX
  8
MERGEDLAYER-2
 10
1.017189
 20
1.987499
 30
0.000000
  0
VERTEX
  8
MERGEDLAYER-2
 10
1.569349
 20
1.987499
 30
0.000000
  0
SEQEND
  8
MERGEDLAYER-2
  0
POLYLINE
  8
MERGEDLAYER-2
 66
  1
 70
  0
 62
  8
 10
1.017189
 20
1.830712
 30
0.000000
  0
VERTEX
  8
MERGEDLAYER-2
 10
1.017189
 20
1.830712
 30
0.000000
  0
VERTEX
  8
MERGEDLAYER-2
 10
1.569349
 20
1.830712
 30
0.000000
  0
SEQEND
  8
MERGEDLAYER-2
  0
POLYLINE
  8
MERGEDLAYER-2
 66
  1
 70
  1
 62
  0
  0
VERTEX
  8
MERGEDLAYER-2
 10
1.569389
 20
2.198830
 30
0.000000
  0
VERTEX
  8
MERGEDLAYER-2
 10
2.121549
 20
2.198830
 30
0.000000
  0
VERTEX
  8
MERGEDLAYER-2
 10
2.121549
 20
1.987088
 30
0.000000
  0
VERTEX
  8
MERGEDLAYER-2
 10
1.569389
 20
1.987088
 30
0.000000
  0
SEQEND
  8
MERGEDLAYER-2
  0
POLYLINE
  8
MERGEDLAYER-2
 66
  1
 70
  0
 62
  8
 10
1.569389
 20
2.171565
 30
0.000000
  0
VERTEX
  8
MERGEDLAYER-2
 10
1.569389
 20
2.171565
 30
0.000000
  0
VERTEX
  8
MERGEDLAYER-2
 10
2.121549
 20
2.171565
 30
0.000000
  0
SEQEND
  8
MERGEDLAYER-2
  0
POLYLINE
  8
MERGEDLAYER-2
 66
  1
 70
  0
 62
  8
 10
1.569389
 20
2.014779
 30
0.000000
  0
VERTEX
  8
MERGEDLAYER-2
 10
1.569389
 20
2.014779
 30
0.000000
  0
VERTEX
  8
MERGEDLAYER-2
 10
2.121549
 20
2.014779
 30
0.000000
  0
SEQEND
  8
MERGEDLAYER-2
  0
POLYLINE
  8
MERGEDLAYER-2
 66
  1
 70
  1
 62
  0
  0
VERTEX
  8
MERGEDLAYER-2
 10
3.225991
 20
2.014765
 30
0.000000
  0
VERTEX
  8
MERGEDLAYER-2
 10
3.778152
 20
2.014765
 30
0.000000
  0
VERTEX
  8
MERGEDLAYER-2
 10
3.778152
 20
1.803021
 30
0.000000
  0
VERTEX
  8
MERGEDLAYER-2
 10
3.225991
 20
1.803021
 30
0.000000
  0
SEQEND
  8
MERGEDLAYER-2
  0
POLYLINE
  8
MERGEDLAYER-2
 66
  1
 70
  0
 62
  8
 10
3.225991
 20
1.987499
 30
0.000000
  0
VERTEX
  8
MERGEDLAYER-2
 10
3.225991
 20
1.987499
 30
0.000000
  0
VERTEX
  8
MERGEDLAYER-2
 10
3.778152
 20
1.987499
 30
0.000000
  0
SEQEND
  8
MERGEDLAYER-2
  0
POLYLINE
  8
MERGEDLAYER-2
 66
  1
 70
  0
 62
  8
 10
3.225991
 20
1.830712
 30
0.000000
  0
VERTEX
  8
MERGEDLAYER-2
 10
3.225991
 20
1.830712
 30
0.000000
  0
VERTEX
  8
MERGEDLAYER-2
 10
3.778152
 20
1.830712
 30
0.000000
  0
SEQEND
  8
MERGEDLAYER-2
  0
POLYLINE
  8
MERGEDLAYER-2
 66
  1
 70
  1
 62
  0
  0
VERTEX
  8
MERGEDLAYER-2
 10
3.778192
 20
2.198830
 30
0.000000
  0
VERTEX
  8
MERGEDLAYER-2
 10
4.330348
 20
2.198830
 30
0.000000
  0
VERTEX
  8
MERGEDLAYER-2
 10
4.330348
 20
1.987088
 30
0.000000
  0
VERTEX
  8
MERGEDLAYER-2
 10
3.778192
 20
1.987088
 30
0.000000
  0
SEQEND
  8
MERGEDLAYER-2
  0
POLYLINE
  8
MERGEDLAYER-2
 66
  1
 70
  0
 62
  8
 10
3.778192
 20
2.171565
 30
0.000000
  0
VERTEX
  8
MERGEDLAYER-2
 10
3.778192
 20
2.171565
 30
0.000000
  0
VERTEX
  8
MERGEDLAYER-2
 10
4.330348
 20
2.171565
 30
0.000000
  0
SEQEND
  8
MERGEDLAYER-2
  0
POLYLINE
  8
MERGEDLAYER-2
 66
  1
 70
  0
 62
  8
 10
3.778192
 20
2.014779
 30
0.000000
  0
VERTEX
  8
MERGEDLAYER-2
 10
3.778192
 20
2.014779
 30
0.000000
  0
VERTEX
  8
MERGEDLAYER-2
 10
4.330348
 20
2.014779
 30
0.000000
  0
SEQEND
  8
MERGEDLAYER-2
  0
POLYLINE
  8
MERGEDLAYER-2
 66
  1
 70
  1
 62
  0
  0
VERTEX
  8
MERGEDLAYER-2
 10
4.330392
 20
2.014765
 30
0.000000
  0
VERTEX
  8
MERGEDLAYER-2
 10
4.882552
 20
2.014765
 30
0.000000
  0
VERTEX
  8
MERGEDLAYER-2
 10
4.882552
 20
1.803021
 30
0.000000
  0
VERTEX
  8
MERGEDLAYER-2
 10
4.330392
 20
1.803021
 30
0.000000
  0
SEQEND
  8
MERGEDLAYER-2
  0
POLYLINE
  8
MERGEDLAYER-2
 66
  1
 70
  0
 62
  8
 10
4.330392
 20
1.987499
 30
0.000000
  0
VERTEX
  8
MERGEDLAYER-2
 10
4.330392
 20
1.987499
 30
0.000000
  0
VERTEX
  8
MERGEDLAYER-2
 10
4.882552
 20
1.987499
 30
0.000000
  0
SEQEND
  8
MERGEDLAYER-2
  0
POLYLINE
  8
MERGEDLAYER-2
 66
  1
 70
  0
 62
  8
 10
4.330392
 20
1.830712
 30
0.000000
  0
VERTEX
  8
MERGEDLAYER-2
 10
4.330392
 20
1.830712
 30
0.000000
  0
VERTEX
  8
MERGEDLAYER-2
 10
4.882552
 20
1.830712
 30
0.000000
  0
SEQEND
  8
MERGEDLAYER-2
  0
POLYLINE
  8
MERGEDLAYER-2
 66
  1
 70
  1
 62
  0
  0
VERTEX
  8
MERGEDLAYER-2
 10
2.121591
 20
2.382899
 30
0.000000
  0
VERTEX
  8
MERGEDLAYER-2
 10
2.673751
 20
2.382899
 30
0.000000
  0
VERTEX
  8
MERGEDLAYER-2
 10
2.673751
 20
2.171155
 30
0.000000
  0
VERTEX
  8
MERGEDLAYER-2
 10
2.121591
 20
2.171155
 30
0.000000
  0
SEQEND
  8
MERGEDLAYER-2
  0
POLYLINE
  8
MERGEDLAYER-2
 66
  1
 70
  0
 62
  8
 10
2.121591
 20
2.355632
 30
0.000000
  0
VERTEX
  8
MERGEDLAYER-2
 10
2.121591
 20
2.355632
 30
0.000000
  0
VERTEX
  8
MERGEDLAYER-2
 10
2.673751
 20
2.355632
 30
0.000000
  0
SEQEND
  8
MERGEDLAYER-2
  0
POLYLINE
  8
MERGEDLAYER-2
 66
  1
 70
  0
 62
  8
 10
2.121591
 20
2.198847
 30
0.000000
  0
VERTEX
  8
MERGEDLAYER-2
 10
2.121591
 20
2.198847
 30
0.000000
  0
VERTEX
  8
MERGEDLAYER-2
 10
2.673751
 20
2.198847
 30
0.000000
  0
SEQEND
  8
MERGEDLAYER-2
  0
POLYLINE
  8
MERGEDLAYER-2
 66
  1
 70
  1
 62
  0
  0
VERTEX
  8
MERGEDLAYER-2
 10
2.673792
 20
2.566962
 30
0.000000
  0
VERTEX
  8
MERGEDLAYER-2
 10
3.225950
 20
2.566962
 30
0.000000
  0
VERTEX
  8
MERGEDLAYER-2
 10
3.225950
 20
2.355220
 30
0.000000
  0
VERTEX
  8
MERGEDLAYER-2
 10
2.673792
 20
2.355220
 30
0.000000
  0
SEQEND
  8
MERGEDLAYER-2
  0
POLYLINE
  8
MERGEDLAYER-2
 66
  1
 70
  0
 62
  8
 10
2.673792
 20
2.539697
 30
0.000000
  0
VERTEX
  8
MERGEDLAYER-2
 10
2.673792
 20
2.539697
 30
0.000000
  0
VERTEX
  8
MERGEDLAYER-2
 10
3.225950
 20
2.539697
 30
0.000000
  0
SEQEND
  8
MERGEDLAYER-2
  0
POLYLINE
  8
MERGEDLAYER-2
 66
  1
 70
  0
 62
  8
 10
2.673792
 20
2.382913
 30
0.000000
  0
VERTEX
  8
MERGEDLAYER-2
 10
2.673792
 20
2.382913
 30
0.000000
  0
VERTEX
  8
MERGEDLAYER-2
 10
3.225950
 20
2.382913
 30
0.000000
  0
SEQEND
  8
MERGEDLAYER-2
  0
POLYLINE
  8
MERGEDLAYER-2
 66
  1
 70
  1
 62
  0
  0
VERTEX
  8
MERGEDLAYER-2
 10
1.017189
 20
2.382899
 30
0.000000
  0
VERTEX
  8
MERGEDLAYER-2
 10
1.569349
 20
2.382899
 30
0.000000
  0
VERTEX
  8
MERGEDLAYER-2
 10
1.569349
 20
2.171155
 30
0.000000
  0
VERTEX
  8
MERGEDLAYER-2
 10
1.017189
 20
2.171155
 30
0.000000
  0
SEQEND
  8
MERGEDLAYER-2
  0
POLYLINE
  8
MERGEDLAYER-2
 66
  1
 70
  0
 62
  8
 10
1.017189
 20
2.355632
 30
0.000000
  0
VERTEX
  8
MERGEDLAYER-2
 10
1.017189
 20
2.355632
 30
0.000000
  0
VERTEX
  8
MERGEDLAYER-2
 10
1.569349
 20
2.355632
 30
0.000000
  0
SEQEND
  8
MERGEDLAYER-2
  0
POLYLINE
  8
MERGEDLAYER-2
 66
  1
 70
  0
 62
  8
 10
1.017189
 20
2.198847
 30
0.000000
  0
VERTEX
  8
MERGEDLAYER-2
 10
1.017189
 20
2.198847
 30
0.000000
  0
VERTEX
  8
MERGEDLAYER-2
 10
1.569349
 20
2.198847
 30
0.000000
  0
SEQEND
  8
MERGEDLAYER-2
  0
POLYLINE
  8
MERGEDLAYER-2
 66
  1
 70
  1
 62
  0
  0
VERTEX
  8
MERGEDLAYER-2
 10
1.569389
 20
2.566962
 30
0.000000
  0
VERTEX
  8
MERGEDLAYER-2
 10
2.121549
 20
2.566962
 30
0.000000
  0
VERTEX
  8
MERGEDLAYER-2
 10
2.121549
 20
2.355220
 30
0.000000
  0
VERTEX
  8
MERGEDLAYER-2
 10
1.569389
 20
2.355220
 30
0.000000
  0
SEQEND
  8
MERGEDLAYER-2
  0
POLYLINE
  8
MERGEDLAYER-2
 66
  1
 70
  0
 62
  8
 10
1.569389
 20
2.539697
 30
0.000000
  0
VERTEX
  8
MERGEDLAYER-2
 10
1.569389
 20
2.539697
 30
0.000000
  0
VERTEX
  8
MERGEDLAYER-2
 10
2.121549
 20
2.539697
 30
0.000000
  0
SEQEND
  8
MERGEDLAYER-2
  0
POLYLINE
  8
MERGEDLAYER-2
 66
  1
 70
  0
 62
  8
 10
1.569389
 20
2.382913
 30
0.000000
  0
VERTEX
  8
MERGEDLAYER-2
 10
1.569389
 20
2.382913
 30
0.000000
  0
VERTEX
  8
MERGEDLAYER-2
 10
2.121549
 20
2.382913
 30
0.000000
  0
SEQEND
  8
MERGEDLAYER-2
  0
POLYLINE
  8
MERGEDLAYER-2
 66
  1
 70
  1
 62
  0
  0
VERTEX
  8
MERGEDLAYER-2
 10
3.225991
 20
2.382899
 30
0.000000
  0
VERTEX
  8
MERGEDLAYER-2
 10
3.778152
 20
2.382899
 30
0.000000
  0
VERTEX
  8
MERGEDLAYER-2
 10
3.778152
 20
2.171155
 30
0.000000
  0
VERTEX
  8
MERGEDLAYER-2
 10
3.225991
 20
2.171155
 30
0.000000
  0
SEQEND
  8
MERGEDLAYER-2
  0
POLYLINE
  8
MERGEDLAYER-2
 66
  1
 70
  0
 62
  8
 10
3.225991
 20
2.355632
 30
0.000000
  0
VERTEX
  8
MERGEDLAYER-2
 10
3.225991
 20
2.355632
 30
0.000000
  0
VERTEX
  8
MERGEDLAYER-2
 10
3.778152
 20
2.355632
 30
0.000000
  0
SEQEND
  8
MERGEDLAYER-2
  0
POLYLINE
  8
MERGEDLAYER-2
 66
  1
 70
  0
 62
  8
 10
3.225991
 20
2.198847
 30
0.000000
  0
VERTEX
  8
MERGEDLAYER-2
 10
3.225991
 20
2.198847
 30
0.000000
  0
VERTEX
  8
MERGEDLAYER-2
 10
3.778152
 20
2.198847
 30
0.000000
  0
SEQEND
  8
MERGEDLAYER-2
  0
POLYLINE
  8
MERGEDLAYER-2
 66
  1
 70
  1
 62
  0
  0
VERTEX
  8
MERGEDLAYER-2
 10
3.778192
 20
2.566962
 30
0.000000
  0
VERTEX
  8
MERGEDLAYER-2
 10
4.330348
 20
2.566962
 30
0.000000
  0
VERTEX
  8
MERGEDLAYER-2
 10
4.330348
 20
2.355220
 30
0.000000
  0
VERTEX
  8
MERGEDLAYER-2
 10
3.778192
 20
2.355220
 30
0.000000
  0
SEQEND
  8
MERGEDLAYER-2
  0
POLYLINE
  8
MERGEDLAYER-2
 66
  1
 70
  0
 62
  8
 10
3.778192
 20
2.539697
 30
0.000000
  0
VERTEX
  8
MERGEDLAYER-2
 10
3.778192
 20
2.539697
 30
0.000000
  0
VERTEX
  8
MERGEDLAYER-2
 10
4.330348
 20
2.539697
 30
0.000000
  0
SEQEND
  8
MERGEDLAYER-2
  0
POLYLINE
  8
MERGEDLAYER-2
 66
  1
 70
  0
 62
  8
 10
3.778192
 20
2.382913
 30
0.000000
  0
VERTEX
  8
MERGEDLAYER-2
 10
3.778192
 20
2.382913
 30
0.000000
  0
VERTEX
  8
MERGEDLAYER-2
 10
4.330348
 20
2.382913
 30
0.000000
  0
SEQEND
  8
MERGEDLAYER-2
  0
POLYLINE
  8
MERGEDLAYER-2
 66
  1
 70
  1
 62
  0
  0
VERTEX
  8
MERGEDLAYER-2
 10
4.330392
 20
2.382899
 30
0.000000
  0
VERTEX
  8
MERGEDLAYER-2
 10
4.882552
 20
2.382899
 30
0.000000
  0
VERTEX
  8
MERGEDLAYER-2
 10
4.882552
 20
2.171155
 30
0.000000
  0
VERTEX
  8
MERGEDLAYER-2
 10
4.330392
 20
2.171155
 30
0.000000
  0
SEQEND
  8
MERGEDLAYER-2
  0
POLYLINE
  8
MERGEDLAYER-2
 66
  1
 70
  0
 62
  8
 10
4.330392
 20
2.355632
 30
0.000000
  0
VERTEX
  8
MERGEDLAYER-2
 10
4.330392
 20
2.355632
 30
0.000000
  0
VERTEX
  8
MERGEDLAYER-2
 10
4.882552
 20
2.355632
 30
0.000000
  0
SEQEND
  8
MERGEDLAYER-2
  0
POLYLINE
  8
MERGEDLAYER-2
 66
  1
 70
  0
 62
  8
 10
4.330392
 20
2.198847
 30
0.000000
  0
VERTEX
  8
MERGEDLAYER-2
 10
4.330392
 20
2.198847
 30
0.000000
  0
VERTEX
  8
MERGEDLAYER-2
 10
4.882552
 20
2.198847
 30
0.000000
  0
SEQEND
  8
MERGEDLAYER-2
  0
POLYLINE
  8
MERGEDLAYER-2
 66
  1
 70
  1
 62
  0
  0
VERTEX
  8
MERGEDLAYER-2
 10
2.121591
 20
2.751028
 30
0.000000
  0
VERTEX
  8
MERGEDLAYER-2
 10
2.673751
 20
2.751028
 30
0.000000
  0
VERTEX
  8
MERGEDLAYER-2
 10
2.673751
 20
2.539285
 30
0.000000
  0
VERTEX
  8
MERGEDLAYER-2
 10
2.121591
 20
2.539285
 30
0.000000
  0
SEQEND
  8
MERGEDLAYER-2
  0
POLYLINE
  8
MERGEDLAYER-2
 66
  1
 70
  0
 62
  8
 10
2.121591
 20
2.723763
 30
0.000000
  0
VERTEX
  8
MERGEDLAYER-2
 10
2.121591
 20
2.723763
 30
0.000000
  0
VERTEX
  8
MERGEDLAYER-2
 10
2.673751
 20
2.723763
 30
0.000000
  0
SEQEND
  8
MERGEDLAYER-2
  0
POLYLINE
  8
MERGEDLAYER-2
 66
  1
 70
  0
 62
  8
 10
2.121591
 20
2.566977
 30
0.000000
  0
VERTEX
  8
MERGEDLAYER-2
 10
2.121591
 20
2.566977
 30
0.000000
  0
VERTEX
  8
MERGEDLAYER-2
 10
2.673751
 20
2.566977
 30
0.000000
  0
SEQEND
  8
MERGEDLAYER-2
  0
POLYLINE
  8
MERGEDLAYER-2
 66
  1
 70
  1
 62
  0
  0
VERTEX
  8
MERGEDLAYER-2
 10
2.673792
 20
2.935095
 30
0.000000
  0
VERTEX
  8
MERGEDLAYER-2
 10
3.225950
 20
2.935095
 30
0.000000
  0
VERTEX
  8
MERGEDLAYER-2
 10
3.225950
 20
2.723351
 30
0.000000
  0
VERTEX
  8
MERGEDLAYER-2
 10
2.673792
 20
2.723351
 30
0.000000
  0
SEQEND
  8
MERGEDLAYER-2
  0
POLYLINE
  8
MERGEDLAYER-2
 66
  1
 70
  0
 62
  8
 10
2.673792
 20
2.907828
 30
0.000000
  0
VERTEX
  8
MERGEDLAYER-2
 10
2.673792
 20
2.907828
 30
0.000000
  0
VERTEX
  8
MERGEDLAYER-2
 10
3.225950
 20
2.907828
 30
0.000000
  0
SEQEND
  8
MERGEDLAYER-2
  0
POLYLINE
  8
MERGEDLAYER-2
 66
  1
 70
  0
 62
  8
 10
2.673792
 20
2.751044
 30
0.000000
  0
VERTEX
  8
MERGEDLAYER-2
 10
2.673792
 20
2.751044
 30
0.000000
  0
VERTEX
  8
MERGEDLAYER-2
 10
3.225950
 20
2.751044
 30
0.000000
  0
SEQEND
  8
MERGEDLAYER-2
  0
POLYLINE
  8
MERGEDLAYER-2
 66
  1
 70
  1
 62
  0
  0
VERTEX
  8
MERGEDLAYER-2
 10
1.017189
 20
2.751028
 30
0.000000
  0
VERTEX
  8
MERGEDLAYER-2
 10
1.569349
 20
2.751028
 30
0.000000
  0
VERTEX
  8
MERGEDLAYER-2
 10
1.569349
 20
2.539285
 30
0.000000
  0
VERTEX
  8
MERGEDLAYER-2
 10
1.017189
 20
2.539285
 30
0.000000
  0
SEQEND
  8
MERGEDLAYER-2
  0
POLYLINE
  8
MERGEDLAYER-2
 66
  1
 70
  0
 62
  8
 10
1.017189
 20
2.723763
 30
0.000000
  0
VERTEX
  8
MERGEDLAYER-2
 10
1.017189
 20
2.723763
 30
0.000000
  0
VERTEX
  8
MERGEDLAYER-2
 10
1.569349
 20
2.723763
 30
0.000000
  0
SEQEND
  8
MERGEDLAYER-2
  0
POLYLINE
  8
MERGEDLAYER-2
 66
  1
 70
  0
 62
  8
 10
1.017189
 20
2.566977
 30
0.000000
  0
VERTEX
  8
MERGEDLAYER-2
 10
1.017189
 20
2.566977
 30
0.000000
  0
VERTEX
  8
MERGEDLAYER-2
 10
1.569349
 20
2.566977
 30
0.000000
  0
SEQEND
  8
MERGEDLAYER-2
  0
POLYLINE
  8
MERGEDLAYER-2
 66
  1
 70
  1
 62
  0
  0
VERTEX
  8
MERGEDLAYER-2
 10
1.569389
 20
2.935095
 30
0.000000
  0
VERTEX
  8
MERGEDLAYER-2
 10
2.121549
 20
2.935095
 30
0.000000
  0
VERTEX
  8
MERGEDLAYER-2
 10
2.121549
 20
2.723351
 30
0.000000
  0
VERTEX
  8
MERGEDLAYER-2
 10
1.569389
 20
2.723351
 30
0.000000
  0
SEQEND
  8
MERGEDLAYER-2
  0
POLYLINE
  8
MERGEDLAYER-2
 66
  1
 70
  0
 62
  8
 10
1.569389
 20
2.907828
 30
0.000000
  0
VERTEX
  8
MERGEDLAYER-2
 10
1.569389
 20
2.907828
 30
0.000000
  0
VERTEX
  8
MERGEDLAYER-2
 10
2.121549
 20
2.907828
 30
0.000000
  0
SEQEND
  8
MERGEDLAYER-2
  0
POLYLINE
  8
MERGEDLAYER-2
 66
  1
 70
  0
 62
  8
 10
1.569389
 20
2.751044
 30
0.000000
  0
VERTEX
  8
MERGEDLAYER-2
 10
1.569389
 20
2.751044
 30
0.000000
  0
VERTEX
  8
MERGEDLAYER-2
 10
2.121549
 20
2.751044
 30
0.000000
  0
SEQEND
  8
MERGEDLAYER-2
  0
POLYLINE
  8
MERGEDLAYER-2
 66
  1
 70
  1
 62
  0
  0
VERTEX
  8
MERGEDLAYER-2
 10
3.225991
 20
2.751028
 30
0.000000
  0
VERTEX
  8
MERGEDLAYER-2
 10
3.778152
 20
2.751028
 30
0.000000
  0
VERTEX
  8
MERGEDLAYER-2
 10
3.778152
 20
2.539285
 30
0.000000
  0
VERTEX
  8
MERGEDLAYER-2
 10
3.225991
 20
2.539285
 30
0.000000
  0
SEQEND
  8
MERGEDLAYER-2
  0
POLYLINE
  8
MERGEDLAYER-2
 66
  1
 70
  0
 62
  8
 10
3.225991
 20
2.723763
 30
0.000000
  0
VERTEX
  8
MERGEDLAYER-2
 10
3.225991
 20
2.723763
 30
0.000000
  0
VERTEX
  8
MERGEDLAYER-2
 10
3.778152
 20
2.723763
 30
0.000000
  0
SEQEND
  8
MERGEDLAYER-2
  0
POLYLINE
  8
MERGEDLAYER-2
 66
  1
 70
  0
 62
  8
 10
3.225991
 20
2.566977
 30
0.000000
  0
VERTEX
  8
MERGEDLAYER-2
 10
3.225991
 20
2.566977
 30
0.000000
  0
VERTEX
  8
MERGEDLAYER-2
 10
3.778152
 20
2.566977
 30
0.000000
  0
SEQEND
  8
MERGEDLAYER-2
  0
POLYLINE
  8
MERGEDLAYER-2
 66
  1
 70
  1
 62
  0
  0
VERTEX
  8
MERGEDLAYER-2
 10
3.778192
 20
2.935095
 30
0.000000
  0
VERTEX
  8
MERGEDLAYER-2
 10
4.330348
 20
2.935095
 30
0.000000
  0
VERTEX
  8
MERGEDLAYER-2
 10
4.330348
 20
2.723351
 30
0.000000
  0
VERTEX
  8
MERGEDLAYER-2
 10
3.778192
 20
2.723351
 30
0.000000
  0
SEQEND
  8
MERGEDLAYER-2
  0
POLYLINE
  8
MERGEDLAYER-2
 66
  1
 70
  0
 62
  8
 10
3.778192
 20
2.907828
 30
0.000000
  0
VERTEX
  8
MERGEDLAYER-2
 10
3.778192
 20
2.907828
 30
0.000000
  0
VERTEX
  8
MERGEDLAYER-2
 10
4.330348
 20
2.907828
 30
0.000000
  0
SEQEND
  8
MERGEDLAYER-2
  0
POLYLINE
  8
MERGEDLAYER-2
 66
  1
 70
  0
 62
  8
 10
3.778192
 20
2.751044
 30
0.000000
  0
VERTEX
  8
MERGEDLAYER-2
 10
3.778192
 20
2.751044
 30
0.000000
  0
VERTEX
  8
MERGEDLAYER-2
 10
4.330348
 20
2.751044
 30
0.000000
  0
SEQEND
  8
MERGEDLAYER-2
  0
POLYLINE
  8
MERGEDLAYER-2
 66
  1
 70
  1
 62
  0
  0
VERTEX
  8
MERGEDLAYER-2
 10
4.330392
 20
2.751028
 30
0.000000
  0
VERTEX
  8
MERGEDLAYER-2
 10
4.882552
 20
2.751028
 30
0.000000
  0
VERTEX
  8
MERGEDLAYER-2
 10
4.882552
 20
2.539285
 30
0.000000
  0
VERTEX
  8
MERGEDLAYER-2
 10
4.330392
 20
2.539285
 30
0.000000
  0
SEQEND
  8
MERGEDLAYER-2
  0
POLYLINE
  8
MERGEDLAYER-2
 66
  1
 70
  0
 62
  8
 10
4.330392
 20
2.723763
 30
0.000000
  0
VERTEX
  8
MERGEDLAYER-2
 10
4.330392
 20
2.723763
 30
0.000000
  0
VERTEX
  8
MERGEDLAYER-2
 10
4.882552
 20
2.723763
 30
0.000000
  0
SEQEND
  8
MERGEDLAYER-2
  0
POLYLINE
  8
MERGEDLAYER-2
 66
  1
 70
  0
 62
  8
 10
4.330392
 20
2.566977
 30
0.000000
  0
VERTEX
  8
MERGEDLAYER-2
 10
4.330392
 20
2.566977
 30
0.000000
  0
VERTEX
  8
MERGEDLAYER-2
 10
4.882552
 20
2.566977
 30
0.000000
  0
SEQEND
  8
MERGEDLAYER-2
  0
POLYLINE
  8
MERGEDLAYER-2
 66
  1
 70
  1
 62
  0
  0
VERTEX
  8
MERGEDLAYER-2
 10
2.121591
 20
3.119163
 30
0.000000
  0
VERTEX
  8
MERGEDLAYER-2
 10
2.673751
 20
3.119163
 30
0.000000
  0
VERTEX
  8
MERGEDLAYER-2
 10
2.673751
 20
2.907419
 30
0.000000
  0
VERTEX
  8
MERGEDLAYER-2
 10
2.121591
 20
2.907419
 30
0.000000
  0
SEQEND
  8
MERGEDLAYER-2
  0
POLYLINE
  8
MERGEDLAYER-2
 66
  1
 70
  0
 62
  8
 10
2.121591
 20
3.091896
 30
0.000000
  0
VERTEX
  8
MERGEDLAYER-2
 10
2.121591
 20
3.091896
 30
0.000000
  0
VERTEX
  8
MERGEDLAYER-2
 10
2.673751
 20
3.091896
 30
0.000000
  0
SEQEND
  8
MERGEDLAYER-2
  0
POLYLINE
  8
MERGEDLAYER-2
 66
  1
 70
  0
 62
  8
 10
2.121591
 20
2.935111
 30
0.000000
  0
VERTEX
  8
MERGEDLAYER-2
 10
2.121591
 20
2.935111
 30
0.000000
  0
VERTEX
  8
MERGEDLAYER-2
 10
2.673751
 20
2.935111
 30
0.000000
  0
SEQEND
  8
MERGEDLAYER-2
  0
POLYLINE
  8
MERGEDLAYER-2
 66
  1
 70
  1
 62
  0
  0
VERTEX
  8
MERGEDLAYER-2
 10
2.673792
 20
3.303229
 30
0.000000
  0
VERTEX
  8
MERGEDLAYER-2
 10
3.225950
 20
3.303229
 30
0.000000
  0
VERTEX
  8
MERGEDLAYER-2
 10
3.225950
 20
3.091485
 30
0.000000
  0
VERTEX
  8
MERGEDLAYER-2
 10
2.673792
 20
3.091485
 30
0.000000
  0
SEQEND
  8
MERGEDLAYER-2
  0
POLYLINE
  8
MERGEDLAYER-2
 66
  1
 70
  0
 62
  8
 10
2.673792
 20
3.275963
 30
0.000000
  0
VERTEX
  8
MERGEDLAYER-2
 10
2.673792
 20
3.275963
 30
0.000000
  0
VERTEX
  8
MERGEDLAYER-2
 10
3.225950
 20
3.275963
 30
0.000000
  0
SEQEND
  8
MERGEDLAYER-2
  0
POLYLINE
  8
MERGEDLAYER-2
 66
  1
 70
  0
 62
  8
 10
2.673792
 20
3.119177
 30
0.000000
  0
VERTEX
  8
MERGEDLAYER-2
 10
2.673792
 20
3.119177
 30
0.000000
  0
VERTEX
  8
MERGEDLAYER-2
 10
3.225950
 20
3.119177
 30
0.000000
  0
SEQEND
  8
MERGEDLAYER-2
  0
POLYLINE
  8
MERGEDLAYER-2
 66
  1
 70
  1
 62
  0
  0
VERTEX
  8
MERGEDLAYER-2
 10
1.017189
 20
3.119163
 30
0.000000
  0
VERTEX
  8
MERGEDLAYER-2
 10
1.569349
 20
3.119163
 30
0.000000
  0
VERTEX
  8
MERGEDLAYER-2
 10
1.569349
 20
2.907419
 30
0.000000
  0
VERTEX
  8
MERGEDLAYER-2
 10
1.017189
 20
2.907419
 30
0.000000
  0
SEQEND
  8
MERGEDLAYER-2
  0
POLYLINE
  8
MERGEDLAYER-2
 66
  1
 70
  0
 62
  8
 10
1.017189
 20
3.091896
 30
0.000000
  0
VERTEX
  8
MERGEDLAYER-2
 10
1.017189
 20
3.091896
 30
0.000000
  0
VERTEX
  8
MERGEDLAYER-2
 10
1.569349
 20
3.091896
 30
0.000000
  0
SEQEND
  8
MERGEDLAYER-2
  0
POLYLINE
  8
MERGEDLAYER-2
 66
  1
 70
  0
 62
  8
 10
1.017189
 20
2.935111
 30
0.000000
  0
VERTEX
  8
MERGEDLAYER-2
 10
1.017189
 20
2.935111
 30
0.000000
  0
VERTEX
  8
MERGEDLAYER-2
 10
1.569349
 20
2.935111
 30
0.000000
  0
SEQEND
  8
MERGEDLAYER-2
  0
POLYLINE
  8
MERGEDLAYER-2
 66
  1
 70
  1
 62
  0
  0
VERTEX
  8
MERGEDLAYER-2
 10
1.569389
 20
3.303229
 30
0.000000
  0
VERTEX
  8
MERGEDLAYER-2
 10
2.121549
 20
3.303229
 30
0.000000
  0
VERTEX
  8
MERGEDLAYER-2
 10
2.121549
 20
3.091485
 30
0.000000
  0
VERTEX
  8
MERGEDLAYER-2
 10
1.569389
 20
3.091485
 30
0.000000
  0
SEQEND
  8
MERGEDLAYER-2
  0
POLYLINE
  8
MERGEDLAYER-2
 66
  1
 70
  0
 62
  8
 10
1.569389
 20
3.275963
 30
0.000000
  0
VERTEX
  8
MERGEDLAYER-2
 10
1.569389
 20
3.275963
 30
0.000000
  0
VERTEX
  8
MERGEDLAYER-2
 10
2.121549
 20
3.275963
 30
0.000000
  0
SEQEND
  8
MERGEDLAYER-2
  0
POLYLINE
  8
MERGEDLAYER-2
 66
  1
 70
  0
 62
  8
 10
1.569389
 20
3.119177
 30
0.000000
  0
VERTEX
  8
MERGEDLAYER-2
 10
1.569389
 20
3.119177
 30
0.000000
  0
VERTEX
  8
MERGEDLAYER-2
 10
2.121549
 20
3.119177
 30
0.000000
  0
SEQEND
  8
MERGEDLAYER-2
  0
POLYLINE
  8
MERGEDLAYER-2
 66
  1
 70
  1
 62
  0
  0
VERTEX
  8
MERGEDLAYER-2
 10
3.225991
 20
3.119163
 30
0.000000
  0
VERTEX
  8
MERGEDLAYER-2
 10
3.778152
 20
3.119163
 30
0.000000
  0
VERTEX
  8
MERGEDLAYER-2
 10
3.778152
 20
2.907419
 30
0.000000
  0
VERTEX
  8
MERGEDLAYER-2
 10
3.225991
 20
2.907419
 30
0.000000
  0
SEQEND
  8
MERGEDLAYER-2
  0
POLYLINE
  8
MERGEDLAYER-2
 66
  1
 70
  0
 62
  8
 10
3.225991
 20
3.091896
 30
0.000000
  0
VERTEX
  8
MERGEDLAYER-2
 10
3.225991
 20
3.091896
 30
0.000000
  0
VERTEX
  8
MERGEDLAYER-2
 10
3.778152
 20
3.091896
 30
0.000000
  0
SEQEND
  8
MERGEDLAYER-2
  0
POLYLINE
  8
MERGEDLAYER-2
 66
  1
 70
  0
 62
  8
 10
3.225991
 20
2.935111
 30
0.000000
  0
VERTEX
  8
MERGEDLAYER-2
 10
3.225991
 20
2.935111
 30
0.000000
  0
VERTEX
  8
MERGEDLAYER-2
 10
3.778152
 20
2.935111
 30
0.000000
  0
SEQEND
  8
MERGEDLAYER-2
  0
POLYLINE
  8
MERGEDLAYER-2
 66
  1
 70
  1
 62
  0
  0
VERTEX
  8
MERGEDLAYER-2
 10
3.778192
 20
3.303229
 30
0.000000
  0
VERTEX
  8
MERGEDLAYER-2
 10
4.330348
 20
3.303229
 30
0.000000
  0
VERTEX
  8
MERGEDLAYER-2
 10
4.330348
 20
3.091485
 30
0.000000
  0
VERTEX
  8
MERGEDLAYER-2
 10
3.778192
 20
3.091485
 30
0.000000
  0
SEQEND
  8
MERGEDLAYER-2
  0
POLYLINE
  8
MERGEDLAYER-2
 66
  1
 70
  0
 62
  8
 10
3.778192
 20
3.275963
 30
0.000000
  0
VERTEX
  8
MERGEDLAYER-2
 10
3.778192
 20
3.275963
 30
0.000000
  0
VERTEX
  8
MERGEDLAYER-2
 10
4.330348
 20
3.275963
 30
0.000000
  0
SEQEND
  8
MERGEDLAYER-2
  0
POLYLINE
  8
MERGEDLAYER-2
 66
  1
 70
  0
 62
  8
 10
3.778192
 20
3.119177
 30
0.000000
  0
VERTEX
  8
MERGEDLAYER-2
 10
3.778192
 20
3.119177
 30
0.000000
  0
VERTEX
  8
MERGEDLAYER-2
 10
4.330348
 20
3.119177
 30
0.000000
  0
SEQEND
  8
MERGEDLAYER-2
  0
POLYLINE
  8
MERGEDLAYER-2
 66
  1
 70
  1
 62
  0
  0
VERTEX
  8
MERGEDLAYER-2
 10
4.330392
 20
3.119163
 30
0.000000
  0
VERTEX
  8
MERGEDLAYER-2
 10
4.882552
 20
3.119163
 30
0.000000
  0
VERTEX
  8
MERGEDLAYER-2
 10
4.882552
 20
2.907419
 30
0.000000
  0
VERTEX
  8
MERGEDLAYER-2
 10
4.330392
 20
2.907419
 30
0.000000
  0
SEQEND
  8
MERGEDLAYER-2
  0
POLYLINE
  8
MERGEDLAYER-2
 66
  1
 70
  0
 62
  8
 10
4.330392
 20
3.091896
 30
0.000000
  0
VERTEX
  8
MERGEDLAYER-2
 10
4.330392
 20
3.091896
 30
0.000000
  0
VERTEX
  8
MERGEDLAYER-2
 10
4.882552
 20
3.091896
 30
0.000000
  0
SEQEND
  8
MERGEDLAYER-2
  0
POLYLINE
  8
MERGEDLAYER-2
 66
  1
 70
  0
 62
  8
 10
4.330392
 20
2.935111
 30
0.000000
  0
VERTEX
  8
MERGEDLAYER-2
 10
4.330392
 20
2.935111
 30
0.000000
  0
VERTEX
  8
MERGEDLAYER-2
 10
4.882552
 20
2.935111
 30
0.000000
  0
SEQEND
  8
MERGEDLAYER-2
  0
POLYLINE
  8
MERGEDLAYER-2
 66
  1
 70
  1
 62
  0
  0
VERTEX
  8
MERGEDLAYER-2
 10
2.121591
 20
3.487295
 30
0.000000
  0
VERTEX
  8
MERGEDLAYER-2
 10
2.673751
 20
3.487295
 30
0.000000
  0
VERTEX
  8
MERGEDLAYER-2
 10
2.673751
 20
3.275551
 30
0.000000
  0
VERTEX
  8
MERGEDLAYER-2
 10
2.121591
 20
3.275551
 30
0.000000
  0
SEQEND
  8
MERGEDLAYER-2
  0
POLYLINE
  8
MERGEDLAYER-2
 66
  1
 70
  0
 62
  8
 10
2.121591
 20
3.460029
 30
0.000000
  0
VERTEX
  8
MERGEDLAYER-2
 10
2.121591
 20
3.460029
 30
0.000000
  0
VERTEX
  8
MERGEDLAYER-2
 10
2.673751
 20
3.460029
 30
0.000000
  0
SEQEND
  8
MERGEDLAYER-2
  0
POLYLINE
  8
MERGEDLAYER-2
 66
  1
 70
  0
 62
  8
 10
2.121591
 20
3.303243
 30
0.000000
  0
VERTEX
  8
MERGEDLAYER-2
 10
2.121591
 20
3.303243
 30
0.000000
  0
VERTEX
  8
MERGEDLAYER-2
 10
2.673751
 20
3.303243
 30
0.000000
  0
SEQEND
  8
MERGEDLAYER-2
  0
POLYLINE
  8
MERGEDLAYER-2
 66
  1
 70
  1
 62
  0
  0
VERTEX
  8
MERGEDLAYER-2
 10
1.017189
 20
3.487295
 30
0.000000
  0
VERTEX
  8
MERGEDLAYER-2
 10
1.569349
 20
3.487295
 30
0.000000
  0
VERTEX
  8
MERGEDLAYER-2
 10
1.569349
 20
3.275551
 30
0.000000
  0
VERTEX
  8
MERGEDLAYER-2
 10
1.017189
 20
3.275551
 30
0.000000
  0
SEQEND
  8
MERGEDLAYER-2
  0
POLYLINE
  8
MERGEDLAYER-2
 66
  1
 70
  0
 62
  8
 10
1.017189
 20
3.460029
 30
0.000000
  0
VERTEX
  8
MERGEDLAYER-2
 10
1.017189
 20
3.460029
 30
0.000000
  0
VERTEX
  8
MERGEDLAYER-2
 10
1.569349
 20
3.460029
 30
0.000000
  0
SEQEND
  8
MERGEDLAYER-2
  0
POLYLINE
  8
MERGEDLAYER-2
 66
  1
 70
  0
 62
  8
 10
1.017189
 20
3.303243
 30
0.000000
  0
VERTEX
  8
MERGEDLAYER-2
 10
1.017189
 20
3.303243
 30
0.000000
  0
VERTEX
  8
MERGEDLAYER-2
 10
1.569349
 20
3.303243
 30
0.000000
  0
SEQEND
  8
MERGEDLAYER-2
  0
POLYLINE
  8
MERGEDLAYER-2
 66
  1
 70
  1
 62
  0
  0
VERTEX
  8
MERGEDLAYER-2
 10
3.225991
 20
3.487295
 30
0.000000
  0
VERTEX
  8
MERGEDLAYER-2
 10
3.778152
 20
3.487295
 30
0.000000
  0
VERTEX
  8
MERGEDLAYER-2
 10
3.778152
 20
3.275551
 30
0.000000
  0
VERTEX
  8
MERGEDLAYER-2
 10
3.225991
 20
3.275551
 30
0.000000
  0
SEQEND
  8
MERGEDLAYER-2
  0
POLYLINE
  8
MERGEDLAYER-2
 66
  1
 70
  0
 62
  8
 10
3.225991
 20
3.460029
 30
0.000000
  0
VERTEX
  8
MERGEDLAYER-2
 10
3.225991
 20
3.460029
 30
0.000000
  0
VERTEX
  8
MERGEDLAYER-2
 10
3.778152
 20
3.460029
 30
0.000000
  0
SEQEND
  8
MERGEDLAYER-2
  0
POLYLINE
  8
MERGEDLAYER-2
 66
  1
 70
  0
 62
  8
 10
3.225991
 20
3.303243
 30
0.000000
  0
VERTEX
  8
MERGEDLAYER-2
 10
3.225991
 20
3.303243
 30
0.000000
  0
VERTEX
  8
MERGEDLAYER-2
 10
3.778152
 20
3.303243
 30
0.000000
  0
SEQEND
  8
MERGEDLAYER-2
  0
POLYLINE
  8
MERGEDLAYER-2
 66
  1
 70
  1
 62
  0
  0
VERTEX
  8
MERGEDLAYER-2
 10
4.330392
 20
3.487295
 30
0.000000
  0
VERTEX
  8
MERGEDLAYER-2
 10
4.882552
 20
3.487295
 30
0.000000
  0
VERTEX
  8
MERGEDLAYER-2
 10
4.882552
 20
3.275551
 30
0.000000
  0
VERTEX
  8
MERGEDLAYER-2
 10
4.330392
 20
3.275551
 30
0.000000
  0
SEQEND
  8
MERGEDLAYER-2
  0
POLYLINE
  8
MERGEDLAYER-2
 66
  1
 70
  0
 62
  8
 10
4.330392
 20
3.460029
 30
0.000000
  0
VERTEX
  8
MERGEDLAYER-2
 10
4.330392
 20
3.460029
 30
0.000000
  0
VERTEX
  8
MERGEDLAYER-2
 10
4.882552
 20
3.460029
 30
0.000000
  0
SEQEND
  8
MERGEDLAYER-2
  0
POLYLINE
  8
MERGEDLAYER-2
 66
  1
 70
  0
 62
  8
 10
4.330392
 20
3.303243
 30
0.000000
  0
VERTEX
  8
MERGEDLAYER-2
 10
4.330392
 20
3.303243
 30
0.000000
  0
VERTEX
  8
MERGEDLAYER-2
 10
4.882552
 20
3.303243
 30
0.000000
  0
SEQEND
  8
MERGEDLAYER-2
  0
POLYLINE
  8
MERGEDLAYER-2
 66
  1
 70
  1
 62
 10
  0
VERTEX
  8
MERGEDLAYER-2
 10
4.329990
 20
0.541360
 30
0.000000
  0
VERTEX
  8
MERGEDLAYER-2
 10
4.881681
 20
0.541360
 30
0.000000
  0
VERTEX
  8
MERGEDLAYER-2
 10
4.881681
 20
0.513923
 30
0.000000
  0
VERTEX
  8
MERGEDLAYER-2
 10
4.329990
 20
0.513923
 30
0.000000
  0
SEQEND
  8
MERGEDLAYER-2
  0
POLYLINE
  8
MERGEDLAYER-2
 66
  1
 70
  1
 62
  0
  0
VERTEX
  8
MERGEDLAYER-2
 10
1.016838
 20
0.541361
 30
0.000000
  0
VERTEX
  8
MERGEDLAYER-2
 10
1.569977
 20
0.541361
 30
0.000000
  0
VERTEX
  8
MERGEDLAYER-2
 10
1.569977
 20
0.513923
 30
0.000000
  0
VERTEX
  8
MERGEDLAYER-2
 10
1.016838
 20
0.513923
 30
0.000000
  0
SEQEND
  8
MERGEDLAYER-2
  0
POLYLINE
  8
MERGEDLAYER-2
 66
  1
 70
  1
 62
 10
  0
VERTEX
  8
MERGEDLAYER-2
 10
2.121223
 20
0.541361
 30
0.000000
  0
VERTEX
  8
MERGEDLAYER-2
 10
2.674365
 20
0.541361
 30
0.000000
  0
VERTEX
  8
MERGEDLAYER-2
 10
2.674365
 20
0.513923
 30
0.000000
  0
VERTEX
  8
MERGEDLAYER-2
 10
2.121223
 20
0.513923
 30
0.000000
  0
SEQEND
  8
MERGEDLAYER-2
  0
POLYLINE
  8
MERGEDLAYER-2
 66
  1
 70
  1
 62
 10
  0
VERTEX
  8
MERGEDLAYER-2
 10
3.225608
 20
0.541361
 30
0.000000
  0
VERTEX
  8
MERGEDLAYER-2
 10
3.778748
 20
0.541361
 30
0.000000
  0
VERTEX
  8
MERGEDLAYER-2
 10
3.778748
 20
0.513923
 30
0.000000
  0
VERTEX
  8
MERGEDLAYER-2
 10
3.225608
 20
0.513923
 30
0.000000
  0
SEQEND
  8
MERGEDLAYER-2
  0
TEXT
  8
MERGEDLAYER-2
 62
  0
 10
4.583333
 20
7.111112
 30
0.000000
 40
0.145833
  1
3" (76
 72
  5
 11
5.180556
 21
7.111112
 31
0.000000
  0
TEXT
  8
MERGEDLAYER-2
 62
  0
 10
5.180556
 20
7.111112
 30
0.000000
 40
0.125000
  1
mm
 72
  5
 11
5.555556
 21
7.111112
 31
0.000000
  0
TEXT
  8
MERGEDLAYER-2
 62
  0
 10
5.555556
 20
7.111112
 30
0.000000
 40
0.145833
  1
)
 72
  5
 11
5.694444
 21
7.111112
 31
0.000000
  0
TEXT
  8
MERGEDLAYER-2
 62
  0
 10
4.583333
 20
6.888890
 30
0.000000
 40
0.145833
  1
c/c des
 72
  5
 11
5.277778
 21
6.888890
 31
0.000000
  0
TEXT
  8
MERGEDLAYER-2
 62
  0
 10
4.583333
 20
6.666668
 30
0.000000
 40
0.145833
  1
tiges
 72
  5
 11
5.069444
 21
6.666668
 31
0.000000
  0
POLYLINE
  8
MERGEDLAYER-2
 66
  1
 70
  1
 62
  0
  0
VERTEX
  8
MERGEDLAYER-2
 10
3.289074
 20
6.423974
 30
0.000000
  0
VERTEX
  8
MERGEDLAYER-2
 10
4.280542
 20
6.423974
 30
0.000000
  0
VERTEX
  8
MERGEDLAYER-2
 10
4.280542
 20
6.043757
 30
0.000000
  0
VERTEX
  8
MERGEDLAYER-2
 10
3.289074
 20
6.043757
 30
0.000000
  0
SEQEND
  8
MERGEDLAYER-2
  0
POLYLINE
  8
MERGEDLAYER-2
 66
  1
 70
  0
 62
  8
 10
4.280542
 20
6.375013
 30
0.000000
  0
VERTEX
  8
MERGEDLAYER-2
 10
4.280542
 20
6.375013
 30
0.000000
  0
VERTEX
  8
MERGEDLAYER-2
 10
3.289074
 20
6.375013
 30
0.000000
  0
SEQEND
  8
MERGEDLAYER-2
  0
POLYLINE
  8
MERGEDLAYER-2
 66
  1
 70
  0
 62
  8
 10
4.280542
 20
6.093482
 30
0.000000
  0
VERTEX
  8
MERGEDLAYER-2
 10
4.280542
 20
6.093482
 30
0.000000
  0
VERTEX
  8
MERGEDLAYER-2
 10
3.289074
 20
6.093482
 30
0.000000
  0
SEQEND
  8
MERGEDLAYER-2
  0
POLYLINE
  8
MERGEDLAYER-2
 66
  1
 70
  1
 62
  0
  0
VERTEX
  8
MERGEDLAYER-2
 10
3.289074
 20
7.085007
 30
0.000000
  0
VERTEX
  8
MERGEDLAYER-2
 10
4.280542
 20
7.085007
 30
0.000000
  0
VERTEX
  8
MERGEDLAYER-2
 10
4.280542
 20
6.704792
 30
0.000000
  0
VERTEX
  8
MERGEDLAYER-2
 10
3.289074
 20
6.704792
 30
0.000000
  0
SEQEND
  8
MERGEDLAYER-2
  0
POLYLINE
  8
MERGEDLAYER-2
 66
  1
 70
  0
 62
  8
 10
4.280542
 20
7.036047
 30
0.000000
  0
VERTEX
  8
MERGEDLAYER-2
 10
4.280542
 20
7.036047
 30
0.000000
  0
VERTEX
  8
MERGEDLAYER-2
 10
3.289074
 20
7.036047
 30
0.000000
  0
SEQEND
  8
MERGEDLAYER-2
  0
POLYLINE
  8
MERGEDLAYER-2
 66
  1
 70
  0
 62
  8
 10
4.280542
 20
6.754517
 30
0.000000
  0
VERTEX
  8
MERGEDLAYER-2
 10
4.280542
 20
6.754517
 30
0.000000
  0
VERTEX
  8
MERGEDLAYER-2
 10
3.289074
 20
6.754517
 30
0.000000
  0
SEQEND
  8
MERGEDLAYER-2
  0
POLYLINE
  8
MERGEDLAYER-2
 66
  1
 70
  1
 62
  0
  0
VERTEX
  8
MERGEDLAYER-2
 10
2.297520
 20
6.754491
 30
0.000000
  0
VERTEX
  8
MERGEDLAYER-2
 10
3.288993
 20
6.754491
 30
0.000000
  0
VERTEX
  8
MERGEDLAYER-2
 10
3.288993
 20
6.374276
 30
0.000000
  0
VERTEX
  8
MERGEDLAYER-2
 10
2.297520
 20
6.374276
 30
0.000000
  0
SEQEND
  8
MERGEDLAYER-2
  0
POLYLINE
  8
MERGEDLAYER-2
 66
  1
 70
  0
 62
  8
 10
3.288993
 20
6.705531
 30
0.000000
  0
VERTEX
  8
MERGEDLAYER-2
 10
3.288993
 20
6.705531
 30
0.000000
  0
VERTEX
  8
MERGEDLAYER-2
 10
2.297520
 20
6.705531
 30
0.000000
  0
SEQEND
  8
MERGEDLAYER-2
  0
POLYLINE
  8
MERGEDLAYER-2
 66
  1
 70
  0
 62
  8
 10
3.288993
 20
6.424000
 30
0.000000
  0
VERTEX
  8
MERGEDLAYER-2
 10
3.288993
 20
6.424000
 30
0.000000
  0
VERTEX
  8
MERGEDLAYER-2
 10
2.297520
 20
6.424000
 30
0.000000
  0
SEQEND
  8
MERGEDLAYER-2
  0
POLYLINE
  8
MERGEDLAYER-2
 66
  1
 70
  1
 62
  0
  0
VERTEX
  8
MERGEDLAYER-2
 10
2.297520
 20
7.415525
 30
0.000000
  0
VERTEX
  8
MERGEDLAYER-2
 10
3.288993
 20
7.415525
 30
0.000000
  0
VERTEX
  8
MERGEDLAYER-2
 10
3.288993
 20
7.035309
 30
0.000000
  0
VERTEX
  8
MERGEDLAYER-2
 10
2.297520
 20
7.035309
 30
0.000000
  0
SEQEND
  8
MERGEDLAYER-2
  0
POLYLINE
  8
MERGEDLAYER-2
 66
  1
 70
  0
 62
  8
 10
3.288993
 20
7.366565
 30
0.000000
  0
VERTEX
  8
MERGEDLAYER-2
 10
3.288993
 20
7.366565
 30
0.000000
  0
VERTEX
  8
MERGEDLAYER-2
 10
2.297520
 20
7.366565
 30
0.000000
  0
SEQEND
  8
MERGEDLAYER-2
  0
POLYLINE
  8
MERGEDLAYER-2
 66
  1
 70
  0
 62
  8
 10
3.288993
 20
7.085034
 30
0.000000
  0
VERTEX
  8
MERGEDLAYER-2
 10
3.288993
 20
7.085034
 30
0.000000
  0
VERTEX
  8
MERGEDLAYER-2
 10
2.297520
 20
7.085034
 30
0.000000
  0
SEQEND
  8
MERGEDLAYER-2
  0
POLYLINE
  8
MERGEDLAYER-2
 66
  1
 70
  0
 62
  0
 10
4.387743
 20
6.726340
 30
0.000000
  0
VERTEX
  8
MERGEDLAYER-2
 10
4.387743
 20
6.726340
 30
0.000000
  0
VERTEX
  8
MERGEDLAYER-2
 10
4.388889
 20
7.055556
 30
0.000000
  0
SEQEND
  8
MERGEDLAYER-2
  0
POLYLINE
  8
MERGEDLAYER-2
 66
  1
 70
  0
 62
  0
 10
4.323425
 20
7.054350
 30
0.000000
  0
VERTEX
  8
MERGEDLAYER-2
 10
4.323425
 20
7.054350
 30
0.000000
  0
VERTEX
  8
MERGEDLAYER-2
 10
4.469209
 20
7.054350
 30
0.000000
  0
SEQEND
  8
MERGEDLAYER-2
  0
POLYLINE
  8
MERGEDLAYER-2
 66
  1
 70
  0
 62
  0
 10
4.323425
 20
6.726340
 30
0.000000
  0
VERTEX
  8
MERGEDLAYER-2
 10
4.323425
 20
6.726340
 30
0.000000
  0
VERTEX
  8
MERGEDLAYER-2
 10
4.469209
 20
6.726340
 30
0.000000
  0
SEQEND
  8
MERGEDLAYER-2
  0
POLYLINE
  8
MERGEDLAYER-2
 66
  1
 70
  0
 62
  0
 10
4.357727
 20
7.024336
 30
0.000000
  0
VERTEX
  8
MERGEDLAYER-2
 10
4.357727
 20
7.024336
 30
0.000000
  0
VERTEX
  8
MERGEDLAYER-2
 10
4.422042
 20
7.088651
 30
0.000000
  0
SEQEND
  8
MERGEDLAYER-2
  0
POLYLINE
  8
MERGEDLAYER-2
 66
  1
 70
  0
 62
  0
 10
4.359871
 20
6.698469
 30
0.000000
  0
VERTEX
  8
MERGEDLAYER-2
 10
4.359871
 20
6.698469
 30
0.000000
  0
VERTEX
  8
MERGEDLAYER-2
 10
4.424186
 20
6.762785
 30
0.000000
  0
SEQEND
  8
MERGEDLAYER-2
  0
POLYLINE
  8
MERGEDLAYER-2
 66
  1
 70
  1
 62
  0
  0
VERTEX
  8
MERGEDLAYER-2
 10
4.882592
 20
0.726298
 30
0.000000
  0
VERTEX
  8
MERGEDLAYER-2
 10
5.434748
 20
0.726298
 30
0.000000
  0
VERTEX
  8
MERGEDLAYER-2
 10
5.434748
 20
0.514554
 30
0.000000
  0
VERTEX
  8
MERGEDLAYER-2
 10
4.882592
 20
0.514554
 30
0.000000
  0
SEQEND
  8
MERGEDLAYER-2
  0
POLYLINE
  8
MERGEDLAYER-2
 66
  1
 70
  0
 62
  8
 10
4.882592
 20
0.699031
 30
0.000000
  0
VERTEX
  8
MERGEDLAYER-2
 10
4.882592
 20
0.699031
 30
0.000000
  0
VERTEX
  8
MERGEDLAYER-2
 10
5.434748
 20
0.699031
 30
0.000000
  0
SEQEND
  8
MERGEDLAYER-2
  0
POLYLINE
  8
MERGEDLAYER-2
 66
  1
 70
  0
 62
  8
 10
4.882592
 20
0.542246
 30
0.000000
  0
VERTEX
  8
MERGEDLAYER-2
 10
4.882592
 20
0.542246
 30
0.000000
  0
VERTEX
  8
MERGEDLAYER-2
 10
5.434748
 20
0.542246
 30
0.000000
  0
SEQEND
  8
MERGEDLAYER-2
  0
POLYLINE
  8
MERGEDLAYER-2
 66
  1
 70
  1
 62
  0
  0
VERTEX
  8
MERGEDLAYER-2
 10
4.882592
 20
1.094432
 30
0.000000
  0
VERTEX
  8
MERGEDLAYER-2
 10
5.434748
 20
1.094432
 30
0.000000
  0
VERTEX
  8
MERGEDLAYER-2
 10
5.434748
 20
0.882688
 30
0.000000
  0
VERTEX
  8
MERGEDLAYER-2
 10
4.882592
 20
0.882688
 30
0.000000
  0
SEQEND
  8
MERGEDLAYER-2
  0
POLYLINE
  8
MERGEDLAYER-2
 66
  1
 70
  0
 62
  8
 10
4.882592
 20
1.067166
 30
0.000000
  0
VERTEX
  8
MERGEDLAYER-2
 10
4.882592
 20
1.067166
 30
0.000000
  0
VERTEX
  8
MERGEDLAYER-2
 10
5.434748
 20
1.067166
 30
0.000000
  0
SEQEND
  8
MERGEDLAYER-2
  0
POLYLINE
  8
MERGEDLAYER-2
 66
  1
 70
  0
 62
  8
 10
4.882592
 20
0.910380
 30
0.000000
  0
VERTEX
  8
MERGEDLAYER-2
 10
4.882592
 20
0.910380
 30
0.000000
  0
VERTEX
  8
MERGEDLAYER-2
 10
5.434748
 20
0.910380
 30
0.000000
  0
SEQEND
  8
MERGEDLAYER-2
  0
POLYLINE
  8
MERGEDLAYER-2
 66
  1
 70
  1
 62
  0
  0
VERTEX
  8
MERGEDLAYER-2
 10
5.434792
 20
0.910366
 30
0.000000
  0
VERTEX
  8
MERGEDLAYER-2
 10
5.986952
 20
0.910366
 30
0.000000
  0
VERTEX
  8
MERGEDLAYER-2
 10
5.986952
 20
0.698622
 30
0.000000
  0
VERTEX
  8
MERGEDLAYER-2
 10
5.434792
 20
0.698622
 30
0.000000
  0
SEQEND
  8
MERGEDLAYER-2
  0
POLYLINE
  8
MERGEDLAYER-2
 66
  1
 70
  0
 62
  8
 10
5.434792
 20
0.883099
 30
0.000000
  0
VERTEX
  8
MERGEDLAYER-2
 10
5.434792
 20
0.883099
 30
0.000000
  0
VERTEX
  8
MERGEDLAYER-2
 10
5.986952
 20
0.883099
 30
0.000000
  0
SEQEND
  8
MERGEDLAYER-2
  0
POLYLINE
  8
MERGEDLAYER-2
 66
  1
 70
  0
 62
  8
 10
5.434792
 20
0.726313
 30
0.000000
  0
VERTEX
  8
MERGEDLAYER-2
 10
5.434792
 20
0.726313
 30
0.000000
  0
VERTEX
  8
MERGEDLAYER-2
 10
5.986952
 20
0.726313
 30
0.000000
  0
SEQEND
  8
MERGEDLAYER-2
  0
POLYLINE
  8
MERGEDLAYER-2
 66
  1
 70
  1
 62
  0
  0
VERTEX
  8
MERGEDLAYER-2
 10
4.882592
 20
1.462563
 30
0.000000
  0
VERTEX
  8
MERGEDLAYER-2
 10
5.434748
 20
1.462563
 30
0.000000
  0
VERTEX
  8
MERGEDLAYER-2
 10
5.434748
 20
1.250821
 30
0.000000
  0
VERTEX
  8
MERGEDLAYER-2
 10
4.882592
 20
1.250821
 30
0.000000
  0
SEQEND
  8
MERGEDLAYER-2
  0
POLYLINE
  8
MERGEDLAYER-2
 66
  1
 70
  0
 62
  8
 10
4.882592
 20
1.435298
 30
0.000000
  0
VERTEX
  8
MERGEDLAYER-2
 10
4.882592
 20
1.435298
 30
0.000000
  0
VERTEX
  8
MERGEDLAYER-2
 10
5.434748
 20
1.435298
 30
0.000000
  0
SEQEND
  8
MERGEDLAYER-2
  0
POLYLINE
  8
MERGEDLAYER-2
 66
  1
 70
  0
 62
  8
 10
4.882592
 20
1.278513
 30
0.000000
  0
VERTEX
  8
MERGEDLAYER-2
 10
4.882592
 20
1.278513
 30
0.000000
  0
VERTEX
  8
MERGEDLAYER-2
 10
5.434748
 20
1.278513
 30
0.000000
  0
SEQEND
  8
MERGEDLAYER-2
  0
POLYLINE
  8
MERGEDLAYER-2
 66
  1
 70
  1
 62
  0
  0
VERTEX
  8
MERGEDLAYER-2
 10
5.434792
 20
1.278498
 30
0.000000
  0
VERTEX
  8
MERGEDLAYER-2
 10
5.986952
 20
1.278498
 30
0.000000
  0
VERTEX
  8
MERGEDLAYER-2
 10
5.986952
 20
1.066754
 30
0.000000
  0
VERTEX
  8
MERGEDLAYER-2
 10
5.434792
 20
1.066754
 30
0.000000
  0
SEQEND
  8
MERGEDLAYER-2
  0
POLYLINE
  8
MERGEDLAYER-2
 66
  1
 70
  0
 62
  8
 10
5.434792
 20
1.251233
 30
0.000000
  0
VERTEX
  8
MERGEDLAYER-2
 10
5.434792
 20
1.251233
 30
0.000000
  0
VERTEX
  8
MERGEDLAYER-2
 10
5.986952
 20
1.251233
 30
0.000000
  0
SEQEND
  8
MERGEDLAYER-2
  0
POLYLINE
  8
MERGEDLAYER-2
 66
  1
 70
  0
 62
  8
 10
5.434792
 20
1.094446
 30
0.000000
  0
VERTEX
  8
MERGEDLAYER-2
 10
5.434792
 20
1.094446
 30
0.000000
  0
VERTEX
  8
MERGEDLAYER-2
 10
5.986952
 20
1.094446
 30
0.000000
  0
SEQEND
  8
MERGEDLAYER-2
  0
POLYLINE
  8
MERGEDLAYER-2
 66
  1
 70
  1
 62
  0
  0
VERTEX
  8
MERGEDLAYER-2
 10
4.882592
 20
1.830698
 30
0.000000
  0
VERTEX
  8
MERGEDLAYER-2
 10
5.434748
 20
1.830698
 30
0.000000
  0
VERTEX
  8
MERGEDLAYER-2
 10
5.434748
 20
1.618954
 30
0.000000
  0
VERTEX
  8
MERGEDLAYER-2
 10
4.882592
 20
1.618954
 30
0.000000
  0
SEQEND
  8
MERGEDLAYER-2
  0
POLYLINE
  8
MERGEDLAYER-2
 66
  1
 70
  0
 62
  8
 10
4.882592
 20
1.803432
 30
0.000000
  0
VERTEX
  8
MERGEDLAYER-2
 10
4.882592
 20
1.803432
 30
0.000000
  0
VERTEX
  8
MERGEDLAYER-2
 10
5.434748
 20
1.803432
 30
0.000000
  0
SEQEND
  8
MERGEDLAYER-2
  0
POLYLINE
  8
MERGEDLAYER-2
 66
  1
 70
  0
 62
  8
 10
4.882592
 20
1.646647
 30
0.000000
  0
VERTEX
  8
MERGEDLAYER-2
 10
4.882592
 20
1.646647
 30
0.000000
  0
VERTEX
  8
MERGEDLAYER-2
 10
5.434748
 20
1.646647
 30
0.000000
  0
SEQEND
  8
MERGEDLAYER-2
  0
POLYLINE
  8
MERGEDLAYER-2
 66
  1
 70
  1
 62
  0
  0
VERTEX
  8
MERGEDLAYER-2
 10
5.434792
 20
1.646633
 30
0.000000
  0
VERTEX
  8
MERGEDLAYER-2
 10
5.986952
 20
1.646633
 30
0.000000
  0
VERTEX
  8
MERGEDLAYER-2
 10
5.986952
 20
1.434888
 30
0.000000
  0
VERTEX
  8
MERGEDLAYER-2
 10
5.434792
 20
1.434888
 30
0.000000
  0
SEQEND
  8
MERGEDLAYER-2
  0
POLYLINE
  8
MERGEDLAYER-2
 66
  1
 70
  0
 62
  8
 10
5.434792
 20
1.619365
 30
0.000000
  0
VERTEX
  8
MERGEDLAYER-2
 10
5.434792
 20
1.619365
 30
0.000000
  0
VERTEX
  8
MERGEDLAYER-2
 10
5.986952
 20
1.619365
 30
0.000000
  0
SEQEND
  8
MERGEDLAYER-2
  0
POLYLINE
  8
MERGEDLAYER-2
 66
  1
 70
  0
 62
  8
 10
5.434792
 20
1.462580
 30
0.000000
  0
VERTEX
  8
MERGEDLAYER-2
 10
5.434792
 20
1.462580
 30
0.000000
  0
VERTEX
  8
MERGEDLAYER-2
 10
5.986952
 20
1.462580
 30
0.000000
  0
SEQEND
  8
MERGEDLAYER-2
  0
POLYLINE
  8
MERGEDLAYER-2
 66
  1
 70
  1
 62
  0
  0
VERTEX
  8
MERGEDLAYER-2
 10
4.882592
 20
2.198830
 30
0.000000
  0
VERTEX
  8
MERGEDLAYER-2
 10
5.434748
 20
2.198830
 30
0.000000
  0
VERTEX
  8
MERGEDLAYER-2
 10
5.434748
 20
1.987088
 30
0.000000
  0
VERTEX
  8
MERGEDLAYER-2
 10
4.882592
 20
1.987088
 30
0.000000
  0
SEQEND
  8
MERGEDLAYER-2
  0
POLYLINE
  8
MERGEDLAYER-2
 66
  1
 70
  0
 62
  8
 10
4.882592
 20
2.171565
 30
0.000000
  0
VERTEX
  8
MERGEDLAYER-2
 10
4.882592
 20
2.171565
 30
0.000000
  0
VERTEX
  8
MERGEDLAYER-2
 10
5.434748
 20
2.171565
 30
0.000000
  0
SEQEND
  8
MERGEDLAYER-2
  0
POLYLINE
  8
MERGEDLAYER-2
 66
  1
 70
  0
 62
  8
 10
4.882592
 20
2.014779
 30
0.000000
  0
VERTEX
  8
MERGEDLAYER-2
 10
4.882592
 20
2.014779
 30
0.000000
  0
VERTEX
  8
MERGEDLAYER-2
 10
5.434748
 20
2.014779
 30
0.000000
  0
SEQEND
  8
MERGEDLAYER-2
  0
POLYLINE
  8
MERGEDLAYER-2
 66
  1
 70
  1
 62
  0
  0
VERTEX
  8
MERGEDLAYER-2
 10
5.434792
 20
2.014765
 30
0.000000
  0
VERTEX
  8
MERGEDLAYER-2
 10
5.986952
 20
2.014765
 30
0.000000
  0
VERTEX
  8
MERGEDLAYER-2
 10
5.986952
 20
1.803021
 30
0.000000
  0
VERTEX
  8
MERGEDLAYER-2
 10
5.434792
 20
1.803021
 30
0.000000
  0
SEQEND
  8
MERGEDLAYER-2
  0
POLYLINE
  8
MERGEDLAYER-2
 66
  1
 70
  0
 62
  8
 10
5.434792
 20
1.987499
 30
0.000000
  0
VERTEX
  8
MERGEDLAYER-2
 10
5.434792
 20
1.987499
 30
0.000000
  0
VERTEX
  8
MERGEDLAYER-2
 10
5.986952
 20
1.987499
 30
0.000000
  0
SEQEND
  8
MERGEDLAYER-2
  0
POLYLINE
  8
MERGEDLAYER-2
 66
  1
 70
  0
 62
  8
 10
5.434792
 20
1.830712
 30
0.000000
  0
VERTEX
  8
MERGEDLAYER-2
 10
5.434792
 20
1.830712
 30
0.000000
  0
VERTEX
  8
MERGEDLAYER-2
 10
5.986952
 20
1.830712
 30
0.000000
  0
SEQEND
  8
MERGEDLAYER-2
  0
POLYLINE
  8
MERGEDLAYER-2
 66
  1
 70
  1
 62
  0
  0
VERTEX
  8
MERGEDLAYER-2
 10
4.882592
 20
2.566962
 30
0.000000
  0
VERTEX
  8
MERGEDLAYER-2
 10
5.434748
 20
2.566962
 30
0.000000
  0
VERTEX
  8
MERGEDLAYER-2
 10
5.434748
 20
2.355220
 30
0.000000
  0
VERTEX
  8
MERGEDLAYER-2
 10
4.882592
 20
2.355220
 30
0.000000
  0
SEQEND
  8
MERGEDLAYER-2
  0
POLYLINE
  8
MERGEDLAYER-2
 66
  1
 70
  0
 62
  8
 10
4.882592
 20
2.539697
 30
0.000000
  0
VERTEX
  8
MERGEDLAYER-2
 10
4.882592
 20
2.539697
 30
0.000000
  0
VERTEX
  8
MERGEDLAYER-2
 10
5.434748
 20
2.539697
 30
0.000000
  0
SEQEND
  8
MERGEDLAYER-2
  0
POLYLINE
  8
MERGEDLAYER-2
 66
  1
 70
  0
 62
  8
 10
4.882592
 20
2.382913
 30
0.000000
  0
VERTEX
  8
MERGEDLAYER-2
 10
4.882592
 20
2.382913
 30
0.000000
  0
VERTEX
  8
MERGEDLAYER-2
 10
5.434748
 20
2.382913
 30
0.000000
  0
SEQEND
  8
MERGEDLAYER-2
  0
POLYLINE
  8
MERGEDLAYER-2
 66
  1
 70
  1
 62
  0
  0
VERTEX
  8
MERGEDLAYER-2
 10
5.434792
 20
2.382899
 30
0.000000
  0
VERTEX
  8
MERGEDLAYER-2
 10
5.986952
 20
2.382899
 30
0.000000
  0
VERTEX
  8
MERGEDLAYER-2
 10
5.986952
 20
2.171155
 30
0.000000
  0
VERTEX
  8
MERGEDLAYER-2
 10
5.434792
 20
2.171155
 30
0.000000
  0
SEQEND
  8
MERGEDLAYER-2
  0
POLYLINE
  8
MERGEDLAYER-2
 66
  1
 70
  0
 62
  8
 10
5.434792
 20
2.355632
 30
0.000000
  0
VERTEX
  8
MERGEDLAYER-2
 10
5.434792
 20
2.355632
 30
0.000000
  0
VERTEX
  8
MERGEDLAYER-2
 10
5.986952
 20
2.355632
 30
0.000000
  0
SEQEND
  8
MERGEDLAYER-2
  0
POLYLINE
  8
MERGEDLAYER-2
 66
  1
 70
  0
 62
  8
 10
5.434792
 20
2.198847
 30
0.000000
  0
VERTEX
  8
MERGEDLAYER-2
 10
5.434792
 20
2.198847
 30
0.000000
  0
VERTEX
  8
MERGEDLAYER-2
 10
5.986952
 20
2.198847
 30
0.000000
  0
SEQEND
  8
MERGEDLAYER-2
  0
POLYLINE
  8
MERGEDLAYER-2
 66
  1
 70
  1
 62
  0
  0
VERTEX
  8
MERGEDLAYER-2
 10
4.882592
 20
2.935095
 30
0.000000
  0
VERTEX
  8
MERGEDLAYER-2
 10
5.434748
 20
2.935095
 30
0.000000
  0
VERTEX
  8
MERGEDLAYER-2
 10
5.434748
 20
2.723351
 30
0.000000
  0
VERTEX
  8
MERGEDLAYER-2
 10
4.882592
 20
2.723351
 30
0.000000
  0
SEQEND
  8
MERGEDLAYER-2
  0
POLYLINE
  8
MERGEDLAYER-2
 66
  1
 70
  0
 62
  8
 10
4.882592
 20
2.907828
 30
0.000000
  0
VERTEX
  8
MERGEDLAYER-2
 10
4.882592
 20
2.907828
 30
0.000000
  0
VERTEX
  8
MERGEDLAYER-2
 10
5.434748
 20
2.907828
 30
0.000000
  0
SEQEND
  8
MERGEDLAYER-2
  0
POLYLINE
  8
MERGEDLAYER-2
 66
  1
 70
  0
 62
  8
 10
4.882592
 20
2.751044
 30
0.000000
  0
VERTEX
  8
MERGEDLAYER-2
 10
4.882592
 20
2.751044
 30
0.000000
  0
VERTEX
  8
MERGEDLAYER-2
 10
5.434748
 20
2.751044
 30
0.000000
  0
SEQEND
  8
MERGEDLAYER-2
  0
POLYLINE
  8
MERGEDLAYER-2
 66
  1
 70
  1
 62
  0
  0
VERTEX
  8
MERGEDLAYER-2
 10
5.434792
 20
2.751028
 30
0.000000
  0
VERTEX
  8
MERGEDLAYER-2
 10
5.986952
 20
2.751028
 30
0.000000
  0
VERTEX
  8
MERGEDLAYER-2
 10
5.986952
 20
2.539285
 30
0.000000
  0
VERTEX
  8
MERGEDLAYER-2
 10
5.434792
 20
2.539285
 30
0.000000
  0
SEQEND
  8
MERGEDLAYER-2
  0
POLYLINE
  8
MERGEDLAYER-2
 66
  1
 70
  0
 62
  8
 10
5.434792
 20
2.723763
 30
0.000000
  0
VERTEX
  8
MERGEDLAYER-2
 10
5.434792
 20
2.723763
 30
0.000000
  0
VERTEX
  8
MERGEDLAYER-2
 10
5.986952
 20
2.723763
 30
0.000000
  0
SEQEND
  8
MERGEDLAYER-2
  0
POLYLINE
  8
MERGEDLAYER-2
 66
  1
 70
  0
 62
  8
 10
5.434792
 20
2.566977
 30
0.000000
  0
VERTEX
  8
MERGEDLAYER-2
 10
5.434792
 20
2.566977
 30
0.000000
  0
VERTEX
  8
MERGEDLAYER-2
 10
5.986952
 20
2.566977
 30
0.000000
  0
SEQEND
  8
MERGEDLAYER-2
  0
POLYLINE
  8
MERGEDLAYER-2
 66
  1
 70
  1
 62
  0
  0
VERTEX
  8
MERGEDLAYER-2
 10
4.882592
 20
3.303229
 30
0.000000
  0
VERTEX
  8
MERGEDLAYER-2
 10
5.434748
 20
3.303229
 30
0.000000
  0
VERTEX
  8
MERGEDLAYER-2
 10
5.434748
 20
3.091485
 30
0.000000
  0
VERTEX
  8
MERGEDLAYER-2
 10
4.882592
 20
3.091485
 30
0.000000
  0
SEQEND
  8
MERGEDLAYER-2
  0
POLYLINE
  8
MERGEDLAYER-2
 66
  1
 70
  0
 62
  8
 10
4.882592
 20
3.275963
 30
0.000000
  0
VERTEX
  8
MERGEDLAYER-2
 10
4.882592
 20
3.275963
 30
0.000000
  0
VERTEX
  8
MERGEDLAYER-2
 10
5.434748
 20
3.275963
 30
0.000000
  0
SEQEND
  8
MERGEDLAYER-2
  0
POLYLINE
  8
MERGEDLAYER-2
 66
  1
 70
  0
 62
  8
 10
4.882592
 20
3.119177
 30
0.000000
  0
VERTEX
  8
MERGEDLAYER-2
 10
4.882592
 20
3.119177
 30
0.000000
  0
VERTEX
  8
MERGEDLAYER-2
 10
5.434748
 20
3.119177
 30
0.000000
  0
SEQEND
  8
MERGEDLAYER-2
  0
POLYLINE
  8
MERGEDLAYER-2
 66
  1
 70
  1
 62
  0
  0
VERTEX
  8
MERGEDLAYER-2
 10
5.434792
 20
3.119163
 30
0.000000
  0
VERTEX
  8
MERGEDLAYER-2
 10
5.986952
 20
3.119163
 30
0.000000
  0
VERTEX
  8
MERGEDLAYER-2
 10
5.986952
 20
2.907419
 30
0.000000
  0
VERTEX
  8
MERGEDLAYER-2
 10
5.434792
 20
2.907419
 30
0.000000
  0
SEQEND
  8
MERGEDLAYER-2
  0
POLYLINE
  8
MERGEDLAYER-2
 66
  1
 70
  0
 62
  8
 10
5.434792
 20
3.091896
 30
0.000000
  0
VERTEX
  8
MERGEDLAYER-2
 10
5.434792
 20
3.091896
 30
0.000000
  0
VERTEX
  8
MERGEDLAYER-2
 10
5.986952
 20
3.091896
 30
0.000000
  0
SEQEND
  8
MERGEDLAYER-2
  0
POLYLINE
  8
MERGEDLAYER-2
 66
  1
 70
  0
 62
  8
 10
5.434792
 20
2.935111
 30
0.000000
  0
VERTEX
  8
MERGEDLAYER-2
 10
5.434792
 20
2.935111
 30
0.000000
  0
VERTEX
  8
MERGEDLAYER-2
 10
5.986952
 20
2.935111
 30
0.000000
  0
SEQEND
  8
MERGEDLAYER-2
  0
POLYLINE
  8
MERGEDLAYER-2
 66
  1
 70
  1
 62
  0
  0
VERTEX
  8
MERGEDLAYER-2
 10
5.434792
 20
3.487295
 30
0.000000
  0
VERTEX
  8
MERGEDLAYER-2
 10
5.986952
 20
3.487295
 30
0.000000
  0
VERTEX
  8
MERGEDLAYER-2
 10
5.986952
 20
3.275551
 30
0.000000
  0
VERTEX
  8
MERGEDLAYER-2
 10
5.434792
 20
3.275551
 30
0.000000
  0
SEQEND
  8
MERGEDLAYER-2
  0
POLYLINE
  8
MERGEDLAYER-2
 66
  1
 70
  0
 62
  8
 10
5.434792
 20
3.460029
 30
0.000000
  0
VERTEX
  8
MERGEDLAYER-2
 10
5.434792
 20
3.460029
 30
0.000000
  0
VERTEX
  8
MERGEDLAYER-2
 10
5.986952
 20
3.460029
 30
0.000000
  0
SEQEND
  8
MERGEDLAYER-2
  0
POLYLINE
  8
MERGEDLAYER-2
 66
  1
 70
  0
 62
  8
 10
5.434792
 20
3.303243
 30
0.000000
  0
VERTEX
  8
MERGEDLAYER-2
 10
5.434792
 20
3.303243
 30
0.000000
  0
VERTEX
  8
MERGEDLAYER-2
 10
5.986952
 20
3.303243
 30
0.000000
  0
SEQEND
  8
MERGEDLAYER-2
  0
POLYLINE
  8
MERGEDLAYER-2
 66
  1
 70
  1
 62
 10
  0
VERTEX
  8
MERGEDLAYER-2
 10
5.434391
 20
0.541360
 30
0.000000
  0
VERTEX
  8
MERGEDLAYER-2
 10
5.986081
 20
0.541360
 30
0.000000
  0
VERTEX
  8
MERGEDLAYER-2
 10
5.986081
 20
0.513923
 30
0.000000
  0
VERTEX
  8
MERGEDLAYER-2
 10
5.434391
 20
0.513923
 30
0.000000
  0
SEQEND
  8
MERGEDLAYER-2
  0
POLYLINE
  8
MERGEDLAYER-2
 66
  1
 70
  1
 62
  0
  0
VERTEX
  8
MERGEDLAYER-2
 10
5.986992
 20
0.726298
 30
0.000000
  0
VERTEX
  8
MERGEDLAYER-2
 10
6.539148
 20
0.726298
 30
0.000000
  0
VERTEX
  8
MERGEDLAYER-2
 10
6.539148
 20
0.514554
 30
0.000000
  0
VERTEX
  8
MERGEDLAYER-2
 10
5.986992
 20
0.514554
 30
0.000000
  0
SEQEND
  8
MERGEDLAYER-2
  0
POLYLINE
  8
MERGEDLAYER-2
 66
  1
 70
  0
 62
  8
 10
5.986992
 20
0.699031
 30
0.000000
  0
VERTEX
  8
MERGEDLAYER-2
 10
5.986992
 20
0.699031
 30
0.000000
  0
VERTEX
  8
MERGEDLAYER-2
 10
6.539148
 20
0.699031
 30
0.000000
  0
SEQEND
  8
MERGEDLAYER-2
  0
POLYLINE
  8
MERGEDLAYER-2
 66
  1
 70
  0
 62
  8
 10
5.986992
 20
0.542246
 30
0.000000
  0
VERTEX
  8
MERGEDLAYER-2
 10
5.986992
 20
0.542246
 30
0.000000
  0
VERTEX
  8
MERGEDLAYER-2
 10
6.539148
 20
0.542246
 30
0.000000
  0
SEQEND
  8
MERGEDLAYER-2
  0
POLYLINE
  8
MERGEDLAYER-2
 66
  1
 70
  1
 62
  0
  0
VERTEX
  8
MERGEDLAYER-2
 10
5.986992
 20
1.094432
 30
0.000000
  0
VERTEX
  8
MERGEDLAYER-2
 10
6.539148
 20
1.094432
 30
0.000000
  0
VERTEX
  8
MERGEDLAYER-2
 10
6.539148
 20
0.882688
 30
0.000000
  0
VERTEX
  8
MERGEDLAYER-2
 10
5.986992
 20
0.882688
 30
0.000000
  0
SEQEND
  8
MERGEDLAYER-2
  0
POLYLINE
  8
MERGEDLAYER-2
 66
  1
 70
  0
 62
  8
 10
5.986992
 20
1.067166
 30
0.000000
  0
VERTEX
  8
MERGEDLAYER-2
 10
5.986992
 20
1.067166
 30
0.000000
  0
VERTEX
  8
MERGEDLAYER-2
 10
6.539148
 20
1.067166
 30
0.000000
  0
SEQEND
  8
MERGEDLAYER-2
  0
POLYLINE
  8
MERGEDLAYER-2
 66
  1
 70
  0
 62
  8
 10
5.986992
 20
0.910380
 30
0.000000
  0
VERTEX
  8
MERGEDLAYER-2
 10
5.986992
 20
0.910380
 30
0.000000
  0
VERTEX
  8
MERGEDLAYER-2
 10
6.539148
 20
0.910380
 30
0.000000
  0
SEQEND
  8
MERGEDLAYER-2
  0
POLYLINE
  8
MERGEDLAYER-2
 66
  1
 70
  1
 62
  0
  0
VERTEX
  8
MERGEDLAYER-2
 10
5.986992
 20
1.462563
 30
0.000000
  0
VERTEX
  8
MERGEDLAYER-2
 10
6.539148
 20
1.462563
 30
0.000000
  0
VERTEX
  8
MERGEDLAYER-2
 10
6.539148
 20
1.250821
 30
0.000000
  0
VERTEX
  8
MERGEDLAYER-2
 10
5.986992
 20
1.250821
 30
0.000000
  0
SEQEND
  8
MERGEDLAYER-2
  0
POLYLINE
  8
MERGEDLAYER-2
 66
  1
 70
  0
 62
  8
 10
5.986992
 20
1.435298
 30
0.000000
  0
VERTEX
  8
MERGEDLAYER-2
 10
5.986992
 20
1.435298
 30
0.000000
  0
VERTEX
  8
MERGEDLAYER-2
 10
6.539148
 20
1.435298
 30
0.000000
  0
SEQEND
  8
MERGEDLAYER-2
  0
POLYLINE
  8
MERGEDLAYER-2
 66
  1
 70
  0
 62
  8
 10
5.986992
 20
1.278513
 30
0.000000
  0
VERTEX
  8
MERGEDLAYER-2
 10
5.986992
 20
1.278513
 30
0.000000
  0
VERTEX
  8
MERGEDLAYER-2
 10
6.539148
 20
1.278513
 30
0.000000
  0
SEQEND
  8
MERGEDLAYER-2
  0
POLYLINE
  8
MERGEDLAYER-2
 66
  1
 70
  1
 62
  0
  0
VERTEX
  8
MERGEDLAYER-2
 10
5.986992
 20
1.830698
 30
0.000000
  0
VERTEX
  8
MERGEDLAYER-2
 10
6.539148
 20
1.830698
 30
0.000000
  0
VERTEX
  8
MERGEDLAYER-2
 10
6.539148
 20
1.618954
 30
0.000000
  0
VERTEX
  8
MERGEDLAYER-2
 10
5.986992
 20
1.618954
 30
0.000000
  0
SEQEND
  8
MERGEDLAYER-2
  0
POLYLINE
  8
MERGEDLAYER-2
 66
  1
 70
  0
 62
  8
 10
5.986992
 20
1.803432
 30
0.000000
  0
VERTEX
  8
MERGEDLAYER-2
 10
5.986992
 20
1.803432
 30
0.000000
  0
VERTEX
  8
MERGEDLAYER-2
 10
6.539148
 20
1.803432
 30
0.000000
  0
SEQEND
  8
MERGEDLAYER-2
  0
POLYLINE
  8
MERGEDLAYER-2
 66
  1
 70
  0
 62
  8
 10
5.986992
 20
1.646647
 30
0.000000
  0
VERTEX
  8
MERGEDLAYER-2
 10
5.986992
 20
1.646647
 30
0.000000
  0
VERTEX
  8
MERGEDLAYER-2
 10
6.539148
 20
1.646647
 30
0.000000
  0
SEQEND
  8
MERGEDLAYER-2
  0
POLYLINE
  8
MERGEDLAYER-2
 66
  1
 70
  1
 62
  0
  0
VERTEX
  8
MERGEDLAYER-2
 10
5.986992
 20
2.198830
 30
0.000000
  0
VERTEX
  8
MERGEDLAYER-2
 10
6.539148
 20
2.198830
 30
0.000000
  0
VERTEX
  8
MERGEDLAYER-2
 10
6.539148
 20
1.987088
 30
0.000000
  0
VERTEX
  8
MERGEDLAYER-2
 10
5.986992
 20
1.987088
 30
0.000000
  0
SEQEND
  8
MERGEDLAYER-2
  0
POLYLINE
  8
MERGEDLAYER-2
 66
  1
 70
  0
 62
  8
 10
5.986992
 20
2.171565
 30
0.000000
  0
VERTEX
  8
MERGEDLAYER-2
 10
5.986992
 20
2.171565
 30
0.000000
  0
VERTEX
  8
MERGEDLAYER-2
 10
6.539148
 20
2.171565
 30
0.000000
  0
SEQEND
  8
MERGEDLAYER-2
  0
POLYLINE
  8
MERGEDLAYER-2
 66
  1
 70
  0
 62
  8
 10
5.986992
 20
2.014779
 30
0.000000
  0
VERTEX
  8
MERGEDLAYER-2
 10
5.986992
 20
2.014779
 30
0.000000
  0
VERTEX
  8
MERGEDLAYER-2
 10
6.539148
 20
2.014779
 30
0.000000
  0
SEQEND
  8
MERGEDLAYER-2
  0
POLYLINE
  8
MERGEDLAYER-2
 66
  1
 70
  1
 62
  0
  0
VERTEX
  8
MERGEDLAYER-2
 10
5.986992
 20
2.566962
 30
0.000000
  0
VERTEX
  8
MERGEDLAYER-2
 10
6.539148
 20
2.566962
 30
0.000000
  0
VERTEX
  8
MERGEDLAYER-2
 10
6.539148
 20
2.355220
 30
0.000000
  0
VERTEX
  8
MERGEDLAYER-2
 10
5.986992
 20
2.355220
 30
0.000000
  0
SEQEND
  8
MERGEDLAYER-2
  0
POLYLINE
  8
MERGEDLAYER-2
 66
  1
 70
  0
 62
  8
 10
5.986992
 20
2.539697
 30
0.000000
  0
VERTEX
  8
MERGEDLAYER-2
 10
5.986992
 20
2.539697
 30
0.000000
  0
VERTEX
  8
MERGEDLAYER-2
 10
6.539148
 20
2.539697
 30
0.000000
  0
SEQEND
  8
MERGEDLAYER-2
  0
POLYLINE
  8
MERGEDLAYER-2
 66
  1
 70
  0
 62
  8
 10
5.986992
 20
2.382913
 30
0.000000
  0
VERTEX
  8
MERGEDLAYER-2
 10
5.986992
 20
2.382913
 30
0.000000
  0
VERTEX
  8
MERGEDLAYER-2
 10
6.539148
 20
2.382913
 30
0.000000
  0
SEQEND
  8
MERGEDLAYER-2
  0
POLYLINE
  8
MERGEDLAYER-2
 66
  1
 70
  1
 62
  0
  0
VERTEX
  8
MERGEDLAYER-2
 10
5.986992
 20
2.935095
 30
0.000000
  0
VERTEX
  8
MERGEDLAYER-2
 10
6.539148
 20
2.935095
 30
0.000000
  0
VERTEX
  8
MERGEDLAYER-2
 10
6.539148
 20
2.723351
 30
0.000000
  0
VERTEX
  8
MERGEDLAYER-2
 10
5.986992
 20
2.723351
 30
0.000000
  0
SEQEND
  8
MERGEDLAYER-2
  0
POLYLINE
  8
MERGEDLAYER-2
 66
  1
 70
  0
 62
  8
 10
5.986992
 20
2.907828
 30
0.000000
  0
VERTEX
  8
MERGEDLAYER-2
 10
5.986992
 20
2.907828
 30
0.000000
  0
VERTEX
  8
MERGEDLAYER-2
 10
6.539148
 20
2.907828
 30
0.000000
  0
SEQEND
  8
MERGEDLAYER-2
  0
POLYLINE
  8
MERGEDLAYER-2
 66
  1
 70
  0
 62
  8
 10
5.986992
 20
2.751044
 30
0.000000
  0
VERTEX
  8
MERGEDLAYER-2
 10
5.986992
 20
2.751044
 30
0.000000
  0
VERTEX
  8
MERGEDLAYER-2
 10
6.539148
 20
2.751044
 30
0.000000
  0
SEQEND
  8
MERGEDLAYER-2
  0
POLYLINE
  8
MERGEDLAYER-2
 66
  1
 70
  1
 62
  0
  0
VERTEX
  8
MERGEDLAYER-2
 10
5.986992
 20
3.303229
 30
0.000000
  0
VERTEX
  8
MERGEDLAYER-2
 10
6.539148
 20
3.303229
 30
0.000000
  0
VERTEX
  8
MERGEDLAYER-2
 10
6.539148
 20
3.091485
 30
0.000000
  0
VERTEX
  8
MERGEDLAYER-2
 10
5.986992
 20
3.091485
 30
0.000000
  0
SEQEND
  8
MERGEDLAYER-2
  0
POLYLINE
  8
MERGEDLAYER-2
 66
  1
 70
  0
 62
  8
 10
5.986992
 20
3.275963
 30
0.000000
  0
VERTEX
  8
MERGEDLAYER-2
 10
5.986992
 20
3.275963
 30
0.000000
  0
VERTEX
  8
MERGEDLAYER-2
 10
6.539148
 20
3.275963
 30
0.000000
  0
SEQEND
  8
MERGEDLAYER-2
  0
POLYLINE
  8
MERGEDLAYER-2
 66
  1
 70
  0
 62
  8
 10
5.986992
 20
3.119177
 30
0.000000
  0
VERTEX
  8
MERGEDLAYER-2
 10
5.986992
 20
3.119177
 30
0.000000
  0
VERTEX
  8
MERGEDLAYER-2
 10
6.539148
 20
3.119177
 30
0.000000
  0
SEQEND
  8
MERGEDLAYER-2
  0
POLYLINE
  8
MERGEDLAYER-2
 66
  1
 70
  1
 62
  0
  0
VERTEX
  8
MERGEDLAYER-2
 10
2.121591
 20
4.223881
 30
0.000000
  0
VERTEX
  8
MERGEDLAYER-2
 10
2.673751
 20
4.223881
 30
0.000000
  0
VERTEX
  8
MERGEDLAYER-2
 10
2.673751
 20
4.012137
 30
0.000000
  0
VERTEX
  8
MERGEDLAYER-2
 10
2.121591
 20
4.012137
 30
0.000000
  0
SEQEND
  8
MERGEDLAYER-2
  0
POLYLINE
  8
MERGEDLAYER-2
 66
  1
 70
  0
 62
  8
 10
2.121591
 20
4.196615
 30
0.000000
  0
VERTEX
  8
MERGEDLAYER-2
 10
2.121591
 20
4.196615
 30
0.000000
  0
VERTEX
  8
MERGEDLAYER-2
 10
2.673751
 20
4.196615
 30
0.000000
  0
SEQEND
  8
MERGEDLAYER-2
  0
POLYLINE
  8
MERGEDLAYER-2
 66
  1
 70
  0
 62
  8
 10
2.121591
 20
4.039830
 30
0.000000
  0
VERTEX
  8
MERGEDLAYER-2
 10
2.121591
 20
4.039830
 30
0.000000
  0
VERTEX
  8
MERGEDLAYER-2
 10
2.673751
 20
4.039830
 30
0.000000
  0
SEQEND
  8
MERGEDLAYER-2
  0
POLYLINE
  8
MERGEDLAYER-2
 66
  1
 70
  1
 62
  0
  0
VERTEX
  8
MERGEDLAYER-2
 10
1.017189
 20
4.223881
 30
0.000000
  0
VERTEX
  8
MERGEDLAYER-2
 10
1.569349
 20
4.223881
 30
0.000000
  0
VERTEX
  8
MERGEDLAYER-2
 10
1.569349
 20
4.012137
 30
0.000000
  0
VERTEX
  8
MERGEDLAYER-2
 10
1.017189
 20
4.012137
 30
0.000000
  0
SEQEND
  8
MERGEDLAYER-2
  0
POLYLINE
  8
MERGEDLAYER-2
 66
  1
 70
  0
 62
  8
 10
1.017189
 20
4.196615
 30
0.000000
  0
VERTEX
  8
MERGEDLAYER-2
 10
1.017189
 20
4.196615
 30
0.000000
  0
VERTEX
  8
MERGEDLAYER-2
 10
1.569349
 20
4.196615
 30
0.000000
  0
SEQEND
  8
MERGEDLAYER-2
  0
POLYLINE
  8
MERGEDLAYER-2
 66
  1
 70
  0
 62
  8
 10
1.017189
 20
4.039830
 30
0.000000
  0
VERTEX
  8
MERGEDLAYER-2
 10
1.017189
 20
4.039830
 30
0.000000
  0
VERTEX
  8
MERGEDLAYER-2
 10
1.569349
 20
4.039830
 30
0.000000
  0
SEQEND
  8
MERGEDLAYER-2
  0
POLYLINE
  8
MERGEDLAYER-2
 66
  1
 70
  1
 62
  0
  0
VERTEX
  8
MERGEDLAYER-2
 10
3.225991
 20
4.223881
 30
0.000000
  0
VERTEX
  8
MERGEDLAYER-2
 10
3.778152
 20
4.223881
 30
0.000000
  0
VERTEX
  8
MERGEDLAYER-2
 10
3.778152
 20
4.012137
 30
0.000000
  0
VERTEX
  8
MERGEDLAYER-2
 10
3.225991
 20
4.012137
 30
0.000000
  0
SEQEND
  8
MERGEDLAYER-2
  0
POLYLINE
  8
MERGEDLAYER-2
 66
  1
 70
  0
 62
  8
 10
3.225991
 20
4.196615
 30
0.000000
  0
VERTEX
  8
MERGEDLAYER-2
 10
3.225991
 20
4.196615
 30
0.000000
  0
VERTEX
  8
MERGEDLAYER-2
 10
3.778152
 20
4.196615
 30
0.000000
  0
SEQEND
  8
MERGEDLAYER-2
  0
POLYLINE
  8
MERGEDLAYER-2
 66
  1
 70
  0
 62
  8
 10
3.225991
 20
4.039830
 30
0.000000
  0
VERTEX
  8
MERGEDLAYER-2
 10
3.225991
 20
4.039830
 30
0.000000
  0
VERTEX
  8
MERGEDLAYER-2
 10
3.778152
 20
4.039830
 30
0.000000
  0
SEQEND
  8
MERGEDLAYER-2
  0
POLYLINE
  8
MERGEDLAYER-2
 66
  1
 70
  1
 62
  0
  0
VERTEX
  8
MERGEDLAYER-2
 10
4.330392
 20
4.223881
 30
0.000000
  0
VERTEX
  8
MERGEDLAYER-2
 10
4.882552
 20
4.223881
 30
0.000000
  0
VERTEX
  8
MERGEDLAYER-2
 10
4.882552
 20
4.012137
 30
0.000000
  0
VERTEX
  8
MERGEDLAYER-2
 10
4.330392
 20
4.012137
 30
0.000000
  0
SEQEND
  8
MERGEDLAYER-2
  0
POLYLINE
  8
MERGEDLAYER-2
 66
  1
 70
  0
 62
  8
 10
4.330392
 20
4.196615
 30
0.000000
  0
VERTEX
  8
MERGEDLAYER-2
 10
4.330392
 20
4.196615
 30
0.000000
  0
VERTEX
  8
MERGEDLAYER-2
 10
4.882552
 20
4.196615
 30
0.000000
  0
SEQEND
  8
MERGEDLAYER-2
  0
POLYLINE
  8
MERGEDLAYER-2
 66
  1
 70
  0
 62
  8
 10
4.330392
 20
4.039830
 30
0.000000
  0
VERTEX
  8
MERGEDLAYER-2
 10
4.330392
 20
4.039830
 30
0.000000
  0
VERTEX
  8
MERGEDLAYER-2
 10
4.882552
 20
4.039830
 30
0.000000
  0
SEQEND
  8
MERGEDLAYER-2
  0
POLYLINE
  8
MERGEDLAYER-2
 66
  1
 70
  1
 62
  0
  0
VERTEX
  8
MERGEDLAYER-2
 10
2.673792
 20
4.039861
 30
0.000000
  0
VERTEX
  8
MERGEDLAYER-2
 10
3.225950
 20
4.039861
 30
0.000000
  0
VERTEX
  8
MERGEDLAYER-2
 10
3.225950
 20
3.828117
 30
0.000000
  0
VERTEX
  8
MERGEDLAYER-2
 10
2.673792
 20
3.828117
 30
0.000000
  0
SEQEND
  8
MERGEDLAYER-2
  0
POLYLINE
  8
MERGEDLAYER-2
 66
  1
 70
  0
 62
  8
 10
2.673792
 20
4.012595
 30
0.000000
  0
VERTEX
  8
MERGEDLAYER-2
 10
2.673792
 20
4.012595
 30
0.000000
  0
VERTEX
  8
MERGEDLAYER-2
 10
3.225950
 20
4.012595
 30
0.000000
  0
SEQEND
  8
MERGEDLAYER-2
  0
POLYLINE
  8
MERGEDLAYER-2
 66
  1
 70
  1
 62
  0
  0
VERTEX
  8
MERGEDLAYER-2
 10
1.569389
 20
4.039861
 30
0.000000
  0
VERTEX
  8
MERGEDLAYER-2
 10
2.121549
 20
4.039861
 30
0.000000
  0
VERTEX
  8
MERGEDLAYER-2
 10
2.121549
 20
3.828117
 30
0.000000
  0
VERTEX
  8
MERGEDLAYER-2
 10
1.569389
 20
3.828117
 30
0.000000
  0
SEQEND
  8
MERGEDLAYER-2
  0
POLYLINE
  8
MERGEDLAYER-2
 66
  1
 70
  0
 62
  8
 10
1.569389
 20
4.012595
 30
0.000000
  0
VERTEX
  8
MERGEDLAYER-2
 10
1.569389
 20
4.012595
 30
0.000000
  0
VERTEX
  8
MERGEDLAYER-2
 10
2.121549
 20
4.012595
 30
0.000000
  0
SEQEND
  8
MERGEDLAYER-2
  0
POLYLINE
  8
MERGEDLAYER-2
 66
  1
 70
  1
 62
  0
  0
VERTEX
  8
MERGEDLAYER-2
 10
3.778192
 20
4.039861
 30
0.000000
  0
VERTEX
  8
MERGEDLAYER-2
 10
4.330348
 20
4.039861
 30
0.000000
  0
VERTEX
  8
MERGEDLAYER-2
 10
4.330348
 20
3.828117
 30
0.000000
  0
VERTEX
  8
MERGEDLAYER-2
 10
3.778192
 20
3.828117
 30
0.000000
  0
SEQEND
  8
MERGEDLAYER-2
  0
POLYLINE
  8
MERGEDLAYER-2
 66
  1
 70
  0
 62
  8
 10
3.778192
 20
4.012595
 30
0.000000
  0
VERTEX
  8
MERGEDLAYER-2
 10
3.778192
 20
4.012595
 30
0.000000
  0
VERTEX
  8
MERGEDLAYER-2
 10
4.330348
 20
4.012595
 30
0.000000
  0
SEQEND
  8
MERGEDLAYER-2
  0
POLYLINE
  8
MERGEDLAYER-2
 66
  1
 70
  1
 62
  0
  0
VERTEX
  8
MERGEDLAYER-2
 10
5.434792
 20
4.223881
 30
0.000000
  0
VERTEX
  8
MERGEDLAYER-2
 10
5.986952
 20
4.223881
 30
0.000000
  0
VERTEX
  8
MERGEDLAYER-2
 10
5.986952
 20
4.012137
 30
0.000000
  0
VERTEX
  8
MERGEDLAYER-2
 10
5.434792
 20
4.012137
 30
0.000000
  0
SEQEND
  8
MERGEDLAYER-2
  0
POLYLINE
  8
MERGEDLAYER-2
 66
  1
 70
  0
 62
  8
 10
5.434792
 20
4.196615
 30
0.000000
  0
VERTEX
  8
MERGEDLAYER-2
 10
5.434792
 20
4.196615
 30
0.000000
  0
VERTEX
  8
MERGEDLAYER-2
 10
5.986952
 20
4.196615
 30
0.000000
  0
SEQEND
  8
MERGEDLAYER-2
  0
POLYLINE
  8
MERGEDLAYER-2
 66
  1
 70
  0
 62
  8
 10
5.434792
 20
4.039830
 30
0.000000
  0
VERTEX
  8
MERGEDLAYER-2
 10
5.434792
 20
4.039830
 30
0.000000
  0
VERTEX
  8
MERGEDLAYER-2
 10
5.986952
 20
4.039830
 30
0.000000
  0
SEQEND
  8
MERGEDLAYER-2
  0
POLYLINE
  8
MERGEDLAYER-2
 66
  1
 70
  1
 62
  0
  0
VERTEX
  8
MERGEDLAYER-2
 10
4.882592
 20
4.039861
 30
0.000000
  0
VERTEX
  8
MERGEDLAYER-2
 10
5.434748
 20
4.039861
 30
0.000000
  0
VERTEX
  8
MERGEDLAYER-2
 10
5.434748
 20
3.828117
 30
0.000000
  0
VERTEX
  8
MERGEDLAYER-2
 10
4.882592
 20
3.828117
 30
0.000000
  0
SEQEND
  8
MERGEDLAYER-2
  0
POLYLINE
  8
MERGEDLAYER-2
 66
  1
 70
  0
 62
  8
 10
4.882592
 20
4.012595
 30
0.000000
  0
VERTEX
  8
MERGEDLAYER-2
 10
4.882592
 20
4.012595
 30
0.000000
  0
VERTEX
  8
MERGEDLAYER-2
 10
5.434748
 20
4.012595
 30
0.000000
  0
SEQEND
  8
MERGEDLAYER-2
  0
POLYLINE
  8
MERGEDLAYER-2
 66
  1
 70
  1
 62
  0
  0
VERTEX
  8
MERGEDLAYER-2
 10
5.986992
 20
4.039861
 30
0.000000
  0
VERTEX
  8
MERGEDLAYER-2
 10
6.539148
 20
4.039861
 30
0.000000
  0
VERTEX
  8
MERGEDLAYER-2
 10
6.539148
 20
3.828117
 30
0.000000
  0
VERTEX
  8
MERGEDLAYER-2
 10
5.986992
 20
3.828117
 30
0.000000
  0
SEQEND
  8
MERGEDLAYER-2
  0
POLYLINE
  8
MERGEDLAYER-2
 66
  1
 70
  0
 62
  8
 10
5.986992
 20
4.012595
 30
0.000000
  0
VERTEX
  8
MERGEDLAYER-2
 10
5.986992
 20
4.012595
 30
0.000000
  0
VERTEX
  8
MERGEDLAYER-2
 10
6.539148
 20
4.012595
 30
0.000000
  0
SEQEND
  8
MERGEDLAYER-2
  0
POLYLINE
  8
MERGEDLAYER-2
 66
  1
 70
  0
 62
  8
 10
2.673792
 20
3.855810
 30
0.000000
  0
VERTEX
  8
MERGEDLAYER-2
 10
2.673792
 20
3.855810
 30
0.000000
  0
VERTEX
  8
MERGEDLAYER-2
 10
3.225950
 20
3.855810
 30
0.000000
  0
SEQEND
  8
MERGEDLAYER-2
  0
POLYLINE
  8
MERGEDLAYER-2
 66
  1
 70
  0
 62
  8
 10
1.569389
 20
3.855810
 30
0.000000
  0
VERTEX
  8
MERGEDLAYER-2
 10
1.569389
 20
3.855810
 30
0.000000
  0
VERTEX
  8
MERGEDLAYER-2
 10
2.121549
 20
3.855810
 30
0.000000
  0
SEQEND
  8
MERGEDLAYER-2
  0
POLYLINE
  8
MERGEDLAYER-2
 66
  1
 70
  0
 62
  8
 10
3.778192
 20
3.855810
 30
0.000000
  0
VERTEX
  8
MERGEDLAYER-2
 10
3.778192
 20
3.855810
 30
0.000000
  0
VERTEX
  8
MERGEDLAYER-2
 10
4.330348
 20
3.855810
 30
0.000000
  0
SEQEND
  8
MERGEDLAYER-2
  0
POLYLINE
  8
MERGEDLAYER-2
 66
  1
 70
  0
 62
  8
 10
4.882592
 20
3.855810
 30
0.000000
  0
VERTEX
  8
MERGEDLAYER-2
 10
4.882592
 20
3.855810
 30
0.000000
  0
VERTEX
  8
MERGEDLAYER-2
 10
5.434748
 20
3.855810
 30
0.000000
  0
SEQEND
  8
MERGEDLAYER-2
  0
POLYLINE
  8
MERGEDLAYER-2
 66
  1
 70
  0
 62
  8
 10
5.986992
 20
3.855810
 30
0.000000
  0
VERTEX
  8
MERGEDLAYER-2
 10
5.986992
 20
3.855810
 30
0.000000
  0
VERTEX
  8
MERGEDLAYER-2
 10
6.539148
 20
3.855810
 30
0.000000
  0
SEQEND
  8
MERGEDLAYER-2
  0
POLYLINE
  8
MERGEDLAYER-2
 66
  1
 70
  1
 62
  0
  0
VERTEX
  8
MERGEDLAYER-2
 10
2.121591
 20
4.592381
 30
0.000000
  0
VERTEX
  8
MERGEDLAYER-2
 10
2.673751
 20
4.592381
 30
0.000000
  0
VERTEX
  8
MERGEDLAYER-2
 10
2.673751
 20
4.380637
 30
0.000000
  0
VERTEX
  8
MERGEDLAYER-2
 10
2.121591
 20
4.380637
 30
0.000000
  0
SEQEND
  8
MERGEDLAYER-2
  0
POLYLINE
  8
MERGEDLAYER-2
 66
  1
 70
  0
 62
  8
 10
2.121591
 20
4.565115
 30
0.000000
  0
VERTEX
  8
MERGEDLAYER-2
 10
2.121591
 20
4.565115
 30
0.000000
  0
VERTEX
  8
MERGEDLAYER-2
 10
2.673751
 20
4.565115
 30
0.000000
  0
SEQEND
  8
MERGEDLAYER-2
  0
POLYLINE
  8
MERGEDLAYER-2
 66
  1
 70
  0
 62
  8
 10
2.121591
 20
4.408329
 30
0.000000
  0
VERTEX
  8
MERGEDLAYER-2
 10
2.121591
 20
4.408329
 30
0.000000
  0
VERTEX
  8
MERGEDLAYER-2
 10
2.673751
 20
4.408329
 30
0.000000
  0
SEQEND
  8
MERGEDLAYER-2
  0
POLYLINE
  8
MERGEDLAYER-2
 66
  1
 70
  1
 62
  0
  0
VERTEX
  8
MERGEDLAYER-2
 10
1.017189
 20
4.592381
 30
0.000000
  0
VERTEX
  8
MERGEDLAYER-2
 10
1.569349
 20
4.592381
 30
0.000000
  0
VERTEX
  8
MERGEDLAYER-2
 10
1.569349
 20
4.380637
 30
0.000000
  0
VERTEX
  8
MERGEDLAYER-2
 10
1.017189
 20
4.380637
 30
0.000000
  0
SEQEND
  8
MERGEDLAYER-2
  0
POLYLINE
  8
MERGEDLAYER-2
 66
  1
 70
  0
 62
  8
 10
1.017189
 20
4.565115
 30
0.000000
  0
VERTEX
  8
MERGEDLAYER-2
 10
1.017189
 20
4.565115
 30
0.000000
  0
VERTEX
  8
MERGEDLAYER-2
 10
1.569349
 20
4.565115
 30
0.000000
  0
SEQEND
  8
MERGEDLAYER-2
  0
POLYLINE
  8
MERGEDLAYER-2
 66
  1
 70
  0
 62
  8
 10
1.017189
 20
4.408329
 30
0.000000
  0
VERTEX
  8
MERGEDLAYER-2
 10
1.017189
 20
4.408329
 30
0.000000
  0
VERTEX
  8
MERGEDLAYER-2
 10
1.569349
 20
4.408329
 30
0.000000
  0
SEQEND
  8
MERGEDLAYER-2
  0
POLYLINE
  8
MERGEDLAYER-2
 66
  1
 70
  1
 62
  0
  0
VERTEX
  8
MERGEDLAYER-2
 10
3.225991
 20
4.592381
 30
0.000000
  0
VERTEX
  8
MERGEDLAYER-2
 10
3.778152
 20
4.592381
 30
0.000000
  0
VERTEX
  8
MERGEDLAYER-2
 10
3.778152
 20
4.380637
 30
0.000000
  0
VERTEX
  8
MERGEDLAYER-2
 10
3.225991
 20
4.380637
 30
0.000000
  0
SEQEND
  8
MERGEDLAYER-2
  0
POLYLINE
  8
MERGEDLAYER-2
 66
  1
 70
  0
 62
  8
 10
3.225991
 20
4.565115
 30
0.000000
  0
VERTEX
  8
MERGEDLAYER-2
 10
3.225991
 20
4.565115
 30
0.000000
  0
VERTEX
  8
MERGEDLAYER-2
 10
3.778152
 20
4.565115
 30
0.000000
  0
SEQEND
  8
MERGEDLAYER-2
  0
POLYLINE
  8
MERGEDLAYER-2
 66
  1
 70
  0
 62
  8
 10
3.225991
 20
4.408329
 30
0.000000
  0
VERTEX
  8
MERGEDLAYER-2
 10
3.225991
 20
4.408329
 30
0.000000
  0
VERTEX
  8
MERGEDLAYER-2
 10
3.778152
 20
4.408329
 30
0.000000
  0
SEQEND
  8
MERGEDLAYER-2
  0
POLYLINE
  8
MERGEDLAYER-2
 66
  1
 70
  1
 62
  0
  0
VERTEX
  8
MERGEDLAYER-2
 10
4.330392
 20
4.592381
 30
0.000000
  0
VERTEX
  8
MERGEDLAYER-2
 10
4.882552
 20
4.592381
 30
0.000000
  0
VERTEX
  8
MERGEDLAYER-2
 10
4.882552
 20
4.380637
 30
0.000000
  0
VERTEX
  8
MERGEDLAYER-2
 10
4.330392
 20
4.380637
 30
0.000000
  0
SEQEND
  8
MERGEDLAYER-2
  0
POLYLINE
  8
MERGEDLAYER-2
 66
  1
 70
  0
 62
  8
 10
4.330392
 20
4.565115
 30
0.000000
  0
VERTEX
  8
MERGEDLAYER-2
 10
4.330392
 20
4.565115
 30
0.000000
  0
VERTEX
  8
MERGEDLAYER-2
 10
4.882552
 20
4.565115
 30
0.000000
  0
SEQEND
  8
MERGEDLAYER-2
  0
POLYLINE
  8
MERGEDLAYER-2
 66
  1
 70
  0
 62
  8
 10
4.330392
 20
4.408329
 30
0.000000
  0
VERTEX
  8
MERGEDLAYER-2
 10
4.330392
 20
4.408329
 30
0.000000
  0
VERTEX
  8
MERGEDLAYER-2
 10
4.882552
 20
4.408329
 30
0.000000
  0
SEQEND
  8
MERGEDLAYER-2
  0
POLYLINE
  8
MERGEDLAYER-2
 66
  1
 70
  1
 62
  0
  0
VERTEX
  8
MERGEDLAYER-2
 10
2.673792
 20
4.408361
 30
0.000000
  0
VERTEX
  8
MERGEDLAYER-2
 10
3.225950
 20
4.408361
 30
0.000000
  0
VERTEX
  8
MERGEDLAYER-2
 10
3.225950
 20
4.196618
 30
0.000000
  0
VERTEX
  8
MERGEDLAYER-2
 10
2.673792
 20
4.196618
 30
0.000000
  0
SEQEND
  8
MERGEDLAYER-2
  0
POLYLINE
  8
MERGEDLAYER-2
 66
  1
 70
  0
 62
  8
 10
2.673792
 20
4.381095
 30
0.000000
  0
VERTEX
  8
MERGEDLAYER-2
 10
2.673792
 20
4.381095
 30
0.000000
  0
VERTEX
  8
MERGEDLAYER-2
 10
3.225950
 20
4.381095
 30
0.000000
  0
SEQEND
  8
MERGEDLAYER-2
  0
POLYLINE
  8
MERGEDLAYER-2
 66
  1
 70
  1
 62
  0
  0
VERTEX
  8
MERGEDLAYER-2
 10
1.569389
 20
4.408361
 30
0.000000
  0
VERTEX
  8
MERGEDLAYER-2
 10
2.121549
 20
4.408361
 30
0.000000
  0
VERTEX
  8
MERGEDLAYER-2
 10
2.121549
 20
4.196618
 30
0.000000
  0
VERTEX
  8
MERGEDLAYER-2
 10
1.569389
 20
4.196618
 30
0.000000
  0
SEQEND
  8
MERGEDLAYER-2
  0
POLYLINE
  8
MERGEDLAYER-2
 66
  1
 70
  0
 62
  8
 10
1.569389
 20
4.381095
 30
0.000000
  0
VERTEX
  8
MERGEDLAYER-2
 10
1.569389
 20
4.381095
 30
0.000000
  0
VERTEX
  8
MERGEDLAYER-2
 10
2.121549
 20
4.381095
 30
0.000000
  0
SEQEND
  8
MERGEDLAYER-2
  0
POLYLINE
  8
MERGEDLAYER-2
 66
  1
 70
  1
 62
  0
  0
VERTEX
  8
MERGEDLAYER-2
 10
3.778192
 20
4.408361
 30
0.000000
  0
VERTEX
  8
MERGEDLAYER-2
 10
4.330348
 20
4.408361
 30
0.000000
  0
VERTEX
  8
MERGEDLAYER-2
 10
4.330348
 20
4.196618
 30
0.000000
  0
VERTEX
  8
MERGEDLAYER-2
 10
3.778192
 20
4.196618
 30
0.000000
  0
SEQEND
  8
MERGEDLAYER-2
  0
POLYLINE
  8
MERGEDLAYER-2
 66
  1
 70
  0
 62
  8
 10
3.778192
 20
4.381095
 30
0.000000
  0
VERTEX
  8
MERGEDLAYER-2
 10
3.778192
 20
4.381095
 30
0.000000
  0
VERTEX
  8
MERGEDLAYER-2
 10
4.330348
 20
4.381095
 30
0.000000
  0
SEQEND
  8
MERGEDLAYER-2
  0
POLYLINE
  8
MERGEDLAYER-2
 66
  1
 70
  1
 62
  0
  0
VERTEX
  8
MERGEDLAYER-2
 10
5.434792
 20
4.592381
 30
0.000000
  0
VERTEX
  8
MERGEDLAYER-2
 10
5.986952
 20
4.592381
 30
0.000000
  0
VERTEX
  8
MERGEDLAYER-2
 10
5.986952
 20
4.380637
 30
0.000000
  0
VERTEX
  8
MERGEDLAYER-2
 10
5.434792
 20
4.380637
 30
0.000000
  0
SEQEND
  8
MERGEDLAYER-2
  0
POLYLINE
  8
MERGEDLAYER-2
 66
  1
 70
  0
 62
  8
 10
5.434792
 20
4.565115
 30
0.000000
  0
VERTEX
  8
MERGEDLAYER-2
 10
5.434792
 20
4.565115
 30
0.000000
  0
VERTEX
  8
MERGEDLAYER-2
 10
5.986952
 20
4.565115
 30
0.000000
  0
SEQEND
  8
MERGEDLAYER-2
  0
POLYLINE
  8
MERGEDLAYER-2
 66
  1
 70
  0
 62
  8
 10
5.434792
 20
4.408329
 30
0.000000
  0
VERTEX
  8
MERGEDLAYER-2
 10
5.434792
 20
4.408329
 30
0.000000
  0
VERTEX
  8
MERGEDLAYER-2
 10
5.986952
 20
4.408329
 30
0.000000
  0
SEQEND
  8
MERGEDLAYER-2
  0
POLYLINE
  8
MERGEDLAYER-2
 66
  1
 70
  1
 62
  0
  0
VERTEX
  8
MERGEDLAYER-2
 10
4.882592
 20
4.408361
 30
0.000000
  0
VERTEX
  8
MERGEDLAYER-2
 10
5.434748
 20
4.408361
 30
0.000000
  0
VERTEX
  8
MERGEDLAYER-2
 10
5.434748
 20
4.196618
 30
0.000000
  0
VERTEX
  8
MERGEDLAYER-2
 10
4.882592
 20
4.196618
 30
0.000000
  0
SEQEND
  8
MERGEDLAYER-2
  0
POLYLINE
  8
MERGEDLAYER-2
 66
  1
 70
  0
 62
  8
 10
4.882592
 20
4.381095
 30
0.000000
  0
VERTEX
  8
MERGEDLAYER-2
 10
4.882592
 20
4.381095
 30
0.000000
  0
VERTEX
  8
MERGEDLAYER-2
 10
5.434748
 20
4.381095
 30
0.000000
  0
SEQEND
  8
MERGEDLAYER-2
  0
POLYLINE
  8
MERGEDLAYER-2
 66
  1
 70
  1
 62
  0
  0
VERTEX
  8
MERGEDLAYER-2
 10
5.986992
 20
4.408361
 30
0.000000
  0
VERTEX
  8
MERGEDLAYER-2
 10
6.539148
 20
4.408361
 30
0.000000
  0
VERTEX
  8
MERGEDLAYER-2
 10
6.539148
 20
4.196618
 30
0.000000
  0
VERTEX
  8
MERGEDLAYER-2
 10
5.986992
 20
4.196618
 30
0.000000
  0
SEQEND
  8
MERGEDLAYER-2
  0
POLYLINE
  8
MERGEDLAYER-2
 66
  1
 70
  0
 62
  8
 10
5.986992
 20
4.381095
 30
0.000000
  0
VERTEX
  8
MERGEDLAYER-2
 10
5.986992
 20
4.381095
 30
0.000000
  0
VERTEX
  8
MERGEDLAYER-2
 10
6.539148
 20
4.381095
 30
0.000000
  0
SEQEND
  8
MERGEDLAYER-2
  0
POLYLINE
  8
MERGEDLAYER-2
 66
  1
 70
  0
 62
  8
 10
2.673792
 20
4.224310
 30
0.000000
  0
VERTEX
  8
MERGEDLAYER-2
 10
2.673792
 20
4.224310
 30
0.000000
  0
VERTEX
  8
MERGEDLAYER-2
 10
3.225950
 20
4.224310
 30
0.000000
  0
SEQEND
  8
MERGEDLAYER-2
  0
POLYLINE
  8
MERGEDLAYER-2
 66
  1
 70
  0
 62
  8
 10
1.569389
 20
4.224310
 30
0.000000
  0
VERTEX
  8
MERGEDLAYER-2
 10
1.569389
 20
4.224310
 30
0.000000
  0
VERTEX
  8
MERGEDLAYER-2
 10
2.121549
 20
4.224310
 30
0.000000
  0
SEQEND
  8
MERGEDLAYER-2
  0
POLYLINE
  8
MERGEDLAYER-2
 66
  1
 70
  0
 62
  8
 10
3.778192
 20
4.224310
 30
0.000000
  0
VERTEX
  8
MERGEDLAYER-2
 10
3.778192
 20
4.224310
 30
0.000000
  0
VERTEX
  8
MERGEDLAYER-2
 10
4.330348
 20
4.224310
 30
0.000000
  0
SEQEND
  8
MERGEDLAYER-2
  0
POLYLINE
  8
MERGEDLAYER-2
 66
  1
 70
  0
 62
  8
 10
4.882592
 20
4.224310
 30
0.000000
  0
VERTEX
  8
MERGEDLAYER-2
 10
4.882592
 20
4.224310
 30
0.000000
  0
VERTEX
  8
MERGEDLAYER-2
 10
5.434748
 20
4.224310
 30
0.000000
  0
SEQEND
  8
MERGEDLAYER-2
  0
POLYLINE
  8
MERGEDLAYER-2
 66
  1
 70
  0
 62
  8
 10
5.986992
 20
4.224310
 30
0.000000
  0
VERTEX
  8
MERGEDLAYER-2
 10
5.986992
 20
4.224310
 30
0.000000
  0
VERTEX
  8
MERGEDLAYER-2
 10
6.539148
 20
4.224310
 30
0.000000
  0
SEQEND
  8
MERGEDLAYER-2
  0
POLYLINE
  8
MERGEDLAYER-2
 66
  1
 70
  1
 62
  0
  0
VERTEX
  8
MERGEDLAYER-2
 10
2.121591
 20
4.960881
 30
0.000000
  0
VERTEX
  8
MERGEDLAYER-2
 10
2.673751
 20
4.960881
 30
0.000000
  0
VERTEX
  8
MERGEDLAYER-2
 10
2.673751
 20
4.749137
 30
0.000000
  0
VERTEX
  8
MERGEDLAYER-2
 10
2.121591
 20
4.749137
 30
0.000000
  0
SEQEND
  8
MERGEDLAYER-2
  0
POLYLINE
  8
MERGEDLAYER-2
 66
  1
 70
  0
 62
  8
 10
2.121591
 20
4.933615
 30
0.000000
  0
VERTEX
  8
MERGEDLAYER-2
 10
2.121591
 20
4.933615
 30
0.000000
  0
VERTEX
  8
MERGEDLAYER-2
 10
2.673751
 20
4.933615
 30
0.000000
  0
SEQEND
  8
MERGEDLAYER-2
  0
POLYLINE
  8
MERGEDLAYER-2
 66
  1
 70
  0
 62
  8
 10
2.121591
 20
4.776830
 30
0.000000
  0
VERTEX
  8
MERGEDLAYER-2
 10
2.121591
 20
4.776830
 30
0.000000
  0
VERTEX
  8
MERGEDLAYER-2
 10
2.673751
 20
4.776830
 30
0.000000
  0
SEQEND
  8
MERGEDLAYER-2
  0
POLYLINE
  8
MERGEDLAYER-2
 66
  1
 70
  1
 62
  0
  0
VERTEX
  8
MERGEDLAYER-2
 10
1.017189
 20
4.960881
 30
0.000000
  0
VERTEX
  8
MERGEDLAYER-2
 10
1.569349
 20
4.960881
 30
0.000000
  0
VERTEX
  8
MERGEDLAYER-2
 10
1.569349
 20
4.749137
 30
0.000000
  0
VERTEX
  8
MERGEDLAYER-2
 10
1.017189
 20
4.749137
 30
0.000000
  0
SEQEND
  8
MERGEDLAYER-2
  0
POLYLINE
  8
MERGEDLAYER-2
 66
  1
 70
  0
 62
  8
 10
1.017189
 20
4.933615
 30
0.000000
  0
VERTEX
  8
MERGEDLAYER-2
 10
1.017189
 20
4.933615
 30
0.000000
  0
VERTEX
  8
MERGEDLAYER-2
 10
1.569349
 20
4.933615
 30
0.000000
  0
SEQEND
  8
MERGEDLAYER-2
  0
POLYLINE
  8
MERGEDLAYER-2
 66
  1
 70
  0
 62
  8
 10
1.017189
 20
4.776830
 30
0.000000
  0
VERTEX
  8
MERGEDLAYER-2
 10
1.017189
 20
4.776830
 30
0.000000
  0
VERTEX
  8
MERGEDLAYER-2
 10
1.569349
 20
4.776830
 30
0.000000
  0
SEQEND
  8
MERGEDLAYER-2
  0
POLYLINE
  8
MERGEDLAYER-2
 66
  1
 70
  1
 62
  0
  0
VERTEX
  8
MERGEDLAYER-2
 10
3.225991
 20
4.960881
 30
0.000000
  0
VERTEX
  8
MERGEDLAYER-2
 10
3.778152
 20
4.960881
 30
0.000000
  0
VERTEX
  8
MERGEDLAYER-2
 10
3.778152
 20
4.749137
 30
0.000000
  0
VERTEX
  8
MERGEDLAYER-2
 10
3.225991
 20
4.749137
 30
0.000000
  0
SEQEND
  8
MERGEDLAYER-2
  0
POLYLINE
  8
MERGEDLAYER-2
 66
  1
 70
  0
 62
  8
 10
3.225991
 20
4.933615
 30
0.000000
  0
VERTEX
  8
MERGEDLAYER-2
 10
3.225991
 20
4.933615
 30
0.000000
  0
VERTEX
  8
MERGEDLAYER-2
 10
3.778152
 20
4.933615
 30
0.000000
  0
SEQEND
  8
MERGEDLAYER-2
  0
POLYLINE
  8
MERGEDLAYER-2
 66
  1
 70
  0
 62
  8
 10
3.225991
 20
4.776830
 30
0.000000
  0
VERTEX
  8
MERGEDLAYER-2
 10
3.225991
 20
4.776830
 30
0.000000
  0
VERTEX
  8
MERGEDLAYER-2
 10
3.778152
 20
4.776830
 30
0.000000
  0
SEQEND
  8
MERGEDLAYER-2
  0
POLYLINE
  8
MERGEDLAYER-2
 66
  1
 70
  1
 62
  0
  0
VERTEX
  8
MERGEDLAYER-2
 10
4.330392
 20
4.960881
 30
0.000000
  0
VERTEX
  8
MERGEDLAYER-2
 10
4.882552
 20
4.960881
 30
0.000000
  0
VERTEX
  8
MERGEDLAYER-2
 10
4.882552
 20
4.749137
 30
0.000000
  0
VERTEX
  8
MERGEDLAYER-2
 10
4.330392
 20
4.749137
 30
0.000000
  0
SEQEND
  8
MERGEDLAYER-2
  0
POLYLINE
  8
MERGEDLAYER-2
 66
  1
 70
  0
 62
  8
 10
4.330392
 20
4.933615
 30
0.000000
  0
VERTEX
  8
MERGEDLAYER-2
 10
4.330392
 20
4.933615
 30
0.000000
  0
VERTEX
  8
MERGEDLAYER-2
 10
4.882552
 20
4.933615
 30
0.000000
  0
SEQEND
  8
MERGEDLAYER-2
  0
POLYLINE
  8
MERGEDLAYER-2
 66
  1
 70
  0
 62
  8
 10
4.330392
 20
4.776830
 30
0.000000
  0
VERTEX
  8
MERGEDLAYER-2
 10
4.330392
 20
4.776830
 30
0.000000
  0
VERTEX
  8
MERGEDLAYER-2
 10
4.882552
 20
4.776830
 30
0.000000
  0
SEQEND
  8
MERGEDLAYER-2
  0
POLYLINE
  8
MERGEDLAYER-2
 66
  1
 70
  1
 62
  0
  0
VERTEX
  8
MERGEDLAYER-2
 10
2.673792
 20
4.776861
 30
0.000000
  0
VERTEX
  8
MERGEDLAYER-2
 10
3.225950
 20
4.776861
 30
0.000000
  0
VERTEX
  8
MERGEDLAYER-2
 10
3.225950
 20
4.565117
 30
0.000000
  0
VERTEX
  8
MERGEDLAYER-2
 10
2.673792
 20
4.565117
 30
0.000000
  0
SEQEND
  8
MERGEDLAYER-2
  0
POLYLINE
  8
MERGEDLAYER-2
 66
  1
 70
  0
 62
  8
 10
2.673792
 20
4.749596
 30
0.000000
  0
VERTEX
  8
MERGEDLAYER-2
 10
2.673792
 20
4.749596
 30
0.000000
  0
VERTEX
  8
MERGEDLAYER-2
 10
3.225950
 20
4.749596
 30
0.000000
  0
SEQEND
  8
MERGEDLAYER-2
  0
POLYLINE
  8
MERGEDLAYER-2
 66
  1
 70
  1
 62
  0
  0
VERTEX
  8
MERGEDLAYER-2
 10
1.569389
 20
4.776861
 30
0.000000
  0
VERTEX
  8
MERGEDLAYER-2
 10
2.121549
 20
4.776861
 30
0.000000
  0
VERTEX
  8
MERGEDLAYER-2
 10
2.121549
 20
4.565117
 30
0.000000
  0
VERTEX
  8
MERGEDLAYER-2
 10
1.569389
 20
4.565117
 30
0.000000
  0
SEQEND
  8
MERGEDLAYER-2
  0
POLYLINE
  8
MERGEDLAYER-2
 66
  1
 70
  0
 62
  8
 10
1.569389
 20
4.749596
 30
0.000000
  0
VERTEX
  8
MERGEDLAYER-2
 10
1.569389
 20
4.749596
 30
0.000000
  0
VERTEX
  8
MERGEDLAYER-2
 10
2.121549
 20
4.749596
 30
0.000000
  0
SEQEND
  8
MERGEDLAYER-2
  0
POLYLINE
  8
MERGEDLAYER-2
 66
  1
 70
  1
 62
  0
  0
VERTEX
  8
MERGEDLAYER-2
 10
3.778192
 20
4.776861
 30
0.000000
  0
VERTEX
  8
MERGEDLAYER-2
 10
4.330348
 20
4.776861
 30
0.000000
  0
VERTEX
  8
MERGEDLAYER-2
 10
4.330348
 20
4.565117
 30
0.000000
  0
VERTEX
  8
MERGEDLAYER-2
 10
3.778192
 20
4.565117
 30
0.000000
  0
SEQEND
  8
MERGEDLAYER-2
  0
POLYLINE
  8
MERGEDLAYER-2
 66
  1
 70
  0
 62
  8
 10
3.778192
 20
4.749596
 30
0.000000
  0
VERTEX
  8
MERGEDLAYER-2
 10
3.778192
 20
4.749596
 30
0.000000
  0
VERTEX
  8
MERGEDLAYER-2
 10
4.330348
 20
4.749596
 30
0.000000
  0
SEQEND
  8
MERGEDLAYER-2
  0
POLYLINE
  8
MERGEDLAYER-2
 66
  1
 70
  1
 62
  0
  0
VERTEX
  8
MERGEDLAYER-2
 10
5.434792
 20
4.960881
 30
0.000000
  0
VERTEX
  8
MERGEDLAYER-2
 10
5.986952
 20
4.960881
 30
0.000000
  0
VERTEX
  8
MERGEDLAYER-2
 10
5.986952
 20
4.749137
 30
0.000000
  0
VERTEX
  8
MERGEDLAYER-2
 10
5.434792
 20
4.749137
 30
0.000000
  0
SEQEND
  8
MERGEDLAYER-2
  0
POLYLINE
  8
MERGEDLAYER-2
 66
  1
 70
  0
 62
  8
 10
5.434792
 20
4.933615
 30
0.000000
  0
VERTEX
  8
MERGEDLAYER-2
 10
5.434792
 20
4.933615
 30
0.000000
  0
VERTEX
  8
MERGEDLAYER-2
 10
5.986952
 20
4.933615
 30
0.000000
  0
SEQEND
  8
MERGEDLAYER-2
  0
POLYLINE
  8
MERGEDLAYER-2
 66
  1
 70
  0
 62
  8
 10
5.434792
 20
4.776830
 30
0.000000
  0
VERTEX
  8
MERGEDLAYER-2
 10
5.434792
 20
4.776830
 30
0.000000
  0
VERTEX
  8
MERGEDLAYER-2
 10
5.986952
 20
4.776830
 30
0.000000
  0
SEQEND
  8
MERGEDLAYER-2
  0
POLYLINE
  8
MERGEDLAYER-2
 66
  1
 70
  1
 62
  0
  0
VERTEX
  8
MERGEDLAYER-2
 10
4.882592
 20
4.776861
 30
0.000000
  0
VERTEX
  8
MERGEDLAYER-2
 10
5.434748
 20
4.776861
 30
0.000000
  0
VERTEX
  8
MERGEDLAYER-2
 10
5.434748
 20
4.565117
 30
0.000000
  0
VERTEX
  8
MERGEDLAYER-2
 10
4.882592
 20
4.565117
 30
0.000000
  0
SEQEND
  8
MERGEDLAYER-2
  0
POLYLINE
  8
MERGEDLAYER-2
 66
  1
 70
  0
 62
  8
 10
4.882592
 20
4.749596
 30
0.000000
  0
VERTEX
  8
MERGEDLAYER-2
 10
4.882592
 20
4.749596
 30
0.000000
  0
VERTEX
  8
MERGEDLAYER-2
 10
5.434748
 20
4.749596
 30
0.000000
  0
SEQEND
  8
MERGEDLAYER-2
  0
POLYLINE
  8
MERGEDLAYER-2
 66
  1
 70
  1
 62
  0
  0
VERTEX
  8
MERGEDLAYER-2
 10
5.986992
 20
4.776861
 30
0.000000
  0
VERTEX
  8
MERGEDLAYER-2
 10
6.539148
 20
4.776861
 30
0.000000
  0
VERTEX
  8
MERGEDLAYER-2
 10
6.539148
 20
4.565117
 30
0.000000
  0
VERTEX
  8
MERGEDLAYER-2
 10
5.986992
 20
4.565117
 30
0.000000
  0
SEQEND
  8
MERGEDLAYER-2
  0
POLYLINE
  8
MERGEDLAYER-2
 66
  1
 70
  0
 62
  8
 10
5.986992
 20
4.749596
 30
0.000000
  0
VERTEX
  8
MERGEDLAYER-2
 10
5.986992
 20
4.749596
 30
0.000000
  0
VERTEX
  8
MERGEDLAYER-2
 10
6.539148
 20
4.749596
 30
0.000000
  0
SEQEND
  8
MERGEDLAYER-2
  0
POLYLINE
  8
MERGEDLAYER-2
 66
  1
 70
  0
 62
  8
 10
2.673792
 20
4.592809
 30
0.000000
  0
VERTEX
  8
MERGEDLAYER-2
 10
2.673792
 20
4.592809
 30
0.000000
  0
VERTEX
  8
MERGEDLAYER-2
 10
3.225950
 20
4.592809
 30
0.000000
  0
SEQEND
  8
MERGEDLAYER-2
  0
POLYLINE
  8
MERGEDLAYER-2
 66
  1
 70
  0
 62
  8
 10
1.569389
 20
4.592809
 30
0.000000
  0
VERTEX
  8
MERGEDLAYER-2
 10
1.569389
 20
4.592809
 30
0.000000
  0
VERTEX
  8
MERGEDLAYER-2
 10
2.121549
 20
4.592809
 30
0.000000
  0
SEQEND
  8
MERGEDLAYER-2
  0
POLYLINE
  8
MERGEDLAYER-2
 66
  1
 70
  0
 62
  8
 10
3.778192
 20
4.592809
 30
0.000000
  0
VERTEX
  8
MERGEDLAYER-2
 10
3.778192
 20
4.592809
 30
0.000000
  0
VERTEX
  8
MERGEDLAYER-2
 10
4.330348
 20
4.592809
 30
0.000000
  0
SEQEND
  8
MERGEDLAYER-2
  0
POLYLINE
  8
MERGEDLAYER-2
 66
  1
 70
  0
 62
  8
 10
4.882592
 20
4.592809
 30
0.000000
  0
VERTEX
  8
MERGEDLAYER-2
 10
4.882592
 20
4.592809
 30
0.000000
  0
VERTEX
  8
MERGEDLAYER-2
 10
5.434748
 20
4.592809
 30
0.000000
  0
SEQEND
  8
MERGEDLAYER-2
  0
POLYLINE
  8
MERGEDLAYER-2
 66
  1
 70
  0
 62
  8
 10
5.986992
 20
4.592809
 30
0.000000
  0
VERTEX
  8
MERGEDLAYER-2
 10
5.986992
 20
4.592809
 30
0.000000
  0
VERTEX
  8
MERGEDLAYER-2
 10
6.539148
 20
4.592809
 30
0.000000
  0
SEQEND
  8
MERGEDLAYER-2
  0
POLYLINE
  8
MERGEDLAYER-2
 66
  1
 70
  1
 62
  0
  0
VERTEX
  8
MERGEDLAYER-2
 10
2.121591
 20
5.329381
 30
0.000000
  0
VERTEX
  8
MERGEDLAYER-2
 10
2.673751
 20
5.329381
 30
0.000000
  0
VERTEX
  8
MERGEDLAYER-2
 10
2.673751
 20
5.117637
 30
0.000000
  0
VERTEX
  8
MERGEDLAYER-2
 10
2.121591
 20
5.117637
 30
0.000000
  0
SEQEND
  8
MERGEDLAYER-2
  0
POLYLINE
  8
MERGEDLAYER-2
 66
  1
 70
  0
 62
  8
 10
2.121591
 20
5.302115
 30
0.000000
  0
VERTEX
  8
MERGEDLAYER-2
 10
2.121591
 20
5.302115
 30
0.000000
  0
VERTEX
  8
MERGEDLAYER-2
 10
2.673751
 20
5.302115
 30
0.000000
  0
SEQEND
  8
MERGEDLAYER-2
  0
POLYLINE
  8
MERGEDLAYER-2
 66
  1
 70
  0
 62
  8
 10
2.121591
 20
5.145330
 30
0.000000
  0
VERTEX
  8
MERGEDLAYER-2
 10
2.121591
 20
5.145330
 30
0.000000
  0
VERTEX
  8
MERGEDLAYER-2
 10
2.673751
 20
5.145330
 30
0.000000
  0
SEQEND
  8
MERGEDLAYER-2
  0
POLYLINE
  8
MERGEDLAYER-2
 66
  1
 70
  1
 62
  0
  0
VERTEX
  8
MERGEDLAYER-2
 10
1.017189
 20
5.329381
 30
0.000000
  0
VERTEX
  8
MERGEDLAYER-2
 10
1.569349
 20
5.329381
 30
0.000000
  0
VERTEX
  8
MERGEDLAYER-2
 10
1.569349
 20
5.117637
 30
0.000000
  0
VERTEX
  8
MERGEDLAYER-2
 10
1.017189
 20
5.117637
 30
0.000000
  0
SEQEND
  8
MERGEDLAYER-2
  0
POLYLINE
  8
MERGEDLAYER-2
 66
  1
 70
  0
 62
  8
 10
1.017189
 20
5.302115
 30
0.000000
  0
VERTEX
  8
MERGEDLAYER-2
 10
1.017189
 20
5.302115
 30
0.000000
  0
VERTEX
  8
MERGEDLAYER-2
 10
1.569349
 20
5.302115
 30
0.000000
  0
SEQEND
  8
MERGEDLAYER-2
  0
POLYLINE
  8
MERGEDLAYER-2
 66
  1
 70
  0
 62
  8
 10
1.017189
 20
5.145330
 30
0.000000
  0
VERTEX
  8
MERGEDLAYER-2
 10
1.017189
 20
5.145330
 30
0.000000
  0
VERTEX
  8
MERGEDLAYER-2
 10
1.569349
 20
5.145330
 30
0.000000
  0
SEQEND
  8
MERGEDLAYER-2
  0
POLYLINE
  8
MERGEDLAYER-2
 66
  1
 70
  1
 62
  0
  0
VERTEX
  8
MERGEDLAYER-2
 10
3.225991
 20
5.329381
 30
0.000000
  0
VERTEX
  8
MERGEDLAYER-2
 10
3.778152
 20
5.329381
 30
0.000000
  0
VERTEX
  8
MERGEDLAYER-2
 10
3.778152
 20
5.117637
 30
0.000000
  0
VERTEX
  8
MERGEDLAYER-2
 10
3.225991
 20
5.117637
 30
0.000000
  0
SEQEND
  8
MERGEDLAYER-2
  0
POLYLINE
  8
MERGEDLAYER-2
 66
  1
 70
  0
 62
  8
 10
3.225991
 20
5.302115
 30
0.000000
  0
VERTEX
  8
MERGEDLAYER-2
 10
3.225991
 20
5.302115
 30
0.000000
  0
VERTEX
  8
MERGEDLAYER-2
 10
3.778152
 20
5.302115
 30
0.000000
  0
SEQEND
  8
MERGEDLAYER-2
  0
POLYLINE
  8
MERGEDLAYER-2
 66
  1
 70
  0
 62
  8
 10
3.225991
 20
5.145330
 30
0.000000
  0
VERTEX
  8
MERGEDLAYER-2
 10
3.225991
 20
5.145330
 30
0.000000
  0
VERTEX
  8
MERGEDLAYER-2
 10
3.778152
 20
5.145330
 30
0.000000
  0
SEQEND
  8
MERGEDLAYER-2
  0
POLYLINE
  8
MERGEDLAYER-2
 66
  1
 70
  1
 62
  0
  0
VERTEX
  8
MERGEDLAYER-2
 10
4.330392
 20
5.329381
 30
0.000000
  0
VERTEX
  8
MERGEDLAYER-2
 10
4.882552
 20
5.329381
 30
0.000000
  0
VERTEX
  8
MERGEDLAYER-2
 10
4.882552
 20
5.117637
 30
0.000000
  0
VERTEX
  8
MERGEDLAYER-2
 10
4.330392
 20
5.117637
 30
0.000000
  0
SEQEND
  8
MERGEDLAYER-2
  0
POLYLINE
  8
MERGEDLAYER-2
 66
  1
 70
  0
 62
  8
 10
4.330392
 20
5.302115
 30
0.000000
  0
VERTEX
  8
MERGEDLAYER-2
 10
4.330392
 20
5.302115
 30
0.000000
  0
VERTEX
  8
MERGEDLAYER-2
 10
4.882552
 20
5.302115
 30
0.000000
  0
SEQEND
  8
MERGEDLAYER-2
  0
POLYLINE
  8
MERGEDLAYER-2
 66
  1
 70
  0
 62
  8
 10
4.330392
 20
5.145330
 30
0.000000
  0
VERTEX
  8
MERGEDLAYER-2
 10
4.330392
 20
5.145330
 30
0.000000
  0
VERTEX
  8
MERGEDLAYER-2
 10
4.882552
 20
5.145330
 30
0.000000
  0
SEQEND
  8
MERGEDLAYER-2
  0
POLYLINE
  8
MERGEDLAYER-2
 66
  1
 70
  1
 62
  0
  0
VERTEX
  8
MERGEDLAYER-2
 10
2.673792
 20
5.145362
 30
0.000000
  0
VERTEX
  8
MERGEDLAYER-2
 10
3.225950
 20
5.145362
 30
0.000000
  0
VERTEX
  8
MERGEDLAYER-2
 10
3.225950
 20
4.933617
 30
0.000000
  0
VERTEX
  8
MERGEDLAYER-2
 10
2.673792
 20
4.933617
 30
0.000000
  0
SEQEND
  8
MERGEDLAYER-2
  0
POLYLINE
  8
MERGEDLAYER-2
 66
  1
 70
  0
 62
  8
 10
2.673792
 20
5.118095
 30
0.000000
  0
VERTEX
  8
MERGEDLAYER-2
 10
2.673792
 20
5.118095
 30
0.000000
  0
VERTEX
  8
MERGEDLAYER-2
 10
3.225950
 20
5.118095
 30
0.000000
  0
SEQEND
  8
MERGEDLAYER-2
  0
POLYLINE
  8
MERGEDLAYER-2
 66
  1
 70
  1
 62
  0
  0
VERTEX
  8
MERGEDLAYER-2
 10
1.569389
 20
5.145362
 30
0.000000
  0
VERTEX
  8
MERGEDLAYER-2
 10
2.121549
 20
5.145362
 30
0.000000
  0
VERTEX
  8
MERGEDLAYER-2
 10
2.121549
 20
4.933617
 30
0.000000
  0
VERTEX
  8
MERGEDLAYER-2
 10
1.569389
 20
4.933617
 30
0.000000
  0
SEQEND
  8
MERGEDLAYER-2
  0
POLYLINE
  8
MERGEDLAYER-2
 66
  1
 70
  0
 62
  8
 10
1.569389
 20
5.118095
 30
0.000000
  0
VERTEX
  8
MERGEDLAYER-2
 10
1.569389
 20
5.118095
 30
0.000000
  0
VERTEX
  8
MERGEDLAYER-2
 10
2.121549
 20
5.118095
 30
0.000000
  0
SEQEND
  8
MERGEDLAYER-2
  0
POLYLINE
  8
MERGEDLAYER-2
 66
  1
 70
  1
 62
  0
  0
VERTEX
  8
MERGEDLAYER-2
 10
3.778192
 20
5.145362
 30
0.000000
  0
VERTEX
  8
MERGEDLAYER-2
 10
4.330348
 20
5.145362
 30
0.000000
  0
VERTEX
  8
MERGEDLAYER-2
 10
4.330348
 20
4.933617
 30
0.000000
  0
VERTEX
  8
MERGEDLAYER-2
 10
3.778192
 20
4.933617
 30
0.000000
  0
SEQEND
  8
MERGEDLAYER-2
  0
POLYLINE
  8
MERGEDLAYER-2
 66
  1
 70
  0
 62
  8
 10
3.778192
 20
5.118095
 30
0.000000
  0
VERTEX
  8
MERGEDLAYER-2
 10
3.778192
 20
5.118095
 30
0.000000
  0
VERTEX
  8
MERGEDLAYER-2
 10
4.330348
 20
5.118095
 30
0.000000
  0
SEQEND
  8
MERGEDLAYER-2
  0
POLYLINE
  8
MERGEDLAYER-2
 66
  1
 70
  1
 62
  0
  0
VERTEX
  8
MERGEDLAYER-2
 10
5.434792
 20
5.329381
 30
0.000000
  0
VERTEX
  8
MERGEDLAYER-2
 10
5.986952
 20
5.329381
 30
0.000000
  0
VERTEX
  8
MERGEDLAYER-2
 10
5.986952
 20
5.117637
 30
0.000000
  0
VERTEX
  8
MERGEDLAYER-2
 10
5.434792
 20
5.117637
 30
0.000000
  0
SEQEND
  8
MERGEDLAYER-2
  0
POLYLINE
  8
MERGEDLAYER-2
 66
  1
 70
  0
 62
  8
 10
5.434792
 20
5.302115
 30
0.000000
  0
VERTEX
  8
MERGEDLAYER-2
 10
5.434792
 20
5.302115
 30
0.000000
  0
VERTEX
  8
MERGEDLAYER-2
 10
5.986952
 20
5.302115
 30
0.000000
  0
SEQEND
  8
MERGEDLAYER-2
  0
POLYLINE
  8
MERGEDLAYER-2
 66
  1
 70
  0
 62
  8
 10
5.434792
 20
5.145330
 30
0.000000
  0
VERTEX
  8
MERGEDLAYER-2
 10
5.434792
 20
5.145330
 30
0.000000
  0
VERTEX
  8
MERGEDLAYER-2
 10
5.986952
 20
5.145330
 30
0.000000
  0
SEQEND
  8
MERGEDLAYER-2
  0
POLYLINE
  8
MERGEDLAYER-2
 66
  1
 70
  1
 62
  0
  0
VERTEX
  8
MERGEDLAYER-2
 10
4.882592
 20
5.145362
 30
0.000000
  0
VERTEX
  8
MERGEDLAYER-2
 10
5.434748
 20
5.145362
 30
0.000000
  0
VERTEX
  8
MERGEDLAYER-2
 10
5.434748
 20
4.933617
 30
0.000000
  0
VERTEX
  8
MERGEDLAYER-2
 10
4.882592
 20
4.933617
 30
0.000000
  0
SEQEND
  8
MERGEDLAYER-2
  0
POLYLINE
  8
MERGEDLAYER-2
 66
  1
 70
  0
 62
  8
 10
4.882592
 20
5.118095
 30
0.000000
  0
VERTEX
  8
MERGEDLAYER-2
 10
4.882592
 20
5.118095
 30
0.000000
  0
VERTEX
  8
MERGEDLAYER-2
 10
5.434748
 20
5.118095
 30
0.000000
  0
SEQEND
  8
MERGEDLAYER-2
  0
POLYLINE
  8
MERGEDLAYER-2
 66
  1
 70
  1
 62
  0
  0
VERTEX
  8
MERGEDLAYER-2
 10
5.986992
 20
5.145362
 30
0.000000
  0
VERTEX
  8
MERGEDLAYER-2
 10
6.539148
 20
5.145362
 30
0.000000
  0
VERTEX
  8
MERGEDLAYER-2
 10
6.539148
 20
4.933617
 30
0.000000
  0
VERTEX
  8
MERGEDLAYER-2
 10
5.986992
 20
4.933617
 30
0.000000
  0
SEQEND
  8
MERGEDLAYER-2
  0
POLYLINE
  8
MERGEDLAYER-2
 66
  1
 70
  0
 62
  8
 10
5.986992
 20
5.118095
 30
0.000000
  0
VERTEX
  8
MERGEDLAYER-2
 10
5.986992
 20
5.118095
 30
0.000000
  0
VERTEX
  8
MERGEDLAYER-2
 10
6.539148
 20
5.118095
 30
0.000000
  0
SEQEND
  8
MERGEDLAYER-2
  0
POLYLINE
  8
MERGEDLAYER-2
 66
  1
 70
  0
 62
  8
 10
2.673792
 20
4.961310
 30
0.000000
  0
VERTEX
  8
MERGEDLAYER-2
 10
2.673792
 20
4.961310
 30
0.000000
  0
VERTEX
  8
MERGEDLAYER-2
 10
3.225950
 20
4.961310
 30
0.000000
  0
SEQEND
  8
MERGEDLAYER-2
  0
POLYLINE
  8
MERGEDLAYER-2
 66
  1
 70
  0
 62
  8
 10
1.569389
 20
4.961310
 30
0.000000
  0
VERTEX
  8
MERGEDLAYER-2
 10
1.569389
 20
4.961310
 30
0.000000
  0
VERTEX
  8
MERGEDLAYER-2
 10
2.121549
 20
4.961310
 30
0.000000
  0
SEQEND
  8
MERGEDLAYER-2
  0
POLYLINE
  8
MERGEDLAYER-2
 66
  1
 70
  0
 62
  8
 10
3.778192
 20
4.961310
 30
0.000000
  0
VERTEX
  8
MERGEDLAYER-2
 10
3.778192
 20
4.961310
 30
0.000000
  0
VERTEX
  8
MERGEDLAYER-2
 10
4.330348
 20
4.961310
 30
0.000000
  0
SEQEND
  8
MERGEDLAYER-2
  0
POLYLINE
  8
MERGEDLAYER-2
 66
  1
 70
  0
 62
  8
 10
4.882592
 20
4.961310
 30
0.000000
  0
VERTEX
  8
MERGEDLAYER-2
 10
4.882592
 20
4.961310
 30
0.000000
  0
VERTEX
  8
MERGEDLAYER-2
 10
5.434748
 20
4.961310
 30
0.000000
  0
SEQEND
  8
MERGEDLAYER-2
  0
POLYLINE
  8
MERGEDLAYER-2
 66
  1
 70
  0
 62
  8
 10
5.986992
 20
4.961310
 30
0.000000
  0
VERTEX
  8
MERGEDLAYER-2
 10
5.986992
 20
4.961310
 30
0.000000
  0
VERTEX
  8
MERGEDLAYER-2
 10
6.539148
 20
4.961310
 30
0.000000
  0
SEQEND
  8
MERGEDLAYER-2
  0
POLYLINE
  8
MERGEDLAYER-2
 66
  1
 70
  1
 62
  0
  0
VERTEX
  8
MERGEDLAYER-2
 10
3.895833
 20
0.486112
 30
0.000000
  0
VERTEX
  8
MERGEDLAYER-2
 10
4.301303
 20
0.486112
 30
0.000000
  0
VERTEX
  8
MERGEDLAYER-2
 10
4.301303
 20
0.359549
 30
0.000000
  0
VERTEX
  8
MERGEDLAYER-2
 10
3.895833
 20
0.359549
 30
0.000000
  0
SEQEND
  8
MERGEDLAYER-2
  0
POLYLINE
  8
MERGEDLAYER-2
 66
  1
 70
  1
 62
  0
  0
VERTEX
  8
MERGEDLAYER-2
 10
3.908724
 20
0.467244
 30
0.000000
  0
VERTEX
  8
MERGEDLAYER-2
 10
3.924310
 20
0.467244
 30
0.000000
  0
VERTEX
  8
MERGEDLAYER-2
 10
3.924310
 20
0.433378
 30
0.000000
  0
VERTEX
  8
MERGEDLAYER-2
 10
3.908724
 20
0.433378
 30
0.000000
  0
SEQEND
  8
MERGEDLAYER-2
  0
POLYLINE
  8
MERGEDLAYER-2
 66
  1
 70
  1
 62
  0
  0
VERTEX
  8
MERGEDLAYER-2
 10
3.929584
 20
0.467244
 30
0.000000
  0
VERTEX
  8
MERGEDLAYER-2
 10
3.944936
 20
0.467244
 30
0.000000
  0
VERTEX
  8
MERGEDLAYER-2
 10
3.944936
 20
0.433378
 30
0.000000
  0
VERTEX
  8
MERGEDLAYER-2
 10
3.929584
 20
0.433378
 30
0.000000
  0
SEQEND
  8
MERGEDLAYER-2
  0
POLYLINE
  8
MERGEDLAYER-2
 66
  1
 70
  1
 62
  0
  0
VERTEX
  8
MERGEDLAYER-2
 10
3.949389
 20
0.467244
 30
0.000000
  0
VERTEX
  8
MERGEDLAYER-2
 10
3.964740
 20
0.467244
 30
0.000000
  0
VERTEX
  8
MERGEDLAYER-2
 10
3.964740
 20
0.433378
 30
0.000000
  0
VERTEX
  8
MERGEDLAYER-2
 10
3.949389
 20
0.433378
 30
0.000000
  0
SEQEND
  8
MERGEDLAYER-2
  0
POLYLINE
  8
MERGEDLAYER-2
 66
  1
 70
  1
 62
  0
  0
VERTEX
  8
MERGEDLAYER-2
 10
3.969779
 20
0.467244
 30
0.000000
  0
VERTEX
  8
MERGEDLAYER-2
 10
3.985130
 20
0.467244
 30
0.000000
  0
VERTEX
  8
MERGEDLAYER-2
 10
3.985130
 20
0.433378
 30
0.000000
  0
VERTEX
  8
MERGEDLAYER-2
 10
3.969779
 20
0.433378
 30
0.000000
  0
SEQEND
  8
MERGEDLAYER-2
  0
POLYLINE
  8
MERGEDLAYER-2
 66
  1
 70
  1
 62
  0
  0
VERTEX
  8
MERGEDLAYER-2
 10
3.990638
 20
0.457987
 30
0.000000
  0
VERTEX
  8
MERGEDLAYER-2
 10
3.990638
 20
0.466776
 30
0.000000
  0
VERTEX
  8
MERGEDLAYER-2
 10
4.015600
 20
0.466776
 30
0.000000
  0
VERTEX
  8
MERGEDLAYER-2
 10
4.015600
 20
0.457987
 30
0.000000
  0
SEQEND
  8
MERGEDLAYER-2
  0
POLYLINE
  8
MERGEDLAYER-2
 66
  1
 70
  1
 62
  0
  0
VERTEX
  8
MERGEDLAYER-2
 10
3.990639
 20
0.443103
 30
0.000000
  0
VERTEX
  8
MERGEDLAYER-2
 10
3.990639
 20
0.451892
 30
0.000000
  0
VERTEX
  8
MERGEDLAYER-2
 10
4.011030
 20
0.451892
 30
0.000000
  0
VERTEX
  8
MERGEDLAYER-2
 10
4.011030
 20
0.443103
 30
0.000000
  0
SEQEND
  8
MERGEDLAYER-2
  0
POLYLINE
  8
MERGEDLAYER-2
 66
  1
 70
  0
 62
  0
 10
3.908724
 20
0.422830
 30
0.000000
  0
VERTEX
  8
MERGEDLAYER-2
 10
3.908724
 20
0.422830
 30
0.000000
  0
VERTEX
  8
MERGEDLAYER-2
 10
4.295971
 20
0.422713
 30
0.000000
  0
SEQEND
  8
MERGEDLAYER-2
  0
TEXT
  8
MERGEDLAYER-2
 62
  0
 10
4.097222
 20
0.444445
 30
0.000000
 40
0.020833
  1
mobilflex.com
 72
  5
 11
4.375000
 21
0.444445
 31
0.000000
  0
TEXT
  8
MERGEDLAYER-2
 62
  0
 10
3.902778
 20
0.375001
 30
0.000000
 40
0.041667
  1
MobilFlex
 72
  5
 11
4.194444
 21
0.375001
 31
0.000000
  0
CIRCLE
  8
MERGEDLAYER-2
 62
  0
 10
2.142363
 20
7.060811
 30
0.000000
 40
0.019278
  0
CIRCLE
  8
MERGEDLAYER-2
 62
  0
 10
2.142363
 20
7.391448
 30
0.000000
 40
0.019278
  0
POLYLINE
  8
MERGEDLAYER-2
 66
  1
 70
  0
 62
  0
 10
2.139607
 20
7.090942
 30
0.000000
  0
VERTEX
  8
MERGEDLAYER-2
 10
2.139607
 20
7.090942
 30
0.000000
  0
VERTEX
  8
MERGEDLAYER-2
 10
2.139607
 20
7.361317
 30
0.000000
  0
SEQEND
  8
MERGEDLAYER-2
  0
POLYLINE
  8
MERGEDLAYER-2
 66
  1
 70
  0
 62
  0
 10
2.145118
 20
7.090942
 30
0.000000
  0
VERTEX
  8
MERGEDLAYER-2
 10
2.145118
 20
7.090942
 30
0.000000
  0
VERTEX
  8
MERGEDLAYER-2
 10
2.145118
 20
7.361317
 30
0.000000
  0
SEQEND
  8
MERGEDLAYER-2
  0
POLYLINE
  8
MERGEDLAYER-2
 66
  1
 70
  0
 62
  0
 10
2.135061
 20
7.084493
 30
0.000000
  0
VERTEX
  8
MERGEDLAYER-2
 10
2.135061
 20
7.084493
 30
0.000000
  0
VERTEX
  8
MERGEDLAYER-2
 10
2.118485
 20
7.074362
 30
0.000000
  0
VERTEX
  8
MERGEDLAYER-2
 10
2.116712
 20
7.055478
 30
0.000000
  0
VERTEX
  8
MERGEDLAYER-2
 10
2.128811
 20
7.040871
 30
0.000000
  0
VERTEX
  8
MERGEDLAYER-2
 10
2.147696
 20
7.039097
 30
0.000000
  0
VERTEX
  8
MERGEDLAYER-2
 10
2.162303
 20
7.051197
 30
0.000000
  0
VERTEX
  8
MERGEDLAYER-2
 10
2.164076
 20
7.070081
 30
0.000000
  0
VERTEX
  8
MERGEDLAYER-2
 10
2.151977
 20
7.084688
 30
0.000000
  0
VERTEX
  8
MERGEDLAYER-2
 10
2.149699
 20
7.084483
 30
0.000000
  0
SEQEND
  8
MERGEDLAYER-2
  0
POLYLINE
  8
MERGEDLAYER-2
 66
  1
 70
  0
 62
  0
 10
2.149699
 20
7.367777
 30
0.000000
  0
VERTEX
  8
MERGEDLAYER-2
 10
2.149699
 20
7.367777
 30
0.000000
  0
VERTEX
  8
MERGEDLAYER-2
 10
2.162320
 20
7.381866
 30
0.000000
  0
VERTEX
  8
MERGEDLAYER-2
 10
2.164066
 20
7.400753
 30
0.000000
  0
VERTEX
  8
MERGEDLAYER-2
 10
2.151945
 20
7.415343
 30
0.000000
  0
VERTEX
  8
MERGEDLAYER-2
 10
2.133057
 20
7.417089
 30
0.000000
  0
VERTEX
  8
MERGEDLAYER-2
 10
2.118468
 20
7.404967
 30
0.000000
  0
VERTEX
  8
MERGEDLAYER-2
 10
2.116723
 20
7.386080
 30
0.000000
  0
VERTEX
  8
MERGEDLAYER-2
 10
2.128844
 20
7.371490
 30
0.000000
  0
VERTEX
  8
MERGEDLAYER-2
 10
2.135061
 20
7.367766
 30
0.000000
  0
SEQEND
  8
MERGEDLAYER-2
  0
POLYLINE
  8
MERGEDLAYER-2
 66
  1
 70
  0
 62
  0
 10
2.135074
 20
7.084453
 30
0.000000
  0
VERTEX
  8
MERGEDLAYER-2
 10
2.135074
 20
7.084453
 30
0.000000
  0
VERTEX
  8
MERGEDLAYER-2
 10
2.139633
 20
7.090942
 30
0.000000
  0
SEQEND
  8
MERGEDLAYER-2
  0
POLYLINE
  8
MERGEDLAYER-2
 66
  1
 70
  0
 62
  0
 10
2.145131
 20
7.090942
 30
0.000000
  0
VERTEX
  8
MERGEDLAYER-2
 10
2.145131
 20
7.090942
 30
0.000000
  0
VERTEX
  8
MERGEDLAYER-2
 10
2.149690
 20
7.084453
 30
0.000000
  0
SEQEND
  8
MERGEDLAYER-2
  0
POLYLINE
  8
MERGEDLAYER-2
 66
  1
 70
  0
 62
  0
 10
2.139633
 20
7.361317
 30
0.000000
  0
VERTEX
  8
MERGEDLAYER-2
 10
2.139633
 20
7.361317
 30
0.000000
  0
VERTEX
  8
MERGEDLAYER-2
 10
2.135074
 20
7.367806
 30
0.000000
  0
SEQEND
  8
MERGEDLAYER-2
  0
POLYLINE
  8
MERGEDLAYER-2
 66
  1
 70
  0
 62
  0
 10
2.149690
 20
7.367806
 30
0.000000
  0
VERTEX
  8
MERGEDLAYER-2
 10
2.149690
 20
7.367806
 30
0.000000
  0
VERTEX
  8
MERGEDLAYER-2
 10
2.145131
 20
7.361317
 30
0.000000
  0
SEQEND
  8
MERGEDLAYER-2
  0
CIRCLE
  8
MERGEDLAYER-2
 62
  0
 10
2.142363
 20
6.729220
 30
0.000000
 40
0.019278
  0
CIRCLE
  8
MERGEDLAYER-2
 62
  0
 10
2.142363
 20
7.059858
 30
0.000000
 40
0.019278
  0
POLYLINE
  8
MERGEDLAYER-2
 66
  1
 70
  0
 62
  0
 10
2.139607
 20
6.759352
 30
0.000000
  0
VERTEX
  8
MERGEDLAYER-2
 10
2.139607
 20
6.759352
 30
0.000000
  0
VERTEX
  8
MERGEDLAYER-2
 10
2.139607
 20
7.029726
 30
0.000000
  0
SEQEND
  8
MERGEDLAYER-2
  0
POLYLINE
  8
MERGEDLAYER-2
 66
  1
 70
  0
 62
  0
 10
2.145118
 20
6.759352
 30
0.000000
  0
VERTEX
  8
MERGEDLAYER-2
 10
2.145118
 20
6.759352
 30
0.000000
  0
VERTEX
  8
MERGEDLAYER-2
 10
2.145118
 20
7.029726
 30
0.000000
  0
SEQEND
  8
MERGEDLAYER-2
  0
POLYLINE
  8
MERGEDLAYER-2
 66
  1
 70
  0
 62
  0
 10
2.135061
 20
6.752903
 30
0.000000
  0
VERTEX
  8
MERGEDLAYER-2
 10
2.135061
 20
6.752903
 30
0.000000
  0
VERTEX
  8
MERGEDLAYER-2
 10
2.118485
 20
6.742772
 30
0.000000
  0
VERTEX
  8
MERGEDLAYER-2
 10
2.116712
 20
6.723888
 30
0.000000
  0
VERTEX
  8
MERGEDLAYER-2
 10
2.128811
 20
6.709280
 30
0.000000
  0
VERTEX
  8
MERGEDLAYER-2
 10
2.147696
 20
6.707506
 30
0.000000
  0
VERTEX
  8
MERGEDLAYER-2
 10
2.162303
 20
6.719606
 30
0.000000
  0
VERTEX
  8
MERGEDLAYER-2
 10
2.164076
 20
6.738490
 30
0.000000
  0
VERTEX
  8
MERGEDLAYER-2
 10
2.151977
 20
6.753098
 30
0.000000
  0
VERTEX
  8
MERGEDLAYER-2
 10
2.149699
 20
6.752892
 30
0.000000
  0
SEQEND
  8
MERGEDLAYER-2
  0
POLYLINE
  8
MERGEDLAYER-2
 66
  1
 70
  0
 62
  0
 10
2.149699
 20
7.036186
 30
0.000000
  0
VERTEX
  8
MERGEDLAYER-2
 10
2.149699
 20
7.036186
 30
0.000000
  0
VERTEX
  8
MERGEDLAYER-2
 10
2.162320
 20
7.050276
 30
0.000000
  0
VERTEX
  8
MERGEDLAYER-2
 10
2.164066
 20
7.069163
 30
0.000000
  0
VERTEX
  8
MERGEDLAYER-2
 10
2.151945
 20
7.083752
 30
0.000000
  0
VERTEX
  8
MERGEDLAYER-2
 10
2.133057
 20
7.085498
 30
0.000000
  0
VERTEX
  8
MERGEDLAYER-2
 10
2.118468
 20
7.073377
 30
0.000000
  0
VERTEX
  8
MERGEDLAYER-2
 10
2.116723
 20
7.054490
 30
0.000000
  0
VERTEX
  8
MERGEDLAYER-2
 10
2.128844
 20
7.039900
 30
0.000000
  0
VERTEX
  8
MERGEDLAYER-2
 10
2.135061
 20
7.036175
 30
0.000000
  0
SEQEND
  8
MERGEDLAYER-2
  0
POLYLINE
  8
MERGEDLAYER-2
 66
  1
 70
  0
 62
  0
 10
2.135074
 20
6.752863
 30
0.000000
  0
VERTEX
  8
MERGEDLAYER-2
 10
2.135074
 20
6.752863
 30
0.000000
  0
VERTEX
  8
MERGEDLAYER-2
 10
2.139633
 20
6.759352
 30
0.000000
  0
SEQEND
  8
MERGEDLAYER-2
  0
POLYLINE
  8
MERGEDLAYER-2
 66
  1
 70
  0
 62
  0
 10
2.145131
 20
6.759352
 30
0.000000
  0
VERTEX
  8
MERGEDLAYER-2
 10
2.145131
 20
6.759352
 30
0.000000
  0
VERTEX
  8
MERGEDLAYER-2
 10
2.149690
 20
6.752863
 30
0.000000
  0
SEQEND
  8
MERGEDLAYER-2
  0
POLYLINE
  8
MERGEDLAYER-2
 66
  1
 70
  0
 62
  0
 10
2.139633
 20
7.029726
 30
0.000000
  0
VERTEX
  8
MERGEDLAYER-2
 10
2.139633
 20
7.029726
 30
0.000000
  0
VERTEX
  8
MERGEDLAYER-2
 10
2.135074
 20
7.036215
 30
0.000000
  0
SEQEND
  8
MERGEDLAYER-2
  0
POLYLINE
  8
MERGEDLAYER-2
 66
  1
 70
  0
 62
  0
 10
2.149690
 20
7.036215
 30
0.000000
  0
VERTEX
  8
MERGEDLAYER-2
 10
2.149690
 20
7.036215
 30
0.000000
  0
VERTEX
  8
MERGEDLAYER-2
 10
2.145131
 20
7.029726
 30
0.000000
  0
SEQEND
  8
MERGEDLAYER-2
  0
CIRCLE
  8
MERGEDLAYER-2
 62
  0
 10
2.142363
 20
6.398501
 30
0.000000
 40
0.019278
  0
CIRCLE
  8
MERGEDLAYER-2
 62
  0
 10
2.142363
 20
6.729138
 30
0.000000
 40
0.019278
  0
POLYLINE
  8
MERGEDLAYER-2
 66
  1
 70
  0
 62
  0
 10
2.139607
 20
6.428633
 30
0.000000
  0
VERTEX
  8
MERGEDLAYER-2
 10
2.139607
 20
6.428633
 30
0.000000
  0
VERTEX
  8
MERGEDLAYER-2
 10
2.139607
 20
6.699007
 30
0.000000
  0
SEQEND
  8
MERGEDLAYER-2
  0
POLYLINE
  8
MERGEDLAYER-2
 66
  1
 70
  0
 62
  0
 10
2.145118
 20
6.428633
 30
0.000000
  0
VERTEX
  8
MERGEDLAYER-2
 10
2.145118
 20
6.428633
 30
0.000000
  0
VERTEX
  8
MERGEDLAYER-2
 10
2.145118
 20
6.699007
 30
0.000000
  0
SEQEND
  8
MERGEDLAYER-2
  0
POLYLINE
  8
MERGEDLAYER-2
 66
  1
 70
  0
 62
  0
 10
2.135061
 20
6.422183
 30
0.000000
  0
VERTEX
  8
MERGEDLAYER-2
 10
2.135061
 20
6.422183
 30
0.000000
  0
VERTEX
  8
MERGEDLAYER-2
 10
2.118485
 20
6.412053
 30
0.000000
  0
VERTEX
  8
MERGEDLAYER-2
 10
2.116712
 20
6.393168
 30
0.000000
  0
VERTEX
  8
MERGEDLAYER-2
 10
2.128811
 20
6.378560
 30
0.000000
  0
VERTEX
  8
MERGEDLAYER-2
 10
2.147696
 20
6.376787
 30
0.000000
  0
VERTEX
  8
MERGEDLAYER-2
 10
2.162303
 20
6.388886
 30
0.000000
  0
VERTEX
  8
MERGEDLAYER-2
 10
2.164076
 20
6.407771
 30
0.000000
  0
VERTEX
  8
MERGEDLAYER-2
 10
2.151977
 20
6.422378
 30
0.000000
  0
VERTEX
  8
MERGEDLAYER-2
 10
2.149699
 20
6.422172
 30
0.000000
  0
SEQEND
  8
MERGEDLAYER-2
  0
POLYLINE
  8
MERGEDLAYER-2
 66
  1
 70
  0
 62
  0
 10
2.149699
 20
6.705467
 30
0.000000
  0
VERTEX
  8
MERGEDLAYER-2
 10
2.149699
 20
6.705467
 30
0.000000
  0
VERTEX
  8
MERGEDLAYER-2
 10
2.162320
 20
6.719556
 30
0.000000
  0
VERTEX
  8
MERGEDLAYER-2
 10
2.164066
 20
6.738444
 30
0.000000
  0
VERTEX
  8
MERGEDLAYER-2
 10
2.151945
 20
6.753033
 30
0.000000
  0
VERTEX
  8
MERGEDLAYER-2
 10
2.133057
 20
6.754778
 30
0.000000
  0
VERTEX
  8
MERGEDLAYER-2
 10
2.118468
 20
6.742657
 30
0.000000
  0
VERTEX
  8
MERGEDLAYER-2
 10
2.116723
 20
6.723770
 30
0.000000
  0
VERTEX
  8
MERGEDLAYER-2
 10
2.128844
 20
6.709181
 30
0.000000
  0
VERTEX
  8
MERGEDLAYER-2
 10
2.135061
 20
6.705456
 30
0.000000
  0
SEQEND
  8
MERGEDLAYER-2
  0
POLYLINE
  8
MERGEDLAYER-2
 66
  1
 70
  0
 62
  0
 10
2.135074
 20
6.422143
 30
0.000000
  0
VERTEX
  8
MERGEDLAYER-2
 10
2.135074
 20
6.422143
 30
0.000000
  0
VERTEX
  8
MERGEDLAYER-2
 10
2.139633
 20
6.428633
 30
0.000000
  0
SEQEND
  8
MERGEDLAYER-2
  0
POLYLINE
  8
MERGEDLAYER-2
 66
  1
 70
  0
 62
  0
 10
2.145131
 20
6.428633
 30
0.000000
  0
VERTEX
  8
MERGEDLAYER-2
 10
2.145131
 20
6.428633
 30
0.000000
  0
VERTEX
  8
MERGEDLAYER-2
 10
2.149690
 20
6.422143
 30
0.000000
  0
SEQEND
  8
MERGEDLAYER-2
  0
POLYLINE
  8
MERGEDLAYER-2
 66
  1
 70
  0
 62
  0
 10
2.139633
 20
6.699007
 30
0.000000
  0
VERTEX
  8
MERGEDLAYER-2
 10
2.139633
 20
6.699007
 30
0.000000
  0
VERTEX
  8
MERGEDLAYER-2
 10
2.135074
 20
6.705496
 30
0.000000
  0
SEQEND
  8
MERGEDLAYER-2
  0
POLYLINE
  8
MERGEDLAYER-2
 66
  1
 70
  0
 62
  0
 10
2.149690
 20
6.705496
 30
0.000000
  0
VERTEX
  8
MERGEDLAYER-2
 10
2.149690
 20
6.705496
 30
0.000000
  0
VERTEX
  8
MERGEDLAYER-2
 10
2.145131
 20
6.699007
 30
0.000000
  0
SEQEND
  8
MERGEDLAYER-2
  0
TEXT
  8
MERGEDLAYER-2
 62
  0
 10
3.972222
 20
0.083334
 30
0.000000
 40
0.125000
  1
Cylindre
 72
  5
 11
4.666667
 21
0.083334
 31
0.000000
  0
POLYLINE
  8
MERGEDLAYER-2
 66
  1
 70
  0
 62
  0
 10
3.954861
 20
0.142362
 30
0.000000
  0
VERTEX
  8
MERGEDLAYER-2
 10
3.954861
 20
0.142362
 30
0.000000
  0
VERTEX
  8
MERGEDLAYER-2
 10
3.800367
 20
0.338697
 30
0.000000
  0
SEQEND
  8
MERGEDLAYER-2
  0
POLYLINE
  8
MERGEDLAYER-2
 66
  1
 70
  1
 62
  0
  0
VERTEX
  8
MERGEDLAYER-2
 10
3.788194
 20
0.354168
 30
0.000000
  0
VERTEX
  8
MERGEDLAYER-2
 10
3.863883
 20
0.325360
 30
0.000000
  0
VERTEX
  8
MERGEDLAYER-2
 10
3.831139
 20
0.299594
 30
0.000000
  0
VERTEX
  8
MERGEDLAYER-2
 10
3.798394
 20
0.273827
 30
0.000000
  0
VERTEX
  8
MERGEDLAYER-2
 10
3.788194
 20
0.354168
 30
0.000000
  0
SEQEND
  8
MERGEDLAYER-2
  0
LINE
  8
MERGEDLAYER-2
 62
  0
 10
3.288993
 20
7.854167
 30
0.000000
 11
4.280542
 21
7.854167
 31
0.000000
  0
LINE
  8
MERGEDLAYER-2
 62
  0
 10
3.288993
 20
7.478025
 30
0.000000
 11
3.288993
 21
7.979167
 31
0.000000
  0
LINE
  8
MERGEDLAYER-2
 62
  0
 10
4.280542
 20
7.147507
 30
0.000000
 11
4.280542
 21
7.979167
 31
0.000000
  0
LINE
  8
MERGEDLAYER-2
 62
  0
 10
3.318456
 20
7.883630
 30
0.000000
 11
3.259531
 21
7.824704
 31
0.000000
  0
LINE
  8
MERGEDLAYER-2
 62
  0
 10
4.310005
 20
7.883630
 30
0.000000
 11
4.251079
 21
7.824704
 31
0.000000
  0
TEXT
  8
MERGEDLAYER-2
 62
  0
 10
3.705162
 20
7.972660
 30
0.000000
 40
0.125000
  1
 
  0
TEXT
  8
MERGEDLAYER-2
 62
  0
 10
3.347222
 20
7.875001
 30
0.000000
 40
0.135417
  1
 9" (229
 72
  5
 11
4.041667
 21
7.875001
 31
0.000000
  0
TEXT
  8
MERGEDLAYER-2
 62
  0
 10
4.041667
 20
7.875001
 30
0.000000
 40
0.125000
  1
mm
 72
  5
 11
4.416667
 21
7.875001
 31
0.000000
  0
TEXT
  8
MERGEDLAYER-2
 62
  0
 10
4.416667
 20
7.875001
 30
0.000000
 40
0.135417
  1
)
 72
  5
 11
4.541667
 21
7.875001
 31
0.000000
  0
TEXT
  8
MERGEDLAYER-2
 62
  0
 10
3.347222
 20
7.666668
 30
0.000000
 40
0.135417
  1
 Panneau
 72
  5
 11
4.180556
 21
7.666668
 31
0.000000
  0
TEXT
  8
MERGEDLAYER-2
 62
  0
 10
3.347222
 20
7.458334
 30
0.000000
 40
0.135417
  1
d'aluminium
 72
  5
 11
4.361111
 21
7.458334
 31
0.000000
  0
TEXT
  8
MERGEDLAYER-2
 62
  0
 10
3.402778
 20
6.500001
 30
0.000000
 40
0.145833
  1
2 
 72
  5
 11
3.638889
 21
6.500001
 31
0.000000
  0
TEXT
  8
MERGEDLAYER-2
 62
  0
 10
3.638889
 20
6.500001
 30
0.000000
 40
0.125000
  1
1/2
 72
  5
 11
3.944444
 21
6.500001
 31
0.000000
  0
TEXT
  8
MERGEDLAYER-2
 62
  0
 10
3.944444
 20
6.500001
 30
0.000000
 40
0.145833
  1
" (64
 72
  5
 11
4.430556
 21
6.500001
 31
0.000000
  0
TEXT
  8
MERGEDLAYER-2
 62
  0
 10
4.430556
 20
6.500001
 30
0.000000
 40
0.125000
  1
mm
 72
  5
 11
4.805556
 21
6.500001
 31
0.000000
  0
TEXT
  8
MERGEDLAYER-2
 62
  0
 10
4.805556
 20
6.500001
 30
0.000000
 40
0.145833
  1
)
 72
  5
 11
4.944444
 21
6.500001
 31
0.000000
  0
POLYLINE
  8
MERGEDLAYER-2
 66
  1
 70
  0
 62
  0
 10
3.347222
 20
6.704862
 30
0.000000
  0
VERTEX
  8
MERGEDLAYER-2
 10
3.347222
 20
6.704862
 30
0.000000
  0
VERTEX
  8
MERGEDLAYER-2
 10
3.347222
 20
6.423612
 30
0.000000
  0
SEQEND
  8
MERGEDLAYER-2
  0
LINE
  8
MERGEDLAYER-2
 62
  0
 10
3.376685
 20
6.675399
 30
0.000000
 11
3.317759
 21
6.734324
 31
0.000000
  0
LINE
  8
MERGEDLAYER-2
 62
  0
 10
3.376685
 20
6.394149
 30
0.000000
 11
3.317759
 21
6.453074
 31
0.000000
  0
TEXT
  8
MERGEDLAYER-2
 62
  0
 10
1.819444
 20
8.625001
 30
0.000000
 40
0.125000
  1
PORTE ╦ ENROULEMENT AJOURâE
 72
  5
 11
4.736111
 21
8.625001
 31
0.000000
  0
ENDSEC
  0
EOF
