  0
SECTION
  2
HEADER
999
MacDraft 5.0\0
  9
$ACADVER
  1
AC1006
  9
$CLAYER
  8
MERGEDLAYER-2
  9
$EXTMIN
 10
0.000000
 20
0.000000
  9
$EXTMAX
 10
7.555556
 20
10.063309
  9
$FASTZOOM
 70
0
  9
$FILLMODE
 70
1
  0
ENDSEC
  0
SECTION
  2
TABLES
  0
TABLE
  2
LTYPE
 70
16
  0
LTYPE
  2
CONTINUOUS
 70
64
  3
Solid Line
 72
65
 73
0
 40
0.000000
  0
LTYPE
  2
LTYPE01
 70
64
  3
CUSTOM
 72
65
 73
2
 40
0.111111
 49
0.083333
 49
-0.027778
  0
LTYPE
  2
LTYPE02
 70
64
  3
CUSTOM
 72
65
 73
2
 40
0.194444
 49
0.166667
 49
-0.027778
  0
LTYPE
  2
LTYPE03
 70
64
  3
CUSTOM
 72
65
 73
2
 40
0.375000
 49
0.333333
 49
-0.041667
  0
LTYPE
  2
LTYPE04
 70
64
  3
CUSTOM
 72
65
 73
2
 40
0.722222
 49
0.666667
 49
-0.055556
  0
LTYPE
  2
LTYPE05
 70
64
  3
CUSTOM
 72
65
 73
4
 40
0.152778
 49
0.083333
 49
-0.027778
 49
0.013889
 49
-0.027778
  0
LTYPE
  2
LTYPE06
 70
64
  3
CUSTOM
 72
65
 73
4
 40
0.236111
 49
0.166667
 49
-0.027778
 49
0.013889
 49
-0.027778
  0
LTYPE
  2
LTYPE07
 70
64
  3
CUSTOM
 72
65
 73
4
 40
0.444444
 49
0.333333
 49
-0.041667
 49
0.027778
 49
-0.041667
  0
LTYPE
  2
LTYPE08
 70
64
  3
CUSTOM
 72
65
 73
4
 40
0.805556
 49
0.666667
 49
-0.055556
 49
0.027778
 49
-0.055556
  0
LTYPE
  2
LTYPE09
 70
64
  3
CUSTOM
 72
65
 73
6
 40
0.194444
 49
0.083333
 49
-0.027778
 49
0.013889
 49
-0.027778
 49
0.013889
 49
-0.027778
  0
LTYPE
  2
LTYPE10
 70
64
  3
CUSTOM
 72
65
 73
6
 40
0.277778
 49
0.166667
 49
-0.027778
 49
0.013889
 49
-0.027778
 49
0.013889
 49
-0.027778
  0
LTYPE
  2
LTYPE11
 70
64
  3
CUSTOM
 72
65
 73
6
 40
0.500000
 49
0.333333
 49
-0.041667
 49
0.027778
 49
-0.027778
 49
0.027778
 49
-0.041667
  0
LTYPE
  2
LTYPE12
 70
64
  3
CUSTOM
 72
65
 73
6
 40
0.861111
 49
0.666667
 49
-0.055556
 49
0.027778
 49
-0.027778
 49
0.027778
 49
-0.055556
  0
LTYPE
  2
LTYPE13
 70
64
  3
CUSTOM
 72
65
 73
8
 40
0.319444
 49
0.166667
 49
-0.027778
 49
0.013889
 49
-0.027778
 49
0.013889
 49
-0.027778
 49
0.013889
 49
-0.027778
  0
LTYPE
  2
LTYPE14
 70
64
  3
CUSTOM
 72
65
 73
8
 40
0.555556
 49
0.333333
 49
-0.041667
 49
0.027778
 49
-0.027778
 49
0.027778
 49
-0.027778
 49
0.027778
 49
-0.041667
  0
LTYPE
  2
LTYPE15
 70
64
  3
CUSTOM
 72
65
 73
8
 40
0.944444
 49
0.666667
 49
-0.055556
 49
0.027778
 49
-0.041667
 49
0.027778
 49
-0.041667
 49
0.027778
 49
-0.055556
  0
ENDTAB
  0
TABLE
  2
LAYER
 70
1
  0
LAYER
  2
MERGEDLAYER-2
 70
0
 62
7
  6
CONTINUOUS
  0
ENDTAB
  0
ENDSEC
  0
SECTION
  2
BLOCKS
  0
ENDSEC
  0
SECTION
  2
ENTITIES
  0
ARC
  8
MERGEDLAYER-2
 62
  0
 10
5.493281
 20
8.991842
 30
0.000000
 40
0.254425
 50
270.000000
 51
90.000000
  0
POLYLINE
  8
MERGEDLAYER-2
 66
  1
 70
  0
 62
  0
 10
5.493281
 20
9.246267
 30
0.000000
  0
VERTEX
  8
MERGEDLAYER-2
 10
5.493281
 20
9.246267
 30
0.000000
  0
VERTEX
  8
MERGEDLAYER-2
 10
1.828357
 20
9.246267
 30
0.000000
  0
SEQEND
  8
MERGEDLAYER-2
  0
POLYLINE
  8
MERGEDLAYER-2
 66
  1
 70
  0
 62
  0
 10
1.828357
 20
9.246267
 30
0.000000
  0
VERTEX
  8
MERGEDLAYER-2
 10
1.828357
 20
9.246267
 30
0.000000
  0
VERTEX
  8
MERGEDLAYER-2
 10
1.828357
 20
8.737417
 30
0.000000
  0
SEQEND
  8
MERGEDLAYER-2
  0
POLYLINE
  8
MERGEDLAYER-2
 66
  1
 70
  0
 62
  0
 10
5.493281
 20
8.737417
 30
0.000000
  0
VERTEX
  8
MERGEDLAYER-2
 10
5.493281
 20
8.737417
 30
0.000000
  0
VERTEX
  8
MERGEDLAYER-2
 10
1.828357
 20
8.737417
 30
0.000000
  0
SEQEND
  8
MERGEDLAYER-2
  0
TEXT
  8
MERGEDLAYER-2
 62
  0
 10
3.638889
 20
9.541668
 30
0.000000
 40
0.333333
  1
MobilFlex
 72
  5
 11
5.791667
 21
9.541668
 31
0.000000
  0
POLYLINE
  8
MERGEDLAYER-2
 66
  1
 70
  1
 62
  0
  0
VERTEX
  8
MERGEDLAYER-2
 10
1.829861
 20
10.061641
 30
0.000000
  0
VERTEX
  8
MERGEDLAYER-2
 10
2.067708
 20
10.061641
 30
0.000000
  0
VERTEX
  8
MERGEDLAYER-2
 10
2.067708
 20
9.544697
 30
0.000000
  0
VERTEX
  8
MERGEDLAYER-2
 10
1.829861
 20
9.544697
 30
0.000000
  0
SEQEND
  8
MERGEDLAYER-2
  0
POLYLINE
  8
MERGEDLAYER-2
 66
  1
 70
  1
 62
  0
  0
VERTEX
  8
MERGEDLAYER-2
 10
2.142361
 20
10.061641
 30
0.000000
  0
VERTEX
  8
MERGEDLAYER-2
 10
2.380208
 20
10.061641
 30
0.000000
  0
VERTEX
  8
MERGEDLAYER-2
 10
2.380208
 20
9.544697
 30
0.000000
  0
VERTEX
  8
MERGEDLAYER-2
 10
2.142361
 20
9.544697
 30
0.000000
  0
SEQEND
  8
MERGEDLAYER-2
  0
POLYLINE
  8
MERGEDLAYER-2
 66
  1
 70
  1
 62
  0
  0
VERTEX
  8
MERGEDLAYER-2
 10
2.442708
 20
10.061641
 30
0.000000
  0
VERTEX
  8
MERGEDLAYER-2
 10
2.680556
 20
10.061641
 30
0.000000
  0
VERTEX
  8
MERGEDLAYER-2
 10
2.680556
 20
9.544697
 30
0.000000
  0
VERTEX
  8
MERGEDLAYER-2
 10
2.442708
 20
9.544697
 30
0.000000
  0
SEQEND
  8
MERGEDLAYER-2
  0
POLYLINE
  8
MERGEDLAYER-2
 66
  1
 70
  1
 62
  0
  0
VERTEX
  8
MERGEDLAYER-2
 10
2.746528
 20
10.061641
 30
0.000000
  0
VERTEX
  8
MERGEDLAYER-2
 10
2.984375
 20
10.061641
 30
0.000000
  0
VERTEX
  8
MERGEDLAYER-2
 10
2.984375
 20
9.544697
 30
0.000000
  0
VERTEX
  8
MERGEDLAYER-2
 10
2.746528
 20
9.544697
 30
0.000000
  0
SEQEND
  8
MERGEDLAYER-2
  0
POLYLINE
  8
MERGEDLAYER-2
 66
  1
 70
  1
 62
  0
  0
VERTEX
  8
MERGEDLAYER-2
 10
3.063368
 20
10.057727
 30
0.000000
  0
VERTEX
  8
MERGEDLAYER-2
 10
3.438802
 20
10.057727
 30
0.000000
  0
VERTEX
  8
MERGEDLAYER-2
 10
3.438802
 20
9.919706
 30
0.000000
  0
VERTEX
  8
MERGEDLAYER-2
 10
3.063368
 20
9.919706
 30
0.000000
  0
SEQEND
  8
MERGEDLAYER-2
  0
POLYLINE
  8
MERGEDLAYER-2
 66
  1
 70
  1
 62
  0
  0
VERTEX
  8
MERGEDLAYER-2
 10
3.062934
 20
9.830296
 30
0.000000
  0
VERTEX
  8
MERGEDLAYER-2
 10
3.371094
 20
9.830296
 30
0.000000
  0
VERTEX
  8
MERGEDLAYER-2
 10
3.371094
 20
9.696181
 30
0.000000
  0
VERTEX
  8
MERGEDLAYER-2
 10
3.062934
 20
9.696181
 30
0.000000
  0
SEQEND
  8
MERGEDLAYER-2
  0
POLYLINE
  8
MERGEDLAYER-2
 66
  1
 70
  1
 62
  0
  0
VERTEX
  8
MERGEDLAYER-2
 10
1.829861
 20
9.460070
 30
0.000000
  0
VERTEX
  8
MERGEDLAYER-2
 10
5.748266
 20
9.460070
 30
0.000000
  0
VERTEX
  8
MERGEDLAYER-2
 10
5.748266
 20
9.416668
 30
0.000000
  0
VERTEX
  8
MERGEDLAYER-2
 10
1.829861
 20
9.416668
 30
0.000000
  0
SEQEND
  8
MERGEDLAYER-2
  0
POLYLINE
  8
MERGEDLAYER-2
 66
  1
 70
  0
 62
  0
 10
5.768738
 20
6.852327
 30
0.000000
  0
VERTEX
  8
MERGEDLAYER-2
 10
5.768738
 20
6.852327
 30
0.000000
  0
VERTEX
  8
MERGEDLAYER-2
 10
5.759121
 20
6.979244
 30
0.000000
  0
VERTEX
  8
MERGEDLAYER-2
 10
5.730363
 20
7.104939
 30
0.000000
  0
VERTEX
  8
MERGEDLAYER-2
 10
5.682741
 20
7.228201
 30
0.000000
  0
VERTEX
  8
MERGEDLAYER-2
 10
5.616714
 20
7.347843
 30
0.000000
  0
VERTEX
  8
MERGEDLAYER-2
 10
5.532917
 20
7.462713
 30
0.000000
  0
VERTEX
  8
MERGEDLAYER-2
 10
5.432157
 20
7.571704
 30
0.000000
  0
VERTEX
  8
MERGEDLAYER-2
 10
5.315406
 20
7.673768
 30
0.000000
  0
VERTEX
  8
MERGEDLAYER-2
 10
5.183786
 20
7.767921
 30
0.000000
  0
VERTEX
  8
MERGEDLAYER-2
 10
5.038567
 20
7.853256
 30
0.000000
  0
VERTEX
  8
MERGEDLAYER-2
 10
4.881145
 20
7.928952
 30
0.000000
  0
VERTEX
  8
MERGEDLAYER-2
 10
4.713039
 20
7.994279
 30
0.000000
  0
VERTEX
  8
MERGEDLAYER-2
 10
4.535865
 20
8.048608
 30
0.000000
  0
VERTEX
  8
MERGEDLAYER-2
 10
4.351331
 20
8.091417
 30
0.000000
  0
VERTEX
  8
MERGEDLAYER-2
 10
4.161213
 20
8.122292
 30
0.000000
  0
VERTEX
  8
MERGEDLAYER-2
 10
3.967344
 20
8.140937
 30
0.000000
  0
VERTEX
  8
MERGEDLAYER-2
 10
3.771589
 20
8.147173
 30
0.000000
  0
VERTEX
  8
MERGEDLAYER-2
 10
3.575834
 20
8.140937
 30
0.000000
  0
VERTEX
  8
MERGEDLAYER-2
 10
3.381964
 20
8.122292
 30
0.000000
  0
VERTEX
  8
MERGEDLAYER-2
 10
3.191847
 20
8.091417
 30
0.000000
  0
VERTEX
  8
MERGEDLAYER-2
 10
3.007313
 20
8.048608
 30
0.000000
  0
VERTEX
  8
MERGEDLAYER-2
 10
2.830139
 20
7.994279
 30
0.000000
  0
VERTEX
  8
MERGEDLAYER-2
 10
2.662032
 20
7.928952
 30
0.000000
  0
VERTEX
  8
MERGEDLAYER-2
 10
2.504611
 20
7.853256
 30
0.000000
  0
VERTEX
  8
MERGEDLAYER-2
 10
2.359392
 20
7.767921
 30
0.000000
  0
VERTEX
  8
MERGEDLAYER-2
 10
2.227772
 20
7.673768
 30
0.000000
  0
VERTEX
  8
MERGEDLAYER-2
 10
2.111021
 20
7.571704
 30
0.000000
  0
VERTEX
  8
MERGEDLAYER-2
 10
2.010261
 20
7.462713
 30
0.000000
  0
VERTEX
  8
MERGEDLAYER-2
 10
1.926464
 20
7.347843
 30
0.000000
  0
VERTEX
  8
MERGEDLAYER-2
 10
1.860437
 20
7.228201
 30
0.000000
  0
VERTEX
  8
MERGEDLAYER-2
 10
1.812815
 20
7.104939
 30
0.000000
  0
VERTEX
  8
MERGEDLAYER-2
 10
1.784057
 20
6.979244
 30
0.000000
  0
VERTEX
  8
MERGEDLAYER-2
 10
1.774440
 20
6.852327
 30
0.000000
  0
VERTEX
  8
MERGEDLAYER-2
 10
1.784057
 20
6.725410
 30
0.000000
  0
VERTEX
  8
MERGEDLAYER-2
 10
1.812815
 20
6.599715
 30
0.000000
  0
VERTEX
  8
MERGEDLAYER-2
 10
1.860437
 20
6.476454
 30
0.000000
  0
VERTEX
  8
MERGEDLAYER-2
 10
1.926464
 20
6.356812
 30
0.000000
  0
VERTEX
  8
MERGEDLAYER-2
 10
2.010261
 20
6.241942
 30
0.000000
  0
VERTEX
  8
MERGEDLAYER-2
 10
2.111021
 20
6.132950
 30
0.000000
  0
VERTEX
  8
MERGEDLAYER-2
 10
2.227772
 20
6.030886
 30
0.000000
  0
VERTEX
  8
MERGEDLAYER-2
 10
2.359392
 20
5.936734
 30
0.000000
  0
VERTEX
  8
MERGEDLAYER-2
 10
2.504611
 20
5.851398
 30
0.000000
  0
VERTEX
  8
MERGEDLAYER-2
 10
2.662032
 20
5.775703
 30
0.000000
  0
VERTEX
  8
MERGEDLAYER-2
 10
2.830139
 20
5.710376
 30
0.000000
  0
VERTEX
  8
MERGEDLAYER-2
 10
3.007313
 20
5.656046
 30
0.000000
  0
VERTEX
  8
MERGEDLAYER-2
 10
3.191847
 20
5.613238
 30
0.000000
  0
VERTEX
  8
MERGEDLAYER-2
 10
3.381964
 20
5.582362
 30
0.000000
  0
VERTEX
  8
MERGEDLAYER-2
 10
3.575834
 20
5.563717
 30
0.000000
  0
VERTEX
  8
MERGEDLAYER-2
 10
3.771589
 20
5.557482
 30
0.000000
  0
VERTEX
  8
MERGEDLAYER-2
 10
3.967344
 20
5.563717
 30
0.000000
  0
VERTEX
  8
MERGEDLAYER-2
 10
4.161213
 20
5.582362
 30
0.000000
  0
VERTEX
  8
MERGEDLAYER-2
 10
4.351331
 20
5.613238
 30
0.000000
  0
VERTEX
  8
MERGEDLAYER-2
 10
4.535865
 20
5.656046
 30
0.000000
  0
VERTEX
  8
MERGEDLAYER-2
 10
4.713039
 20
5.710376
 30
0.000000
  0
VERTEX
  8
MERGEDLAYER-2
 10
4.881145
 20
5.775703
 30
0.000000
  0
VERTEX
  8
MERGEDLAYER-2
 10
5.038567
 20
5.851398
 30
0.000000
  0
VERTEX
  8
MERGEDLAYER-2
 10
5.183786
 20
5.936734
 30
0.000000
  0
VERTEX
  8
MERGEDLAYER-2
 10
5.315406
 20
6.030886
 30
0.000000
  0
VERTEX
  8
MERGEDLAYER-2
 10
5.432157
 20
6.132950
 30
0.000000
  0
VERTEX
  8
MERGEDLAYER-2
 10
5.532917
 20
6.241942
 30
0.000000
  0
VERTEX
  8
MERGEDLAYER-2
 10
5.616714
 20
6.356812
 30
0.000000
  0
VERTEX
  8
MERGEDLAYER-2
 10
5.682741
 20
6.476454
 30
0.000000
  0
VERTEX
  8
MERGEDLAYER-2
 10
5.730363
 20
6.599715
 30
0.000000
  0
VERTEX
  8
MERGEDLAYER-2
 10
5.759121
 20
6.725410
 30
0.000000
  0
VERTEX
  8
MERGEDLAYER-2
 10
5.768738
 20
6.852327
 30
0.000000
  0
SEQEND
  8
MERGEDLAYER-2
  0
POLYLINE
  8
MERGEDLAYER-2
 66
  1
 70
  1
 62
  7
  0
VERTEX
  8
MERGEDLAYER-2
 10
2.482286
 20
7.420593
 30
0.000000
  0
VERTEX
  8
MERGEDLAYER-2
 10
5.184238
 20
7.420593
 30
0.000000
  0
VERTEX
  8
MERGEDLAYER-2
 10
5.184238
 20
6.317158
 30
0.000000
  0
VERTEX
  8
MERGEDLAYER-2
 10
2.482286
 20
6.317158
 30
0.000000
  0
SEQEND
  8
MERGEDLAYER-2
  0
POLYLINE
  8
MERGEDLAYER-2
 66
  1
 70
  0
 62
  0
 10
2.482286
 20
7.420593
 30
0.000000
  0
VERTEX
  8
MERGEDLAYER-2
 10
2.482286
 20
7.420593
 30
0.000000
  0
VERTEX
  8
MERGEDLAYER-2
 10
5.184238
 20
7.420593
 30
0.000000
  0
SEQEND
  8
MERGEDLAYER-2
  0
POLYLINE
  8
MERGEDLAYER-2
 66
  1
 70
  0
 62
  0
 10
2.482685
 20
7.377450
 30
0.000000
  0
VERTEX
  8
MERGEDLAYER-2
 10
2.482685
 20
7.377450
 30
0.000000
  0
VERTEX
  8
MERGEDLAYER-2
 10
5.184029
 20
7.377450
 30
0.000000
  0
SEQEND
  8
MERGEDLAYER-2
  0
POLYLINE
  8
MERGEDLAYER-2
 66
  1
 70
  0
 62
  0
 10
2.482708
 20
7.341089
 30
0.000000
  0
VERTEX
  8
MERGEDLAYER-2
 10
2.482708
 20
7.341089
 30
0.000000
  0
VERTEX
  8
MERGEDLAYER-2
 10
5.184052
 20
7.341089
 30
0.000000
  0
SEQEND
  8
MERGEDLAYER-2
  0
POLYLINE
  8
MERGEDLAYER-2
 66
  1
 70
  0
 62
  0
 10
2.482286
 20
7.299663
 30
0.000000
  0
VERTEX
  8
MERGEDLAYER-2
 10
2.482286
 20
7.299663
 30
0.000000
  0
VERTEX
  8
MERGEDLAYER-2
 10
5.184238
 20
7.299663
 30
0.000000
  0
SEQEND
  8
MERGEDLAYER-2
  0
POLYLINE
  8
MERGEDLAYER-2
 66
  1
 70
  0
 62
  0
 10
2.482286
 20
6.929608
 30
0.000000
  0
VERTEX
  8
MERGEDLAYER-2
 10
2.482286
 20
6.929608
 30
0.000000
  0
VERTEX
  8
MERGEDLAYER-2
 10
5.184238
 20
6.929608
 30
0.000000
  0
SEQEND
  8
MERGEDLAYER-2
  0
POLYLINE
  8
MERGEDLAYER-2
 66
  1
 70
  0
 62
  0
 10
2.482685
 20
6.888320
 30
0.000000
  0
VERTEX
  8
MERGEDLAYER-2
 10
2.482685
 20
6.888320
 30
0.000000
  0
VERTEX
  8
MERGEDLAYER-2
 10
5.184029
 20
6.888320
 30
0.000000
  0
SEQEND
  8
MERGEDLAYER-2
  0
POLYLINE
  8
MERGEDLAYER-2
 66
  1
 70
  0
 62
  0
 10
2.482717
 20
6.851457
 30
0.000000
  0
VERTEX
  8
MERGEDLAYER-2
 10
2.482717
 20
6.851457
 30
0.000000
  0
VERTEX
  8
MERGEDLAYER-2
 10
5.184061
 20
6.851457
 30
0.000000
  0
SEQEND
  8
MERGEDLAYER-2
  0
POLYLINE
  8
MERGEDLAYER-2
 66
  1
 70
  0
 62
  0
 10
2.482286
 20
6.807813
 30
0.000000
  0
VERTEX
  8
MERGEDLAYER-2
 10
2.482286
 20
6.807813
 30
0.000000
  0
VERTEX
  8
MERGEDLAYER-2
 10
5.184238
 20
6.807813
 30
0.000000
  0
SEQEND
  8
MERGEDLAYER-2
  0
POLYLINE
  8
MERGEDLAYER-2
 66
  1
 70
  0
 62
  0
 10
2.482286
 20
6.438502
 30
0.000000
  0
VERTEX
  8
MERGEDLAYER-2
 10
2.482286
 20
6.438502
 30
0.000000
  0
VERTEX
  8
MERGEDLAYER-2
 10
5.184238
 20
6.438502
 30
0.000000
  0
SEQEND
  8
MERGEDLAYER-2
  0
POLYLINE
  8
MERGEDLAYER-2
 66
  1
 70
  0
 62
  0
 10
2.482685
 20
6.396199
 30
0.000000
  0
VERTEX
  8
MERGEDLAYER-2
 10
2.482685
 20
6.396199
 30
0.000000
  0
VERTEX
  8
MERGEDLAYER-2
 10
5.184029
 20
6.396199
 30
0.000000
  0
SEQEND
  8
MERGEDLAYER-2
  0
POLYLINE
  8
MERGEDLAYER-2
 66
  1
 70
  0
 62
  0
 10
2.482659
 20
6.360341
 30
0.000000
  0
VERTEX
  8
MERGEDLAYER-2
 10
2.482659
 20
6.360341
 30
0.000000
  0
VERTEX
  8
MERGEDLAYER-2
 10
5.184004
 20
6.360341
 30
0.000000
  0
SEQEND
  8
MERGEDLAYER-2
  0
POLYLINE
  8
MERGEDLAYER-2
 66
  1
 70
  0
 62
  0
 10
2.482286
 20
6.317158
 30
0.000000
  0
VERTEX
  8
MERGEDLAYER-2
 10
2.482286
 20
6.317158
 30
0.000000
  0
VERTEX
  8
MERGEDLAYER-2
 10
5.184238
 20
6.317158
 30
0.000000
  0
SEQEND
  8
MERGEDLAYER-2
  0
POLYLINE
  8
MERGEDLAYER-2
 66
  1
 70
  1
 62
  0
  0
VERTEX
  8
MERGEDLAYER-2
 10
0.968775
 20
5.240448
 30
0.000000
  0
VERTEX
  8
MERGEDLAYER-2
 10
6.572917
 20
5.240448
 30
0.000000
  0
VERTEX
  8
MERGEDLAYER-2
 10
6.572917
 20
0.513891
 30
0.000000
  0
VERTEX
  8
MERGEDLAYER-2
 10
0.968775
 20
0.513891
 30
0.000000
  0
SEQEND
  8
MERGEDLAYER-2
  0
POLYLINE
  8
MERGEDLAYER-2
 66
  1
 70
  1
 62
  0
  0
VERTEX
  8
MERGEDLAYER-2
 10
0.986542
 20
0.683784
 30
0.000000
  0
VERTEX
  8
MERGEDLAYER-2
 10
6.571757
 20
0.683784
 30
0.000000
  0
VERTEX
  8
MERGEDLAYER-2
 10
6.571757
 20
0.634356
 30
0.000000
  0
VERTEX
  8
MERGEDLAYER-2
 10
0.986542
 20
0.634356
 30
0.000000
  0
SEQEND
  8
MERGEDLAYER-2
  0
POLYLINE
  8
MERGEDLAYER-2
 66
  1
 70
  0
 62
 15
 10
0.986111
 20
0.659724
 30
0.000000
  0
VERTEX
  8
MERGEDLAYER-2
 10
0.986111
 20
0.659724
 30
0.000000
  0
VERTEX
  8
MERGEDLAYER-2
 10
6.571181
 20
0.659724
 30
0.000000
  0
SEQEND
  8
MERGEDLAYER-2
  0
POLYLINE
  8
MERGEDLAYER-2
 66
  1
 70
  1
 62
  0
  0
VERTEX
  8
MERGEDLAYER-2
 10
0.998683
 20
0.513481
 30
0.000000
  0
VERTEX
  8
MERGEDLAYER-2
 10
6.558483
 20
0.513481
 30
0.000000
  0
VERTEX
  8
MERGEDLAYER-2
 10
6.558483
 20
0.277780
 30
0.000000
  0
VERTEX
  8
MERGEDLAYER-2
 10
0.998683
 20
0.277780
 30
0.000000
  0
SEQEND
  8
MERGEDLAYER-2
  0
POLYLINE
  8
MERGEDLAYER-2
 66
  1
 70
  0
 62
  0
 10
0.999618
 20
0.343427
 30
0.000000
  0
VERTEX
  8
MERGEDLAYER-2
 10
0.999618
 20
0.343427
 30
0.000000
  0
VERTEX
  8
MERGEDLAYER-2
 10
6.558929
 20
0.343427
 30
0.000000
  0
SEQEND
  8
MERGEDLAYER-2
  0
POLYLINE
  8
MERGEDLAYER-2
 66
  1
 70
  0
 62
  0
 10
0.999618
 20
0.322125
 30
0.000000
  0
VERTEX
  8
MERGEDLAYER-2
 10
0.999618
 20
0.322125
 30
0.000000
  0
VERTEX
  8
MERGEDLAYER-2
 10
6.558929
 20
0.322125
 30
0.000000
  0
SEQEND
  8
MERGEDLAYER-2
  0
POLYLINE
  8
MERGEDLAYER-2
 66
  1
 70
  0
 62
  0
 10
0.998683
 20
0.498138
 30
0.000000
  0
VERTEX
  8
MERGEDLAYER-2
 10
0.998683
 20
0.498138
 30
0.000000
  0
VERTEX
  8
MERGEDLAYER-2
 10
6.557738
 20
0.498138
 30
0.000000
  0
SEQEND
  8
MERGEDLAYER-2
  0
TEXT
  8
MERGEDLAYER-2
 62
  7
 10
2.041667
 20
8.861112
 30
0.000000
 40
0.187500
  1
ネ思ation mod粛e Roll-Shutter
 72
  5
 11
5.666667
 21
8.861112
 31
0.000000
  0
POLYLINE
  8
MERGEDLAYER-2
 66
  1
 70
  0
 62
  0
 10
3.665080
 20
0.406318
 30
0.000000
  0
VERTEX
  8
MERGEDLAYER-2
 10
3.665080
 20
0.406318
 30
0.000000
  0
VERTEX
  8
MERGEDLAYER-2
 10
3.657874
 20
0.423473
 30
0.000000
  0
VERTEX
  8
MERGEDLAYER-2
 10
3.637353
 20
0.438016
 30
0.000000
  0
VERTEX
  8
MERGEDLAYER-2
 10
3.606642
 20
0.447735
 30
0.000000
  0
VERTEX
  8
MERGEDLAYER-2
 10
3.570415
 20
0.451147
 30
0.000000
  0
VERTEX
  8
MERGEDLAYER-2
 10
3.534188
 20
0.447735
 30
0.000000
  0
VERTEX
  8
MERGEDLAYER-2
 10
3.503476
 20
0.438016
 30
0.000000
  0
VERTEX
  8
MERGEDLAYER-2
 10
3.482955
 20
0.423473
 30
0.000000
  0
VERTEX
  8
MERGEDLAYER-2
 10
3.475749
 20
0.406318
 30
0.000000
  0
VERTEX
  8
MERGEDLAYER-2
 10
3.482955
 20
0.389163
 30
0.000000
  0
VERTEX
  8
MERGEDLAYER-2
 10
3.503476
 20
0.374619
 30
0.000000
  0
VERTEX
  8
MERGEDLAYER-2
 10
3.534188
 20
0.364900
 30
0.000000
  0
VERTEX
  8
MERGEDLAYER-2
 10
3.570415
 20
0.361488
 30
0.000000
  0
VERTEX
  8
MERGEDLAYER-2
 10
3.606642
 20
0.364900
 30
0.000000
  0
VERTEX
  8
MERGEDLAYER-2
 10
3.637353
 20
0.374619
 30
0.000000
  0
VERTEX
  8
MERGEDLAYER-2
 10
3.657874
 20
0.389163
 30
0.000000
  0
VERTEX
  8
MERGEDLAYER-2
 10
3.665080
 20
0.406318
 30
0.000000
  0
SEQEND
  8
MERGEDLAYER-2
  0
POLYLINE
  8
MERGEDLAYER-2
 66
  1
 70
  0
 62
  0
 10
3.352217
 20
0.394355
 30
0.000000
  0
VERTEX
  8
MERGEDLAYER-2
 10
3.352217
 20
0.394355
 30
0.000000
  0
VERTEX
  8
MERGEDLAYER-2
 10
3.572611
 20
0.381594
 30
0.000000
  0
SEQEND
  8
MERGEDLAYER-2
  0
POLYLINE
  8
MERGEDLAYER-2
 66
  1
 70
  0
 62
  0
 10
3.352195
 20
0.414345
 30
0.000000
  0
VERTEX
  8
MERGEDLAYER-2
 10
3.352195
 20
0.414345
 30
0.000000
  0
VERTEX
  8
MERGEDLAYER-2
 10
3.340821
 20
0.405729
 30
0.000000
  0
VERTEX
  8
MERGEDLAYER-2
 10
3.352215
 20
0.394352
 30
0.000000
  0
SEQEND
  8
MERGEDLAYER-2
  0
POLYLINE
  8
MERGEDLAYER-2
 66
  1
 70
  0
 62
  0
 10
3.352193
 20
0.414346
 30
0.000000
  0
VERTEX
  8
MERGEDLAYER-2
 10
3.352193
 20
0.414346
 30
0.000000
  0
VERTEX
  8
MERGEDLAYER-2
 10
3.572383
 20
0.427104
 30
0.000000
  0
SEQEND
  8
MERGEDLAYER-2
  0
POLYLINE
  8
MERGEDLAYER-2
 66
  1
 70
  0
 62
  0
 10
3.572611
 20
0.381594
 30
0.000000
  0
VERTEX
  8
MERGEDLAYER-2
 10
3.572611
 20
0.381594
 30
0.000000
  0
VERTEX
  8
MERGEDLAYER-2
 10
3.586666
 20
0.390388
 30
0.000000
  0
VERTEX
  8
MERGEDLAYER-2
 10
3.593170
 20
0.406545
 30
0.000000
  0
VERTEX
  8
MERGEDLAYER-2
 10
3.586344
 20
0.422568
 30
0.000000
  0
VERTEX
  8
MERGEDLAYER-2
 10
3.572383
 20
0.427105
 30
0.000000
  0
SEQEND
  8
MERGEDLAYER-2
  0
POLYLINE
  8
MERGEDLAYER-2
 66
  1
 70
  1
 62
  0
  0
VERTEX
  8
MERGEDLAYER-2
 10
3.761987
 20
0.426019
 30
0.000000
  0
VERTEX
  8
MERGEDLAYER-2
 10
3.807703
 20
0.426019
 30
0.000000
  0
VERTEX
  8
MERGEDLAYER-2
 10
3.807703
 20
0.413826
 30
0.000000
  0
VERTEX
  8
MERGEDLAYER-2
 10
3.761987
 20
0.413826
 30
0.000000
  0
SEQEND
  8
MERGEDLAYER-2
  0
POLYLINE
  8
MERGEDLAYER-2
 66
  1
 70
  0
 62
  0
 40
0.027778
 41
0.027778
 10
0.027778
 20
0.277783
 30
0.000000
  0
VERTEX
  8
MERGEDLAYER-2
 10
0.027778
 20
0.277783
 30
0.000000
  0
VERTEX
  8
MERGEDLAYER-2
 10
7.527778
 20
0.277783
 30
0.000000
  0
SEQEND
  8
MERGEDLAYER-2
  0
CIRCLE
  8
MERGEDLAYER-2
 62
  0
 10
3.776728
 20
0.420806
 30
0.000000
 40
0.064283
  0
CIRCLE
  8
MERGEDLAYER-2
 62
  7
 10
3.776487
 20
0.420806
 30
0.000000
 40
0.047124
  0
CIRCLE
  8
MERGEDLAYER-2
 62
  0
 10
3.776487
 20
0.420806
 30
0.000000
 40
0.042287
  0
CIRCLE
  8
MERGEDLAYER-2
 62
  0
 10
3.759691
 20
0.420806
 30
0.000000
 40
0.018794
  0
CIRCLE
  8
MERGEDLAYER-2
 62
  0
 10
3.751656
 20
0.420806
 30
0.000000
 40
0.008035
  0
TEXT
  8
MERGEDLAYER-2
 62
  0
 10
3.777778
 20
0.444445
 30
0.000000
 40
0.010417
  1
MobilFlex
 50
270.000000
 72
  5
 11
3.777778
 21
0.291668
 31
0.000000
  0
POLYLINE
  8
MERGEDLAYER-2
 66
  1
 70
  1
 62
  0
 10
3.741445
 20
0.424432
 30
0.000000
  0
VERTEX
  8
MERGEDLAYER-2
 10
3.741445
 20
0.424432
 30
0.000000
  0
VERTEX
  8
MERGEDLAYER-2
 10
3.750146
 20
0.424432
 30
0.000000
  0
VERTEX
  8
MERGEDLAYER-2
 10
3.750146
 20
0.421048
 30
0.000000
  0
VERTEX
  8
MERGEDLAYER-2
 10
3.753529
 20
0.421048
 30
0.000000
  0
VERTEX
  8
MERGEDLAYER-2
 10
3.757154
 20
0.424672
 30
0.000000
  0
VERTEX
  8
MERGEDLAYER-2
 10
3.759570
 20
0.424672
 30
0.000000
  0
VERTEX
  8
MERGEDLAYER-2
 10
3.766821
 20
0.422256
 30
0.000000
  0
VERTEX
  8
MERGEDLAYER-2
 10
3.766821
 20
0.419115
 30
0.000000
  0
VERTEX
  8
MERGEDLAYER-2
 10
3.761503
 20
0.419840
 30
0.000000
  0
VERTEX
  8
MERGEDLAYER-2
 10
3.759570
 20
0.419597
 30
0.000000
  0
VERTEX
  8
MERGEDLAYER-2
 10
3.759570
 20
0.418148
 30
0.000000
  0
VERTEX
  8
MERGEDLAYER-2
 10
3.747246
 20
0.418148
 30
0.000000
  0
VERTEX
  8
MERGEDLAYER-2
 10
3.746037
 20
0.420806
 30
0.000000
  0
VERTEX
  8
MERGEDLAYER-2
 10
3.743621
 20
0.420806
 30
0.000000
  0
VERTEX
  8
MERGEDLAYER-2
 10
3.743137
 20
0.418148
 30
0.000000
  0
VERTEX
  8
MERGEDLAYER-2
 10
3.741445
 20
0.418148
 30
0.000000
  0
SEQEND
  8
MERGEDLAYER-2
  0
TEXT
  8
MERGEDLAYER-2
 62
  0
 10
5.819444
 20
5.347223
 30
0.000000
 40
0.125000
  1
Guide
 72
  5
 11
6.347222
 21
5.347223
 31
0.000000
  0
TEXT
  8
MERGEDLAYER-2
 62
  0
 10
5.819444
 20
0.083334
 30
0.000000
 40
0.125000
  1
Barre du bas
 72
  5
 11
6.875000
 21
0.083334
 31
0.000000
  0
POLYLINE
  8
MERGEDLAYER-2
 66
  1
 70
  0
 62
  0
 10
3.138889
 20
0.163197
 30
0.000000
  0
VERTEX
  8
MERGEDLAYER-2
 10
3.138889
 20
0.163197
 30
0.000000
  0
VERTEX
  8
MERGEDLAYER-2
 10
3.524462
 20
0.352163
 30
0.000000
  0
SEQEND
  8
MERGEDLAYER-2
  0
POLYLINE
  8
MERGEDLAYER-2
 66
  1
 70
  1
 62
  0
  0
VERTEX
  8
MERGEDLAYER-2
 10
3.542138
 20
0.360825
 30
0.000000
  0
VERTEX
  8
MERGEDLAYER-2
 10
3.498117
 20
0.292849
 30
0.000000
  0
VERTEX
  8
MERGEDLAYER-2
 10
3.479780
 20
0.330264
 30
0.000000
  0
VERTEX
  8
MERGEDLAYER-2
 10
3.461443
 20
0.367678
 30
0.000000
  0
VERTEX
  8
MERGEDLAYER-2
 10
3.542138
 20
0.360825
 30
0.000000
  0
SEQEND
  8
MERGEDLAYER-2
  0
POLYLINE
  8
MERGEDLAYER-2
 66
  1
 70
  0
 62
  0
 10
5.788666
 20
0.149595
 30
0.000000
  0
VERTEX
  8
MERGEDLAYER-2
 10
5.788666
 20
0.149595
 30
0.000000
  0
VERTEX
  8
MERGEDLAYER-2
 10
5.548871
 20
0.269006
 30
0.000000
  0
SEQEND
  8
MERGEDLAYER-2
  0
POLYLINE
  8
MERGEDLAYER-2
 66
  1
 70
  1
 62
  0
  0
VERTEX
  8
MERGEDLAYER-2
 10
5.531250
 20
0.277780
 30
0.000000
  0
VERTEX
  8
MERGEDLAYER-2
 10
5.611986
 20
0.284124
 30
0.000000
  0
VERTEX
  8
MERGEDLAYER-2
 10
5.593413
 20
0.246825
 30
0.000000
  0
VERTEX
  8
MERGEDLAYER-2
 10
5.574840
 20
0.209527
 30
0.000000
  0
VERTEX
  8
MERGEDLAYER-2
 10
5.531250
 20
0.277780
 30
0.000000
  0
SEQEND
  8
MERGEDLAYER-2
  0
POLYLINE
  8
MERGEDLAYER-2
 66
  1
 70
  1
 62
  0
  0
VERTEX
  8
MERGEDLAYER-2
 10
0.985675
 20
0.852535
 30
0.000000
  0
VERTEX
  8
MERGEDLAYER-2
 10
6.570889
 20
0.852535
 30
0.000000
  0
VERTEX
  8
MERGEDLAYER-2
 10
6.570889
 20
0.803107
 30
0.000000
  0
VERTEX
  8
MERGEDLAYER-2
 10
0.985675
 20
0.803107
 30
0.000000
  0
SEQEND
  8
MERGEDLAYER-2
  0
POLYLINE
  8
MERGEDLAYER-2
 66
  1
 70
  0
 62
 15
 10
0.985243
 20
0.828474
 30
0.000000
  0
VERTEX
  8
MERGEDLAYER-2
 10
0.985243
 20
0.828474
 30
0.000000
  0
VERTEX
  8
MERGEDLAYER-2
 10
6.570311
 20
0.828474
 30
0.000000
  0
SEQEND
  8
MERGEDLAYER-2
  0
POLYLINE
  8
MERGEDLAYER-2
 66
  1
 70
  1
 62
  0
  0
VERTEX
  8
MERGEDLAYER-2
 10
0.985675
 20
1.021284
 30
0.000000
  0
VERTEX
  8
MERGEDLAYER-2
 10
6.570889
 20
1.021284
 30
0.000000
  0
VERTEX
  8
MERGEDLAYER-2
 10
6.570889
 20
0.971857
 30
0.000000
  0
VERTEX
  8
MERGEDLAYER-2
 10
0.985675
 20
0.971857
 30
0.000000
  0
SEQEND
  8
MERGEDLAYER-2
  0
POLYLINE
  8
MERGEDLAYER-2
 66
  1
 70
  0
 62
 15
 10
0.985243
 20
0.997225
 30
0.000000
  0
VERTEX
  8
MERGEDLAYER-2
 10
0.985243
 20
0.997225
 30
0.000000
  0
VERTEX
  8
MERGEDLAYER-2
 10
6.570311
 20
0.997225
 30
0.000000
  0
SEQEND
  8
MERGEDLAYER-2
  0
POLYLINE
  8
MERGEDLAYER-2
 66
  1
 70
  1
 62
  0
  0
VERTEX
  8
MERGEDLAYER-2
 10
0.985675
 20
1.190035
 30
0.000000
  0
VERTEX
  8
MERGEDLAYER-2
 10
6.570889
 20
1.190035
 30
0.000000
  0
VERTEX
  8
MERGEDLAYER-2
 10
6.570889
 20
1.140607
 30
0.000000
  0
VERTEX
  8
MERGEDLAYER-2
 10
0.985675
 20
1.140607
 30
0.000000
  0
SEQEND
  8
MERGEDLAYER-2
  0
POLYLINE
  8
MERGEDLAYER-2
 66
  1
 70
  0
 62
 15
 10
0.985243
 20
1.165975
 30
0.000000
  0
VERTEX
  8
MERGEDLAYER-2
 10
0.985243
 20
1.165975
 30
0.000000
  0
VERTEX
  8
MERGEDLAYER-2
 10
6.570311
 20
1.165975
 30
0.000000
  0
SEQEND
  8
MERGEDLAYER-2
  0
POLYLINE
  8
MERGEDLAYER-2
 66
  1
 70
  1
 62
  0
  0
VERTEX
  8
MERGEDLAYER-2
 10
0.985675
 20
1.358785
 30
0.000000
  0
VERTEX
  8
MERGEDLAYER-2
 10
6.570889
 20
1.358785
 30
0.000000
  0
VERTEX
  8
MERGEDLAYER-2
 10
6.570889
 20
1.309358
 30
0.000000
  0
VERTEX
  8
MERGEDLAYER-2
 10
0.985675
 20
1.309358
 30
0.000000
  0
SEQEND
  8
MERGEDLAYER-2
  0
POLYLINE
  8
MERGEDLAYER-2
 66
  1
 70
  0
 62
 15
 10
0.985243
 20
1.334724
 30
0.000000
  0
VERTEX
  8
MERGEDLAYER-2
 10
0.985243
 20
1.334724
 30
0.000000
  0
VERTEX
  8
MERGEDLAYER-2
 10
6.570311
 20
1.334724
 30
0.000000
  0
SEQEND
  8
MERGEDLAYER-2
  0
POLYLINE
  8
MERGEDLAYER-2
 66
  1
 70
  1
 62
  0
  0
VERTEX
  8
MERGEDLAYER-2
 10
0.985675
 20
1.527535
 30
0.000000
  0
VERTEX
  8
MERGEDLAYER-2
 10
6.570889
 20
1.527535
 30
0.000000
  0
VERTEX
  8
MERGEDLAYER-2
 10
6.570889
 20
1.478107
 30
0.000000
  0
VERTEX
  8
MERGEDLAYER-2
 10
0.985675
 20
1.478107
 30
0.000000
  0
SEQEND
  8
MERGEDLAYER-2
  0
POLYLINE
  8
MERGEDLAYER-2
 66
  1
 70
  0
 62
 15
 10
0.985243
 20
1.503475
 30
0.000000
  0
VERTEX
  8
MERGEDLAYER-2
 10
0.985243
 20
1.503475
 30
0.000000
  0
VERTEX
  8
MERGEDLAYER-2
 10
6.570311
 20
1.503475
 30
0.000000
  0
SEQEND
  8
MERGEDLAYER-2
  0
POLYLINE
  8
MERGEDLAYER-2
 66
  1
 70
  1
 62
  0
  0
VERTEX
  8
MERGEDLAYER-2
 10
0.985675
 20
1.696286
 30
0.000000
  0
VERTEX
  8
MERGEDLAYER-2
 10
6.570889
 20
1.696286
 30
0.000000
  0
VERTEX
  8
MERGEDLAYER-2
 10
6.570889
 20
1.646857
 30
0.000000
  0
VERTEX
  8
MERGEDLAYER-2
 10
0.985675
 20
1.646857
 30
0.000000
  0
SEQEND
  8
MERGEDLAYER-2
  0
POLYLINE
  8
MERGEDLAYER-2
 66
  1
 70
  0
 62
 15
 10
0.985243
 20
1.672225
 30
0.000000
  0
VERTEX
  8
MERGEDLAYER-2
 10
0.985243
 20
1.672225
 30
0.000000
  0
VERTEX
  8
MERGEDLAYER-2
 10
6.570311
 20
1.672225
 30
0.000000
  0
SEQEND
  8
MERGEDLAYER-2
  0
POLYLINE
  8
MERGEDLAYER-2
 66
  1
 70
  1
 62
  0
  0
VERTEX
  8
MERGEDLAYER-2
 10
0.985675
 20
1.865036
 30
0.000000
  0
VERTEX
  8
MERGEDLAYER-2
 10
6.570889
 20
1.865036
 30
0.000000
  0
VERTEX
  8
MERGEDLAYER-2
 10
6.570889
 20
1.815608
 30
0.000000
  0
VERTEX
  8
MERGEDLAYER-2
 10
0.985675
 20
1.815608
 30
0.000000
  0
SEQEND
  8
MERGEDLAYER-2
  0
POLYLINE
  8
MERGEDLAYER-2
 66
  1
 70
  0
 62
 15
 10
0.985243
 20
1.840975
 30
0.000000
  0
VERTEX
  8
MERGEDLAYER-2
 10
0.985243
 20
1.840975
 30
0.000000
  0
VERTEX
  8
MERGEDLAYER-2
 10
6.570311
 20
1.840975
 30
0.000000
  0
SEQEND
  8
MERGEDLAYER-2
  0
POLYLINE
  8
MERGEDLAYER-2
 66
  1
 70
  1
 62
  0
  0
VERTEX
  8
MERGEDLAYER-2
 10
0.985675
 20
2.033786
 30
0.000000
  0
VERTEX
  8
MERGEDLAYER-2
 10
6.570889
 20
2.033786
 30
0.000000
  0
VERTEX
  8
MERGEDLAYER-2
 10
6.570889
 20
1.984358
 30
0.000000
  0
VERTEX
  8
MERGEDLAYER-2
 10
0.985675
 20
1.984358
 30
0.000000
  0
SEQEND
  8
MERGEDLAYER-2
  0
POLYLINE
  8
MERGEDLAYER-2
 66
  1
 70
  0
 62
 15
 10
0.985243
 20
2.009726
 30
0.000000
  0
VERTEX
  8
MERGEDLAYER-2
 10
0.985243
 20
2.009726
 30
0.000000
  0
VERTEX
  8
MERGEDLAYER-2
 10
6.570311
 20
2.009726
 30
0.000000
  0
SEQEND
  8
MERGEDLAYER-2
  0
POLYLINE
  8
MERGEDLAYER-2
 66
  1
 70
  1
 62
  0
  0
VERTEX
  8
MERGEDLAYER-2
 10
0.985675
 20
2.202536
 30
0.000000
  0
VERTEX
  8
MERGEDLAYER-2
 10
6.570889
 20
2.202536
 30
0.000000
  0
VERTEX
  8
MERGEDLAYER-2
 10
6.570889
 20
2.153108
 30
0.000000
  0
VERTEX
  8
MERGEDLAYER-2
 10
0.985675
 20
2.153108
 30
0.000000
  0
SEQEND
  8
MERGEDLAYER-2
  0
POLYLINE
  8
MERGEDLAYER-2
 66
  1
 70
  0
 62
 15
 10
0.985243
 20
2.178476
 30
0.000000
  0
VERTEX
  8
MERGEDLAYER-2
 10
0.985243
 20
2.178476
 30
0.000000
  0
VERTEX
  8
MERGEDLAYER-2
 10
6.570311
 20
2.178476
 30
0.000000
  0
SEQEND
  8
MERGEDLAYER-2
  0
POLYLINE
  8
MERGEDLAYER-2
 66
  1
 70
  1
 62
  0
  0
VERTEX
  8
MERGEDLAYER-2
 10
0.985675
 20
2.371286
 30
0.000000
  0
VERTEX
  8
MERGEDLAYER-2
 10
6.570889
 20
2.371286
 30
0.000000
  0
VERTEX
  8
MERGEDLAYER-2
 10
6.570889
 20
2.321859
 30
0.000000
  0
VERTEX
  8
MERGEDLAYER-2
 10
0.985675
 20
2.321859
 30
0.000000
  0
SEQEND
  8
MERGEDLAYER-2
  0
POLYLINE
  8
MERGEDLAYER-2
 66
  1
 70
  0
 62
 15
 10
0.985243
 20
2.347226
 30
0.000000
  0
VERTEX
  8
MERGEDLAYER-2
 10
0.985243
 20
2.347226
 30
0.000000
  0
VERTEX
  8
MERGEDLAYER-2
 10
6.570311
 20
2.347226
 30
0.000000
  0
SEQEND
  8
MERGEDLAYER-2
  0
POLYLINE
  8
MERGEDLAYER-2
 66
  1
 70
  1
 62
  0
  0
VERTEX
  8
MERGEDLAYER-2
 10
0.985675
 20
2.540037
 30
0.000000
  0
VERTEX
  8
MERGEDLAYER-2
 10
6.570889
 20
2.540037
 30
0.000000
  0
VERTEX
  8
MERGEDLAYER-2
 10
6.570889
 20
2.490608
 30
0.000000
  0
VERTEX
  8
MERGEDLAYER-2
 10
0.985675
 20
2.490608
 30
0.000000
  0
SEQEND
  8
MERGEDLAYER-2
  0
POLYLINE
  8
MERGEDLAYER-2
 66
  1
 70
  0
 62
 15
 10
0.985243
 20
2.515976
 30
0.000000
  0
VERTEX
  8
MERGEDLAYER-2
 10
0.985243
 20
2.515976
 30
0.000000
  0
VERTEX
  8
MERGEDLAYER-2
 10
6.570311
 20
2.515976
 30
0.000000
  0
SEQEND
  8
MERGEDLAYER-2
  0
POLYLINE
  8
MERGEDLAYER-2
 66
  1
 70
  1
 62
  0
  0
VERTEX
  8
MERGEDLAYER-2
 10
0.985675
 20
2.708787
 30
0.000000
  0
VERTEX
  8
MERGEDLAYER-2
 10
6.570889
 20
2.708787
 30
0.000000
  0
VERTEX
  8
MERGEDLAYER-2
 10
6.570889
 20
2.659359
 30
0.000000
  0
VERTEX
  8
MERGEDLAYER-2
 10
0.985675
 20
2.659359
 30
0.000000
  0
SEQEND
  8
MERGEDLAYER-2
  0
POLYLINE
  8
MERGEDLAYER-2
 66
  1
 70
  0
 62
 15
 10
0.985243
 20
2.684726
 30
0.000000
  0
VERTEX
  8
MERGEDLAYER-2
 10
0.985243
 20
2.684726
 30
0.000000
  0
VERTEX
  8
MERGEDLAYER-2
 10
6.570311
 20
2.684726
 30
0.000000
  0
SEQEND
  8
MERGEDLAYER-2
  0
POLYLINE
  8
MERGEDLAYER-2
 66
  1
 70
  1
 62
  0
  0
VERTEX
  8
MERGEDLAYER-2
 10
0.985675
 20
2.877537
 30
0.000000
  0
VERTEX
  8
MERGEDLAYER-2
 10
6.570889
 20
2.877537
 30
0.000000
  0
VERTEX
  8
MERGEDLAYER-2
 10
6.570889
 20
2.828109
 30
0.000000
  0
VERTEX
  8
MERGEDLAYER-2
 10
0.985675
 20
2.828109
 30
0.000000
  0
SEQEND
  8
MERGEDLAYER-2
  0
POLYLINE
  8
MERGEDLAYER-2
 66
  1
 70
  0
 62
 15
 10
0.985243
 20
2.853477
 30
0.000000
  0
VERTEX
  8
MERGEDLAYER-2
 10
0.985243
 20
2.853477
 30
0.000000
  0
VERTEX
  8
MERGEDLAYER-2
 10
6.570311
 20
2.853477
 30
0.000000
  0
SEQEND
  8
MERGEDLAYER-2
  0
POLYLINE
  8
MERGEDLAYER-2
 66
  1
 70
  1
 62
  0
  0
VERTEX
  8
MERGEDLAYER-2
 10
0.985675
 20
3.046288
 30
0.000000
  0
VERTEX
  8
MERGEDLAYER-2
 10
6.570889
 20
3.046288
 30
0.000000
  0
VERTEX
  8
MERGEDLAYER-2
 10
6.570889
 20
2.996859
 30
0.000000
  0
VERTEX
  8
MERGEDLAYER-2
 10
0.985675
 20
2.996859
 30
0.000000
  0
SEQEND
  8
MERGEDLAYER-2
  0
POLYLINE
  8
MERGEDLAYER-2
 66
  1
 70
  0
 62
 15
 10
0.985243
 20
3.022227
 30
0.000000
  0
VERTEX
  8
MERGEDLAYER-2
 10
0.985243
 20
3.022227
 30
0.000000
  0
VERTEX
  8
MERGEDLAYER-2
 10
6.570311
 20
3.022227
 30
0.000000
  0
SEQEND
  8
MERGEDLAYER-2
  0
POLYLINE
  8
MERGEDLAYER-2
 66
  1
 70
  1
 62
  0
  0
VERTEX
  8
MERGEDLAYER-2
 10
0.985675
 20
3.215037
 30
0.000000
  0
VERTEX
  8
MERGEDLAYER-2
 10
6.570889
 20
3.215037
 30
0.000000
  0
VERTEX
  8
MERGEDLAYER-2
 10
6.570889
 20
3.165610
 30
0.000000
  0
VERTEX
  8
MERGEDLAYER-2
 10
0.985675
 20
3.165610
 30
0.000000
  0
SEQEND
  8
MERGEDLAYER-2
  0
POLYLINE
  8
MERGEDLAYER-2
 66
  1
 70
  0
 62
 15
 10
0.985243
 20
3.190977
 30
0.000000
  0
VERTEX
  8
MERGEDLAYER-2
 10
0.985243
 20
3.190977
 30
0.000000
  0
VERTEX
  8
MERGEDLAYER-2
 10
6.570311
 20
3.190977
 30
0.000000
  0
SEQEND
  8
MERGEDLAYER-2
  0
POLYLINE
  8
MERGEDLAYER-2
 66
  1
 70
  1
 62
  0
  0
VERTEX
  8
MERGEDLAYER-2
 10
0.985675
 20
3.383787
 30
0.000000
  0
VERTEX
  8
MERGEDLAYER-2
 10
6.570889
 20
3.383787
 30
0.000000
  0
VERTEX
  8
MERGEDLAYER-2
 10
6.570889
 20
3.334359
 30
0.000000
  0
VERTEX
  8
MERGEDLAYER-2
 10
0.985675
 20
3.334359
 30
0.000000
  0
SEQEND
  8
MERGEDLAYER-2
  0
POLYLINE
  8
MERGEDLAYER-2
 66
  1
 70
  0
 62
 15
 10
0.985243
 20
3.359727
 30
0.000000
  0
VERTEX
  8
MERGEDLAYER-2
 10
0.985243
 20
3.359727
 30
0.000000
  0
VERTEX
  8
MERGEDLAYER-2
 10
6.570311
 20
3.359727
 30
0.000000
  0
SEQEND
  8
MERGEDLAYER-2
  0
POLYLINE
  8
MERGEDLAYER-2
 66
  1
 70
  1
 62
  0
  0
VERTEX
  8
MERGEDLAYER-2
 10
0.985675
 20
3.552538
 30
0.000000
  0
VERTEX
  8
MERGEDLAYER-2
 10
6.570889
 20
3.552538
 30
0.000000
  0
VERTEX
  8
MERGEDLAYER-2
 10
6.570889
 20
3.503110
 30
0.000000
  0
VERTEX
  8
MERGEDLAYER-2
 10
0.985675
 20
3.503110
 30
0.000000
  0
SEQEND
  8
MERGEDLAYER-2
  0
POLYLINE
  8
MERGEDLAYER-2
 66
  1
 70
  0
 62
 15
 10
0.985243
 20
3.528478
 30
0.000000
  0
VERTEX
  8
MERGEDLAYER-2
 10
0.985243
 20
3.528478
 30
0.000000
  0
VERTEX
  8
MERGEDLAYER-2
 10
6.570311
 20
3.528478
 30
0.000000
  0
SEQEND
  8
MERGEDLAYER-2
  0
POLYLINE
  8
MERGEDLAYER-2
 66
  1
 70
  1
 62
  0
  0
VERTEX
  8
MERGEDLAYER-2
 10
0.985675
 20
3.721288
 30
0.000000
  0
VERTEX
  8
MERGEDLAYER-2
 10
6.570889
 20
3.721288
 30
0.000000
  0
VERTEX
  8
MERGEDLAYER-2
 10
6.570889
 20
3.671860
 30
0.000000
  0
VERTEX
  8
MERGEDLAYER-2
 10
0.985675
 20
3.671860
 30
0.000000
  0
SEQEND
  8
MERGEDLAYER-2
  0
POLYLINE
  8
MERGEDLAYER-2
 66
  1
 70
  0
 62
 15
 10
0.985243
 20
3.697227
 30
0.000000
  0
VERTEX
  8
MERGEDLAYER-2
 10
0.985243
 20
3.697227
 30
0.000000
  0
VERTEX
  8
MERGEDLAYER-2
 10
6.570311
 20
3.697227
 30
0.000000
  0
SEQEND
  8
MERGEDLAYER-2
  0
POLYLINE
  8
MERGEDLAYER-2
 66
  1
 70
  1
 62
  0
  0
VERTEX
  8
MERGEDLAYER-2
 10
0.985675
 20
3.890038
 30
0.000000
  0
VERTEX
  8
MERGEDLAYER-2
 10
6.570889
 20
3.890038
 30
0.000000
  0
VERTEX
  8
MERGEDLAYER-2
 10
6.570889
 20
3.840610
 30
0.000000
  0
VERTEX
  8
MERGEDLAYER-2
 10
0.985675
 20
3.840610
 30
0.000000
  0
SEQEND
  8
MERGEDLAYER-2
  0
POLYLINE
  8
MERGEDLAYER-2
 66
  1
 70
  0
 62
 15
 10
0.985243
 20
3.865978
 30
0.000000
  0
VERTEX
  8
MERGEDLAYER-2
 10
0.985243
 20
3.865978
 30
0.000000
  0
VERTEX
  8
MERGEDLAYER-2
 10
6.570311
 20
3.865978
 30
0.000000
  0
SEQEND
  8
MERGEDLAYER-2
  0
POLYLINE
  8
MERGEDLAYER-2
 66
  1
 70
  1
 62
  0
  0
VERTEX
  8
MERGEDLAYER-2
 10
0.985675
 20
4.058788
 30
0.000000
  0
VERTEX
  8
MERGEDLAYER-2
 10
6.570889
 20
4.058788
 30
0.000000
  0
VERTEX
  8
MERGEDLAYER-2
 10
6.570889
 20
4.009360
 30
0.000000
  0
VERTEX
  8
MERGEDLAYER-2
 10
0.985675
 20
4.009360
 30
0.000000
  0
SEQEND
  8
MERGEDLAYER-2
  0
POLYLINE
  8
MERGEDLAYER-2
 66
  1
 70
  0
 62
 15
 10
0.985243
 20
4.034728
 30
0.000000
  0
VERTEX
  8
MERGEDLAYER-2
 10
0.985243
 20
4.034728
 30
0.000000
  0
VERTEX
  8
MERGEDLAYER-2
 10
6.570311
 20
4.034728
 30
0.000000
  0
SEQEND
  8
MERGEDLAYER-2
  0
POLYLINE
  8
MERGEDLAYER-2
 66
  1
 70
  1
 62
  0
  0
VERTEX
  8
MERGEDLAYER-2
 10
0.985675
 20
4.227539
 30
0.000000
  0
VERTEX
  8
MERGEDLAYER-2
 10
6.570889
 20
4.227539
 30
0.000000
  0
VERTEX
  8
MERGEDLAYER-2
 10
6.570889
 20
4.178111
 30
0.000000
  0
VERTEX
  8
MERGEDLAYER-2
 10
0.985675
 20
4.178111
 30
0.000000
  0
SEQEND
  8
MERGEDLAYER-2
  0
POLYLINE
  8
MERGEDLAYER-2
 66
  1
 70
  0
 62
 15
 10
0.985243
 20
4.203478
 30
0.000000
  0
VERTEX
  8
MERGEDLAYER-2
 10
0.985243
 20
4.203478
 30
0.000000
  0
VERTEX
  8
MERGEDLAYER-2
 10
6.570311
 20
4.203478
 30
0.000000
  0
SEQEND
  8
MERGEDLAYER-2
  0
POLYLINE
  8
MERGEDLAYER-2
 66
  1
 70
  1
 62
  0
  0
VERTEX
  8
MERGEDLAYER-2
 10
0.985675
 20
4.396289
 30
0.000000
  0
VERTEX
  8
MERGEDLAYER-2
 10
6.570889
 20
4.396289
 30
0.000000
  0
VERTEX
  8
MERGEDLAYER-2
 10
6.570889
 20
4.346861
 30
0.000000
  0
VERTEX
  8
MERGEDLAYER-2
 10
0.985675
 20
4.346861
 30
0.000000
  0
SEQEND
  8
MERGEDLAYER-2
  0
POLYLINE
  8
MERGEDLAYER-2
 66
  1
 70
  0
 62
 15
 10
0.985243
 20
4.372228
 30
0.000000
  0
VERTEX
  8
MERGEDLAYER-2
 10
0.985243
 20
4.372228
 30
0.000000
  0
VERTEX
  8
MERGEDLAYER-2
 10
6.570311
 20
4.372228
 30
0.000000
  0
SEQEND
  8
MERGEDLAYER-2
  0
POLYLINE
  8
MERGEDLAYER-2
 66
  1
 70
  1
 62
  0
  0
VERTEX
  8
MERGEDLAYER-2
 10
0.985675
 20
4.565039
 30
0.000000
  0
VERTEX
  8
MERGEDLAYER-2
 10
6.570889
 20
4.565039
 30
0.000000
  0
VERTEX
  8
MERGEDLAYER-2
 10
6.570889
 20
4.515611
 30
0.000000
  0
VERTEX
  8
MERGEDLAYER-2
 10
0.985675
 20
4.515611
 30
0.000000
  0
SEQEND
  8
MERGEDLAYER-2
  0
POLYLINE
  8
MERGEDLAYER-2
 66
  1
 70
  0
 62
 15
 10
0.985243
 20
4.540979
 30
0.000000
  0
VERTEX
  8
MERGEDLAYER-2
 10
0.985243
 20
4.540979
 30
0.000000
  0
VERTEX
  8
MERGEDLAYER-2
 10
6.570311
 20
4.540979
 30
0.000000
  0
SEQEND
  8
MERGEDLAYER-2
  0
POLYLINE
  8
MERGEDLAYER-2
 66
  1
 70
  1
 62
  0
  0
VERTEX
  8
MERGEDLAYER-2
 10
0.985675
 20
4.733789
 30
0.000000
  0
VERTEX
  8
MERGEDLAYER-2
 10
6.570889
 20
4.733789
 30
0.000000
  0
VERTEX
  8
MERGEDLAYER-2
 10
6.570889
 20
4.684361
 30
0.000000
  0
VERTEX
  8
MERGEDLAYER-2
 10
0.985675
 20
4.684361
 30
0.000000
  0
SEQEND
  8
MERGEDLAYER-2
  0
POLYLINE
  8
MERGEDLAYER-2
 66
  1
 70
  0
 62
 15
 10
0.985243
 20
4.709729
 30
0.000000
  0
VERTEX
  8
MERGEDLAYER-2
 10
0.985243
 20
4.709729
 30
0.000000
  0
VERTEX
  8
MERGEDLAYER-2
 10
6.570311
 20
4.709729
 30
0.000000
  0
SEQEND
  8
MERGEDLAYER-2
  0
POLYLINE
  8
MERGEDLAYER-2
 66
  1
 70
  1
 62
  0
  0
VERTEX
  8
MERGEDLAYER-2
 10
0.985675
 20
4.902539
 30
0.000000
  0
VERTEX
  8
MERGEDLAYER-2
 10
6.570889
 20
4.902539
 30
0.000000
  0
VERTEX
  8
MERGEDLAYER-2
 10
6.570889
 20
4.853111
 30
0.000000
  0
VERTEX
  8
MERGEDLAYER-2
 10
0.985675
 20
4.853111
 30
0.000000
  0
SEQEND
  8
MERGEDLAYER-2
  0
POLYLINE
  8
MERGEDLAYER-2
 66
  1
 70
  0
 62
 15
 10
0.985243
 20
4.878479
 30
0.000000
  0
VERTEX
  8
MERGEDLAYER-2
 10
0.985243
 20
4.878479
 30
0.000000
  0
VERTEX
  8
MERGEDLAYER-2
 10
6.570311
 20
4.878479
 30
0.000000
  0
SEQEND
  8
MERGEDLAYER-2
  0
POLYLINE
  8
MERGEDLAYER-2
 66
  1
 70
  1
 62
  0
  0
VERTEX
  8
MERGEDLAYER-2
 10
0.985675
 20
5.071289
 30
0.000000
  0
VERTEX
  8
MERGEDLAYER-2
 10
6.570889
 20
5.071289
 30
0.000000
  0
VERTEX
  8
MERGEDLAYER-2
 10
6.570889
 20
5.021862
 30
0.000000
  0
VERTEX
  8
MERGEDLAYER-2
 10
0.985675
 20
5.021862
 30
0.000000
  0
SEQEND
  8
MERGEDLAYER-2
  0
POLYLINE
  8
MERGEDLAYER-2
 66
  1
 70
  0
 62
 15
 10
0.985243
 20
5.047229
 30
0.000000
  0
VERTEX
  8
MERGEDLAYER-2
 10
0.985243
 20
5.047229
 30
0.000000
  0
VERTEX
  8
MERGEDLAYER-2
 10
6.570311
 20
5.047229
 30
0.000000
  0
SEQEND
  8
MERGEDLAYER-2
  0
POLYLINE
  8
MERGEDLAYER-2
 66
  1
 70
  1
 62
  0
  0
VERTEX
  8
MERGEDLAYER-2
 10
0.985675
 20
5.240040
 30
0.000000
  0
VERTEX
  8
MERGEDLAYER-2
 10
6.570889
 20
5.240040
 30
0.000000
  0
VERTEX
  8
MERGEDLAYER-2
 10
6.570889
 20
5.190612
 30
0.000000
  0
VERTEX
  8
MERGEDLAYER-2
 10
0.985675
 20
5.190612
 30
0.000000
  0
SEQEND
  8
MERGEDLAYER-2
  0
POLYLINE
  8
MERGEDLAYER-2
 66
  1
 70
  0
 62
 15
 10
0.985243
 20
5.215979
 30
0.000000
  0
VERTEX
  8
MERGEDLAYER-2
 10
0.985243
 20
5.215979
 30
0.000000
  0
VERTEX
  8
MERGEDLAYER-2
 10
6.570311
 20
5.215979
 30
0.000000
  0
SEQEND
  8
MERGEDLAYER-2
  0
POLYLINE
  8
MERGEDLAYER-2
 66
  1
 70
  1
 62
  0
  0
VERTEX
  8
MERGEDLAYER-2
 10
0.823815
 20
5.240448
 30
0.000000
  0
VERTEX
  8
MERGEDLAYER-2
 10
0.985699
 20
5.240448
 30
0.000000
  0
VERTEX
  8
MERGEDLAYER-2
 10
0.985699
 20
0.279687
 30
0.000000
  0
VERTEX
  8
MERGEDLAYER-2
 10
0.823815
 20
0.279687
 30
0.000000
  0
SEQEND
  8
MERGEDLAYER-2
  0
POLYLINE
  8
MERGEDLAYER-2
 66
  1
 70
  1
 62
  0
  0
VERTEX
  8
MERGEDLAYER-2
 10
6.569915
 20
5.239872
 30
0.000000
  0
VERTEX
  8
MERGEDLAYER-2
 10
6.731799
 20
5.239872
 30
0.000000
  0
VERTEX
  8
MERGEDLAYER-2
 10
6.731799
 20
0.279018
 30
0.000000
  0
VERTEX
  8
MERGEDLAYER-2
 10
6.569915
 20
0.279018
 30
0.000000
  0
SEQEND
  8
MERGEDLAYER-2
  0
POLYLINE
  8
MERGEDLAYER-2
 66
  1
 70
  0
 62
  0
 10
3.076389
 20
6.090279
 30
0.000000
  0
VERTEX
  8
MERGEDLAYER-2
 10
3.076389
 20
6.090279
 30
0.000000
  0
VERTEX
  8
MERGEDLAYER-2
 10
2.371528
 20
6.090279
 30
0.000000
  0
SEQEND
  8
MERGEDLAYER-2
  0
TEXT
  8
MERGEDLAYER-2
 62
  0
 10
2.736111
 20
7.750001
 30
0.000000
 40
0.145833
  1
panneaux d'aluminium
 72
  5
 11
4.791667
 21
7.750001
 31
0.000000
  0
TEXT
  8
MERGEDLAYER-2
 62
  0
 10
3.125000
 20
7.527779
 30
0.000000
 40
0.145833
  1
pleine largeur
 72
  5
 11
4.402778
 21
7.527779
 31
0.000000
  0
TEXT
  8
MERGEDLAYER-2
 62
  0
 10
3.194444
 20
6.027779
 30
0.000000
 40
0.145833
  1
2 
 72
  5
 11
3.430556
 21
6.027779
 31
0.000000
  0
TEXT
  8
MERGEDLAYER-2
 62
  0
 10
3.430556
 20
6.027779
 30
0.000000
 40
0.125000
  1
1/2
 72
  5
 11
3.736111
 21
6.027779
 31
0.000000
  0
TEXT
  8
MERGEDLAYER-2
 62
  0
 10
3.736111
 20
6.027779
 30
0.000000
 40
0.145833
  1
" (64
 72
  5
 11
4.222222
 21
6.027779
 31
0.000000
  0
TEXT
  8
MERGEDLAYER-2
 62
  0
 10
4.222222
 20
6.027779
 30
0.000000
 40
0.125000
  1
mm)
 72
  5
 11
4.652778
 21
6.027779
 31
0.000000
  0
TEXT
  8
MERGEDLAYER-2
 62
  0
 10
2.986111
 20
5.805556
 30
0.000000
 40
0.145833
  1
entre connecteurs
 72
  5
 11
4.652778
 21
5.805556
 31
0.000000
  0
CIRCLE
  8
MERGEDLAYER-2
 62
  0
 10
2.170606
 20
6.868970
 30
0.000000
 40
0.013666
  0
POLYLINE
  8
MERGEDLAYER-2
 66
  1
 70
  0
 62
  0
 10
2.183325
 20
6.820647
 30
0.000000
  0
VERTEX
  8
MERGEDLAYER-2
 10
2.183325
 20
6.820647
 30
0.000000
  0
VERTEX
  8
MERGEDLAYER-2
 10
2.185994
 20
6.832726
 30
0.000000
  0
VERTEX
  8
MERGEDLAYER-2
 10
2.182125
 20
6.843154
 30
0.000000
  0
VERTEX
  8
MERGEDLAYER-2
 10
2.172015
 20
6.847792
 30
0.000000
  0
VERTEX
  8
MERGEDLAYER-2
 10
2.161587
 20
6.843923
 30
0.000000
  0
VERTEX
  8
MERGEDLAYER-2
 10
2.156949
 20
6.833813
 30
0.000000
  0
VERTEX
  8
MERGEDLAYER-2
 10
2.160818
 20
6.823384
 30
0.000000
  0
VERTEX
  8
MERGEDLAYER-2
 10
2.168325
 20
6.817697
 30
0.000000
  0
SEQEND
  8
MERGEDLAYER-2
  0
POLYLINE
  8
MERGEDLAYER-2
 66
  1
 70
  0
 62
  0
 10
2.165827
 20
6.808175
 30
0.000000
  0
VERTEX
  8
MERGEDLAYER-2
 10
2.165827
 20
6.808175
 30
0.000000
  0
VERTEX
  8
MERGEDLAYER-2
 10
2.159755
 20
6.808176
 30
0.000000
  0
SEQEND
  8
MERGEDLAYER-2
  0
POLYLINE
  8
MERGEDLAYER-2
 66
  1
 70
  0
 62
  0
 10
2.168325
 20
6.817697
 30
0.000000
  0
VERTEX
  8
MERGEDLAYER-2
 10
2.168325
 20
6.817697
 30
0.000000
  0
VERTEX
  8
MERGEDLAYER-2
 10
2.168319
 20
6.810665
 30
0.000000
  0
SEQEND
  8
MERGEDLAYER-2
  0
POLYLINE
  8
MERGEDLAYER-2
 66
  1
 70
  0
 62
  0
 10
2.165827
 20
6.808175
 30
0.000000
  0
VERTEX
  8
MERGEDLAYER-2
 10
2.165827
 20
6.808175
 30
0.000000
  0
VERTEX
  8
MERGEDLAYER-2
 10
2.168319
 20
6.810665
 30
0.000000
  0
SEQEND
  8
MERGEDLAYER-2
  0
POLYLINE
  8
MERGEDLAYER-2
 66
  1
 70
  0
 62
  0
 10
2.195394
 20
6.868915
 30
0.000000
  0
VERTEX
  8
MERGEDLAYER-2
 10
2.195394
 20
6.868915
 30
0.000000
  0
VERTEX
  8
MERGEDLAYER-2
 10
2.200080
 20
6.822198
 30
0.000000
  0
SEQEND
  8
MERGEDLAYER-2
  0
POLYLINE
  8
MERGEDLAYER-2
 66
  1
 70
  0
 62
  0
 10
2.197419
 20
6.814737
 30
0.000000
  0
VERTEX
  8
MERGEDLAYER-2
 10
2.197419
 20
6.814737
 30
0.000000
  0
VERTEX
  8
MERGEDLAYER-2
 10
2.196500
 20
6.817959
 30
0.000000
  0
VERTEX
  8
MERGEDLAYER-2
 10
2.197312
 20
6.819378
 30
0.000000
  0
VERTEX
  8
MERGEDLAYER-2
 10
2.197861
 20
6.820918
 30
0.000000
  0
VERTEX
  8
MERGEDLAYER-2
 10
2.198131
 20
6.822531
 30
0.000000
  0
VERTEX
  8
MERGEDLAYER-2
 10
2.198112
 20
6.824166
 30
0.000000
  0
VERTEX
  8
MERGEDLAYER-2
 10
2.200080
 20
6.822197
 30
0.000000
  0
SEQEND
  8
MERGEDLAYER-2
  0
POLYLINE
  8
MERGEDLAYER-2
 66
  1
 70
  0
 62
  0
 10
2.183325
 20
6.820646
 30
0.000000
  0
VERTEX
  8
MERGEDLAYER-2
 10
2.183325
 20
6.820646
 30
0.000000
  0
VERTEX
  8
MERGEDLAYER-2
 10
2.187498
 20
6.809774
 30
0.000000
  0
SEQEND
  8
MERGEDLAYER-2
  0
POLYLINE
  8
MERGEDLAYER-2
 66
  1
 70
  0
 62
  0
 10
2.191586
 20
6.808905
 30
0.000000
  0
VERTEX
  8
MERGEDLAYER-2
 10
2.191586
 20
6.808905
 30
0.000000
  0
VERTEX
  8
MERGEDLAYER-2
 10
2.197419
 20
6.814737
 30
0.000000
  0
SEQEND
  8
MERGEDLAYER-2
  0
POLYLINE
  8
MERGEDLAYER-2
 66
  1
 70
  0
 62
  0
 10
2.187499
 20
6.809774
 30
0.000000
  0
VERTEX
  8
MERGEDLAYER-2
 10
2.187499
 20
6.809774
 30
0.000000
  0
VERTEX
  8
MERGEDLAYER-2
 10
2.191586
 20
6.808905
 30
0.000000
  0
SEQEND
  8
MERGEDLAYER-2
  0
POLYLINE
  8
MERGEDLAYER-2
 66
  1
 70
  0
 62
  0
 10
2.150242
 20
6.817688
 30
0.000000
  0
VERTEX
  8
MERGEDLAYER-2
 10
2.150242
 20
6.817688
 30
0.000000
  0
VERTEX
  8
MERGEDLAYER-2
 10
2.159755
 20
6.808176
 30
0.000000
  0
SEQEND
  8
MERGEDLAYER-2
  0
POLYLINE
  8
MERGEDLAYER-2
 66
  1
 70
  0
 62
  0
 10
2.150242
 20
6.817688
 30
0.000000
  0
VERTEX
  8
MERGEDLAYER-2
 10
2.150242
 20
6.817688
 30
0.000000
  0
VERTEX
  8
MERGEDLAYER-2
 10
2.146445
 20
6.844985
 30
0.000000
  0
SEQEND
  8
MERGEDLAYER-2
  0
POLYLINE
  8
MERGEDLAYER-2
 66
  1
 70
  0
 62
  0
 10
2.152291
 20
6.850831
 30
0.000000
  0
VERTEX
  8
MERGEDLAYER-2
 10
2.152291
 20
6.850831
 30
0.000000
  0
VERTEX
  8
MERGEDLAYER-2
 10
2.145632
 20
6.857490
 30
0.000000
  0
SEQEND
  8
MERGEDLAYER-2
  0
POLYLINE
  8
MERGEDLAYER-2
 66
  1
 70
  0
 62
  0
 10
2.152291
 20
6.850831
 30
0.000000
  0
VERTEX
  8
MERGEDLAYER-2
 10
2.152291
 20
6.850831
 30
0.000000
  0
VERTEX
  8
MERGEDLAYER-2
 10
2.146445
 20
6.844985
 30
0.000000
  0
SEQEND
  8
MERGEDLAYER-2
  0
POLYLINE
  8
MERGEDLAYER-2
 66
  1
 70
  0
 62
  0
 10
2.145632
 20
6.857490
 30
0.000000
  0
VERTEX
  8
MERGEDLAYER-2
 10
2.145632
 20
6.857490
 30
0.000000
  0
VERTEX
  8
MERGEDLAYER-2
 10
2.145632
 20
6.880340
 30
0.000000
  0
SEQEND
  8
MERGEDLAYER-2
  0
POLYLINE
  8
MERGEDLAYER-2
 66
  1
 70
  0
 62
  0
 10
2.168325
 20
6.920133
 30
0.000000
  0
VERTEX
  8
MERGEDLAYER-2
 10
2.168325
 20
6.920133
 30
0.000000
  0
VERTEX
  8
MERGEDLAYER-2
 10
2.158236
 20
6.914500
 30
0.000000
  0
VERTEX
  8
MERGEDLAYER-2
 10
2.157868
 20
6.903383
 30
0.000000
  0
VERTEX
  8
MERGEDLAYER-2
 10
2.165470
 20
6.895262
 30
0.000000
  0
VERTEX
  8
MERGEDLAYER-2
 10
2.176587
 20
6.894895
 30
0.000000
  0
VERTEX
  8
MERGEDLAYER-2
 10
2.184707
 20
6.902496
 30
0.000000
  0
VERTEX
  8
MERGEDLAYER-2
 10
2.185075
 20
6.913614
 30
0.000000
  0
VERTEX
  8
MERGEDLAYER-2
 10
2.183325
 20
6.917184
 30
0.000000
  0
SEQEND
  8
MERGEDLAYER-2
  0
POLYLINE
  8
MERGEDLAYER-2
 66
  1
 70
  0
 62
  0
 10
2.165827
 20
6.929655
 30
0.000000
  0
VERTEX
  8
MERGEDLAYER-2
 10
2.165827
 20
6.929655
 30
0.000000
  0
VERTEX
  8
MERGEDLAYER-2
 10
2.159755
 20
6.929655
 30
0.000000
  0
SEQEND
  8
MERGEDLAYER-2
  0
POLYLINE
  8
MERGEDLAYER-2
 66
  1
 70
  0
 62
  0
 10
2.168325
 20
6.920133
 30
0.000000
  0
VERTEX
  8
MERGEDLAYER-2
 10
2.168325
 20
6.920133
 30
0.000000
  0
VERTEX
  8
MERGEDLAYER-2
 10
2.168319
 20
6.927166
 30
0.000000
  0
SEQEND
  8
MERGEDLAYER-2
  0
POLYLINE
  8
MERGEDLAYER-2
 66
  1
 70
  0
 62
  0
 10
2.168319
 20
6.927165
 30
0.000000
  0
VERTEX
  8
MERGEDLAYER-2
 10
2.168319
 20
6.927165
 30
0.000000
  0
VERTEX
  8
MERGEDLAYER-2
 10
2.165827
 20
6.929655
 30
0.000000
  0
SEQEND
  8
MERGEDLAYER-2
  0
POLYLINE
  8
MERGEDLAYER-2
 66
  1
 70
  0
 62
  0
 10
2.195394
 20
6.868915
 30
0.000000
  0
VERTEX
  8
MERGEDLAYER-2
 10
2.195394
 20
6.868915
 30
0.000000
  0
VERTEX
  8
MERGEDLAYER-2
 10
2.200080
 20
6.915632
 30
0.000000
  0
SEQEND
  8
MERGEDLAYER-2
  0
POLYLINE
  8
MERGEDLAYER-2
 66
  1
 70
  0
 62
  0
 10
2.200080
 20
6.915632
 30
0.000000
  0
VERTEX
  8
MERGEDLAYER-2
 10
2.200080
 20
6.915632
 30
0.000000
  0
VERTEX
  8
MERGEDLAYER-2
 10
2.198131
 20
6.919236
 30
0.000000
  0
VERTEX
  8
MERGEDLAYER-2
 10
2.197861
 20
6.920848
 30
0.000000
  0
VERTEX
  8
MERGEDLAYER-2
 10
2.197312
 20
6.922389
 30
0.000000
  0
VERTEX
  8
MERGEDLAYER-2
 10
2.196500
 20
6.923808
 30
0.000000
  0
VERTEX
  8
MERGEDLAYER-2
 10
2.195450
 20
6.925062
 30
0.000000
  0
VERTEX
  8
MERGEDLAYER-2
 10
2.197419
 20
6.923093
 30
0.000000
  0
SEQEND
  8
MERGEDLAYER-2
  0
POLYLINE
  8
MERGEDLAYER-2
 66
  1
 70
  0
 62
  0
 10
2.183325
 20
6.917184
 30
0.000000
  0
VERTEX
  8
MERGEDLAYER-2
 10
2.183325
 20
6.917184
 30
0.000000
  0
VERTEX
  8
MERGEDLAYER-2
 10
2.187498
 20
6.928057
 30
0.000000
  0
SEQEND
  8
MERGEDLAYER-2
  0
POLYLINE
  8
MERGEDLAYER-2
 66
  1
 70
  0
 62
  0
 10
2.191586
 20
6.928925
 30
0.000000
  0
VERTEX
  8
MERGEDLAYER-2
 10
2.191586
 20
6.928925
 30
0.000000
  0
VERTEX
  8
MERGEDLAYER-2
 10
2.197419
 20
6.923093
 30
0.000000
  0
SEQEND
  8
MERGEDLAYER-2
  0
POLYLINE
  8
MERGEDLAYER-2
 66
  1
 70
  0
 62
  0
 10
2.191586
 20
6.928925
 30
0.000000
  0
VERTEX
  8
MERGEDLAYER-2
 10
2.191586
 20
6.928925
 30
0.000000
  0
VERTEX
  8
MERGEDLAYER-2
 10
2.187499
 20
6.928057
 30
0.000000
  0
SEQEND
  8
MERGEDLAYER-2
  0
POLYLINE
  8
MERGEDLAYER-2
 66
  1
 70
  0
 62
  0
 10
2.150242
 20
6.920141
 30
0.000000
  0
VERTEX
  8
MERGEDLAYER-2
 10
2.150242
 20
6.920141
 30
0.000000
  0
VERTEX
  8
MERGEDLAYER-2
 10
2.159755
 20
6.929655
 30
0.000000
  0
SEQEND
  8
MERGEDLAYER-2
  0
POLYLINE
  8
MERGEDLAYER-2
 66
  1
 70
  0
 62
  0
 10
2.150242
 20
6.920141
 30
0.000000
  0
VERTEX
  8
MERGEDLAYER-2
 10
2.150242
 20
6.920141
 30
0.000000
  0
VERTEX
  8
MERGEDLAYER-2
 10
2.146445
 20
6.892845
 30
0.000000
  0
SEQEND
  8
MERGEDLAYER-2
  0
POLYLINE
  8
MERGEDLAYER-2
 66
  1
 70
  0
 62
  0
 10
2.152291
 20
6.886999
 30
0.000000
  0
VERTEX
  8
MERGEDLAYER-2
 10
2.152291
 20
6.886999
 30
0.000000
  0
VERTEX
  8
MERGEDLAYER-2
 10
2.145632
 20
6.880340
 30
0.000000
  0
SEQEND
  8
MERGEDLAYER-2
  0
POLYLINE
  8
MERGEDLAYER-2
 66
  1
 70
  0
 62
  0
 10
2.152291
 20
6.886999
 30
0.000000
  0
VERTEX
  8
MERGEDLAYER-2
 10
2.152291
 20
6.886999
 30
0.000000
  0
VERTEX
  8
MERGEDLAYER-2
 10
2.146445
 20
6.892845
 30
0.000000
  0
SEQEND
  8
MERGEDLAYER-2
  0
POLYLINE
  8
MERGEDLAYER-2
 66
  1
 70
  0
 62
  0
 10
2.178729
 20
7.290348
 30
0.000000
  0
VERTEX
  8
MERGEDLAYER-2
 10
2.178729
 20
7.290348
 30
0.000000
  0
VERTEX
  8
MERGEDLAYER-2
 10
2.177774
 20
7.289392
 30
0.000000
  0
SEQEND
  8
MERGEDLAYER-2
  0
POLYLINE
  8
MERGEDLAYER-2
 66
  1
 70
  0
 62
  0
 10
2.178729
 20
7.290348
 30
0.000000
  0
VERTEX
  8
MERGEDLAYER-2
 10
2.178729
 20
7.290348
 30
0.000000
  0
VERTEX
  8
MERGEDLAYER-2
 10
2.178741
 20
7.311140
 30
0.000000
  0
SEQEND
  8
MERGEDLAYER-2
  0
POLYLINE
  8
MERGEDLAYER-2
 66
  1
 70
  0
 62
  0
 10
2.178742
 20
7.311140
 30
0.000000
  0
VERTEX
  8
MERGEDLAYER-2
 10
2.178742
 20
7.311140
 30
0.000000
  0
VERTEX
  8
MERGEDLAYER-2
 10
2.183066
 20
7.329680
 30
0.000000
  0
VERTEX
  8
MERGEDLAYER-2
 10
2.166495
 20
7.335973
 30
0.000000
  0
VERTEX
  8
MERGEDLAYER-2
 10
2.160202
 20
7.319402
 30
0.000000
  0
VERTEX
  8
MERGEDLAYER-2
 10
2.168470
 20
7.311137
 30
0.000000
  0
SEQEND
  8
MERGEDLAYER-2
  0
POLYLINE
  8
MERGEDLAYER-2
 66
  1
 70
  0
 62
  0
 10
2.168484
 20
7.290348
 30
0.000000
  0
VERTEX
  8
MERGEDLAYER-2
 10
2.168484
 20
7.290348
 30
0.000000
  0
VERTEX
  8
MERGEDLAYER-2
 10
2.168470
 20
7.311137
 30
0.000000
  0
SEQEND
  8
MERGEDLAYER-2
  0
POLYLINE
  8
MERGEDLAYER-2
 66
  1
 70
  0
 62
  0
 10
2.168484
 20
7.290348
 30
0.000000
  0
VERTEX
  8
MERGEDLAYER-2
 10
2.168484
 20
7.290348
 30
0.000000
  0
VERTEX
  8
MERGEDLAYER-2
 10
2.169468
 20
7.289364
 30
0.000000
  0
SEQEND
  8
MERGEDLAYER-2
  0
POLYLINE
  8
MERGEDLAYER-2
 66
  1
 70
  0
 62
  0
 10
2.169468
 20
6.939451
 30
0.000000
  0
VERTEX
  8
MERGEDLAYER-2
 10
2.169468
 20
6.939451
 30
0.000000
  0
VERTEX
  8
MERGEDLAYER-2
 10
2.169468
 20
7.289364
 30
0.000000
  0
SEQEND
  8
MERGEDLAYER-2
  0
POLYLINE
  8
MERGEDLAYER-2
 66
  1
 70
  0
 62
  0
 10
2.168480
 20
6.938463
 30
0.000000
  0
VERTEX
  8
MERGEDLAYER-2
 10
2.168480
 20
6.938463
 30
0.000000
  0
VERTEX
  8
MERGEDLAYER-2
 10
2.169468
 20
6.939451
 30
0.000000
  0
SEQEND
  8
MERGEDLAYER-2
  0
POLYLINE
  8
MERGEDLAYER-2
 66
  1
 70
  0
 62
  0
 10
2.168480
 20
6.938463
 30
0.000000
  0
VERTEX
  8
MERGEDLAYER-2
 10
2.168480
 20
6.938463
 30
0.000000
  0
VERTEX
  8
MERGEDLAYER-2
 10
2.168467
 20
6.917670
 30
0.000000
  0
SEQEND
  8
MERGEDLAYER-2
  0
POLYLINE
  8
MERGEDLAYER-2
 66
  1
 70
  0
 62
  0
 10
2.168468
 20
6.917670
 30
0.000000
  0
VERTEX
  8
MERGEDLAYER-2
 10
2.168468
 20
6.917670
 30
0.000000
  0
VERTEX
  8
MERGEDLAYER-2
 10
2.160206
 20
6.903068
 30
0.000000
  0
VERTEX
  8
MERGEDLAYER-2
 10
2.176778
 20
6.896775
 30
0.000000
  0
VERTEX
  8
MERGEDLAYER-2
 10
2.183070
 20
6.913346
 30
0.000000
  0
VERTEX
  8
MERGEDLAYER-2
 10
2.178739
 20
6.917674
 30
0.000000
  0
SEQEND
  8
MERGEDLAYER-2
  0
POLYLINE
  8
MERGEDLAYER-2
 66
  1
 70
  0
 62
  0
 10
2.178725
 20
6.938463
 30
0.000000
  0
VERTEX
  8
MERGEDLAYER-2
 10
2.178725
 20
6.938463
 30
0.000000
  0
VERTEX
  8
MERGEDLAYER-2
 10
2.178738
 20
6.917673
 30
0.000000
  0
SEQEND
  8
MERGEDLAYER-2
  0
POLYLINE
  8
MERGEDLAYER-2
 66
  1
 70
  0
 62
  0
 10
2.178725
 20
6.938463
 30
0.000000
  0
VERTEX
  8
MERGEDLAYER-2
 10
2.178725
 20
6.938463
 30
0.000000
  0
VERTEX
  8
MERGEDLAYER-2
 10
2.177774
 20
6.939414
 30
0.000000
  0
SEQEND
  8
MERGEDLAYER-2
  0
POLYLINE
  8
MERGEDLAYER-2
 66
  1
 70
  0
 62
  0
 10
2.177774
 20
6.939414
 30
0.000000
  0
VERTEX
  8
MERGEDLAYER-2
 10
2.177774
 20
6.939414
 30
0.000000
  0
VERTEX
  8
MERGEDLAYER-2
 10
2.177774
 20
7.289392
 30
0.000000
  0
SEQEND
  8
MERGEDLAYER-2
  0
CIRCLE
  8
MERGEDLAYER-2
 62
  0
 10
2.170696
 20
6.377960
 30
0.000000
 40
0.013666
  0
POLYLINE
  8
MERGEDLAYER-2
 66
  1
 70
  0
 62
  0
 10
2.183416
 20
6.329637
 30
0.000000
  0
VERTEX
  8
MERGEDLAYER-2
 10
2.183416
 20
6.329637
 30
0.000000
  0
VERTEX
  8
MERGEDLAYER-2
 10
2.186085
 20
6.341716
 30
0.000000
  0
VERTEX
  8
MERGEDLAYER-2
 10
2.182216
 20
6.352144
 30
0.000000
  0
VERTEX
  8
MERGEDLAYER-2
 10
2.172106
 20
6.356783
 30
0.000000
  0
VERTEX
  8
MERGEDLAYER-2
 10
2.161677
 20
6.352913
 30
0.000000
  0
VERTEX
  8
MERGEDLAYER-2
 10
2.157039
 20
6.342803
 30
0.000000
  0
VERTEX
  8
MERGEDLAYER-2
 10
2.160908
 20
6.332375
 30
0.000000
  0
VERTEX
  8
MERGEDLAYER-2
 10
2.168415
 20
6.326688
 30
0.000000
  0
SEQEND
  8
MERGEDLAYER-2
  0
POLYLINE
  8
MERGEDLAYER-2
 66
  1
 70
  0
 62
  0
 10
2.165918
 20
6.317165
 30
0.000000
  0
VERTEX
  8
MERGEDLAYER-2
 10
2.165918
 20
6.317165
 30
0.000000
  0
VERTEX
  8
MERGEDLAYER-2
 10
2.159846
 20
6.317166
 30
0.000000
  0
SEQEND
  8
MERGEDLAYER-2
  0
POLYLINE
  8
MERGEDLAYER-2
 66
  1
 70
  0
 62
  0
 10
2.168415
 20
6.326687
 30
0.000000
  0
VERTEX
  8
MERGEDLAYER-2
 10
2.168415
 20
6.326687
 30
0.000000
  0
VERTEX
  8
MERGEDLAYER-2
 10
2.168410
 20
6.319656
 30
0.000000
  0
SEQEND
  8
MERGEDLAYER-2
  0
POLYLINE
  8
MERGEDLAYER-2
 66
  1
 70
  0
 62
  0
 10
2.165918
 20
6.317165
 30
0.000000
  0
VERTEX
  8
MERGEDLAYER-2
 10
2.165918
 20
6.317165
 30
0.000000
  0
VERTEX
  8
MERGEDLAYER-2
 10
2.168410
 20
6.319656
 30
0.000000
  0
SEQEND
  8
MERGEDLAYER-2
  0
POLYLINE
  8
MERGEDLAYER-2
 66
  1
 70
  0
 62
  0
 10
2.195485
 20
6.377905
 30
0.000000
  0
VERTEX
  8
MERGEDLAYER-2
 10
2.195485
 20
6.377905
 30
0.000000
  0
VERTEX
  8
MERGEDLAYER-2
 10
2.200171
 20
6.331188
 30
0.000000
  0
SEQEND
  8
MERGEDLAYER-2
  0
POLYLINE
  8
MERGEDLAYER-2
 66
  1
 70
  0
 62
  0
 10
2.197510
 20
6.323727
 30
0.000000
  0
VERTEX
  8
MERGEDLAYER-2
 10
2.197510
 20
6.323727
 30
0.000000
  0
VERTEX
  8
MERGEDLAYER-2
 10
2.196590
 20
6.326949
 30
0.000000
  0
VERTEX
  8
MERGEDLAYER-2
 10
2.197402
 20
6.328368
 30
0.000000
  0
VERTEX
  8
MERGEDLAYER-2
 10
2.197952
 20
6.329908
 30
0.000000
  0
VERTEX
  8
MERGEDLAYER-2
 10
2.198221
 20
6.331521
 30
0.000000
  0
VERTEX
  8
MERGEDLAYER-2
 10
2.198203
 20
6.333155
 30
0.000000
  0
VERTEX
  8
MERGEDLAYER-2
 10
2.200171
 20
6.331187
 30
0.000000
  0
SEQEND
  8
MERGEDLAYER-2
  0
POLYLINE
  8
MERGEDLAYER-2
 66
  1
 70
  0
 62
  0
 10
2.183416
 20
6.329637
 30
0.000000
  0
VERTEX
  8
MERGEDLAYER-2
 10
2.183416
 20
6.329637
 30
0.000000
  0
VERTEX
  8
MERGEDLAYER-2
 10
2.187589
 20
6.318765
 30
0.000000
  0
SEQEND
  8
MERGEDLAYER-2
  0
POLYLINE
  8
MERGEDLAYER-2
 66
  1
 70
  0
 62
  0
 10
2.191677
 20
6.317896
 30
0.000000
  0
VERTEX
  8
MERGEDLAYER-2
 10
2.191677
 20
6.317896
 30
0.000000
  0
VERTEX
  8
MERGEDLAYER-2
 10
2.197510
 20
6.323728
 30
0.000000
  0
SEQEND
  8
MERGEDLAYER-2
  0
POLYLINE
  8
MERGEDLAYER-2
 66
  1
 70
  0
 62
  0
 10
2.187589
 20
6.318765
 30
0.000000
  0
VERTEX
  8
MERGEDLAYER-2
 10
2.187589
 20
6.318765
 30
0.000000
  0
VERTEX
  8
MERGEDLAYER-2
 10
2.191677
 20
6.317896
 30
0.000000
  0
SEQEND
  8
MERGEDLAYER-2
  0
POLYLINE
  8
MERGEDLAYER-2
 66
  1
 70
  0
 62
  0
 10
2.150333
 20
6.326679
 30
0.000000
  0
VERTEX
  8
MERGEDLAYER-2
 10
2.150333
 20
6.326679
 30
0.000000
  0
VERTEX
  8
MERGEDLAYER-2
 10
2.159846
 20
6.317166
 30
0.000000
  0
SEQEND
  8
MERGEDLAYER-2
  0
POLYLINE
  8
MERGEDLAYER-2
 66
  1
 70
  0
 62
  0
 10
2.150333
 20
6.326679
 30
0.000000
  0
VERTEX
  8
MERGEDLAYER-2
 10
2.150333
 20
6.326679
 30
0.000000
  0
VERTEX
  8
MERGEDLAYER-2
 10
2.146535
 20
6.353975
 30
0.000000
  0
SEQEND
  8
MERGEDLAYER-2
  0
POLYLINE
  8
MERGEDLAYER-2
 66
  1
 70
  0
 62
  0
 10
2.152382
 20
6.359820
 30
0.000000
  0
VERTEX
  8
MERGEDLAYER-2
 10
2.152382
 20
6.359820
 30
0.000000
  0
VERTEX
  8
MERGEDLAYER-2
 10
2.145722
 20
6.366481
 30
0.000000
  0
SEQEND
  8
MERGEDLAYER-2
  0
POLYLINE
  8
MERGEDLAYER-2
 66
  1
 70
  0
 62
  0
 10
2.152382
 20
6.359820
 30
0.000000
  0
VERTEX
  8
MERGEDLAYER-2
 10
2.152382
 20
6.359820
 30
0.000000
  0
VERTEX
  8
MERGEDLAYER-2
 10
2.146535
 20
6.353975
 30
0.000000
  0
SEQEND
  8
MERGEDLAYER-2
  0
POLYLINE
  8
MERGEDLAYER-2
 66
  1
 70
  0
 62
  0
 10
2.145722
 20
6.366481
 30
0.000000
  0
VERTEX
  8
MERGEDLAYER-2
 10
2.145722
 20
6.366481
 30
0.000000
  0
VERTEX
  8
MERGEDLAYER-2
 10
2.145722
 20
6.389330
 30
0.000000
  0
SEQEND
  8
MERGEDLAYER-2
  0
POLYLINE
  8
MERGEDLAYER-2
 66
  1
 70
  0
 62
  0
 10
2.168415
 20
6.429124
 30
0.000000
  0
VERTEX
  8
MERGEDLAYER-2
 10
2.168415
 20
6.429124
 30
0.000000
  0
VERTEX
  8
MERGEDLAYER-2
 10
2.158326
 20
6.423491
 30
0.000000
  0
VERTEX
  8
MERGEDLAYER-2
 10
2.157959
 20
6.412373
 30
0.000000
  0
VERTEX
  8
MERGEDLAYER-2
 10
2.165560
 20
6.404253
 30
0.000000
  0
VERTEX
  8
MERGEDLAYER-2
 10
2.176677
 20
6.403886
 30
0.000000
  0
VERTEX
  8
MERGEDLAYER-2
 10
2.184798
 20
6.411487
 30
0.000000
  0
VERTEX
  8
MERGEDLAYER-2
 10
2.185165
 20
6.422604
 30
0.000000
  0
VERTEX
  8
MERGEDLAYER-2
 10
2.183416
 20
6.426174
 30
0.000000
  0
SEQEND
  8
MERGEDLAYER-2
  0
POLYLINE
  8
MERGEDLAYER-2
 66
  1
 70
  0
 62
  0
 10
2.165918
 20
6.438645
 30
0.000000
  0
VERTEX
  8
MERGEDLAYER-2
 10
2.165918
 20
6.438645
 30
0.000000
  0
VERTEX
  8
MERGEDLAYER-2
 10
2.159846
 20
6.438645
 30
0.000000
  0
SEQEND
  8
MERGEDLAYER-2
  0
POLYLINE
  8
MERGEDLAYER-2
 66
  1
 70
  0
 62
  0
 10
2.168415
 20
6.429123
 30
0.000000
  0
VERTEX
  8
MERGEDLAYER-2
 10
2.168415
 20
6.429123
 30
0.000000
  0
VERTEX
  8
MERGEDLAYER-2
 10
2.168410
 20
6.436156
 30
0.000000
  0
SEQEND
  8
MERGEDLAYER-2
  0
POLYLINE
  8
MERGEDLAYER-2
 66
  1
 70
  0
 62
  0
 10
2.168410
 20
6.436155
 30
0.000000
  0
VERTEX
  8
MERGEDLAYER-2
 10
2.168410
 20
6.436155
 30
0.000000
  0
VERTEX
  8
MERGEDLAYER-2
 10
2.165918
 20
6.438645
 30
0.000000
  0
SEQEND
  8
MERGEDLAYER-2
  0
POLYLINE
  8
MERGEDLAYER-2
 66
  1
 70
  0
 62
  0
 10
2.195485
 20
6.377905
 30
0.000000
  0
VERTEX
  8
MERGEDLAYER-2
 10
2.195485
 20
6.377905
 30
0.000000
  0
VERTEX
  8
MERGEDLAYER-2
 10
2.200171
 20
6.424622
 30
0.000000
  0
SEQEND
  8
MERGEDLAYER-2
  0
POLYLINE
  8
MERGEDLAYER-2
 66
  1
 70
  0
 62
  0
 10
2.200171
 20
6.424623
 30
0.000000
  0
VERTEX
  8
MERGEDLAYER-2
 10
2.200171
 20
6.424623
 30
0.000000
  0
VERTEX
  8
MERGEDLAYER-2
 10
2.198221
 20
6.428226
 30
0.000000
  0
VERTEX
  8
MERGEDLAYER-2
 10
2.197952
 20
6.429839
 30
0.000000
  0
VERTEX
  8
MERGEDLAYER-2
 10
2.197402
 20
6.431379
 30
0.000000
  0
VERTEX
  8
MERGEDLAYER-2
 10
2.196590
 20
6.432798
 30
0.000000
  0
VERTEX
  8
MERGEDLAYER-2
 10
2.195541
 20
6.434052
 30
0.000000
  0
VERTEX
  8
MERGEDLAYER-2
 10
2.197510
 20
6.432083
 30
0.000000
  0
SEQEND
  8
MERGEDLAYER-2
  0
POLYLINE
  8
MERGEDLAYER-2
 66
  1
 70
  0
 62
  0
 10
2.183416
 20
6.426174
 30
0.000000
  0
VERTEX
  8
MERGEDLAYER-2
 10
2.183416
 20
6.426174
 30
0.000000
  0
VERTEX
  8
MERGEDLAYER-2
 10
2.187589
 20
6.437046
 30
0.000000
  0
SEQEND
  8
MERGEDLAYER-2
  0
POLYLINE
  8
MERGEDLAYER-2
 66
  1
 70
  0
 62
  0
 10
2.191677
 20
6.437916
 30
0.000000
  0
VERTEX
  8
MERGEDLAYER-2
 10
2.191677
 20
6.437916
 30
0.000000
  0
VERTEX
  8
MERGEDLAYER-2
 10
2.197510
 20
6.432083
 30
0.000000
  0
SEQEND
  8
MERGEDLAYER-2
  0
POLYLINE
  8
MERGEDLAYER-2
 66
  1
 70
  0
 62
  0
 10
2.191677
 20
6.437915
 30
0.000000
  0
VERTEX
  8
MERGEDLAYER-2
 10
2.191677
 20
6.437915
 30
0.000000
  0
VERTEX
  8
MERGEDLAYER-2
 10
2.187589
 20
6.437046
 30
0.000000
  0
SEQEND
  8
MERGEDLAYER-2
  0
POLYLINE
  8
MERGEDLAYER-2
 66
  1
 70
  0
 62
  0
 10
2.150333
 20
6.429131
 30
0.000000
  0
VERTEX
  8
MERGEDLAYER-2
 10
2.150333
 20
6.429131
 30
0.000000
  0
VERTEX
  8
MERGEDLAYER-2
 10
2.159846
 20
6.438645
 30
0.000000
  0
SEQEND
  8
MERGEDLAYER-2
  0
POLYLINE
  8
MERGEDLAYER-2
 66
  1
 70
  0
 62
  0
 10
2.150333
 20
6.429131
 30
0.000000
  0
VERTEX
  8
MERGEDLAYER-2
 10
2.150333
 20
6.429131
 30
0.000000
  0
VERTEX
  8
MERGEDLAYER-2
 10
2.146535
 20
6.401836
 30
0.000000
  0
SEQEND
  8
MERGEDLAYER-2
  0
POLYLINE
  8
MERGEDLAYER-2
 66
  1
 70
  0
 62
  0
 10
2.152382
 20
6.395989
 30
0.000000
  0
VERTEX
  8
MERGEDLAYER-2
 10
2.152382
 20
6.395989
 30
0.000000
  0
VERTEX
  8
MERGEDLAYER-2
 10
2.145722
 20
6.389330
 30
0.000000
  0
SEQEND
  8
MERGEDLAYER-2
  0
POLYLINE
  8
MERGEDLAYER-2
 66
  1
 70
  0
 62
  0
 10
2.152382
 20
6.395989
 30
0.000000
  0
VERTEX
  8
MERGEDLAYER-2
 10
2.152382
 20
6.395989
 30
0.000000
  0
VERTEX
  8
MERGEDLAYER-2
 10
2.146535
 20
6.401836
 30
0.000000
  0
SEQEND
  8
MERGEDLAYER-2
  0
POLYLINE
  8
MERGEDLAYER-2
 66
  1
 70
  0
 62
  0
 10
2.178820
 20
6.799338
 30
0.000000
  0
VERTEX
  8
MERGEDLAYER-2
 10
2.178820
 20
6.799338
 30
0.000000
  0
VERTEX
  8
MERGEDLAYER-2
 10
2.177864
 20
6.798382
 30
0.000000
  0
SEQEND
  8
MERGEDLAYER-2
  0
POLYLINE
  8
MERGEDLAYER-2
 66
  1
 70
  0
 62
  0
 10
2.178820
 20
6.799338
 30
0.000000
  0
VERTEX
  8
MERGEDLAYER-2
 10
2.178820
 20
6.799338
 30
0.000000
  0
VERTEX
  8
MERGEDLAYER-2
 10
2.178832
 20
6.820130
 30
0.000000
  0
SEQEND
  8
MERGEDLAYER-2
  0
POLYLINE
  8
MERGEDLAYER-2
 66
  1
 70
  0
 62
  0
 10
2.178832
 20
6.820130
 30
0.000000
  0
VERTEX
  8
MERGEDLAYER-2
 10
2.178832
 20
6.820130
 30
0.000000
  0
VERTEX
  8
MERGEDLAYER-2
 10
2.183156
 20
6.838670
 30
0.000000
  0
VERTEX
  8
MERGEDLAYER-2
 10
2.166585
 20
6.844963
 30
0.000000
  0
VERTEX
  8
MERGEDLAYER-2
 10
2.160293
 20
6.828392
 30
0.000000
  0
VERTEX
  8
MERGEDLAYER-2
 10
2.168561
 20
6.820127
 30
0.000000
  0
SEQEND
  8
MERGEDLAYER-2
  0
POLYLINE
  8
MERGEDLAYER-2
 66
  1
 70
  0
 62
  0
 10
2.168575
 20
6.799338
 30
0.000000
  0
VERTEX
  8
MERGEDLAYER-2
 10
2.168575
 20
6.799338
 30
0.000000
  0
VERTEX
  8
MERGEDLAYER-2
 10
2.168561
 20
6.820127
 30
0.000000
  0
SEQEND
  8
MERGEDLAYER-2
  0
POLYLINE
  8
MERGEDLAYER-2
 66
  1
 70
  0
 62
  0
 10
2.168575
 20
6.799338
 30
0.000000
  0
VERTEX
  8
MERGEDLAYER-2
 10
2.168575
 20
6.799338
 30
0.000000
  0
VERTEX
  8
MERGEDLAYER-2
 10
2.169558
 20
6.798354
 30
0.000000
  0
SEQEND
  8
MERGEDLAYER-2
  0
POLYLINE
  8
MERGEDLAYER-2
 66
  1
 70
  0
 62
  0
 10
2.169558
 20
6.448441
 30
0.000000
  0
VERTEX
  8
MERGEDLAYER-2
 10
2.169558
 20
6.448441
 30
0.000000
  0
VERTEX
  8
MERGEDLAYER-2
 10
2.169558
 20
6.798354
 30
0.000000
  0
SEQEND
  8
MERGEDLAYER-2
  0
POLYLINE
  8
MERGEDLAYER-2
 66
  1
 70
  0
 62
  0
 10
2.168570
 20
6.447453
 30
0.000000
  0
VERTEX
  8
MERGEDLAYER-2
 10
2.168570
 20
6.447453
 30
0.000000
  0
VERTEX
  8
MERGEDLAYER-2
 10
2.169558
 20
6.448441
 30
0.000000
  0
SEQEND
  8
MERGEDLAYER-2
  0
POLYLINE
  8
MERGEDLAYER-2
 66
  1
 70
  0
 62
  0
 10
2.168570
 20
6.447453
 30
0.000000
  0
VERTEX
  8
MERGEDLAYER-2
 10
2.168570
 20
6.447453
 30
0.000000
  0
VERTEX
  8
MERGEDLAYER-2
 10
2.168558
 20
6.426660
 30
0.000000
  0
SEQEND
  8
MERGEDLAYER-2
  0
POLYLINE
  8
MERGEDLAYER-2
 66
  1
 70
  0
 62
  0
 10
2.168558
 20
6.426660
 30
0.000000
  0
VERTEX
  8
MERGEDLAYER-2
 10
2.168558
 20
6.426660
 30
0.000000
  0
VERTEX
  8
MERGEDLAYER-2
 10
2.160297
 20
6.412058
 30
0.000000
  0
VERTEX
  8
MERGEDLAYER-2
 10
2.176868
 20
6.405765
 30
0.000000
  0
VERTEX
  8
MERGEDLAYER-2
 10
2.183161
 20
6.422336
 30
0.000000
  0
VERTEX
  8
MERGEDLAYER-2
 10
2.178829
 20
6.426664
 30
0.000000
  0
SEQEND
  8
MERGEDLAYER-2
  0
POLYLINE
  8
MERGEDLAYER-2
 66
  1
 70
  0
 62
  0
 10
2.178816
 20
6.447453
 30
0.000000
  0
VERTEX
  8
MERGEDLAYER-2
 10
2.178816
 20
6.447453
 30
0.000000
  0
VERTEX
  8
MERGEDLAYER-2
 10
2.178829
 20
6.426664
 30
0.000000
  0
SEQEND
  8
MERGEDLAYER-2
  0
POLYLINE
  8
MERGEDLAYER-2
 66
  1
 70
  0
 62
  0
 10
2.178816
 20
6.447453
 30
0.000000
  0
VERTEX
  8
MERGEDLAYER-2
 10
2.178816
 20
6.447453
 30
0.000000
  0
VERTEX
  8
MERGEDLAYER-2
 10
2.177864
 20
6.448404
 30
0.000000
  0
SEQEND
  8
MERGEDLAYER-2
  0
POLYLINE
  8
MERGEDLAYER-2
 66
  1
 70
  0
 62
  0
 10
2.177864
 20
6.448404
 30
0.000000
  0
VERTEX
  8
MERGEDLAYER-2
 10
2.177864
 20
6.448404
 30
0.000000
  0
VERTEX
  8
MERGEDLAYER-2
 10
2.177864
 20
6.798382
 30
0.000000
  0
SEQEND
  8
MERGEDLAYER-2
  0
CIRCLE
  8
MERGEDLAYER-2
 62
  0
 10
2.170696
 20
7.359872
 30
0.000000
 40
0.013666
  0
POLYLINE
  8
MERGEDLAYER-2
 66
  1
 70
  0
 62
  0
 10
2.183416
 20
7.311549
 30
0.000000
  0
VERTEX
  8
MERGEDLAYER-2
 10
2.183416
 20
7.311549
 30
0.000000
  0
VERTEX
  8
MERGEDLAYER-2
 10
2.186085
 20
7.323628
 30
0.000000
  0
VERTEX
  8
MERGEDLAYER-2
 10
2.182216
 20
7.334056
 30
0.000000
  0
VERTEX
  8
MERGEDLAYER-2
 10
2.172106
 20
7.338694
 30
0.000000
  0
VERTEX
  8
MERGEDLAYER-2
 10
2.161677
 20
7.334825
 30
0.000000
  0
VERTEX
  8
MERGEDLAYER-2
 10
2.157039
 20
7.324715
 30
0.000000
  0
VERTEX
  8
MERGEDLAYER-2
 10
2.160908
 20
7.314286
 30
0.000000
  0
VERTEX
  8
MERGEDLAYER-2
 10
2.168415
 20
7.308600
 30
0.000000
  0
SEQEND
  8
MERGEDLAYER-2
  0
POLYLINE
  8
MERGEDLAYER-2
 66
  1
 70
  0
 62
  0
 10
2.165918
 20
7.299077
 30
0.000000
  0
VERTEX
  8
MERGEDLAYER-2
 10
2.165918
 20
7.299077
 30
0.000000
  0
VERTEX
  8
MERGEDLAYER-2
 10
2.159846
 20
7.299078
 30
0.000000
  0
SEQEND
  8
MERGEDLAYER-2
  0
POLYLINE
  8
MERGEDLAYER-2
 66
  1
 70
  0
 62
  0
 10
2.168415
 20
7.308599
 30
0.000000
  0
VERTEX
  8
MERGEDLAYER-2
 10
2.168415
 20
7.308599
 30
0.000000
  0
VERTEX
  8
MERGEDLAYER-2
 10
2.168410
 20
7.301567
 30
0.000000
  0
SEQEND
  8
MERGEDLAYER-2
  0
POLYLINE
  8
MERGEDLAYER-2
 66
  1
 70
  0
 62
  0
 10
2.165918
 20
7.299077
 30
0.000000
  0
VERTEX
  8
MERGEDLAYER-2
 10
2.165918
 20
7.299077
 30
0.000000
  0
VERTEX
  8
MERGEDLAYER-2
 10
2.168410
 20
7.301567
 30
0.000000
  0
SEQEND
  8
MERGEDLAYER-2
  0
POLYLINE
  8
MERGEDLAYER-2
 66
  1
 70
  0
 62
  0
 10
2.195485
 20
7.359818
 30
0.000000
  0
VERTEX
  8
MERGEDLAYER-2
 10
2.195485
 20
7.359818
 30
0.000000
  0
VERTEX
  8
MERGEDLAYER-2
 10
2.200171
 20
7.313099
 30
0.000000
  0
SEQEND
  8
MERGEDLAYER-2
  0
POLYLINE
  8
MERGEDLAYER-2
 66
  1
 70
  0
 62
  0
 10
2.197510
 20
7.305639
 30
0.000000
  0
VERTEX
  8
MERGEDLAYER-2
 10
2.197510
 20
7.305639
 30
0.000000
  0
VERTEX
  8
MERGEDLAYER-2
 10
2.196590
 20
7.308861
 30
0.000000
  0
VERTEX
  8
MERGEDLAYER-2
 10
2.197402
 20
7.310280
 30
0.000000
  0
VERTEX
  8
MERGEDLAYER-2
 10
2.197952
 20
7.311820
 30
0.000000
  0
VERTEX
  8
MERGEDLAYER-2
 10
2.198221
 20
7.313432
 30
0.000000
  0
VERTEX
  8
MERGEDLAYER-2
 10
2.198203
 20
7.315068
 30
0.000000
  0
VERTEX
  8
MERGEDLAYER-2
 10
2.200171
 20
7.313098
 30
0.000000
  0
SEQEND
  8
MERGEDLAYER-2
  0
POLYLINE
  8
MERGEDLAYER-2
 66
  1
 70
  0
 62
  0
 10
2.183416
 20
7.311549
 30
0.000000
  0
VERTEX
  8
MERGEDLAYER-2
 10
2.183416
 20
7.311549
 30
0.000000
  0
VERTEX
  8
MERGEDLAYER-2
 10
2.187589
 20
7.300676
 30
0.000000
  0
SEQEND
  8
MERGEDLAYER-2
  0
POLYLINE
  8
MERGEDLAYER-2
 66
  1
 70
  0
 62
  0
 10
2.191677
 20
7.299807
 30
0.000000
  0
VERTEX
  8
MERGEDLAYER-2
 10
2.191677
 20
7.299807
 30
0.000000
  0
VERTEX
  8
MERGEDLAYER-2
 10
2.197510
 20
7.305639
 30
0.000000
  0
SEQEND
  8
MERGEDLAYER-2
  0
POLYLINE
  8
MERGEDLAYER-2
 66
  1
 70
  0
 62
  0
 10
2.187589
 20
7.300676
 30
0.000000
  0
VERTEX
  8
MERGEDLAYER-2
 10
2.187589
 20
7.300676
 30
0.000000
  0
VERTEX
  8
MERGEDLAYER-2
 10
2.191677
 20
7.299807
 30
0.000000
  0
SEQEND
  8
MERGEDLAYER-2
  0
POLYLINE
  8
MERGEDLAYER-2
 66
  1
 70
  0
 62
  0
 10
2.150333
 20
7.308590
 30
0.000000
  0
VERTEX
  8
MERGEDLAYER-2
 10
2.150333
 20
7.308590
 30
0.000000
  0
VERTEX
  8
MERGEDLAYER-2
 10
2.159846
 20
7.299078
 30
0.000000
  0
SEQEND
  8
MERGEDLAYER-2
  0
POLYLINE
  8
MERGEDLAYER-2
 66
  1
 70
  0
 62
  0
 10
2.150333
 20
7.308590
 30
0.000000
  0
VERTEX
  8
MERGEDLAYER-2
 10
2.150333
 20
7.308590
 30
0.000000
  0
VERTEX
  8
MERGEDLAYER-2
 10
2.146535
 20
7.335887
 30
0.000000
  0
SEQEND
  8
MERGEDLAYER-2
  0
POLYLINE
  8
MERGEDLAYER-2
 66
  1
 70
  0
 62
  0
 10
2.152382
 20
7.341732
 30
0.000000
  0
VERTEX
  8
MERGEDLAYER-2
 10
2.152382
 20
7.341732
 30
0.000000
  0
VERTEX
  8
MERGEDLAYER-2
 10
2.145722
 20
7.348392
 30
0.000000
  0
SEQEND
  8
MERGEDLAYER-2
  0
POLYLINE
  8
MERGEDLAYER-2
 66
  1
 70
  0
 62
  0
 10
2.152382
 20
7.341732
 30
0.000000
  0
VERTEX
  8
MERGEDLAYER-2
 10
2.152382
 20
7.341732
 30
0.000000
  0
VERTEX
  8
MERGEDLAYER-2
 10
2.146535
 20
7.335887
 30
0.000000
  0
SEQEND
  8
MERGEDLAYER-2
  0
POLYLINE
  8
MERGEDLAYER-2
 66
  1
 70
  0
 62
  0
 10
2.145722
 20
7.348392
 30
0.000000
  0
VERTEX
  8
MERGEDLAYER-2
 10
2.145722
 20
7.348392
 30
0.000000
  0
VERTEX
  8
MERGEDLAYER-2
 10
2.145722
 20
7.371242
 30
0.000000
  0
SEQEND
  8
MERGEDLAYER-2
  0
POLYLINE
  8
MERGEDLAYER-2
 66
  1
 70
  0
 62
  0
 10
2.168415
 20
7.411035
 30
0.000000
  0
VERTEX
  8
MERGEDLAYER-2
 10
2.168415
 20
7.411035
 30
0.000000
  0
VERTEX
  8
MERGEDLAYER-2
 10
2.158326
 20
7.405402
 30
0.000000
  0
VERTEX
  8
MERGEDLAYER-2
 10
2.157959
 20
7.394285
 30
0.000000
  0
VERTEX
  8
MERGEDLAYER-2
 10
2.165560
 20
7.386164
 30
0.000000
  0
VERTEX
  8
MERGEDLAYER-2
 10
2.176677
 20
7.385797
 30
0.000000
  0
VERTEX
  8
MERGEDLAYER-2
 10
2.184798
 20
7.393399
 30
0.000000
  0
VERTEX
  8
MERGEDLAYER-2
 10
2.185165
 20
7.404516
 30
0.000000
  0
VERTEX
  8
MERGEDLAYER-2
 10
2.183416
 20
7.408086
 30
0.000000
  0
SEQEND
  8
MERGEDLAYER-2
  0
POLYLINE
  8
MERGEDLAYER-2
 66
  1
 70
  0
 62
  0
 10
2.165918
 20
7.420557
 30
0.000000
  0
VERTEX
  8
MERGEDLAYER-2
 10
2.165918
 20
7.420557
 30
0.000000
  0
VERTEX
  8
MERGEDLAYER-2
 10
2.159846
 20
7.420557
 30
0.000000
  0
SEQEND
  8
MERGEDLAYER-2
  0
POLYLINE
  8
MERGEDLAYER-2
 66
  1
 70
  0
 62
  0
 10
2.168415
 20
7.411035
 30
0.000000
  0
VERTEX
  8
MERGEDLAYER-2
 10
2.168415
 20
7.411035
 30
0.000000
  0
VERTEX
  8
MERGEDLAYER-2
 10
2.168410
 20
7.418067
 30
0.000000
  0
SEQEND
  8
MERGEDLAYER-2
  0
POLYLINE
  8
MERGEDLAYER-2
 66
  1
 70
  0
 62
  0
 10
2.168410
 20
7.418067
 30
0.000000
  0
VERTEX
  8
MERGEDLAYER-2
 10
2.168410
 20
7.418067
 30
0.000000
  0
VERTEX
  8
MERGEDLAYER-2
 10
2.165918
 20
7.420557
 30
0.000000
  0
SEQEND
  8
MERGEDLAYER-2
  0
POLYLINE
  8
MERGEDLAYER-2
 66
  1
 70
  0
 62
  0
 10
2.195485
 20
7.359818
 30
0.000000
  0
VERTEX
  8
MERGEDLAYER-2
 10
2.195485
 20
7.359818
 30
0.000000
  0
VERTEX
  8
MERGEDLAYER-2
 10
2.200171
 20
7.406535
 30
0.000000
  0
SEQEND
  8
MERGEDLAYER-2
  0
POLYLINE
  8
MERGEDLAYER-2
 66
  1
 70
  0
 62
  0
 10
2.200171
 20
7.406535
 30
0.000000
  0
VERTEX
  8
MERGEDLAYER-2
 10
2.200171
 20
7.406535
 30
0.000000
  0
VERTEX
  8
MERGEDLAYER-2
 10
2.198221
 20
7.410138
 30
0.000000
  0
VERTEX
  8
MERGEDLAYER-2
 10
2.197952
 20
7.411751
 30
0.000000
  0
VERTEX
  8
MERGEDLAYER-2
 10
2.197402
 20
7.413291
 30
0.000000
  0
VERTEX
  8
MERGEDLAYER-2
 10
2.196590
 20
7.414710
 30
0.000000
  0
VERTEX
  8
MERGEDLAYER-2
 10
2.195541
 20
7.415963
 30
0.000000
  0
VERTEX
  8
MERGEDLAYER-2
 10
2.197510
 20
7.413995
 30
0.000000
  0
SEQEND
  8
MERGEDLAYER-2
  0
POLYLINE
  8
MERGEDLAYER-2
 66
  1
 70
  0
 62
  0
 10
2.183416
 20
7.408086
 30
0.000000
  0
VERTEX
  8
MERGEDLAYER-2
 10
2.183416
 20
7.408086
 30
0.000000
  0
VERTEX
  8
MERGEDLAYER-2
 10
2.187589
 20
7.418959
 30
0.000000
  0
SEQEND
  8
MERGEDLAYER-2
  0
POLYLINE
  8
MERGEDLAYER-2
 66
  1
 70
  0
 62
  0
 10
2.191677
 20
7.419828
 30
0.000000
  0
VERTEX
  8
MERGEDLAYER-2
 10
2.191677
 20
7.419828
 30
0.000000
  0
VERTEX
  8
MERGEDLAYER-2
 10
2.197510
 20
7.413996
 30
0.000000
  0
SEQEND
  8
MERGEDLAYER-2
  0
POLYLINE
  8
MERGEDLAYER-2
 66
  1
 70
  0
 62
  0
 10
2.191677
 20
7.419827
 30
0.000000
  0
VERTEX
  8
MERGEDLAYER-2
 10
2.191677
 20
7.419827
 30
0.000000
  0
VERTEX
  8
MERGEDLAYER-2
 10
2.187589
 20
7.418958
 30
0.000000
  0
SEQEND
  8
MERGEDLAYER-2
  0
POLYLINE
  8
MERGEDLAYER-2
 66
  1
 70
  0
 62
  0
 10
2.150333
 20
7.411044
 30
0.000000
  0
VERTEX
  8
MERGEDLAYER-2
 10
2.150333
 20
7.411044
 30
0.000000
  0
VERTEX
  8
MERGEDLAYER-2
 10
2.159846
 20
7.420557
 30
0.000000
  0
SEQEND
  8
MERGEDLAYER-2
  0
POLYLINE
  8
MERGEDLAYER-2
 66
  1
 70
  0
 62
  0
 10
2.150333
 20
7.411044
 30
0.000000
  0
VERTEX
  8
MERGEDLAYER-2
 10
2.150333
 20
7.411044
 30
0.000000
  0
VERTEX
  8
MERGEDLAYER-2
 10
2.146535
 20
7.383748
 30
0.000000
  0
SEQEND
  8
MERGEDLAYER-2
  0
POLYLINE
  8
MERGEDLAYER-2
 66
  1
 70
  0
 62
  0
 10
2.152382
 20
7.377901
 30
0.000000
  0
VERTEX
  8
MERGEDLAYER-2
 10
2.152382
 20
7.377901
 30
0.000000
  0
VERTEX
  8
MERGEDLAYER-2
 10
2.145722
 20
7.371242
 30
0.000000
  0
SEQEND
  8
MERGEDLAYER-2
  0
POLYLINE
  8
MERGEDLAYER-2
 66
  1
 70
  0
 62
  0
 10
2.152382
 20
7.377901
 30
0.000000
  0
VERTEX
  8
MERGEDLAYER-2
 10
2.152382
 20
7.377901
 30
0.000000
  0
VERTEX
  8
MERGEDLAYER-2
 10
2.146535
 20
7.383748
 30
0.000000
  0
SEQEND
  8
MERGEDLAYER-2
  0
POLYLINE
  8
MERGEDLAYER-2
 66
  1
 70
  0
 62
  0
 10
6.315972
 20
5.401044
 30
0.000000
  0
VERTEX
  8
MERGEDLAYER-2
 10
6.315972
 20
5.401044
 30
0.000000
  0
VERTEX
  8
MERGEDLAYER-2
 10
6.553295
 20
5.250421
 30
0.000000
  0
SEQEND
  8
MERGEDLAYER-2
  0
POLYLINE
  8
MERGEDLAYER-2
 66
  1
 70
  1
 62
  0
  0
VERTEX
  8
MERGEDLAYER-2
 10
6.569915
 20
5.239872
 30
0.000000
  0
VERTEX
  8
MERGEDLAYER-2
 10
6.488956
 20
5.241906
 30
0.000000
  0
VERTEX
  8
MERGEDLAYER-2
 10
6.511283
 20
5.277085
 30
0.000000
  0
VERTEX
  8
MERGEDLAYER-2
 10
6.533610
 20
5.312265
 30
0.000000
  0
VERTEX
  8
MERGEDLAYER-2
 10
6.569915
 20
5.239872
 30
0.000000
  0
SEQEND
  8
MERGEDLAYER-2
  0
POLYLINE
  8
MERGEDLAYER-2
 66
  1
 70
  0
 62
  0
 10
2.905814
 20
0.456608
 30
0.000000
  0
VERTEX
  8
MERGEDLAYER-2
 10
2.905814
 20
0.456608
 30
0.000000
  0
VERTEX
  8
MERGEDLAYER-2
 10
2.905814
 20
0.366743
 30
0.000000
  0
SEQEND
  8
MERGEDLAYER-2
  0
POLYLINE
  8
MERGEDLAYER-2
 66
  1
 70
  0
 62
  0
 10
2.923372
 20
0.474165
 30
0.000000
  0
VERTEX
  8
MERGEDLAYER-2
 10
2.923372
 20
0.474165
 30
0.000000
  0
VERTEX
  8
MERGEDLAYER-2
 10
2.952270
 20
0.474165
 30
0.000000
  0
SEQEND
  8
MERGEDLAYER-2
  0
POLYLINE
  8
MERGEDLAYER-2
 66
  1
 70
  0
 62
  0
 10
2.969828
 20
0.456608
 30
0.000000
  0
VERTEX
  8
MERGEDLAYER-2
 10
2.969828
 20
0.456608
 30
0.000000
  0
VERTEX
  8
MERGEDLAYER-2
 10
2.962717
 20
0.470993
 30
0.000000
  0
VERTEX
  8
MERGEDLAYER-2
 10
2.952270
 20
0.474167
 30
0.000000
  0
SEQEND
  8
MERGEDLAYER-2
  0
POLYLINE
  8
MERGEDLAYER-2
 66
  1
 70
  0
 62
  0
 10
2.923372
 20
0.474167
 30
0.000000
  0
VERTEX
  8
MERGEDLAYER-2
 10
2.923372
 20
0.474167
 30
0.000000
  0
VERTEX
  8
MERGEDLAYER-2
 10
2.908988
 20
0.470993
 30
0.000000
  0
VERTEX
  8
MERGEDLAYER-2
 10
2.905814
 20
0.456608
 30
0.000000
  0
SEQEND
  8
MERGEDLAYER-2
  0
POLYLINE
  8
MERGEDLAYER-2
 66
  1
 70
  0
 62
  0
 10
2.969828
 20
0.433013
 30
0.000000
  0
VERTEX
  8
MERGEDLAYER-2
 10
2.969828
 20
0.433013
 30
0.000000
  0
VERTEX
  8
MERGEDLAYER-2
 10
2.969828
 20
0.456608
 30
0.000000
  0
SEQEND
  8
MERGEDLAYER-2
  0
POLYLINE
  8
MERGEDLAYER-2
 66
  1
 70
  0
 62
  0
 10
2.923372
 20
0.349188
 30
0.000000
  0
VERTEX
  8
MERGEDLAYER-2
 10
2.923372
 20
0.349188
 30
0.000000
  0
VERTEX
  8
MERGEDLAYER-2
 10
2.952270
 20
0.349188
 30
0.000000
  0
SEQEND
  8
MERGEDLAYER-2
  0
POLYLINE
  8
MERGEDLAYER-2
 66
  1
 70
  0
 62
  0
 10
2.905814
 20
0.366743
 30
0.000000
  0
VERTEX
  8
MERGEDLAYER-2
 10
2.905814
 20
0.366743
 30
0.000000
  0
VERTEX
  8
MERGEDLAYER-2
 10
2.908988
 20
0.356297
 30
0.000000
  0
VERTEX
  8
MERGEDLAYER-2
 10
2.923372
 20
0.349186
 30
0.000000
  0
SEQEND
  8
MERGEDLAYER-2
  0
POLYLINE
  8
MERGEDLAYER-2
 66
  1
 70
  0
 62
  0
 10
2.969828
 20
0.399117
 30
0.000000
  0
VERTEX
  8
MERGEDLAYER-2
 10
2.969828
 20
0.399117
 30
0.000000
  0
VERTEX
  8
MERGEDLAYER-2
 10
2.969828
 20
0.366743
 30
0.000000
  0
SEQEND
  8
MERGEDLAYER-2
  0
POLYLINE
  8
MERGEDLAYER-2
 66
  1
 70
  0
 62
  0
 10
2.952270
 20
0.349186
 30
0.000000
  0
VERTEX
  8
MERGEDLAYER-2
 10
2.952270
 20
0.349186
 30
0.000000
  0
VERTEX
  8
MERGEDLAYER-2
 10
2.962717
 20
0.356297
 30
0.000000
  0
VERTEX
  8
MERGEDLAYER-2
 10
2.969828
 20
0.366743
 30
0.000000
  0
SEQEND
  8
MERGEDLAYER-2
  0
POLYLINE
  8
MERGEDLAYER-2
 66
  1
 70
  0
 62
  0
 10
3.332575
 20
0.456608
 30
0.000000
  0
VERTEX
  8
MERGEDLAYER-2
 10
3.332575
 20
0.456608
 30
0.000000
  0
VERTEX
  8
MERGEDLAYER-2
 10
3.332575
 20
0.366743
 30
0.000000
  0
SEQEND
  8
MERGEDLAYER-2
  0
POLYLINE
  8
MERGEDLAYER-2
 66
  1
 70
  0
 62
  0
 10
3.332577
 20
0.456608
 30
0.000000
  0
VERTEX
  8
MERGEDLAYER-2
 10
3.332577
 20
0.456608
 30
0.000000
  0
VERTEX
  8
MERGEDLAYER-2
 10
3.325465
 20
0.470993
 30
0.000000
  0
VERTEX
  8
MERGEDLAYER-2
 10
3.315019
 20
0.474167
 30
0.000000
  0
SEQEND
  8
MERGEDLAYER-2
  0
POLYLINE
  8
MERGEDLAYER-2
 66
  1
 70
  0
 62
  0
 10
3.286121
 20
0.474165
 30
0.000000
  0
VERTEX
  8
MERGEDLAYER-2
 10
3.286121
 20
0.474165
 30
0.000000
  0
VERTEX
  8
MERGEDLAYER-2
 10
3.315019
 20
0.474165
 30
0.000000
  0
SEQEND
  8
MERGEDLAYER-2
  0
POLYLINE
  8
MERGEDLAYER-2
 66
  1
 70
  0
 62
  0
 10
3.286121
 20
0.474167
 30
0.000000
  0
VERTEX
  8
MERGEDLAYER-2
 10
3.286121
 20
0.474167
 30
0.000000
  0
VERTEX
  8
MERGEDLAYER-2
 10
3.271736
 20
0.470993
 30
0.000000
  0
VERTEX
  8
MERGEDLAYER-2
 10
3.268562
 20
0.456608
 30
0.000000
  0
SEQEND
  8
MERGEDLAYER-2
  0
POLYLINE
  8
MERGEDLAYER-2
 66
  1
 70
  0
 62
  0
 10
3.268562
 20
0.433013
 30
0.000000
  0
VERTEX
  8
MERGEDLAYER-2
 10
3.268562
 20
0.433013
 30
0.000000
  0
VERTEX
  8
MERGEDLAYER-2
 10
3.268562
 20
0.456608
 30
0.000000
  0
SEQEND
  8
MERGEDLAYER-2
  0
POLYLINE
  8
MERGEDLAYER-2
 66
  1
 70
  0
 62
  0
 10
3.315019
 20
0.349188
 30
0.000000
  0
VERTEX
  8
MERGEDLAYER-2
 10
3.315019
 20
0.349188
 30
0.000000
  0
VERTEX
  8
MERGEDLAYER-2
 10
3.286121
 20
0.349188
 30
0.000000
  0
SEQEND
  8
MERGEDLAYER-2
  0
POLYLINE
  8
MERGEDLAYER-2
 66
  1
 70
  0
 62
  0
 10
3.315019
 20
0.349186
 30
0.000000
  0
VERTEX
  8
MERGEDLAYER-2
 10
3.315019
 20
0.349186
 30
0.000000
  0
VERTEX
  8
MERGEDLAYER-2
 10
3.325465
 20
0.356297
 30
0.000000
  0
VERTEX
  8
MERGEDLAYER-2
 10
3.332577
 20
0.366743
 30
0.000000
  0
SEQEND
  8
MERGEDLAYER-2
  0
POLYLINE
  8
MERGEDLAYER-2
 66
  1
 70
  0
 62
  0
 10
3.268562
 20
0.399117
 30
0.000000
  0
VERTEX
  8
MERGEDLAYER-2
 10
3.268562
 20
0.399117
 30
0.000000
  0
VERTEX
  8
MERGEDLAYER-2
 10
3.268562
 20
0.366743
 30
0.000000
  0
SEQEND
  8
MERGEDLAYER-2
  0
POLYLINE
  8
MERGEDLAYER-2
 66
  1
 70
  0
 62
  0
 10
3.268562
 20
0.366743
 30
0.000000
  0
VERTEX
  8
MERGEDLAYER-2
 10
3.268562
 20
0.366743
 30
0.000000
  0
VERTEX
  8
MERGEDLAYER-2
 10
3.271736
 20
0.356297
 30
0.000000
  0
VERTEX
  8
MERGEDLAYER-2
 10
3.286121
 20
0.349186
 30
0.000000
  0
SEQEND
  8
MERGEDLAYER-2
  0
POLYLINE
  8
MERGEDLAYER-2
 66
  1
 70
  0
 62
  0
 10
3.268562
 20
0.433016
 30
0.000000
  0
VERTEX
  8
MERGEDLAYER-2
 10
3.268562
 20
0.433016
 30
0.000000
  0
VERTEX
  8
MERGEDLAYER-2
 10
3.176800
 20
0.445249
 30
0.000000
  0
VERTEX
  8
MERGEDLAYER-2
 10
3.086433
 20
0.446663
 30
0.000000
  0
VERTEX
  8
MERGEDLAYER-2
 10
2.996363
 20
0.439212
 30
0.000000
  0
VERTEX
  8
MERGEDLAYER-2
 10
2.969828
 20
0.433016
 30
0.000000
  0
SEQEND
  8
MERGEDLAYER-2
  0
CIRCLE
  8
MERGEDLAYER-2
 62
  0
 10
2.937059
 20
0.440636
 30
0.000000
 40
0.005334
  0
CIRCLE
  8
MERGEDLAYER-2
 62
  0
 10
2.937059
 20
0.378144
 30
0.000000
 40
0.005334
  0
CIRCLE
  8
MERGEDLAYER-2
 62
  0
 10
3.299045
 20
0.440636
 30
0.000000
 40
0.004572
  0
CIRCLE
  8
MERGEDLAYER-2
 62
  0
 10
3.299045
 20
0.378144
 30
0.000000
 40
0.004572
  0
POLYLINE
  8
MERGEDLAYER-2
 66
  1
 70
  0
 62
  0
 10
2.969829
 20
0.399117
 30
0.000000
  0
VERTEX
  8
MERGEDLAYER-2
 10
2.969829
 20
0.399117
 30
0.000000
  0
VERTEX
  8
MERGEDLAYER-2
 10
3.057653
 20
0.390820
 30
0.000000
  0
VERTEX
  8
MERGEDLAYER-2
 10
3.148020
 20
0.389407
 30
0.000000
  0
VERTEX
  8
MERGEDLAYER-2
 10
3.238091
 20
0.396857
 30
0.000000
  0
VERTEX
  8
MERGEDLAYER-2
 10
3.268562
 20
0.399117
 30
0.000000
  0
SEQEND
  8
MERGEDLAYER-2
  0
POLYLINE
  8
MERGEDLAYER-2
 66
  1
 70
  1
 62
  0
  0
VERTEX
  8
MERGEDLAYER-2
 10
3.887860
 20
0.486763
 30
0.000000
  0
VERTEX
  8
MERGEDLAYER-2
 10
4.293329
 20
0.486763
 30
0.000000
  0
VERTEX
  8
MERGEDLAYER-2
 10
4.293329
 20
0.360200
 30
0.000000
  0
VERTEX
  8
MERGEDLAYER-2
 10
3.887860
 20
0.360200
 30
0.000000
  0
SEQEND
  8
MERGEDLAYER-2
  0
POLYLINE
  8
MERGEDLAYER-2
 66
  1
 70
  1
 62
  0
  0
VERTEX
  8
MERGEDLAYER-2
 10
3.900750
 20
0.467896
 30
0.000000
  0
VERTEX
  8
MERGEDLAYER-2
 10
3.916337
 20
0.467896
 30
0.000000
  0
VERTEX
  8
MERGEDLAYER-2
 10
3.916337
 20
0.434029
 30
0.000000
  0
VERTEX
  8
MERGEDLAYER-2
 10
3.900750
 20
0.434029
 30
0.000000
  0
SEQEND
  8
MERGEDLAYER-2
  0
POLYLINE
  8
MERGEDLAYER-2
 66
  1
 70
  1
 62
  0
  0
VERTEX
  8
MERGEDLAYER-2
 10
3.921610
 20
0.467896
 30
0.000000
  0
VERTEX
  8
MERGEDLAYER-2
 10
3.936962
 20
0.467896
 30
0.000000
  0
VERTEX
  8
MERGEDLAYER-2
 10
3.936962
 20
0.434029
 30
0.000000
  0
VERTEX
  8
MERGEDLAYER-2
 10
3.921610
 20
0.434029
 30
0.000000
  0
SEQEND
  8
MERGEDLAYER-2
  0
POLYLINE
  8
MERGEDLAYER-2
 66
  1
 70
  1
 62
  0
  0
VERTEX
  8
MERGEDLAYER-2
 10
3.941415
 20
0.467896
 30
0.000000
  0
VERTEX
  8
MERGEDLAYER-2
 10
3.956766
 20
0.467896
 30
0.000000
  0
VERTEX
  8
MERGEDLAYER-2
 10
3.956766
 20
0.434029
 30
0.000000
  0
VERTEX
  8
MERGEDLAYER-2
 10
3.941415
 20
0.434029
 30
0.000000
  0
SEQEND
  8
MERGEDLAYER-2
  0
POLYLINE
  8
MERGEDLAYER-2
 66
  1
 70
  1
 62
  0
  0
VERTEX
  8
MERGEDLAYER-2
 10
3.961806
 20
0.467896
 30
0.000000
  0
VERTEX
  8
MERGEDLAYER-2
 10
3.977157
 20
0.467896
 30
0.000000
  0
VERTEX
  8
MERGEDLAYER-2
 10
3.977157
 20
0.434029
 30
0.000000
  0
VERTEX
  8
MERGEDLAYER-2
 10
3.961806
 20
0.434029
 30
0.000000
  0
SEQEND
  8
MERGEDLAYER-2
  0
POLYLINE
  8
MERGEDLAYER-2
 66
  1
 70
  1
 62
  0
  0
VERTEX
  8
MERGEDLAYER-2
 10
3.982664
 20
0.458638
 30
0.000000
  0
VERTEX
  8
MERGEDLAYER-2
 10
3.982664
 20
0.467427
 30
0.000000
  0
VERTEX
  8
MERGEDLAYER-2
 10
4.007626
 20
0.467427
 30
0.000000
  0
VERTEX
  8
MERGEDLAYER-2
 10
4.007626
 20
0.458638
 30
0.000000
  0
SEQEND
  8
MERGEDLAYER-2
  0
POLYLINE
  8
MERGEDLAYER-2
 66
  1
 70
  1
 62
  0
  0
VERTEX
  8
MERGEDLAYER-2
 10
3.982665
 20
0.443754
 30
0.000000
  0
VERTEX
  8
MERGEDLAYER-2
 10
3.982665
 20
0.452543
 30
0.000000
  0
VERTEX
  8
MERGEDLAYER-2
 10
4.003056
 20
0.452543
 30
0.000000
  0
VERTEX
  8
MERGEDLAYER-2
 10
4.003056
 20
0.443754
 30
0.000000
  0
SEQEND
  8
MERGEDLAYER-2
  0
POLYLINE
  8
MERGEDLAYER-2
 66
  1
 70
  0
 62
  0
 10
3.900750
 20
0.423481
 30
0.000000
  0
VERTEX
  8
MERGEDLAYER-2
 10
3.900750
 20
0.423481
 30
0.000000
  0
VERTEX
  8
MERGEDLAYER-2
 10
4.287998
 20
0.423364
 30
0.000000
  0
SEQEND
  8
MERGEDLAYER-2
  0
TEXT
  8
MERGEDLAYER-2
 62
  0
 10
4.083333
 20
0.444445
 30
0.000000
 40
0.020833
  1
mobilflex.com
 72
  5
 11
4.361111
 21
0.444445
 31
0.000000
  0
TEXT
  8
MERGEDLAYER-2
 62
  0
 10
3.902778
 20
0.375001
 30
0.000000
 40
0.041667
  1
MobilFlex
 72
  5
 11
4.194444
 21
0.375001
 31
0.000000
  0
TEXT
  8
MERGEDLAYER-2
 62
  0
 10
2.513889
 20
0.083334
 30
0.000000
 40
0.125000
  1
Poign仔
 72
  5
 11
3.222222
 21
0.083334
 31
0.000000
  0
TEXT
  8
MERGEDLAYER-2
 62
  0
 10
3.972222
 20
0.083334
 30
0.000000
 40
0.125000
  1
Cylindre
 72
  5
 11
4.666667
 21
0.083334
 31
0.000000
  0
POLYLINE
  8
MERGEDLAYER-2
 66
  1
 70
  0
 62
  0
 10
3.946181
 20
0.142362
 30
0.000000
  0
VERTEX
  8
MERGEDLAYER-2
 10
3.946181
 20
0.142362
 30
0.000000
  0
VERTEX
  8
MERGEDLAYER-2
 10
3.791686
 20
0.338698
 30
0.000000
  0
SEQEND
  8
MERGEDLAYER-2
  0
POLYLINE
  8
MERGEDLAYER-2
 66
  1
 70
  1
 62
  0
  0
VERTEX
  8
MERGEDLAYER-2
 10
3.779513
 20
0.354168
 30
0.000000
  0
VERTEX
  8
MERGEDLAYER-2
 10
3.855202
 20
0.325360
 30
0.000000
  0
VERTEX
  8
MERGEDLAYER-2
 10
3.822458
 20
0.299594
 30
0.000000
  0
VERTEX
  8
MERGEDLAYER-2
 10
3.789713
 20
0.273827
 30
0.000000
  0
VERTEX
  8
MERGEDLAYER-2
 10
3.779513
 20
0.354168
 30
0.000000
  0
SEQEND
  8
MERGEDLAYER-2
  0
POLYLINE
  8
MERGEDLAYER-2
 66
  1
 70
  0
 62
  0
 10
2.371528
 20
6.809028
 30
0.000000
  0
VERTEX
  8
MERGEDLAYER-2
 10
2.371528
 20
6.809028
 30
0.000000
  0
VERTEX
  8
MERGEDLAYER-2
 10
2.371528
 20
6.437500
 30
0.000000
  0
SEQEND
  8
MERGEDLAYER-2
  0
LINE
  8
MERGEDLAYER-2
 62
  0
 10
2.400991
 20
6.779566
 30
0.000000
 11
2.342066
 21
6.838491
 31
0.000000
  0
LINE
  8
MERGEDLAYER-2
 62
  0
 10
2.400991
 20
6.408038
 30
0.000000
 11
2.342066
 21
6.466963
 31
0.000000
  0
POLYLINE
  8
MERGEDLAYER-2
 66
  1
 70
  0
 62
  0
 10
2.371528
 20
6.437500
 30
0.000000
  0
VERTEX
  8
MERGEDLAYER-2
 10
2.371528
 20
6.437500
 30
0.000000
  0
VERTEX
  8
MERGEDLAYER-2
 10
2.371528
 20
6.090279
 30
0.000000
  0
SEQEND
  8
MERGEDLAYER-2
  0
POLYLINE
  8
MERGEDLAYER-2
 66
  1
 70
  0
 62
  0
 10
2.447917
 20
6.809028
 30
0.000000
  0
VERTEX
  8
MERGEDLAYER-2
 10
2.447917
 20
6.809028
 30
0.000000
  0
VERTEX
  8
MERGEDLAYER-2
 10
2.260417
 20
6.809028
 30
0.000000
  0
SEQEND
  8
MERGEDLAYER-2
  0
POLYLINE
  8
MERGEDLAYER-2
 66
  1
 70
  0
 62
  0
 10
2.447917
 20
6.437500
 30
0.000000
  0
VERTEX
  8
MERGEDLAYER-2
 10
2.447917
 20
6.437500
 30
0.000000
  0
VERTEX
  8
MERGEDLAYER-2
 10
2.260417
 20
6.437500
 30
0.000000
  0
SEQEND
  8
MERGEDLAYER-2
  0
TEXT
  8
MERGEDLAYER-2
 62
  0
 10
1.819444
 20
8.527779
 30
0.000000
 40
0.125000
  1
VOLET ROULANT (OPAQUE)
 72
  5
 11
4.097222
 21
8.527779
 31
0.000000
  0
ENDSEC
  0
EOF
