  0
SECTION
  2
HEADER
999
MacDraft 5.0\0
  9
$ACADVER
  1
AC1006
  9
$CLAYER
  8
MERGEDLAYER-2
  9
$EXTMIN
 10
0.000000
 20
0.000000
  9
$EXTMAX
 10
7.555556
 20
10.064138
  9
$FASTZOOM
 70
0
  9
$FILLMODE
 70
1
  0
ENDSEC
  0
SECTION
  2
TABLES
  0
TABLE
  2
LTYPE
 70
16
  0
LTYPE
  2
CONTINUOUS
 70
64
  3
Solid Line
 72
65
 73
0
 40
0.000000
  0
LTYPE
  2
LTYPE01
 70
64
  3
CUSTOM
 72
65
 73
2
 40
0.111111
 49
0.083333
 49
-0.027778
  0
LTYPE
  2
LTYPE02
 70
64
  3
CUSTOM
 72
65
 73
2
 40
0.194444
 49
0.166667
 49
-0.027778
  0
LTYPE
  2
LTYPE03
 70
64
  3
CUSTOM
 72
65
 73
2
 40
0.375000
 49
0.333333
 49
-0.041667
  0
LTYPE
  2
LTYPE04
 70
64
  3
CUSTOM
 72
65
 73
2
 40
0.722222
 49
0.666667
 49
-0.055556
  0
LTYPE
  2
LTYPE05
 70
64
  3
CUSTOM
 72
65
 73
4
 40
0.152778
 49
0.083333
 49
-0.027778
 49
0.013889
 49
-0.027778
  0
LTYPE
  2
LTYPE06
 70
64
  3
CUSTOM
 72
65
 73
4
 40
0.236111
 49
0.166667
 49
-0.027778
 49
0.013889
 49
-0.027778
  0
LTYPE
  2
LTYPE07
 70
64
  3
CUSTOM
 72
65
 73
4
 40
0.444444
 49
0.333333
 49
-0.041667
 49
0.027778
 49
-0.041667
  0
LTYPE
  2
LTYPE08
 70
64
  3
CUSTOM
 72
65
 73
4
 40
0.805556
 49
0.666667
 49
-0.055556
 49
0.027778
 49
-0.055556
  0
LTYPE
  2
LTYPE09
 70
64
  3
CUSTOM
 72
65
 73
6
 40
0.194444
 49
0.083333
 49
-0.027778
 49
0.013889
 49
-0.027778
 49
0.013889
 49
-0.027778
  0
LTYPE
  2
LTYPE10
 70
64
  3
CUSTOM
 72
65
 73
6
 40
0.277778
 49
0.166667
 49
-0.027778
 49
0.013889
 49
-0.027778
 49
0.013889
 49
-0.027778
  0
LTYPE
  2
LTYPE11
 70
64
  3
CUSTOM
 72
65
 73
6
 40
0.500000
 49
0.333333
 49
-0.041667
 49
0.027778
 49
-0.027778
 49
0.027778
 49
-0.041667
  0
LTYPE
  2
LTYPE12
 70
64
  3
CUSTOM
 72
65
 73
6
 40
0.861111
 49
0.666667
 49
-0.055556
 49
0.027778
 49
-0.027778
 49
0.027778
 49
-0.055556
  0
LTYPE
  2
LTYPE13
 70
64
  3
CUSTOM
 72
65
 73
8
 40
0.319444
 49
0.166667
 49
-0.027778
 49
0.013889
 49
-0.027778
 49
0.013889
 49
-0.027778
 49
0.013889
 49
-0.027778
  0
LTYPE
  2
LTYPE14
 70
64
  3
CUSTOM
 72
65
 73
8
 40
0.555556
 49
0.333333
 49
-0.041667
 49
0.027778
 49
-0.027778
 49
0.027778
 49
-0.027778
 49
0.027778
 49
-0.041667
  0
LTYPE
  2
LTYPE15
 70
64
  3
CUSTOM
 72
65
 73
8
 40
0.944444
 49
0.666667
 49
-0.055556
 49
0.027778
 49
-0.041667
 49
0.027778
 49
-0.041667
 49
0.027778
 49
-0.055556
  0
ENDTAB
  0
TABLE
  2
LAYER
 70
1
  0
LAYER
  2
MERGEDLAYER-2
 70
0
 62
7
  6
CONTINUOUS
  0
ENDTAB
  0
ENDSEC
  0
SECTION
  2
BLOCKS
  0
ENDSEC
  0
SECTION
  2
ENTITIES
  0
ARC
  8
MERGEDLAYER-2
 62
  0
 10
5.493281
 20
8.993451
 30
0.000000
 40
0.254425
 50
270.000000
 51
90.000000
  0
POLYLINE
  8
MERGEDLAYER-2
 66
  1
 70
  0
 62
  0
 10
5.493281
 20
9.247877
 30
0.000000
  0
VERTEX
  8
MERGEDLAYER-2
 10
5.493281
 20
9.247877
 30
0.000000
  0
VERTEX
  8
MERGEDLAYER-2
 10
1.828359
 20
9.247877
 30
0.000000
  0
SEQEND
  8
MERGEDLAYER-2
  0
POLYLINE
  8
MERGEDLAYER-2
 66
  1
 70
  0
 62
  0
 10
1.828359
 20
9.247877
 30
0.000000
  0
VERTEX
  8
MERGEDLAYER-2
 10
1.828359
 20
9.247877
 30
0.000000
  0
VERTEX
  8
MERGEDLAYER-2
 10
1.828359
 20
8.739027
 30
0.000000
  0
SEQEND
  8
MERGEDLAYER-2
  0
POLYLINE
  8
MERGEDLAYER-2
 66
  1
 70
  0
 62
  0
 10
5.493281
 20
8.739027
 30
0.000000
  0
VERTEX
  8
MERGEDLAYER-2
 10
5.493281
 20
8.739027
 30
0.000000
  0
VERTEX
  8
MERGEDLAYER-2
 10
1.828359
 20
8.739027
 30
0.000000
  0
SEQEND
  8
MERGEDLAYER-2
  0
TEXT
  8
MERGEDLAYER-2
 62
  0
 10
3.638889
 20
9.542497
 30
0.000000
 40
0.333333
  1
MobilFlex
 72
  5
 11
5.791667
 21
9.542497
 31
0.000000
  0
POLYLINE
  8
MERGEDLAYER-2
 66
  1
 70
  1
 62
  0
  0
VERTEX
  8
MERGEDLAYER-2
 10
1.829862
 20
10.062471
 30
0.000000
  0
VERTEX
  8
MERGEDLAYER-2
 10
2.067709
 20
10.062471
 30
0.000000
  0
VERTEX
  8
MERGEDLAYER-2
 10
2.067709
 20
9.545526
 30
0.000000
  0
VERTEX
  8
MERGEDLAYER-2
 10
1.829862
 20
9.545526
 30
0.000000
  0
SEQEND
  8
MERGEDLAYER-2
  0
POLYLINE
  8
MERGEDLAYER-2
 66
  1
 70
  1
 62
  0
  0
VERTEX
  8
MERGEDLAYER-2
 10
2.142362
 20
10.062471
 30
0.000000
  0
VERTEX
  8
MERGEDLAYER-2
 10
2.380209
 20
10.062471
 30
0.000000
  0
VERTEX
  8
MERGEDLAYER-2
 10
2.380209
 20
9.545526
 30
0.000000
  0
VERTEX
  8
MERGEDLAYER-2
 10
2.142362
 20
9.545526
 30
0.000000
  0
SEQEND
  8
MERGEDLAYER-2
  0
POLYLINE
  8
MERGEDLAYER-2
 66
  1
 70
  1
 62
  0
  0
VERTEX
  8
MERGEDLAYER-2
 10
2.442709
 20
10.062471
 30
0.000000
  0
VERTEX
  8
MERGEDLAYER-2
 10
2.680557
 20
10.062471
 30
0.000000
  0
VERTEX
  8
MERGEDLAYER-2
 10
2.680557
 20
9.545526
 30
0.000000
  0
VERTEX
  8
MERGEDLAYER-2
 10
2.442709
 20
9.545526
 30
0.000000
  0
SEQEND
  8
MERGEDLAYER-2
  0
POLYLINE
  8
MERGEDLAYER-2
 66
  1
 70
  1
 62
  0
  0
VERTEX
  8
MERGEDLAYER-2
 10
2.746529
 20
10.062471
 30
0.000000
  0
VERTEX
  8
MERGEDLAYER-2
 10
2.984376
 20
10.062471
 30
0.000000
  0
VERTEX
  8
MERGEDLAYER-2
 10
2.984376
 20
9.545526
 30
0.000000
  0
VERTEX
  8
MERGEDLAYER-2
 10
2.746529
 20
9.545526
 30
0.000000
  0
SEQEND
  8
MERGEDLAYER-2
  0
POLYLINE
  8
MERGEDLAYER-2
 66
  1
 70
  1
 62
  0
  0
VERTEX
  8
MERGEDLAYER-2
 10
3.063369
 20
10.058556
 30
0.000000
  0
VERTEX
  8
MERGEDLAYER-2
 10
3.438803
 20
10.058556
 30
0.000000
  0
VERTEX
  8
MERGEDLAYER-2
 10
3.438803
 20
9.920535
 30
0.000000
  0
VERTEX
  8
MERGEDLAYER-2
 10
3.063369
 20
9.920535
 30
0.000000
  0
SEQEND
  8
MERGEDLAYER-2
  0
POLYLINE
  8
MERGEDLAYER-2
 66
  1
 70
  1
 62
  0
  0
VERTEX
  8
MERGEDLAYER-2
 10
3.062935
 20
9.831125
 30
0.000000
  0
VERTEX
  8
MERGEDLAYER-2
 10
3.371095
 20
9.831125
 30
0.000000
  0
VERTEX
  8
MERGEDLAYER-2
 10
3.371095
 20
9.697010
 30
0.000000
  0
VERTEX
  8
MERGEDLAYER-2
 10
3.062935
 20
9.697010
 30
0.000000
  0
SEQEND
  8
MERGEDLAYER-2
  0
POLYLINE
  8
MERGEDLAYER-2
 66
  1
 70
  1
 62
  0
  0
VERTEX
  8
MERGEDLAYER-2
 10
1.829862
 20
9.460899
 30
0.000000
  0
VERTEX
  8
MERGEDLAYER-2
 10
5.748266
 20
9.460899
 30
0.000000
  0
VERTEX
  8
MERGEDLAYER-2
 10
5.748266
 20
9.417497
 30
0.000000
  0
VERTEX
  8
MERGEDLAYER-2
 10
1.829862
 20
9.417497
 30
0.000000
  0
SEQEND
  8
MERGEDLAYER-2
  0
POLYLINE
  8
MERGEDLAYER-2
 66
  1
 70
  0
 62
  0
 10
5.768738
 20
6.873990
 30
0.000000
  0
VERTEX
  8
MERGEDLAYER-2
 10
5.768738
 20
6.873990
 30
0.000000
  0
VERTEX
  8
MERGEDLAYER-2
 10
5.759121
 20
7.000907
 30
0.000000
  0
VERTEX
  8
MERGEDLAYER-2
 10
5.730363
 20
7.126602
 30
0.000000
  0
VERTEX
  8
MERGEDLAYER-2
 10
5.682741
 20
7.249864
 30
0.000000
  0
VERTEX
  8
MERGEDLAYER-2
 10
5.616714
 20
7.369505
 30
0.000000
  0
VERTEX
  8
MERGEDLAYER-2
 10
5.532917
 20
7.484376
 30
0.000000
  0
VERTEX
  8
MERGEDLAYER-2
 10
5.432157
 20
7.593368
 30
0.000000
  0
VERTEX
  8
MERGEDLAYER-2
 10
5.315406
 20
7.695431
 30
0.000000
  0
VERTEX
  8
MERGEDLAYER-2
 10
5.183786
 20
7.789584
 30
0.000000
  0
VERTEX
  8
MERGEDLAYER-2
 10
5.038567
 20
7.874919
 30
0.000000
  0
VERTEX
  8
MERGEDLAYER-2
 10
4.881145
 20
7.950614
 30
0.000000
  0
VERTEX
  8
MERGEDLAYER-2
 10
4.713039
 20
8.015941
 30
0.000000
  0
VERTEX
  8
MERGEDLAYER-2
 10
4.535865
 20
8.070271
 30
0.000000
  0
VERTEX
  8
MERGEDLAYER-2
 10
4.351331
 20
8.113079
 30
0.000000
  0
VERTEX
  8
MERGEDLAYER-2
 10
4.161213
 20
8.143955
 30
0.000000
  0
VERTEX
  8
MERGEDLAYER-2
 10
3.967344
 20
8.162599
 30
0.000000
  0
VERTEX
  8
MERGEDLAYER-2
 10
3.771589
 20
8.168835
 30
0.000000
  0
VERTEX
  8
MERGEDLAYER-2
 10
3.575834
 20
8.162599
 30
0.000000
  0
VERTEX
  8
MERGEDLAYER-2
 10
3.381964
 20
8.143955
 30
0.000000
  0
VERTEX
  8
MERGEDLAYER-2
 10
3.191847
 20
8.113079
 30
0.000000
  0
VERTEX
  8
MERGEDLAYER-2
 10
3.007313
 20
8.070271
 30
0.000000
  0
VERTEX
  8
MERGEDLAYER-2
 10
2.830139
 20
8.015941
 30
0.000000
  0
VERTEX
  8
MERGEDLAYER-2
 10
2.662032
 20
7.950614
 30
0.000000
  0
VERTEX
  8
MERGEDLAYER-2
 10
2.504611
 20
7.874919
 30
0.000000
  0
VERTEX
  8
MERGEDLAYER-2
 10
2.359392
 20
7.789584
 30
0.000000
  0
VERTEX
  8
MERGEDLAYER-2
 10
2.227772
 20
7.695431
 30
0.000000
  0
VERTEX
  8
MERGEDLAYER-2
 10
2.111021
 20
7.593368
 30
0.000000
  0
VERTEX
  8
MERGEDLAYER-2
 10
2.010261
 20
7.484376
 30
0.000000
  0
VERTEX
  8
MERGEDLAYER-2
 10
1.926464
 20
7.369505
 30
0.000000
  0
VERTEX
  8
MERGEDLAYER-2
 10
1.860437
 20
7.249864
 30
0.000000
  0
VERTEX
  8
MERGEDLAYER-2
 10
1.812815
 20
7.126602
 30
0.000000
  0
VERTEX
  8
MERGEDLAYER-2
 10
1.784057
 20
7.000907
 30
0.000000
  0
VERTEX
  8
MERGEDLAYER-2
 10
1.774440
 20
6.873990
 30
0.000000
  0
VERTEX
  8
MERGEDLAYER-2
 10
1.784057
 20
6.747073
 30
0.000000
  0
VERTEX
  8
MERGEDLAYER-2
 10
1.812815
 20
6.621378
 30
0.000000
  0
VERTEX
  8
MERGEDLAYER-2
 10
1.860437
 20
6.498116
 30
0.000000
  0
VERTEX
  8
MERGEDLAYER-2
 10
1.926464
 20
6.378474
 30
0.000000
  0
VERTEX
  8
MERGEDLAYER-2
 10
2.010261
 20
6.263604
 30
0.000000
  0
VERTEX
  8
MERGEDLAYER-2
 10
2.111021
 20
6.154613
 30
0.000000
  0
VERTEX
  8
MERGEDLAYER-2
 10
2.227772
 20
6.052549
 30
0.000000
  0
VERTEX
  8
MERGEDLAYER-2
 10
2.359392
 20
5.958396
 30
0.000000
  0
VERTEX
  8
MERGEDLAYER-2
 10
2.504611
 20
5.873061
 30
0.000000
  0
VERTEX
  8
MERGEDLAYER-2
 10
2.662032
 20
5.797366
 30
0.000000
  0
VERTEX
  8
MERGEDLAYER-2
 10
2.830139
 20
5.732038
 30
0.000000
  0
VERTEX
  8
MERGEDLAYER-2
 10
3.007313
 20
5.677709
 30
0.000000
  0
VERTEX
  8
MERGEDLAYER-2
 10
3.191847
 20
5.634900
 30
0.000000
  0
VERTEX
  8
MERGEDLAYER-2
 10
3.381964
 20
5.604025
 30
0.000000
  0
VERTEX
  8
MERGEDLAYER-2
 10
3.575834
 20
5.585380
 30
0.000000
  0
VERTEX
  8
MERGEDLAYER-2
 10
3.771589
 20
5.579145
 30
0.000000
  0
VERTEX
  8
MERGEDLAYER-2
 10
3.967344
 20
5.585380
 30
0.000000
  0
VERTEX
  8
MERGEDLAYER-2
 10
4.161213
 20
5.604025
 30
0.000000
  0
VERTEX
  8
MERGEDLAYER-2
 10
4.351331
 20
5.634900
 30
0.000000
  0
VERTEX
  8
MERGEDLAYER-2
 10
4.535865
 20
5.677709
 30
0.000000
  0
VERTEX
  8
MERGEDLAYER-2
 10
4.713039
 20
5.732038
 30
0.000000
  0
VERTEX
  8
MERGEDLAYER-2
 10
4.881145
 20
5.797366
 30
0.000000
  0
VERTEX
  8
MERGEDLAYER-2
 10
5.038567
 20
5.873061
 30
0.000000
  0
VERTEX
  8
MERGEDLAYER-2
 10
5.183786
 20
5.958396
 30
0.000000
  0
VERTEX
  8
MERGEDLAYER-2
 10
5.315406
 20
6.052549
 30
0.000000
  0
VERTEX
  8
MERGEDLAYER-2
 10
5.432157
 20
6.154613
 30
0.000000
  0
VERTEX
  8
MERGEDLAYER-2
 10
5.532917
 20
6.263604
 30
0.000000
  0
VERTEX
  8
MERGEDLAYER-2
 10
5.616714
 20
6.378474
 30
0.000000
  0
VERTEX
  8
MERGEDLAYER-2
 10
5.682741
 20
6.498116
 30
0.000000
  0
VERTEX
  8
MERGEDLAYER-2
 10
5.730363
 20
6.621378
 30
0.000000
  0
VERTEX
  8
MERGEDLAYER-2
 10
5.759121
 20
6.747073
 30
0.000000
  0
VERTEX
  8
MERGEDLAYER-2
 10
5.768738
 20
6.873990
 30
0.000000
  0
SEQEND
  8
MERGEDLAYER-2
  0
POLYLINE
  8
MERGEDLAYER-2
 66
  1
 70
  1
 62
  7
  0
VERTEX
  8
MERGEDLAYER-2
 10
2.135156
 20
7.308336
 30
0.000000
  0
VERTEX
  8
MERGEDLAYER-2
 10
5.566139
 20
7.308336
 30
0.000000
  0
VERTEX
  8
MERGEDLAYER-2
 10
5.566139
 20
6.482446
 30
0.000000
  0
VERTEX
  8
MERGEDLAYER-2
 10
2.135156
 20
6.482446
 30
0.000000
  0
SEQEND
  8
MERGEDLAYER-2
  0
POLYLINE
  8
MERGEDLAYER-2
 66
  1
 70
  1
 62
  0
  0
VERTEX
  8
MERGEDLAYER-2
 10
0.612405
 20
5.241277
 30
0.000000
  0
VERTEX
  8
MERGEDLAYER-2
 10
6.945153
 20
5.241277
 30
0.000000
  0
VERTEX
  8
MERGEDLAYER-2
 10
6.945153
 20
0.514720
 30
0.000000
  0
VERTEX
  8
MERGEDLAYER-2
 10
0.612405
 20
0.514720
 30
0.000000
  0
SEQEND
  8
MERGEDLAYER-2
  0
POLYLINE
  8
MERGEDLAYER-2
 66
  1
 70
  1
 62
  0
  0
VERTEX
  8
MERGEDLAYER-2
 10
0.614071
 20
0.684614
 30
0.000000
  0
VERTEX
  8
MERGEDLAYER-2
 10
6.943839
 20
0.684614
 30
0.000000
  0
VERTEX
  8
MERGEDLAYER-2
 10
6.943839
 20
0.635185
 30
0.000000
  0
VERTEX
  8
MERGEDLAYER-2
 10
0.614071
 20
0.635185
 30
0.000000
  0
SEQEND
  8
MERGEDLAYER-2
  0
POLYLINE
  8
MERGEDLAYER-2
 66
  1
 70
  0
 62
 15
 10
0.613583
 20
0.660553
 30
0.000000
  0
VERTEX
  8
MERGEDLAYER-2
 10
0.613583
 20
0.660553
 30
0.000000
  0
VERTEX
  8
MERGEDLAYER-2
 10
6.943185
 20
0.660553
 30
0.000000
  0
SEQEND
  8
MERGEDLAYER-2
  0
POLYLINE
  8
MERGEDLAYER-2
 66
  1
 70
  1
 62
  0
  0
VERTEX
  8
MERGEDLAYER-2
 10
0.627831
 20
0.514310
 30
0.000000
  0
VERTEX
  8
MERGEDLAYER-2
 10
6.928796
 20
0.514310
 30
0.000000
  0
VERTEX
  8
MERGEDLAYER-2
 10
6.928796
 20
0.278609
 30
0.000000
  0
VERTEX
  8
MERGEDLAYER-2
 10
0.627831
 20
0.278609
 30
0.000000
  0
SEQEND
  8
MERGEDLAYER-2
  0
POLYLINE
  8
MERGEDLAYER-2
 66
  1
 70
  0
 62
  0
 10
0.628890
 20
0.344256
 30
0.000000
  0
VERTEX
  8
MERGEDLAYER-2
 10
0.628890
 20
0.344256
 30
0.000000
  0
VERTEX
  8
MERGEDLAYER-2
 10
6.929299
 20
0.344256
 30
0.000000
  0
SEQEND
  8
MERGEDLAYER-2
  0
POLYLINE
  8
MERGEDLAYER-2
 66
  1
 70
  0
 62
  0
 10
0.628890
 20
0.322954
 30
0.000000
  0
VERTEX
  8
MERGEDLAYER-2
 10
0.628890
 20
0.322954
 30
0.000000
  0
VERTEX
  8
MERGEDLAYER-2
 10
6.929299
 20
0.322954
 30
0.000000
  0
SEQEND
  8
MERGEDLAYER-2
  0
POLYLINE
  8
MERGEDLAYER-2
 66
  1
 70
  0
 62
  0
 10
0.627831
 20
0.498967
 30
0.000000
  0
VERTEX
  8
MERGEDLAYER-2
 10
0.627831
 20
0.498967
 30
0.000000
  0
VERTEX
  8
MERGEDLAYER-2
 10
6.927951
 20
0.498967
 30
0.000000
  0
SEQEND
  8
MERGEDLAYER-2
  0
TEXT
  8
MERGEDLAYER-2
 62
  7
 10
2.041667
 20
8.861941
 30
0.000000
 40
0.187500
  1
âlÄvation modÅle Roll-Vision
 72
  5
 11
5.541667
 21
8.861941
 31
0.000000
  0
POLYLINE
  8
MERGEDLAYER-2
 66
  1
 70
  0
 62
  0
 10
3.665080
 20
0.407147
 30
0.000000
  0
VERTEX
  8
MERGEDLAYER-2
 10
3.665080
 20
0.407147
 30
0.000000
  0
VERTEX
  8
MERGEDLAYER-2
 10
3.657874
 20
0.424302
 30
0.000000
  0
VERTEX
  8
MERGEDLAYER-2
 10
3.637353
 20
0.438845
 30
0.000000
  0
VERTEX
  8
MERGEDLAYER-2
 10
3.606642
 20
0.448564
 30
0.000000
  0
VERTEX
  8
MERGEDLAYER-2
 10
3.570415
 20
0.451976
 30
0.000000
  0
VERTEX
  8
MERGEDLAYER-2
 10
3.534188
 20
0.448564
 30
0.000000
  0
VERTEX
  8
MERGEDLAYER-2
 10
3.503476
 20
0.438845
 30
0.000000
  0
VERTEX
  8
MERGEDLAYER-2
 10
3.482955
 20
0.424302
 30
0.000000
  0
VERTEX
  8
MERGEDLAYER-2
 10
3.475749
 20
0.407147
 30
0.000000
  0
VERTEX
  8
MERGEDLAYER-2
 10
3.482955
 20
0.389992
 30
0.000000
  0
VERTEX
  8
MERGEDLAYER-2
 10
3.503476
 20
0.375448
 30
0.000000
  0
VERTEX
  8
MERGEDLAYER-2
 10
3.534188
 20
0.365729
 30
0.000000
  0
VERTEX
  8
MERGEDLAYER-2
 10
3.570415
 20
0.362317
 30
0.000000
  0
VERTEX
  8
MERGEDLAYER-2
 10
3.606642
 20
0.365729
 30
0.000000
  0
VERTEX
  8
MERGEDLAYER-2
 10
3.637353
 20
0.375448
 30
0.000000
  0
VERTEX
  8
MERGEDLAYER-2
 10
3.657874
 20
0.389992
 30
0.000000
  0
VERTEX
  8
MERGEDLAYER-2
 10
3.665080
 20
0.407147
 30
0.000000
  0
SEQEND
  8
MERGEDLAYER-2
  0
POLYLINE
  8
MERGEDLAYER-2
 66
  1
 70
  0
 62
  0
 10
3.352217
 20
0.395184
 30
0.000000
  0
VERTEX
  8
MERGEDLAYER-2
 10
3.352217
 20
0.395184
 30
0.000000
  0
VERTEX
  8
MERGEDLAYER-2
 10
3.572611
 20
0.382423
 30
0.000000
  0
SEQEND
  8
MERGEDLAYER-2
  0
POLYLINE
  8
MERGEDLAYER-2
 66
  1
 70
  0
 62
  0
 10
3.352195
 20
0.415174
 30
0.000000
  0
VERTEX
  8
MERGEDLAYER-2
 10
3.352195
 20
0.415174
 30
0.000000
  0
VERTEX
  8
MERGEDLAYER-2
 10
3.340821
 20
0.406558
 30
0.000000
  0
VERTEX
  8
MERGEDLAYER-2
 10
3.352215
 20
0.395181
 30
0.000000
  0
SEQEND
  8
MERGEDLAYER-2
  0
POLYLINE
  8
MERGEDLAYER-2
 66
  1
 70
  0
 62
  0
 10
3.352193
 20
0.415175
 30
0.000000
  0
VERTEX
  8
MERGEDLAYER-2
 10
3.352193
 20
0.415175
 30
0.000000
  0
VERTEX
  8
MERGEDLAYER-2
 10
3.572383
 20
0.427933
 30
0.000000
  0
SEQEND
  8
MERGEDLAYER-2
  0
POLYLINE
  8
MERGEDLAYER-2
 66
  1
 70
  0
 62
  0
 10
3.572611
 20
0.382423
 30
0.000000
  0
VERTEX
  8
MERGEDLAYER-2
 10
3.572611
 20
0.382423
 30
0.000000
  0
VERTEX
  8
MERGEDLAYER-2
 10
3.586666
 20
0.391217
 30
0.000000
  0
VERTEX
  8
MERGEDLAYER-2
 10
3.593170
 20
0.407374
 30
0.000000
  0
VERTEX
  8
MERGEDLAYER-2
 10
3.586344
 20
0.423397
 30
0.000000
  0
VERTEX
  8
MERGEDLAYER-2
 10
3.572383
 20
0.427934
 30
0.000000
  0
SEQEND
  8
MERGEDLAYER-2
  0
POLYLINE
  8
MERGEDLAYER-2
 66
  1
 70
  1
 62
  0
  0
VERTEX
  8
MERGEDLAYER-2
 10
3.761987
 20
0.426848
 30
0.000000
  0
VERTEX
  8
MERGEDLAYER-2
 10
3.807703
 20
0.426848
 30
0.000000
  0
VERTEX
  8
MERGEDLAYER-2
 10
3.807703
 20
0.414655
 30
0.000000
  0
VERTEX
  8
MERGEDLAYER-2
 10
3.761987
 20
0.414655
 30
0.000000
  0
SEQEND
  8
MERGEDLAYER-2
  0
CIRCLE
  8
MERGEDLAYER-2
 62
  0
 10
3.776728
 20
0.421635
 30
0.000000
 40
0.064283
  0
CIRCLE
  8
MERGEDLAYER-2
 62
  7
 10
3.776487
 20
0.421635
 30
0.000000
 40
0.047124
  0
CIRCLE
  8
MERGEDLAYER-2
 62
  0
 10
3.776487
 20
0.421635
 30
0.000000
 40
0.042287
  0
CIRCLE
  8
MERGEDLAYER-2
 62
  0
 10
3.759691
 20
0.421635
 30
0.000000
 40
0.018794
  0
CIRCLE
  8
MERGEDLAYER-2
 62
  0
 10
3.751656
 20
0.421635
 30
0.000000
 40
0.008035
  0
TEXT
  8
MERGEDLAYER-2
 62
  0
 10
3.777778
 20
0.445274
 30
0.000000
 40
0.010417
  1
MobilFlex
 50
270.000000
 72
  5
 11
3.777778
 21
0.292497
 31
0.000000
  0
POLYLINE
  8
MERGEDLAYER-2
 66
  1
 70
  1
 62
  0
 10
3.741445
 20
0.425261
 30
0.000000
  0
VERTEX
  8
MERGEDLAYER-2
 10
3.741445
 20
0.425261
 30
0.000000
  0
VERTEX
  8
MERGEDLAYER-2
 10
3.750146
 20
0.425261
 30
0.000000
  0
VERTEX
  8
MERGEDLAYER-2
 10
3.750146
 20
0.421878
 30
0.000000
  0
VERTEX
  8
MERGEDLAYER-2
 10
3.753529
 20
0.421878
 30
0.000000
  0
VERTEX
  8
MERGEDLAYER-2
 10
3.757154
 20
0.425502
 30
0.000000
  0
VERTEX
  8
MERGEDLAYER-2
 10
3.759570
 20
0.425502
 30
0.000000
  0
VERTEX
  8
MERGEDLAYER-2
 10
3.766821
 20
0.423085
 30
0.000000
  0
VERTEX
  8
MERGEDLAYER-2
 10
3.766821
 20
0.419944
 30
0.000000
  0
VERTEX
  8
MERGEDLAYER-2
 10
3.761503
 20
0.420669
 30
0.000000
  0
VERTEX
  8
MERGEDLAYER-2
 10
3.759570
 20
0.420426
 30
0.000000
  0
VERTEX
  8
MERGEDLAYER-2
 10
3.759570
 20
0.418977
 30
0.000000
  0
VERTEX
  8
MERGEDLAYER-2
 10
3.747246
 20
0.418977
 30
0.000000
  0
VERTEX
  8
MERGEDLAYER-2
 10
3.746037
 20
0.421635
 30
0.000000
  0
VERTEX
  8
MERGEDLAYER-2
 10
3.743621
 20
0.421635
 30
0.000000
  0
VERTEX
  8
MERGEDLAYER-2
 10
3.743137
 20
0.418977
 30
0.000000
  0
VERTEX
  8
MERGEDLAYER-2
 10
3.741445
 20
0.418977
 30
0.000000
  0
SEQEND
  8
MERGEDLAYER-2
  0
POLYLINE
  8
MERGEDLAYER-2
 66
  1
 70
  0
 62
  0
 10
3.138889
 20
0.164026
 30
0.000000
  0
VERTEX
  8
MERGEDLAYER-2
 10
3.138889
 20
0.164026
 30
0.000000
  0
VERTEX
  8
MERGEDLAYER-2
 10
3.524462
 20
0.352992
 30
0.000000
  0
SEQEND
  8
MERGEDLAYER-2
  0
POLYLINE
  8
MERGEDLAYER-2
 66
  1
 70
  1
 62
  0
  0
VERTEX
  8
MERGEDLAYER-2
 10
3.542138
 20
0.361654
 30
0.000000
  0
VERTEX
  8
MERGEDLAYER-2
 10
3.498117
 20
0.293678
 30
0.000000
  0
VERTEX
  8
MERGEDLAYER-2
 10
3.479780
 20
0.331093
 30
0.000000
  0
VERTEX
  8
MERGEDLAYER-2
 10
3.461443
 20
0.368507
 30
0.000000
  0
VERTEX
  8
MERGEDLAYER-2
 10
3.542138
 20
0.361654
 30
0.000000
  0
SEQEND
  8
MERGEDLAYER-2
  0
POLYLINE
  8
MERGEDLAYER-2
 66
  1
 70
  0
 62
  0
 10
2.905814
 20
0.457437
 30
0.000000
  0
VERTEX
  8
MERGEDLAYER-2
 10
2.905814
 20
0.457437
 30
0.000000
  0
VERTEX
  8
MERGEDLAYER-2
 10
2.905814
 20
0.367572
 30
0.000000
  0
SEQEND
  8
MERGEDLAYER-2
  0
POLYLINE
  8
MERGEDLAYER-2
 66
  1
 70
  0
 62
  0
 10
2.923372
 20
0.474994
 30
0.000000
  0
VERTEX
  8
MERGEDLAYER-2
 10
2.923372
 20
0.474994
 30
0.000000
  0
VERTEX
  8
MERGEDLAYER-2
 10
2.952270
 20
0.474994
 30
0.000000
  0
SEQEND
  8
MERGEDLAYER-2
  0
POLYLINE
  8
MERGEDLAYER-2
 66
  1
 70
  0
 62
  0
 10
2.969828
 20
0.457437
 30
0.000000
  0
VERTEX
  8
MERGEDLAYER-2
 10
2.969828
 20
0.457437
 30
0.000000
  0
VERTEX
  8
MERGEDLAYER-2
 10
2.962717
 20
0.471822
 30
0.000000
  0
VERTEX
  8
MERGEDLAYER-2
 10
2.952270
 20
0.474996
 30
0.000000
  0
SEQEND
  8
MERGEDLAYER-2
  0
POLYLINE
  8
MERGEDLAYER-2
 66
  1
 70
  0
 62
  0
 10
2.923372
 20
0.474996
 30
0.000000
  0
VERTEX
  8
MERGEDLAYER-2
 10
2.923372
 20
0.474996
 30
0.000000
  0
VERTEX
  8
MERGEDLAYER-2
 10
2.908988
 20
0.471822
 30
0.000000
  0
VERTEX
  8
MERGEDLAYER-2
 10
2.905814
 20
0.457437
 30
0.000000
  0
SEQEND
  8
MERGEDLAYER-2
  0
POLYLINE
  8
MERGEDLAYER-2
 66
  1
 70
  0
 62
  0
 10
2.969828
 20
0.433842
 30
0.000000
  0
VERTEX
  8
MERGEDLAYER-2
 10
2.969828
 20
0.433842
 30
0.000000
  0
VERTEX
  8
MERGEDLAYER-2
 10
2.969828
 20
0.457437
 30
0.000000
  0
SEQEND
  8
MERGEDLAYER-2
  0
POLYLINE
  8
MERGEDLAYER-2
 66
  1
 70
  0
 62
  0
 10
2.923372
 20
0.350017
 30
0.000000
  0
VERTEX
  8
MERGEDLAYER-2
 10
2.923372
 20
0.350017
 30
0.000000
  0
VERTEX
  8
MERGEDLAYER-2
 10
2.952270
 20
0.350017
 30
0.000000
  0
SEQEND
  8
MERGEDLAYER-2
  0
POLYLINE
  8
MERGEDLAYER-2
 66
  1
 70
  0
 62
  0
 10
2.905814
 20
0.367572
 30
0.000000
  0
VERTEX
  8
MERGEDLAYER-2
 10
2.905814
 20
0.367572
 30
0.000000
  0
VERTEX
  8
MERGEDLAYER-2
 10
2.908988
 20
0.357126
 30
0.000000
  0
VERTEX
  8
MERGEDLAYER-2
 10
2.923372
 20
0.350015
 30
0.000000
  0
SEQEND
  8
MERGEDLAYER-2
  0
POLYLINE
  8
MERGEDLAYER-2
 66
  1
 70
  0
 62
  0
 10
2.969828
 20
0.399946
 30
0.000000
  0
VERTEX
  8
MERGEDLAYER-2
 10
2.969828
 20
0.399946
 30
0.000000
  0
VERTEX
  8
MERGEDLAYER-2
 10
2.969828
 20
0.367572
 30
0.000000
  0
SEQEND
  8
MERGEDLAYER-2
  0
POLYLINE
  8
MERGEDLAYER-2
 66
  1
 70
  0
 62
  0
 10
2.952270
 20
0.350015
 30
0.000000
  0
VERTEX
  8
MERGEDLAYER-2
 10
2.952270
 20
0.350015
 30
0.000000
  0
VERTEX
  8
MERGEDLAYER-2
 10
2.962717
 20
0.357126
 30
0.000000
  0
VERTEX
  8
MERGEDLAYER-2
 10
2.969828
 20
0.367572
 30
0.000000
  0
SEQEND
  8
MERGEDLAYER-2
  0
POLYLINE
  8
MERGEDLAYER-2
 66
  1
 70
  0
 62
  0
 10
3.332575
 20
0.457437
 30
0.000000
  0
VERTEX
  8
MERGEDLAYER-2
 10
3.332575
 20
0.457437
 30
0.000000
  0
VERTEX
  8
MERGEDLAYER-2
 10
3.332575
 20
0.367572
 30
0.000000
  0
SEQEND
  8
MERGEDLAYER-2
  0
POLYLINE
  8
MERGEDLAYER-2
 66
  1
 70
  0
 62
  0
 10
3.332577
 20
0.457437
 30
0.000000
  0
VERTEX
  8
MERGEDLAYER-2
 10
3.332577
 20
0.457437
 30
0.000000
  0
VERTEX
  8
MERGEDLAYER-2
 10
3.325465
 20
0.471822
 30
0.000000
  0
VERTEX
  8
MERGEDLAYER-2
 10
3.315019
 20
0.474996
 30
0.000000
  0
SEQEND
  8
MERGEDLAYER-2
  0
POLYLINE
  8
MERGEDLAYER-2
 66
  1
 70
  0
 62
  0
 10
3.286121
 20
0.474994
 30
0.000000
  0
VERTEX
  8
MERGEDLAYER-2
 10
3.286121
 20
0.474994
 30
0.000000
  0
VERTEX
  8
MERGEDLAYER-2
 10
3.315019
 20
0.474994
 30
0.000000
  0
SEQEND
  8
MERGEDLAYER-2
  0
POLYLINE
  8
MERGEDLAYER-2
 66
  1
 70
  0
 62
  0
 10
3.286121
 20
0.474996
 30
0.000000
  0
VERTEX
  8
MERGEDLAYER-2
 10
3.286121
 20
0.474996
 30
0.000000
  0
VERTEX
  8
MERGEDLAYER-2
 10
3.271736
 20
0.471822
 30
0.000000
  0
VERTEX
  8
MERGEDLAYER-2
 10
3.268562
 20
0.457437
 30
0.000000
  0
SEQEND
  8
MERGEDLAYER-2
  0
POLYLINE
  8
MERGEDLAYER-2
 66
  1
 70
  0
 62
  0
 10
3.268562
 20
0.433842
 30
0.000000
  0
VERTEX
  8
MERGEDLAYER-2
 10
3.268562
 20
0.433842
 30
0.000000
  0
VERTEX
  8
MERGEDLAYER-2
 10
3.268562
 20
0.457437
 30
0.000000
  0
SEQEND
  8
MERGEDLAYER-2
  0
POLYLINE
  8
MERGEDLAYER-2
 66
  1
 70
  0
 62
  0
 10
3.315019
 20
0.350017
 30
0.000000
  0
VERTEX
  8
MERGEDLAYER-2
 10
3.315019
 20
0.350017
 30
0.000000
  0
VERTEX
  8
MERGEDLAYER-2
 10
3.286121
 20
0.350017
 30
0.000000
  0
SEQEND
  8
MERGEDLAYER-2
  0
POLYLINE
  8
MERGEDLAYER-2
 66
  1
 70
  0
 62
  0
 10
3.315019
 20
0.350015
 30
0.000000
  0
VERTEX
  8
MERGEDLAYER-2
 10
3.315019
 20
0.350015
 30
0.000000
  0
VERTEX
  8
MERGEDLAYER-2
 10
3.325465
 20
0.357126
 30
0.000000
  0
VERTEX
  8
MERGEDLAYER-2
 10
3.332577
 20
0.367572
 30
0.000000
  0
SEQEND
  8
MERGEDLAYER-2
  0
POLYLINE
  8
MERGEDLAYER-2
 66
  1
 70
  0
 62
  0
 10
3.268562
 20
0.399946
 30
0.000000
  0
VERTEX
  8
MERGEDLAYER-2
 10
3.268562
 20
0.399946
 30
0.000000
  0
VERTEX
  8
MERGEDLAYER-2
 10
3.268562
 20
0.367572
 30
0.000000
  0
SEQEND
  8
MERGEDLAYER-2
  0
POLYLINE
  8
MERGEDLAYER-2
 66
  1
 70
  0
 62
  0
 10
3.268562
 20
0.367572
 30
0.000000
  0
VERTEX
  8
MERGEDLAYER-2
 10
3.268562
 20
0.367572
 30
0.000000
  0
VERTEX
  8
MERGEDLAYER-2
 10
3.271736
 20
0.357126
 30
0.000000
  0
VERTEX
  8
MERGEDLAYER-2
 10
3.286121
 20
0.350015
 30
0.000000
  0
SEQEND
  8
MERGEDLAYER-2
  0
POLYLINE
  8
MERGEDLAYER-2
 66
  1
 70
  0
 62
  0
 10
3.268562
 20
0.433845
 30
0.000000
  0
VERTEX
  8
MERGEDLAYER-2
 10
3.268562
 20
0.433845
 30
0.000000
  0
VERTEX
  8
MERGEDLAYER-2
 10
3.176800
 20
0.446078
 30
0.000000
  0
VERTEX
  8
MERGEDLAYER-2
 10
3.086433
 20
0.447492
 30
0.000000
  0
VERTEX
  8
MERGEDLAYER-2
 10
2.996363
 20
0.440041
 30
0.000000
  0
VERTEX
  8
MERGEDLAYER-2
 10
2.969828
 20
0.433845
 30
0.000000
  0
SEQEND
  8
MERGEDLAYER-2
  0
CIRCLE
  8
MERGEDLAYER-2
 62
  0
 10
2.937059
 20
0.441465
 30
0.000000
 40
0.005334
  0
CIRCLE
  8
MERGEDLAYER-2
 62
  0
 10
2.937059
 20
0.378973
 30
0.000000
 40
0.005334
  0
CIRCLE
  8
MERGEDLAYER-2
 62
  0
 10
3.299045
 20
0.441465
 30
0.000000
 40
0.004572
  0
CIRCLE
  8
MERGEDLAYER-2
 62
  0
 10
3.299045
 20
0.378973
 30
0.000000
 40
0.004572
  0
POLYLINE
  8
MERGEDLAYER-2
 66
  1
 70
  0
 62
  0
 10
2.969829
 20
0.399946
 30
0.000000
  0
VERTEX
  8
MERGEDLAYER-2
 10
2.969829
 20
0.399946
 30
0.000000
  0
VERTEX
  8
MERGEDLAYER-2
 10
3.057653
 20
0.391649
 30
0.000000
  0
VERTEX
  8
MERGEDLAYER-2
 10
3.148020
 20
0.390236
 30
0.000000
  0
VERTEX
  8
MERGEDLAYER-2
 10
3.238091
 20
0.397686
 30
0.000000
  0
VERTEX
  8
MERGEDLAYER-2
 10
3.268562
 20
0.399946
 30
0.000000
  0
SEQEND
  8
MERGEDLAYER-2
  0
POLYLINE
  8
MERGEDLAYER-2
 66
  1
 70
  1
 62
  0
  0
VERTEX
  8
MERGEDLAYER-2
 10
3.887860
 20
0.487592
 30
0.000000
  0
VERTEX
  8
MERGEDLAYER-2
 10
4.293329
 20
0.487592
 30
0.000000
  0
VERTEX
  8
MERGEDLAYER-2
 10
4.293329
 20
0.361029
 30
0.000000
  0
VERTEX
  8
MERGEDLAYER-2
 10
3.887860
 20
0.361029
 30
0.000000
  0
SEQEND
  8
MERGEDLAYER-2
  0
POLYLINE
  8
MERGEDLAYER-2
 66
  1
 70
  1
 62
  0
  0
VERTEX
  8
MERGEDLAYER-2
 10
3.900750
 20
0.468725
 30
0.000000
  0
VERTEX
  8
MERGEDLAYER-2
 10
3.916337
 20
0.468725
 30
0.000000
  0
VERTEX
  8
MERGEDLAYER-2
 10
3.916337
 20
0.434858
 30
0.000000
  0
VERTEX
  8
MERGEDLAYER-2
 10
3.900750
 20
0.434858
 30
0.000000
  0
SEQEND
  8
MERGEDLAYER-2
  0
POLYLINE
  8
MERGEDLAYER-2
 66
  1
 70
  1
 62
  0
  0
VERTEX
  8
MERGEDLAYER-2
 10
3.921610
 20
0.468725
 30
0.000000
  0
VERTEX
  8
MERGEDLAYER-2
 10
3.936962
 20
0.468725
 30
0.000000
  0
VERTEX
  8
MERGEDLAYER-2
 10
3.936962
 20
0.434858
 30
0.000000
  0
VERTEX
  8
MERGEDLAYER-2
 10
3.921610
 20
0.434858
 30
0.000000
  0
SEQEND
  8
MERGEDLAYER-2
  0
POLYLINE
  8
MERGEDLAYER-2
 66
  1
 70
  1
 62
  0
  0
VERTEX
  8
MERGEDLAYER-2
 10
3.941415
 20
0.468725
 30
0.000000
  0
VERTEX
  8
MERGEDLAYER-2
 10
3.956766
 20
0.468725
 30
0.000000
  0
VERTEX
  8
MERGEDLAYER-2
 10
3.956766
 20
0.434858
 30
0.000000
  0
VERTEX
  8
MERGEDLAYER-2
 10
3.941415
 20
0.434858
 30
0.000000
  0
SEQEND
  8
MERGEDLAYER-2
  0
POLYLINE
  8
MERGEDLAYER-2
 66
  1
 70
  1
 62
  0
  0
VERTEX
  8
MERGEDLAYER-2
 10
3.961806
 20
0.468725
 30
0.000000
  0
VERTEX
  8
MERGEDLAYER-2
 10
3.977157
 20
0.468725
 30
0.000000
  0
VERTEX
  8
MERGEDLAYER-2
 10
3.977157
 20
0.434858
 30
0.000000
  0
VERTEX
  8
MERGEDLAYER-2
 10
3.961806
 20
0.434858
 30
0.000000
  0
SEQEND
  8
MERGEDLAYER-2
  0
POLYLINE
  8
MERGEDLAYER-2
 66
  1
 70
  1
 62
  0
  0
VERTEX
  8
MERGEDLAYER-2
 10
3.982664
 20
0.459467
 30
0.000000
  0
VERTEX
  8
MERGEDLAYER-2
 10
3.982664
 20
0.468256
 30
0.000000
  0
VERTEX
  8
MERGEDLAYER-2
 10
4.007626
 20
0.468256
 30
0.000000
  0
VERTEX
  8
MERGEDLAYER-2
 10
4.007626
 20
0.459467
 30
0.000000
  0
SEQEND
  8
MERGEDLAYER-2
  0
POLYLINE
  8
MERGEDLAYER-2
 66
  1
 70
  1
 62
  0
  0
VERTEX
  8
MERGEDLAYER-2
 10
3.982665
 20
0.444583
 30
0.000000
  0
VERTEX
  8
MERGEDLAYER-2
 10
3.982665
 20
0.453373
 30
0.000000
  0
VERTEX
  8
MERGEDLAYER-2
 10
4.003056
 20
0.453373
 30
0.000000
  0
VERTEX
  8
MERGEDLAYER-2
 10
4.003056
 20
0.444583
 30
0.000000
  0
SEQEND
  8
MERGEDLAYER-2
  0
POLYLINE
  8
MERGEDLAYER-2
 66
  1
 70
  0
 62
  0
 10
3.900750
 20
0.424310
 30
0.000000
  0
VERTEX
  8
MERGEDLAYER-2
 10
3.900750
 20
0.424310
 30
0.000000
  0
VERTEX
  8
MERGEDLAYER-2
 10
4.287998
 20
0.424193
 30
0.000000
  0
SEQEND
  8
MERGEDLAYER-2
  0
TEXT
  8
MERGEDLAYER-2
 62
  0
 10
4.083333
 20
0.445274
 30
0.000000
 40
0.020833
  1
mobilflex.com
 72
  5
 11
4.361111
 21
0.445274
 31
0.000000
  0
TEXT
  8
MERGEDLAYER-2
 62
  0
 10
3.902778
 20
0.375830
 30
0.000000
 40
0.041667
  1
MobilFlex
 72
  5
 11
4.194444
 21
0.375830
 31
0.000000
  0
POLYLINE
  8
MERGEDLAYER-2
 66
  1
 70
  0
 62
  0
 40
0.027778
 41
0.027778
 10
0.027778
 20
0.278612
 30
0.000000
  0
VERTEX
  8
MERGEDLAYER-2
 10
0.027778
 20
0.278612
 30
0.000000
  0
VERTEX
  8
MERGEDLAYER-2
 10
7.527778
 20
0.278612
 30
0.000000
  0
SEQEND
  8
MERGEDLAYER-2
  0
TEXT
  8
MERGEDLAYER-2
 62
  0
 10
6.194444
 20
5.348052
 30
0.000000
 40
0.125000
  1
Guide
 72
  5
 11
6.722222
 21
5.348052
 31
0.000000
  0
POLYLINE
  8
MERGEDLAYER-2
 66
  1
 70
  1
 62
  0
  0
VERTEX
  8
MERGEDLAYER-2
 10
6.942312
 20
5.240701
 30
0.000000
  0
VERTEX
  8
MERGEDLAYER-2
 10
7.104195
 20
5.240701
 30
0.000000
  0
VERTEX
  8
MERGEDLAYER-2
 10
7.104195
 20
0.279847
 30
0.000000
  0
VERTEX
  8
MERGEDLAYER-2
 10
6.942312
 20
0.279847
 30
0.000000
  0
SEQEND
  8
MERGEDLAYER-2
  0
POLYLINE
  8
MERGEDLAYER-2
 66
  1
 70
  0
 62
  0
 10
6.688368
 20
5.401873
 30
0.000000
  0
VERTEX
  8
MERGEDLAYER-2
 10
6.688368
 20
5.401873
 30
0.000000
  0
VERTEX
  8
MERGEDLAYER-2
 10
6.925691
 20
5.251250
 30
0.000000
  0
SEQEND
  8
MERGEDLAYER-2
  0
POLYLINE
  8
MERGEDLAYER-2
 66
  1
 70
  1
 62
  0
  0
VERTEX
  8
MERGEDLAYER-2
 10
6.942312
 20
5.240701
 30
0.000000
  0
VERTEX
  8
MERGEDLAYER-2
 10
6.861351
 20
5.242735
 30
0.000000
  0
VERTEX
  8
MERGEDLAYER-2
 10
6.883679
 20
5.277914
 30
0.000000
  0
VERTEX
  8
MERGEDLAYER-2
 10
6.906007
 20
5.313094
 30
0.000000
  0
VERTEX
  8
MERGEDLAYER-2
 10
6.942312
 20
5.240701
 30
0.000000
  0
SEQEND
  8
MERGEDLAYER-2
  0
TEXT
  8
MERGEDLAYER-2
 62
  0
 10
6.194444
 20
0.084163
 30
0.000000
 40
0.125000
  1
Barre du bas
 72
  5
 11
7.250000
 21
0.084163
 31
0.000000
  0
POLYLINE
  8
MERGEDLAYER-2
 66
  1
 70
  0
 62
  0
 10
6.161062
 20
0.150424
 30
0.000000
  0
VERTEX
  8
MERGEDLAYER-2
 10
6.161062
 20
0.150424
 30
0.000000
  0
VERTEX
  8
MERGEDLAYER-2
 10
5.921266
 20
0.269835
 30
0.000000
  0
SEQEND
  8
MERGEDLAYER-2
  0
POLYLINE
  8
MERGEDLAYER-2
 66
  1
 70
  1
 62
  0
  0
VERTEX
  8
MERGEDLAYER-2
 10
5.903645
 20
0.278609
 30
0.000000
  0
VERTEX
  8
MERGEDLAYER-2
 10
5.984382
 20
0.284953
 30
0.000000
  0
VERTEX
  8
MERGEDLAYER-2
 10
5.965808
 20
0.247654
 30
0.000000
  0
VERTEX
  8
MERGEDLAYER-2
 10
5.947235
 20
0.210356
 30
0.000000
  0
VERTEX
  8
MERGEDLAYER-2
 10
5.903645
 20
0.278609
 30
0.000000
  0
SEQEND
  8
MERGEDLAYER-2
  0
POLYLINE
  8
MERGEDLAYER-2
 66
  1
 70
  1
 62
  0
  0
VERTEX
  8
MERGEDLAYER-2
 10
0.613088
 20
0.853364
 30
0.000000
  0
VERTEX
  8
MERGEDLAYER-2
 10
6.942855
 20
0.853364
 30
0.000000
  0
VERTEX
  8
MERGEDLAYER-2
 10
6.942855
 20
0.803936
 30
0.000000
  0
VERTEX
  8
MERGEDLAYER-2
 10
0.613088
 20
0.803936
 30
0.000000
  0
SEQEND
  8
MERGEDLAYER-2
  0
POLYLINE
  8
MERGEDLAYER-2
 66
  1
 70
  0
 62
 15
 10
0.612600
 20
0.829303
 30
0.000000
  0
VERTEX
  8
MERGEDLAYER-2
 10
0.612600
 20
0.829303
 30
0.000000
  0
VERTEX
  8
MERGEDLAYER-2
 10
6.942199
 20
0.829303
 30
0.000000
  0
SEQEND
  8
MERGEDLAYER-2
  0
POLYLINE
  8
MERGEDLAYER-2
 66
  1
 70
  1
 62
  0
  0
VERTEX
  8
MERGEDLAYER-2
 10
0.613088
 20
1.022113
 30
0.000000
  0
VERTEX
  8
MERGEDLAYER-2
 10
6.942855
 20
1.022113
 30
0.000000
  0
VERTEX
  8
MERGEDLAYER-2
 10
6.942855
 20
0.972686
 30
0.000000
  0
VERTEX
  8
MERGEDLAYER-2
 10
0.613088
 20
0.972686
 30
0.000000
  0
SEQEND
  8
MERGEDLAYER-2
  0
POLYLINE
  8
MERGEDLAYER-2
 66
  1
 70
  0
 62
 15
 10
0.612600
 20
0.998054
 30
0.000000
  0
VERTEX
  8
MERGEDLAYER-2
 10
0.612600
 20
0.998054
 30
0.000000
  0
VERTEX
  8
MERGEDLAYER-2
 10
6.942199
 20
0.998054
 30
0.000000
  0
SEQEND
  8
MERGEDLAYER-2
  0
POLYLINE
  8
MERGEDLAYER-2
 66
  1
 70
  1
 62
  0
  0
VERTEX
  8
MERGEDLAYER-2
 10
0.613088
 20
1.190864
 30
0.000000
  0
VERTEX
  8
MERGEDLAYER-2
 10
6.942855
 20
1.190864
 30
0.000000
  0
VERTEX
  8
MERGEDLAYER-2
 10
6.942855
 20
1.141436
 30
0.000000
  0
VERTEX
  8
MERGEDLAYER-2
 10
0.613088
 20
1.141436
 30
0.000000
  0
SEQEND
  8
MERGEDLAYER-2
  0
POLYLINE
  8
MERGEDLAYER-2
 66
  1
 70
  0
 62
 15
 10
0.612600
 20
1.166804
 30
0.000000
  0
VERTEX
  8
MERGEDLAYER-2
 10
0.612600
 20
1.166804
 30
0.000000
  0
VERTEX
  8
MERGEDLAYER-2
 10
6.942199
 20
1.166804
 30
0.000000
  0
SEQEND
  8
MERGEDLAYER-2
  0
POLYLINE
  8
MERGEDLAYER-2
 66
  1
 70
  1
 62
  0
  0
VERTEX
  8
MERGEDLAYER-2
 10
0.613088
 20
1.359614
 30
0.000000
  0
VERTEX
  8
MERGEDLAYER-2
 10
6.942855
 20
1.359614
 30
0.000000
  0
VERTEX
  8
MERGEDLAYER-2
 10
6.942855
 20
1.310187
 30
0.000000
  0
VERTEX
  8
MERGEDLAYER-2
 10
0.613088
 20
1.310187
 30
0.000000
  0
SEQEND
  8
MERGEDLAYER-2
  0
POLYLINE
  8
MERGEDLAYER-2
 66
  1
 70
  0
 62
 15
 10
0.612600
 20
1.335553
 30
0.000000
  0
VERTEX
  8
MERGEDLAYER-2
 10
0.612600
 20
1.335553
 30
0.000000
  0
VERTEX
  8
MERGEDLAYER-2
 10
6.942199
 20
1.335553
 30
0.000000
  0
SEQEND
  8
MERGEDLAYER-2
  0
POLYLINE
  8
MERGEDLAYER-2
 66
  1
 70
  1
 62
  0
  0
VERTEX
  8
MERGEDLAYER-2
 10
0.613088
 20
1.528364
 30
0.000000
  0
VERTEX
  8
MERGEDLAYER-2
 10
6.942855
 20
1.528364
 30
0.000000
  0
VERTEX
  8
MERGEDLAYER-2
 10
6.942855
 20
1.478936
 30
0.000000
  0
VERTEX
  8
MERGEDLAYER-2
 10
0.613088
 20
1.478936
 30
0.000000
  0
SEQEND
  8
MERGEDLAYER-2
  0
POLYLINE
  8
MERGEDLAYER-2
 66
  1
 70
  0
 62
 15
 10
0.612600
 20
1.504304
 30
0.000000
  0
VERTEX
  8
MERGEDLAYER-2
 10
0.612600
 20
1.504304
 30
0.000000
  0
VERTEX
  8
MERGEDLAYER-2
 10
6.942199
 20
1.504304
 30
0.000000
  0
SEQEND
  8
MERGEDLAYER-2
  0
POLYLINE
  8
MERGEDLAYER-2
 66
  1
 70
  1
 62
  0
  0
VERTEX
  8
MERGEDLAYER-2
 10
0.613088
 20
1.697115
 30
0.000000
  0
VERTEX
  8
MERGEDLAYER-2
 10
6.942855
 20
1.697115
 30
0.000000
  0
VERTEX
  8
MERGEDLAYER-2
 10
6.942855
 20
1.647686
 30
0.000000
  0
VERTEX
  8
MERGEDLAYER-2
 10
0.613088
 20
1.647686
 30
0.000000
  0
SEQEND
  8
MERGEDLAYER-2
  0
POLYLINE
  8
MERGEDLAYER-2
 66
  1
 70
  0
 62
 15
 10
0.612600
 20
1.673054
 30
0.000000
  0
VERTEX
  8
MERGEDLAYER-2
 10
0.612600
 20
1.673054
 30
0.000000
  0
VERTEX
  8
MERGEDLAYER-2
 10
6.942199
 20
1.673054
 30
0.000000
  0
SEQEND
  8
MERGEDLAYER-2
  0
POLYLINE
  8
MERGEDLAYER-2
 66
  1
 70
  1
 62
  0
  0
VERTEX
  8
MERGEDLAYER-2
 10
0.613088
 20
1.865865
 30
0.000000
  0
VERTEX
  8
MERGEDLAYER-2
 10
6.942855
 20
1.865865
 30
0.000000
  0
VERTEX
  8
MERGEDLAYER-2
 10
6.942855
 20
1.816437
 30
0.000000
  0
VERTEX
  8
MERGEDLAYER-2
 10
0.613088
 20
1.816437
 30
0.000000
  0
SEQEND
  8
MERGEDLAYER-2
  0
POLYLINE
  8
MERGEDLAYER-2
 66
  1
 70
  0
 62
 15
 10
0.612600
 20
1.841805
 30
0.000000
  0
VERTEX
  8
MERGEDLAYER-2
 10
0.612600
 20
1.841805
 30
0.000000
  0
VERTEX
  8
MERGEDLAYER-2
 10
6.942199
 20
1.841805
 30
0.000000
  0
SEQEND
  8
MERGEDLAYER-2
  0
POLYLINE
  8
MERGEDLAYER-2
 66
  1
 70
  1
 62
  0
  0
VERTEX
  8
MERGEDLAYER-2
 10
0.613088
 20
2.034615
 30
0.000000
  0
VERTEX
  8
MERGEDLAYER-2
 10
6.942855
 20
2.034615
 30
0.000000
  0
VERTEX
  8
MERGEDLAYER-2
 10
6.942855
 20
1.985187
 30
0.000000
  0
VERTEX
  8
MERGEDLAYER-2
 10
0.613088
 20
1.985187
 30
0.000000
  0
SEQEND
  8
MERGEDLAYER-2
  0
POLYLINE
  8
MERGEDLAYER-2
 66
  1
 70
  0
 62
 15
 10
0.612600
 20
2.010555
 30
0.000000
  0
VERTEX
  8
MERGEDLAYER-2
 10
0.612600
 20
2.010555
 30
0.000000
  0
VERTEX
  8
MERGEDLAYER-2
 10
6.942199
 20
2.010555
 30
0.000000
  0
SEQEND
  8
MERGEDLAYER-2
  0
POLYLINE
  8
MERGEDLAYER-2
 66
  1
 70
  1
 62
  0
  0
VERTEX
  8
MERGEDLAYER-2
 10
0.613088
 20
2.203365
 30
0.000000
  0
VERTEX
  8
MERGEDLAYER-2
 10
6.942855
 20
2.203365
 30
0.000000
  0
VERTEX
  8
MERGEDLAYER-2
 10
6.942855
 20
2.153937
 30
0.000000
  0
VERTEX
  8
MERGEDLAYER-2
 10
0.613088
 20
2.153937
 30
0.000000
  0
SEQEND
  8
MERGEDLAYER-2
  0
POLYLINE
  8
MERGEDLAYER-2
 66
  1
 70
  0
 62
 15
 10
0.612600
 20
2.179305
 30
0.000000
  0
VERTEX
  8
MERGEDLAYER-2
 10
0.612600
 20
2.179305
 30
0.000000
  0
VERTEX
  8
MERGEDLAYER-2
 10
6.942199
 20
2.179305
 30
0.000000
  0
SEQEND
  8
MERGEDLAYER-2
  0
POLYLINE
  8
MERGEDLAYER-2
 66
  1
 70
  1
 62
  0
  0
VERTEX
  8
MERGEDLAYER-2
 10
0.613088
 20
2.372115
 30
0.000000
  0
VERTEX
  8
MERGEDLAYER-2
 10
6.942855
 20
2.372115
 30
0.000000
  0
VERTEX
  8
MERGEDLAYER-2
 10
6.942855
 20
2.322688
 30
0.000000
  0
VERTEX
  8
MERGEDLAYER-2
 10
0.613088
 20
2.322688
 30
0.000000
  0
SEQEND
  8
MERGEDLAYER-2
  0
POLYLINE
  8
MERGEDLAYER-2
 66
  1
 70
  0
 62
 15
 10
0.612600
 20
2.348055
 30
0.000000
  0
VERTEX
  8
MERGEDLAYER-2
 10
0.612600
 20
2.348055
 30
0.000000
  0
VERTEX
  8
MERGEDLAYER-2
 10
6.942199
 20
2.348055
 30
0.000000
  0
SEQEND
  8
MERGEDLAYER-2
  0
POLYLINE
  8
MERGEDLAYER-2
 66
  1
 70
  1
 62
  0
  0
VERTEX
  8
MERGEDLAYER-2
 10
0.613088
 20
2.540866
 30
0.000000
  0
VERTEX
  8
MERGEDLAYER-2
 10
6.942855
 20
2.540866
 30
0.000000
  0
VERTEX
  8
MERGEDLAYER-2
 10
6.942855
 20
2.491437
 30
0.000000
  0
VERTEX
  8
MERGEDLAYER-2
 10
0.613088
 20
2.491437
 30
0.000000
  0
SEQEND
  8
MERGEDLAYER-2
  0
POLYLINE
  8
MERGEDLAYER-2
 66
  1
 70
  0
 62
 15
 10
0.612600
 20
2.516805
 30
0.000000
  0
VERTEX
  8
MERGEDLAYER-2
 10
0.612600
 20
2.516805
 30
0.000000
  0
VERTEX
  8
MERGEDLAYER-2
 10
6.942199
 20
2.516805
 30
0.000000
  0
SEQEND
  8
MERGEDLAYER-2
  0
POLYLINE
  8
MERGEDLAYER-2
 66
  1
 70
  1
 62
  0
  0
VERTEX
  8
MERGEDLAYER-2
 10
0.613088
 20
2.709616
 30
0.000000
  0
VERTEX
  8
MERGEDLAYER-2
 10
6.942855
 20
2.709616
 30
0.000000
  0
VERTEX
  8
MERGEDLAYER-2
 10
6.942855
 20
2.660188
 30
0.000000
  0
VERTEX
  8
MERGEDLAYER-2
 10
0.613088
 20
2.660188
 30
0.000000
  0
SEQEND
  8
MERGEDLAYER-2
  0
POLYLINE
  8
MERGEDLAYER-2
 66
  1
 70
  0
 62
 15
 10
0.612600
 20
2.685555
 30
0.000000
  0
VERTEX
  8
MERGEDLAYER-2
 10
0.612600
 20
2.685555
 30
0.000000
  0
VERTEX
  8
MERGEDLAYER-2
 10
6.942199
 20
2.685555
 30
0.000000
  0
SEQEND
  8
MERGEDLAYER-2
  0
POLYLINE
  8
MERGEDLAYER-2
 66
  1
 70
  1
 62
  0
  0
VERTEX
  8
MERGEDLAYER-2
 10
0.613088
 20
2.878366
 30
0.000000
  0
VERTEX
  8
MERGEDLAYER-2
 10
6.942855
 20
2.878366
 30
0.000000
  0
VERTEX
  8
MERGEDLAYER-2
 10
6.942855
 20
2.828938
 30
0.000000
  0
VERTEX
  8
MERGEDLAYER-2
 10
0.613088
 20
2.828938
 30
0.000000
  0
SEQEND
  8
MERGEDLAYER-2
  0
POLYLINE
  8
MERGEDLAYER-2
 66
  1
 70
  0
 62
 15
 10
0.612600
 20
2.854306
 30
0.000000
  0
VERTEX
  8
MERGEDLAYER-2
 10
0.612600
 20
2.854306
 30
0.000000
  0
VERTEX
  8
MERGEDLAYER-2
 10
6.942199
 20
2.854306
 30
0.000000
  0
SEQEND
  8
MERGEDLAYER-2
  0
POLYLINE
  8
MERGEDLAYER-2
 66
  1
 70
  1
 62
  0
  0
VERTEX
  8
MERGEDLAYER-2
 10
0.613088
 20
3.047117
 30
0.000000
  0
VERTEX
  8
MERGEDLAYER-2
 10
6.942855
 20
3.047117
 30
0.000000
  0
VERTEX
  8
MERGEDLAYER-2
 10
6.942855
 20
2.997688
 30
0.000000
  0
VERTEX
  8
MERGEDLAYER-2
 10
0.613088
 20
2.997688
 30
0.000000
  0
SEQEND
  8
MERGEDLAYER-2
  0
POLYLINE
  8
MERGEDLAYER-2
 66
  1
 70
  0
 62
 15
 10
0.612600
 20
3.023056
 30
0.000000
  0
VERTEX
  8
MERGEDLAYER-2
 10
0.612600
 20
3.023056
 30
0.000000
  0
VERTEX
  8
MERGEDLAYER-2
 10
6.942199
 20
3.023056
 30
0.000000
  0
SEQEND
  8
MERGEDLAYER-2
  0
POLYLINE
  8
MERGEDLAYER-2
 66
  1
 70
  1
 62
  0
  0
VERTEX
  8
MERGEDLAYER-2
 10
0.613088
 20
3.215866
 30
0.000000
  0
VERTEX
  8
MERGEDLAYER-2
 10
6.942855
 20
3.215866
 30
0.000000
  0
VERTEX
  8
MERGEDLAYER-2
 10
6.942855
 20
3.166439
 30
0.000000
  0
VERTEX
  8
MERGEDLAYER-2
 10
0.613088
 20
3.166439
 30
0.000000
  0
SEQEND
  8
MERGEDLAYER-2
  0
POLYLINE
  8
MERGEDLAYER-2
 66
  1
 70
  0
 62
 15
 10
0.612600
 20
3.191806
 30
0.000000
  0
VERTEX
  8
MERGEDLAYER-2
 10
0.612600
 20
3.191806
 30
0.000000
  0
VERTEX
  8
MERGEDLAYER-2
 10
6.942199
 20
3.191806
 30
0.000000
  0
SEQEND
  8
MERGEDLAYER-2
  0
POLYLINE
  8
MERGEDLAYER-2
 66
  1
 70
  1
 62
  0
  0
VERTEX
  8
MERGEDLAYER-2
 10
0.613088
 20
3.384616
 30
0.000000
  0
VERTEX
  8
MERGEDLAYER-2
 10
6.942855
 20
3.384616
 30
0.000000
  0
VERTEX
  8
MERGEDLAYER-2
 10
6.942855
 20
3.335189
 30
0.000000
  0
VERTEX
  8
MERGEDLAYER-2
 10
0.613088
 20
3.335189
 30
0.000000
  0
SEQEND
  8
MERGEDLAYER-2
  0
POLYLINE
  8
MERGEDLAYER-2
 66
  1
 70
  0
 62
 15
 10
0.612600
 20
3.360556
 30
0.000000
  0
VERTEX
  8
MERGEDLAYER-2
 10
0.612600
 20
3.360556
 30
0.000000
  0
VERTEX
  8
MERGEDLAYER-2
 10
6.942199
 20
3.360556
 30
0.000000
  0
SEQEND
  8
MERGEDLAYER-2
  0
POLYLINE
  8
MERGEDLAYER-2
 66
  1
 70
  1
 62
  0
  0
VERTEX
  8
MERGEDLAYER-2
 10
0.613088
 20
3.553367
 30
0.000000
  0
VERTEX
  8
MERGEDLAYER-2
 10
6.942855
 20
3.553367
 30
0.000000
  0
VERTEX
  8
MERGEDLAYER-2
 10
6.942855
 20
3.503939
 30
0.000000
  0
VERTEX
  8
MERGEDLAYER-2
 10
0.613088
 20
3.503939
 30
0.000000
  0
SEQEND
  8
MERGEDLAYER-2
  0
POLYLINE
  8
MERGEDLAYER-2
 66
  1
 70
  0
 62
 15
 10
0.612600
 20
3.529307
 30
0.000000
  0
VERTEX
  8
MERGEDLAYER-2
 10
0.612600
 20
3.529307
 30
0.000000
  0
VERTEX
  8
MERGEDLAYER-2
 10
6.942199
 20
3.529307
 30
0.000000
  0
SEQEND
  8
MERGEDLAYER-2
  0
POLYLINE
  8
MERGEDLAYER-2
 66
  1
 70
  1
 62
  0
  0
VERTEX
  8
MERGEDLAYER-2
 10
0.613088
 20
3.722117
 30
0.000000
  0
VERTEX
  8
MERGEDLAYER-2
 10
6.942855
 20
3.722117
 30
0.000000
  0
VERTEX
  8
MERGEDLAYER-2
 10
6.942855
 20
3.672689
 30
0.000000
  0
VERTEX
  8
MERGEDLAYER-2
 10
0.613088
 20
3.672689
 30
0.000000
  0
SEQEND
  8
MERGEDLAYER-2
  0
POLYLINE
  8
MERGEDLAYER-2
 66
  1
 70
  0
 62
 15
 10
0.612600
 20
3.698057
 30
0.000000
  0
VERTEX
  8
MERGEDLAYER-2
 10
0.612600
 20
3.698057
 30
0.000000
  0
VERTEX
  8
MERGEDLAYER-2
 10
6.942199
 20
3.698057
 30
0.000000
  0
SEQEND
  8
MERGEDLAYER-2
  0
POLYLINE
  8
MERGEDLAYER-2
 66
  1
 70
  1
 62
  0
  0
VERTEX
  8
MERGEDLAYER-2
 10
0.613088
 20
3.890867
 30
0.000000
  0
VERTEX
  8
MERGEDLAYER-2
 10
6.942855
 20
3.890867
 30
0.000000
  0
VERTEX
  8
MERGEDLAYER-2
 10
6.942855
 20
3.841439
 30
0.000000
  0
VERTEX
  8
MERGEDLAYER-2
 10
0.613088
 20
3.841439
 30
0.000000
  0
SEQEND
  8
MERGEDLAYER-2
  0
POLYLINE
  8
MERGEDLAYER-2
 66
  1
 70
  0
 62
 15
 10
0.612600
 20
3.866807
 30
0.000000
  0
VERTEX
  8
MERGEDLAYER-2
 10
0.612600
 20
3.866807
 30
0.000000
  0
VERTEX
  8
MERGEDLAYER-2
 10
6.942199
 20
3.866807
 30
0.000000
  0
SEQEND
  8
MERGEDLAYER-2
  0
POLYLINE
  8
MERGEDLAYER-2
 66
  1
 70
  1
 62
  0
  0
VERTEX
  8
MERGEDLAYER-2
 10
0.613088
 20
4.059617
 30
0.000000
  0
VERTEX
  8
MERGEDLAYER-2
 10
6.942855
 20
4.059617
 30
0.000000
  0
VERTEX
  8
MERGEDLAYER-2
 10
6.942855
 20
4.010189
 30
0.000000
  0
VERTEX
  8
MERGEDLAYER-2
 10
0.613088
 20
4.010189
 30
0.000000
  0
SEQEND
  8
MERGEDLAYER-2
  0
POLYLINE
  8
MERGEDLAYER-2
 66
  1
 70
  0
 62
 15
 10
0.612600
 20
4.035557
 30
0.000000
  0
VERTEX
  8
MERGEDLAYER-2
 10
0.612600
 20
4.035557
 30
0.000000
  0
VERTEX
  8
MERGEDLAYER-2
 10
6.942199
 20
4.035557
 30
0.000000
  0
SEQEND
  8
MERGEDLAYER-2
  0
POLYLINE
  8
MERGEDLAYER-2
 66
  1
 70
  1
 62
  0
  0
VERTEX
  8
MERGEDLAYER-2
 10
0.613088
 20
4.228368
 30
0.000000
  0
VERTEX
  8
MERGEDLAYER-2
 10
6.942855
 20
4.228368
 30
0.000000
  0
VERTEX
  8
MERGEDLAYER-2
 10
6.942855
 20
4.178940
 30
0.000000
  0
VERTEX
  8
MERGEDLAYER-2
 10
0.613088
 20
4.178940
 30
0.000000
  0
SEQEND
  8
MERGEDLAYER-2
  0
POLYLINE
  8
MERGEDLAYER-2
 66
  1
 70
  0
 62
 15
 10
0.612600
 20
4.204307
 30
0.000000
  0
VERTEX
  8
MERGEDLAYER-2
 10
0.612600
 20
4.204307
 30
0.000000
  0
VERTEX
  8
MERGEDLAYER-2
 10
6.942199
 20
4.204307
 30
0.000000
  0
SEQEND
  8
MERGEDLAYER-2
  0
POLYLINE
  8
MERGEDLAYER-2
 66
  1
 70
  1
 62
  0
  0
VERTEX
  8
MERGEDLAYER-2
 10
0.613088
 20
4.397118
 30
0.000000
  0
VERTEX
  8
MERGEDLAYER-2
 10
6.942855
 20
4.397118
 30
0.000000
  0
VERTEX
  8
MERGEDLAYER-2
 10
6.942855
 20
4.347690
 30
0.000000
  0
VERTEX
  8
MERGEDLAYER-2
 10
0.613088
 20
4.347690
 30
0.000000
  0
SEQEND
  8
MERGEDLAYER-2
  0
POLYLINE
  8
MERGEDLAYER-2
 66
  1
 70
  0
 62
 15
 10
0.612600
 20
4.373057
 30
0.000000
  0
VERTEX
  8
MERGEDLAYER-2
 10
0.612600
 20
4.373057
 30
0.000000
  0
VERTEX
  8
MERGEDLAYER-2
 10
6.942199
 20
4.373057
 30
0.000000
  0
SEQEND
  8
MERGEDLAYER-2
  0
POLYLINE
  8
MERGEDLAYER-2
 66
  1
 70
  1
 62
  0
  0
VERTEX
  8
MERGEDLAYER-2
 10
0.613088
 20
4.565868
 30
0.000000
  0
VERTEX
  8
MERGEDLAYER-2
 10
6.942855
 20
4.565868
 30
0.000000
  0
VERTEX
  8
MERGEDLAYER-2
 10
6.942855
 20
4.516440
 30
0.000000
  0
VERTEX
  8
MERGEDLAYER-2
 10
0.613088
 20
4.516440
 30
0.000000
  0
SEQEND
  8
MERGEDLAYER-2
  0
POLYLINE
  8
MERGEDLAYER-2
 66
  1
 70
  0
 62
 15
 10
0.612600
 20
4.541808
 30
0.000000
  0
VERTEX
  8
MERGEDLAYER-2
 10
0.612600
 20
4.541808
 30
0.000000
  0
VERTEX
  8
MERGEDLAYER-2
 10
6.942199
 20
4.541808
 30
0.000000
  0
SEQEND
  8
MERGEDLAYER-2
  0
POLYLINE
  8
MERGEDLAYER-2
 66
  1
 70
  1
 62
  0
  0
VERTEX
  8
MERGEDLAYER-2
 10
0.613088
 20
4.734618
 30
0.000000
  0
VERTEX
  8
MERGEDLAYER-2
 10
6.942855
 20
4.734618
 30
0.000000
  0
VERTEX
  8
MERGEDLAYER-2
 10
6.942855
 20
4.685190
 30
0.000000
  0
VERTEX
  8
MERGEDLAYER-2
 10
0.613088
 20
4.685190
 30
0.000000
  0
SEQEND
  8
MERGEDLAYER-2
  0
POLYLINE
  8
MERGEDLAYER-2
 66
  1
 70
  0
 62
 15
 10
0.612600
 20
4.710558
 30
0.000000
  0
VERTEX
  8
MERGEDLAYER-2
 10
0.612600
 20
4.710558
 30
0.000000
  0
VERTEX
  8
MERGEDLAYER-2
 10
6.942199
 20
4.710558
 30
0.000000
  0
SEQEND
  8
MERGEDLAYER-2
  0
POLYLINE
  8
MERGEDLAYER-2
 66
  1
 70
  1
 62
  0
  0
VERTEX
  8
MERGEDLAYER-2
 10
0.613088
 20
4.903368
 30
0.000000
  0
VERTEX
  8
MERGEDLAYER-2
 10
6.942855
 20
4.903368
 30
0.000000
  0
VERTEX
  8
MERGEDLAYER-2
 10
6.942855
 20
4.853940
 30
0.000000
  0
VERTEX
  8
MERGEDLAYER-2
 10
0.613088
 20
4.853940
 30
0.000000
  0
SEQEND
  8
MERGEDLAYER-2
  0
POLYLINE
  8
MERGEDLAYER-2
 66
  1
 70
  0
 62
 15
 10
0.612600
 20
4.879308
 30
0.000000
  0
VERTEX
  8
MERGEDLAYER-2
 10
0.612600
 20
4.879308
 30
0.000000
  0
VERTEX
  8
MERGEDLAYER-2
 10
6.942199
 20
4.879308
 30
0.000000
  0
SEQEND
  8
MERGEDLAYER-2
  0
POLYLINE
  8
MERGEDLAYER-2
 66
  1
 70
  1
 62
  0
  0
VERTEX
  8
MERGEDLAYER-2
 10
0.613088
 20
5.072119
 30
0.000000
  0
VERTEX
  8
MERGEDLAYER-2
 10
6.942855
 20
5.072119
 30
0.000000
  0
VERTEX
  8
MERGEDLAYER-2
 10
6.942855
 20
5.022691
 30
0.000000
  0
VERTEX
  8
MERGEDLAYER-2
 10
0.613088
 20
5.022691
 30
0.000000
  0
SEQEND
  8
MERGEDLAYER-2
  0
POLYLINE
  8
MERGEDLAYER-2
 66
  1
 70
  0
 62
 15
 10
0.612600
 20
5.048058
 30
0.000000
  0
VERTEX
  8
MERGEDLAYER-2
 10
0.612600
 20
5.048058
 30
0.000000
  0
VERTEX
  8
MERGEDLAYER-2
 10
6.942199
 20
5.048058
 30
0.000000
  0
SEQEND
  8
MERGEDLAYER-2
  0
POLYLINE
  8
MERGEDLAYER-2
 66
  1
 70
  1
 62
  0
  0
VERTEX
  8
MERGEDLAYER-2
 10
0.613088
 20
5.240869
 30
0.000000
  0
VERTEX
  8
MERGEDLAYER-2
 10
6.942855
 20
5.240869
 30
0.000000
  0
VERTEX
  8
MERGEDLAYER-2
 10
6.942855
 20
5.191441
 30
0.000000
  0
VERTEX
  8
MERGEDLAYER-2
 10
0.613088
 20
5.191441
 30
0.000000
  0
SEQEND
  8
MERGEDLAYER-2
  0
POLYLINE
  8
MERGEDLAYER-2
 66
  1
 70
  0
 62
 15
 10
0.612600
 20
5.216808
 30
0.000000
  0
VERTEX
  8
MERGEDLAYER-2
 10
0.612600
 20
5.216808
 30
0.000000
  0
VERTEX
  8
MERGEDLAYER-2
 10
6.942199
 20
5.216808
 30
0.000000
  0
SEQEND
  8
MERGEDLAYER-2
  0
POLYLINE
  8
MERGEDLAYER-2
 66
  1
 70
  1
 62
  0
  0
VERTEX
  8
MERGEDLAYER-2
 10
0.451419
 20
5.241277
 30
0.000000
  0
VERTEX
  8
MERGEDLAYER-2
 10
0.613304
 20
5.241277
 30
0.000000
  0
VERTEX
  8
MERGEDLAYER-2
 10
0.613304
 20
0.280516
 30
0.000000
  0
VERTEX
  8
MERGEDLAYER-2
 10
0.451419
 20
0.280516
 30
0.000000
  0
SEQEND
  8
MERGEDLAYER-2
  0
LINE
  8
MERGEDLAYER-2
 62
  0
 10
2.279656
 20
6.573746
 30
0.000000
 11
2.279656
 21
6.851524
 31
0.000000
  0
LINE
  8
MERGEDLAYER-2
 62
  0
 10
2.211805
 20
6.573746
 30
0.000000
 11
2.404656
 21
6.573746
 31
0.000000
  0
LINE
  8
MERGEDLAYER-2
 62
  0
 10
2.218750
 20
6.851524
 30
0.000000
 11
2.404656
 21
6.851524
 31
0.000000
  0
LINE
  8
MERGEDLAYER-2
 62
  0
 10
2.279656
 20
6.851524
 30
0.000000
 11
2.279656
 21
6.303429
 31
0.000000
  0
LINE
  8
MERGEDLAYER-2
 62
  0
 10
2.250193
 20
6.603209
 30
0.000000
 11
2.309118
 21
6.544283
 31
0.000000
  0
LINE
  8
MERGEDLAYER-2
 62
  0
 10
2.250193
 20
6.880987
 30
0.000000
 11
2.309118
 21
6.822061
 31
0.000000
  0
TEXT
  8
MERGEDLAYER-2
 62
  0
 10
2.225518
 20
6.372745
 30
0.000000
 40
0.062500
  1
 
 50
90.000000
  0
POLYLINE
  8
MERGEDLAYER-2
 66
  1
 70
  0
 62
  0
 10
2.395833
 20
6.302913
 30
0.000000
  0
VERTEX
  8
MERGEDLAYER-2
 10
2.395833
 20
6.302913
 30
0.000000
  0
VERTEX
  8
MERGEDLAYER-2
 10
2.281548
 20
6.302306
 30
0.000000
  0
SEQEND
  8
MERGEDLAYER-2
  0
CIRCLE
  8
MERGEDLAYER-2
 62
  0
 10
1.997787
 20
6.895771
 30
0.000000
 40
0.010221
  0
POLYLINE
  8
MERGEDLAYER-2
 66
  1
 70
  0
 62
  0
 10
2.007301
 20
6.859630
 30
0.000000
  0
VERTEX
  8
MERGEDLAYER-2
 10
2.007301
 20
6.859630
 30
0.000000
  0
VERTEX
  8
MERGEDLAYER-2
 10
2.005907
 20
6.876960
 30
0.000000
  0
VERTEX
  8
MERGEDLAYER-2
 10
1.990546
 20
6.877535
 30
0.000000
  0
VERTEX
  8
MERGEDLAYER-2
 10
1.989971
 20
6.862173
 30
0.000000
  0
VERTEX
  8
MERGEDLAYER-2
 10
1.996082
 20
6.857424
 30
0.000000
  0
SEQEND
  8
MERGEDLAYER-2
  0
POLYLINE
  8
MERGEDLAYER-2
 66
  1
 70
  0
 62
  0
 10
1.994214
 20
6.850302
 30
0.000000
  0
VERTEX
  8
MERGEDLAYER-2
 10
1.994214
 20
6.850302
 30
0.000000
  0
VERTEX
  8
MERGEDLAYER-2
 10
1.989673
 20
6.850303
 30
0.000000
  0
SEQEND
  8
MERGEDLAYER-2
  0
POLYLINE
  8
MERGEDLAYER-2
 66
  1
 70
  0
 62
  0
 10
1.996082
 20
6.857424
 30
0.000000
  0
VERTEX
  8
MERGEDLAYER-2
 10
1.996082
 20
6.857424
 30
0.000000
  0
VERTEX
  8
MERGEDLAYER-2
 10
1.996078
 20
6.852165
 30
0.000000
  0
SEQEND
  8
MERGEDLAYER-2
  0
POLYLINE
  8
MERGEDLAYER-2
 66
  1
 70
  0
 62
  0
 10
1.994214
 20
6.850303
 30
0.000000
  0
VERTEX
  8
MERGEDLAYER-2
 10
1.994214
 20
6.850303
 30
0.000000
  0
VERTEX
  8
MERGEDLAYER-2
 10
1.996078
 20
6.852165
 30
0.000000
  0
SEQEND
  8
MERGEDLAYER-2
  0
POLYLINE
  8
MERGEDLAYER-2
 66
  1
 70
  0
 62
  0
 10
2.016327
 20
6.895731
 30
0.000000
  0
VERTEX
  8
MERGEDLAYER-2
 10
2.016327
 20
6.895731
 30
0.000000
  0
VERTEX
  8
MERGEDLAYER-2
 10
2.019832
 20
6.860790
 30
0.000000
  0
SEQEND
  8
MERGEDLAYER-2
  0
POLYLINE
  8
MERGEDLAYER-2
 66
  1
 70
  0
 62
  0
 10
2.017842
 20
6.855210
 30
0.000000
  0
VERTEX
  8
MERGEDLAYER-2
 10
2.017842
 20
6.855210
 30
0.000000
  0
VERTEX
  8
MERGEDLAYER-2
 10
2.019832
 20
6.860789
 30
0.000000
  0
SEQEND
  8
MERGEDLAYER-2
  0
POLYLINE
  8
MERGEDLAYER-2
 66
  1
 70
  0
 62
  0
 10
2.007301
 20
6.859630
 30
0.000000
  0
VERTEX
  8
MERGEDLAYER-2
 10
2.007301
 20
6.859630
 30
0.000000
  0
VERTEX
  8
MERGEDLAYER-2
 10
2.010422
 20
6.851498
 30
0.000000
  0
SEQEND
  8
MERGEDLAYER-2
  0
POLYLINE
  8
MERGEDLAYER-2
 66
  1
 70
  0
 62
  0
 10
2.013480
 20
6.850848
 30
0.000000
  0
VERTEX
  8
MERGEDLAYER-2
 10
2.013480
 20
6.850848
 30
0.000000
  0
VERTEX
  8
MERGEDLAYER-2
 10
2.017842
 20
6.855210
 30
0.000000
  0
SEQEND
  8
MERGEDLAYER-2
  0
POLYLINE
  8
MERGEDLAYER-2
 66
  1
 70
  0
 62
  0
 10
2.010422
 20
6.851498
 30
0.000000
  0
VERTEX
  8
MERGEDLAYER-2
 10
2.010422
 20
6.851498
 30
0.000000
  0
VERTEX
  8
MERGEDLAYER-2
 10
2.013479
 20
6.850848
 30
0.000000
  0
SEQEND
  8
MERGEDLAYER-2
  0
POLYLINE
  8
MERGEDLAYER-2
 66
  1
 70
  0
 62
  0
 10
1.982557
 20
6.857418
 30
0.000000
  0
VERTEX
  8
MERGEDLAYER-2
 10
1.982557
 20
6.857418
 30
0.000000
  0
VERTEX
  8
MERGEDLAYER-2
 10
1.989673
 20
6.850303
 30
0.000000
  0
SEQEND
  8
MERGEDLAYER-2
  0
POLYLINE
  8
MERGEDLAYER-2
 66
  1
 70
  0
 62
  0
 10
1.982557
 20
6.857418
 30
0.000000
  0
VERTEX
  8
MERGEDLAYER-2
 10
1.982557
 20
6.857418
 30
0.000000
  0
VERTEX
  8
MERGEDLAYER-2
 10
1.979717
 20
6.877833
 30
0.000000
  0
SEQEND
  8
MERGEDLAYER-2
  0
POLYLINE
  8
MERGEDLAYER-2
 66
  1
 70
  0
 62
  0
 10
1.984090
 20
6.882205
 30
0.000000
  0
VERTEX
  8
MERGEDLAYER-2
 10
1.984090
 20
6.882205
 30
0.000000
  0
VERTEX
  8
MERGEDLAYER-2
 10
1.979110
 20
6.887185
 30
0.000000
  0
SEQEND
  8
MERGEDLAYER-2
  0
POLYLINE
  8
MERGEDLAYER-2
 66
  1
 70
  0
 62
  0
 10
1.984090
 20
6.882205
 30
0.000000
  0
VERTEX
  8
MERGEDLAYER-2
 10
1.984090
 20
6.882205
 30
0.000000
  0
VERTEX
  8
MERGEDLAYER-2
 10
1.979717
 20
6.877833
 30
0.000000
  0
SEQEND
  8
MERGEDLAYER-2
  0
POLYLINE
  8
MERGEDLAYER-2
 66
  1
 70
  0
 62
  0
 10
1.979110
 20
6.887185
 30
0.000000
  0
VERTEX
  8
MERGEDLAYER-2
 10
1.979110
 20
6.887185
 30
0.000000
  0
VERTEX
  8
MERGEDLAYER-2
 10
1.979110
 20
6.904275
 30
0.000000
  0
SEQEND
  8
MERGEDLAYER-2
  0
POLYLINE
  8
MERGEDLAYER-2
 66
  1
 70
  0
 62
  0
 10
1.996082
 20
6.934037
 30
0.000000
  0
VERTEX
  8
MERGEDLAYER-2
 10
1.996082
 20
6.934037
 30
0.000000
  0
VERTEX
  8
MERGEDLAYER-2
 10
1.987765
 20
6.922006
 30
0.000000
  0
VERTEX
  8
MERGEDLAYER-2
 10
2.001765
 20
6.915657
 30
0.000000
  0
VERTEX
  8
MERGEDLAYER-2
 10
2.008113
 20
6.929657
 30
0.000000
  0
VERTEX
  8
MERGEDLAYER-2
 10
2.007301
 20
6.931831
 30
0.000000
  0
SEQEND
  8
MERGEDLAYER-2
  0
POLYLINE
  8
MERGEDLAYER-2
 66
  1
 70
  0
 62
  0
 10
1.994214
 20
6.941158
 30
0.000000
  0
VERTEX
  8
MERGEDLAYER-2
 10
1.994214
 20
6.941158
 30
0.000000
  0
VERTEX
  8
MERGEDLAYER-2
 10
1.989673
 20
6.941158
 30
0.000000
  0
SEQEND
  8
MERGEDLAYER-2
  0
POLYLINE
  8
MERGEDLAYER-2
 66
  1
 70
  0
 62
  0
 10
1.996082
 20
6.934037
 30
0.000000
  0
VERTEX
  8
MERGEDLAYER-2
 10
1.996082
 20
6.934037
 30
0.000000
  0
VERTEX
  8
MERGEDLAYER-2
 10
1.996078
 20
6.939296
 30
0.000000
  0
SEQEND
  8
MERGEDLAYER-2
  0
POLYLINE
  8
MERGEDLAYER-2
 66
  1
 70
  0
 62
  0
 10
1.996078
 20
6.939296
 30
0.000000
  0
VERTEX
  8
MERGEDLAYER-2
 10
1.996078
 20
6.939296
 30
0.000000
  0
VERTEX
  8
MERGEDLAYER-2
 10
1.994214
 20
6.941158
 30
0.000000
  0
SEQEND
  8
MERGEDLAYER-2
  0
POLYLINE
  8
MERGEDLAYER-2
 66
  1
 70
  0
 62
  0
 10
2.016327
 20
6.895731
 30
0.000000
  0
VERTEX
  8
MERGEDLAYER-2
 10
2.016327
 20
6.895731
 30
0.000000
  0
VERTEX
  8
MERGEDLAYER-2
 10
2.019832
 20
6.930671
 30
0.000000
  0
SEQEND
  8
MERGEDLAYER-2
  0
POLYLINE
  8
MERGEDLAYER-2
 66
  1
 70
  0
 62
  0
 10
2.019832
 20
6.930671
 30
0.000000
  0
VERTEX
  8
MERGEDLAYER-2
 10
2.019832
 20
6.930671
 30
0.000000
  0
VERTEX
  8
MERGEDLAYER-2
 10
2.017842
 20
6.936251
 30
0.000000
  0
SEQEND
  8
MERGEDLAYER-2
  0
POLYLINE
  8
MERGEDLAYER-2
 66
  1
 70
  0
 62
  0
 10
2.007301
 20
6.931831
 30
0.000000
  0
VERTEX
  8
MERGEDLAYER-2
 10
2.007301
 20
6.931831
 30
0.000000
  0
VERTEX
  8
MERGEDLAYER-2
 10
2.010422
 20
6.939963
 30
0.000000
  0
SEQEND
  8
MERGEDLAYER-2
  0
POLYLINE
  8
MERGEDLAYER-2
 66
  1
 70
  0
 62
  0
 10
2.013480
 20
6.940613
 30
0.000000
  0
VERTEX
  8
MERGEDLAYER-2
 10
2.013480
 20
6.940613
 30
0.000000
  0
VERTEX
  8
MERGEDLAYER-2
 10
2.017842
 20
6.936251
 30
0.000000
  0
SEQEND
  8
MERGEDLAYER-2
  0
POLYLINE
  8
MERGEDLAYER-2
 66
  1
 70
  0
 62
  0
 10
2.013479
 20
6.940613
 30
0.000000
  0
VERTEX
  8
MERGEDLAYER-2
 10
2.013479
 20
6.940613
 30
0.000000
  0
VERTEX
  8
MERGEDLAYER-2
 10
2.010422
 20
6.939963
 30
0.000000
  0
SEQEND
  8
MERGEDLAYER-2
  0
POLYLINE
  8
MERGEDLAYER-2
 66
  1
 70
  0
 62
  0
 10
1.982557
 20
6.934043
 30
0.000000
  0
VERTEX
  8
MERGEDLAYER-2
 10
1.982557
 20
6.934043
 30
0.000000
  0
VERTEX
  8
MERGEDLAYER-2
 10
1.989673
 20
6.941158
 30
0.000000
  0
SEQEND
  8
MERGEDLAYER-2
  0
POLYLINE
  8
MERGEDLAYER-2
 66
  1
 70
  0
 62
  0
 10
1.982557
 20
6.934043
 30
0.000000
  0
VERTEX
  8
MERGEDLAYER-2
 10
1.982557
 20
6.934043
 30
0.000000
  0
VERTEX
  8
MERGEDLAYER-2
 10
1.979717
 20
6.913628
 30
0.000000
  0
SEQEND
  8
MERGEDLAYER-2
  0
POLYLINE
  8
MERGEDLAYER-2
 66
  1
 70
  0
 62
  0
 10
1.984090
 20
6.909256
 30
0.000000
  0
VERTEX
  8
MERGEDLAYER-2
 10
1.984090
 20
6.909256
 30
0.000000
  0
VERTEX
  8
MERGEDLAYER-2
 10
1.979110
 20
6.904275
 30
0.000000
  0
SEQEND
  8
MERGEDLAYER-2
  0
POLYLINE
  8
MERGEDLAYER-2
 66
  1
 70
  0
 62
  0
 10
1.984090
 20
6.909256
 30
0.000000
  0
VERTEX
  8
MERGEDLAYER-2
 10
1.984090
 20
6.909256
 30
0.000000
  0
VERTEX
  8
MERGEDLAYER-2
 10
1.979717
 20
6.913628
 30
0.000000
  0
SEQEND
  8
MERGEDLAYER-2
  0
POLYLINE
  8
MERGEDLAYER-2
 66
  1
 70
  0
 62
  0
 10
2.003864
 20
7.210926
 30
0.000000
  0
VERTEX
  8
MERGEDLAYER-2
 10
2.003864
 20
7.210926
 30
0.000000
  0
VERTEX
  8
MERGEDLAYER-2
 10
2.003149
 20
7.210210
 30
0.000000
  0
SEQEND
  8
MERGEDLAYER-2
  0
POLYLINE
  8
MERGEDLAYER-2
 66
  1
 70
  0
 62
  0
 10
2.003864
 20
7.210926
 30
0.000000
  0
VERTEX
  8
MERGEDLAYER-2
 10
2.003864
 20
7.210926
 30
0.000000
  0
VERTEX
  8
MERGEDLAYER-2
 10
2.003873
 20
7.226476
 30
0.000000
  0
SEQEND
  8
MERGEDLAYER-2
  0
POLYLINE
  8
MERGEDLAYER-2
 66
  1
 70
  0
 62
  0
 10
2.003873
 20
7.226476
 30
0.000000
  0
VERTEX
  8
MERGEDLAYER-2
 10
2.003873
 20
7.226476
 30
0.000000
  0
VERTEX
  8
MERGEDLAYER-2
 10
2.006611
 20
7.240838
 30
0.000000
  0
VERTEX
  8
MERGEDLAYER-2
 10
1.994217
 20
7.245544
 30
0.000000
  0
VERTEX
  8
MERGEDLAYER-2
 10
1.989511
 20
7.233151
 30
0.000000
  0
VERTEX
  8
MERGEDLAYER-2
 10
1.996191
 20
7.226473
 30
0.000000
  0
SEQEND
  8
MERGEDLAYER-2
  0
POLYLINE
  8
MERGEDLAYER-2
 66
  1
 70
  0
 62
  0
 10
1.996201
 20
7.210926
 30
0.000000
  0
VERTEX
  8
MERGEDLAYER-2
 10
1.996201
 20
7.210926
 30
0.000000
  0
VERTEX
  8
MERGEDLAYER-2
 10
1.996191
 20
7.226473
 30
0.000000
  0
SEQEND
  8
MERGEDLAYER-2
  0
POLYLINE
  8
MERGEDLAYER-2
 66
  1
 70
  0
 62
  0
 10
1.996201
 20
7.210926
 30
0.000000
  0
VERTEX
  8
MERGEDLAYER-2
 10
1.996201
 20
7.210926
 30
0.000000
  0
VERTEX
  8
MERGEDLAYER-2
 10
1.996936
 20
7.210189
 30
0.000000
  0
SEQEND
  8
MERGEDLAYER-2
  0
POLYLINE
  8
MERGEDLAYER-2
 66
  1
 70
  0
 62
  0
 10
1.996936
 20
6.948485
 30
0.000000
  0
VERTEX
  8
MERGEDLAYER-2
 10
1.996936
 20
6.948485
 30
0.000000
  0
VERTEX
  8
MERGEDLAYER-2
 10
1.996936
 20
7.210189
 30
0.000000
  0
SEQEND
  8
MERGEDLAYER-2
  0
POLYLINE
  8
MERGEDLAYER-2
 66
  1
 70
  0
 62
  0
 10
1.996198
 20
6.947746
 30
0.000000
  0
VERTEX
  8
MERGEDLAYER-2
 10
1.996198
 20
6.947746
 30
0.000000
  0
VERTEX
  8
MERGEDLAYER-2
 10
1.996936
 20
6.948485
 30
0.000000
  0
SEQEND
  8
MERGEDLAYER-2
  0
POLYLINE
  8
MERGEDLAYER-2
 66
  1
 70
  0
 62
  0
 10
1.996198
 20
6.947746
 30
0.000000
  0
VERTEX
  8
MERGEDLAYER-2
 10
1.996198
 20
6.947746
 30
0.000000
  0
VERTEX
  8
MERGEDLAYER-2
 10
1.996188
 20
6.932195
 30
0.000000
  0
SEQEND
  8
MERGEDLAYER-2
  0
POLYLINE
  8
MERGEDLAYER-2
 66
  1
 70
  0
 62
  0
 10
1.996189
 20
6.932195
 30
0.000000
  0
VERTEX
  8
MERGEDLAYER-2
 10
1.996189
 20
6.932195
 30
0.000000
  0
VERTEX
  8
MERGEDLAYER-2
 10
1.989514
 20
6.921770
 30
0.000000
  0
VERTEX
  8
MERGEDLAYER-2
 10
2.001908
 20
6.917063
 30
0.000000
  0
VERTEX
  8
MERGEDLAYER-2
 10
2.006614
 20
6.929457
 30
0.000000
  0
VERTEX
  8
MERGEDLAYER-2
 10
2.003871
 20
6.932198
 30
0.000000
  0
SEQEND
  8
MERGEDLAYER-2
  0
POLYLINE
  8
MERGEDLAYER-2
 66
  1
 70
  0
 62
  0
 10
2.003860
 20
6.947746
 30
0.000000
  0
VERTEX
  8
MERGEDLAYER-2
 10
2.003860
 20
6.947746
 30
0.000000
  0
VERTEX
  8
MERGEDLAYER-2
 10
2.003871
 20
6.932197
 30
0.000000
  0
SEQEND
  8
MERGEDLAYER-2
  0
POLYLINE
  8
MERGEDLAYER-2
 66
  1
 70
  0
 62
  0
 10
2.003860
 20
6.947746
 30
0.000000
  0
VERTEX
  8
MERGEDLAYER-2
 10
2.003860
 20
6.947746
 30
0.000000
  0
VERTEX
  8
MERGEDLAYER-2
 10
2.003149
 20
6.948458
 30
0.000000
  0
SEQEND
  8
MERGEDLAYER-2
  0
POLYLINE
  8
MERGEDLAYER-2
 66
  1
 70
  0
 62
  0
 10
2.003149
 20
6.948458
 30
0.000000
  0
VERTEX
  8
MERGEDLAYER-2
 10
2.003149
 20
6.948458
 30
0.000000
  0
VERTEX
  8
MERGEDLAYER-2
 10
2.003149
 20
7.210210
 30
0.000000
  0
SEQEND
  8
MERGEDLAYER-2
  0
CIRCLE
  8
MERGEDLAYER-2
 62
  0
 10
1.997855
 20
6.528539
 30
0.000000
 40
0.010221
  0
POLYLINE
  8
MERGEDLAYER-2
 66
  1
 70
  0
 62
  0
 10
2.007369
 20
6.492398
 30
0.000000
  0
VERTEX
  8
MERGEDLAYER-2
 10
2.007369
 20
6.492398
 30
0.000000
  0
VERTEX
  8
MERGEDLAYER-2
 10
2.005975
 20
6.509728
 30
0.000000
  0
VERTEX
  8
MERGEDLAYER-2
 10
1.990614
 20
6.510303
 30
0.000000
  0
VERTEX
  8
MERGEDLAYER-2
 10
1.990039
 20
6.494942
 30
0.000000
  0
VERTEX
  8
MERGEDLAYER-2
 10
1.996150
 20
6.490192
 30
0.000000
  0
SEQEND
  8
MERGEDLAYER-2
  0
POLYLINE
  8
MERGEDLAYER-2
 66
  1
 70
  0
 62
  0
 10
1.994282
 20
6.483070
 30
0.000000
  0
VERTEX
  8
MERGEDLAYER-2
 10
1.994282
 20
6.483070
 30
0.000000
  0
VERTEX
  8
MERGEDLAYER-2
 10
1.989741
 20
6.483071
 30
0.000000
  0
SEQEND
  8
MERGEDLAYER-2
  0
POLYLINE
  8
MERGEDLAYER-2
 66
  1
 70
  0
 62
  0
 10
1.996150
 20
6.490192
 30
0.000000
  0
VERTEX
  8
MERGEDLAYER-2
 10
1.996150
 20
6.490192
 30
0.000000
  0
VERTEX
  8
MERGEDLAYER-2
 10
1.996146
 20
6.484933
 30
0.000000
  0
SEQEND
  8
MERGEDLAYER-2
  0
POLYLINE
  8
MERGEDLAYER-2
 66
  1
 70
  0
 62
  0
 10
1.994282
 20
6.483071
 30
0.000000
  0
VERTEX
  8
MERGEDLAYER-2
 10
1.994282
 20
6.483071
 30
0.000000
  0
VERTEX
  8
MERGEDLAYER-2
 10
1.996146
 20
6.484933
 30
0.000000
  0
SEQEND
  8
MERGEDLAYER-2
  0
POLYLINE
  8
MERGEDLAYER-2
 66
  1
 70
  0
 62
  0
 10
2.016395
 20
6.528498
 30
0.000000
  0
VERTEX
  8
MERGEDLAYER-2
 10
2.016395
 20
6.528498
 30
0.000000
  0
VERTEX
  8
MERGEDLAYER-2
 10
2.019900
 20
6.493558
 30
0.000000
  0
SEQEND
  8
MERGEDLAYER-2
  0
POLYLINE
  8
MERGEDLAYER-2
 66
  1
 70
  0
 62
  0
 10
2.017910
 20
6.487977
 30
0.000000
  0
VERTEX
  8
MERGEDLAYER-2
 10
2.017910
 20
6.487977
 30
0.000000
  0
VERTEX
  8
MERGEDLAYER-2
 10
2.019900
 20
6.493557
 30
0.000000
  0
SEQEND
  8
MERGEDLAYER-2
  0
POLYLINE
  8
MERGEDLAYER-2
 66
  1
 70
  0
 62
  0
 10
2.007369
 20
6.492399
 30
0.000000
  0
VERTEX
  8
MERGEDLAYER-2
 10
2.007369
 20
6.492399
 30
0.000000
  0
VERTEX
  8
MERGEDLAYER-2
 10
2.010490
 20
6.484266
 30
0.000000
  0
SEQEND
  8
MERGEDLAYER-2
  0
POLYLINE
  8
MERGEDLAYER-2
 66
  1
 70
  0
 62
  0
 10
2.013548
 20
6.483616
 30
0.000000
  0
VERTEX
  8
MERGEDLAYER-2
 10
2.013548
 20
6.483616
 30
0.000000
  0
VERTEX
  8
MERGEDLAYER-2
 10
2.017910
 20
6.487979
 30
0.000000
  0
SEQEND
  8
MERGEDLAYER-2
  0
POLYLINE
  8
MERGEDLAYER-2
 66
  1
 70
  0
 62
  0
 10
2.010490
 20
6.484266
 30
0.000000
  0
VERTEX
  8
MERGEDLAYER-2
 10
2.010490
 20
6.484266
 30
0.000000
  0
VERTEX
  8
MERGEDLAYER-2
 10
2.013547
 20
6.483616
 30
0.000000
  0
SEQEND
  8
MERGEDLAYER-2
  0
POLYLINE
  8
MERGEDLAYER-2
 66
  1
 70
  0
 62
  0
 10
1.982625
 20
6.490186
 30
0.000000
  0
VERTEX
  8
MERGEDLAYER-2
 10
1.982625
 20
6.490186
 30
0.000000
  0
VERTEX
  8
MERGEDLAYER-2
 10
1.989741
 20
6.483071
 30
0.000000
  0
SEQEND
  8
MERGEDLAYER-2
  0
POLYLINE
  8
MERGEDLAYER-2
 66
  1
 70
  0
 62
  0
 10
1.982625
 20
6.490186
 30
0.000000
  0
VERTEX
  8
MERGEDLAYER-2
 10
1.982625
 20
6.490186
 30
0.000000
  0
VERTEX
  8
MERGEDLAYER-2
 10
1.979785
 20
6.510601
 30
0.000000
  0
SEQEND
  8
MERGEDLAYER-2
  0
POLYLINE
  8
MERGEDLAYER-2
 66
  1
 70
  0
 62
  0
 10
1.984158
 20
6.514972
 30
0.000000
  0
VERTEX
  8
MERGEDLAYER-2
 10
1.984158
 20
6.514972
 30
0.000000
  0
VERTEX
  8
MERGEDLAYER-2
 10
1.979177
 20
6.519953
 30
0.000000
  0
SEQEND
  8
MERGEDLAYER-2
  0
POLYLINE
  8
MERGEDLAYER-2
 66
  1
 70
  0
 62
  0
 10
1.984158
 20
6.514972
 30
0.000000
  0
VERTEX
  8
MERGEDLAYER-2
 10
1.984158
 20
6.514972
 30
0.000000
  0
VERTEX
  8
MERGEDLAYER-2
 10
1.979785
 20
6.510601
 30
0.000000
  0
SEQEND
  8
MERGEDLAYER-2
  0
POLYLINE
  8
MERGEDLAYER-2
 66
  1
 70
  0
 62
  0
 10
1.979177
 20
6.519953
 30
0.000000
  0
VERTEX
  8
MERGEDLAYER-2
 10
1.979177
 20
6.519953
 30
0.000000
  0
VERTEX
  8
MERGEDLAYER-2
 10
1.979177
 20
6.537043
 30
0.000000
  0
SEQEND
  8
MERGEDLAYER-2
  0
POLYLINE
  8
MERGEDLAYER-2
 66
  1
 70
  0
 62
  0
 10
1.996150
 20
6.566805
 30
0.000000
  0
VERTEX
  8
MERGEDLAYER-2
 10
1.996150
 20
6.566805
 30
0.000000
  0
VERTEX
  8
MERGEDLAYER-2
 10
1.987833
 20
6.554774
 30
0.000000
  0
VERTEX
  8
MERGEDLAYER-2
 10
2.001833
 20
6.548425
 30
0.000000
  0
VERTEX
  8
MERGEDLAYER-2
 10
2.008181
 20
6.562425
 30
0.000000
  0
VERTEX
  8
MERGEDLAYER-2
 10
2.007369
 20
6.564599
 30
0.000000
  0
SEQEND
  8
MERGEDLAYER-2
  0
POLYLINE
  8
MERGEDLAYER-2
 66
  1
 70
  0
 62
  0
 10
1.994282
 20
6.573927
 30
0.000000
  0
VERTEX
  8
MERGEDLAYER-2
 10
1.994282
 20
6.573927
 30
0.000000
  0
VERTEX
  8
MERGEDLAYER-2
 10
1.989741
 20
6.573927
 30
0.000000
  0
SEQEND
  8
MERGEDLAYER-2
  0
POLYLINE
  8
MERGEDLAYER-2
 66
  1
 70
  0
 62
  0
 10
1.996150
 20
6.566805
 30
0.000000
  0
VERTEX
  8
MERGEDLAYER-2
 10
1.996150
 20
6.566805
 30
0.000000
  0
VERTEX
  8
MERGEDLAYER-2
 10
1.996146
 20
6.572065
 30
0.000000
  0
SEQEND
  8
MERGEDLAYER-2
  0
POLYLINE
  8
MERGEDLAYER-2
 66
  1
 70
  0
 62
  0
 10
1.996146
 20
6.572064
 30
0.000000
  0
VERTEX
  8
MERGEDLAYER-2
 10
1.996146
 20
6.572064
 30
0.000000
  0
VERTEX
  8
MERGEDLAYER-2
 10
1.994282
 20
6.573926
 30
0.000000
  0
SEQEND
  8
MERGEDLAYER-2
  0
POLYLINE
  8
MERGEDLAYER-2
 66
  1
 70
  0
 62
  0
 10
2.016395
 20
6.528498
 30
0.000000
  0
VERTEX
  8
MERGEDLAYER-2
 10
2.016395
 20
6.528498
 30
0.000000
  0
VERTEX
  8
MERGEDLAYER-2
 10
2.019900
 20
6.563439
 30
0.000000
  0
SEQEND
  8
MERGEDLAYER-2
  0
POLYLINE
  8
MERGEDLAYER-2
 66
  1
 70
  0
 62
  0
 10
2.019900
 20
6.563439
 30
0.000000
  0
VERTEX
  8
MERGEDLAYER-2
 10
2.019900
 20
6.563439
 30
0.000000
  0
VERTEX
  8
MERGEDLAYER-2
 10
2.017910
 20
6.569019
 30
0.000000
  0
SEQEND
  8
MERGEDLAYER-2
  0
POLYLINE
  8
MERGEDLAYER-2
 66
  1
 70
  0
 62
  0
 10
2.007369
 20
6.564599
 30
0.000000
  0
VERTEX
  8
MERGEDLAYER-2
 10
2.007369
 20
6.564599
 30
0.000000
  0
VERTEX
  8
MERGEDLAYER-2
 10
2.010490
 20
6.572731
 30
0.000000
  0
SEQEND
  8
MERGEDLAYER-2
  0
POLYLINE
  8
MERGEDLAYER-2
 66
  1
 70
  0
 62
  0
 10
2.013548
 20
6.573381
 30
0.000000
  0
VERTEX
  8
MERGEDLAYER-2
 10
2.013548
 20
6.573381
 30
0.000000
  0
VERTEX
  8
MERGEDLAYER-2
 10
2.017910
 20
6.569019
 30
0.000000
  0
SEQEND
  8
MERGEDLAYER-2
  0
POLYLINE
  8
MERGEDLAYER-2
 66
  1
 70
  0
 62
  0
 10
2.013547
 20
6.573380
 30
0.000000
  0
VERTEX
  8
MERGEDLAYER-2
 10
2.013547
 20
6.573380
 30
0.000000
  0
VERTEX
  8
MERGEDLAYER-2
 10
2.010490
 20
6.572731
 30
0.000000
  0
SEQEND
  8
MERGEDLAYER-2
  0
POLYLINE
  8
MERGEDLAYER-2
 66
  1
 70
  0
 62
  0
 10
1.982625
 20
6.566811
 30
0.000000
  0
VERTEX
  8
MERGEDLAYER-2
 10
1.982625
 20
6.566811
 30
0.000000
  0
VERTEX
  8
MERGEDLAYER-2
 10
1.989741
 20
6.573927
 30
0.000000
  0
SEQEND
  8
MERGEDLAYER-2
  0
POLYLINE
  8
MERGEDLAYER-2
 66
  1
 70
  0
 62
  0
 10
1.982625
 20
6.566811
 30
0.000000
  0
VERTEX
  8
MERGEDLAYER-2
 10
1.982625
 20
6.566811
 30
0.000000
  0
VERTEX
  8
MERGEDLAYER-2
 10
1.979785
 20
6.546396
 30
0.000000
  0
SEQEND
  8
MERGEDLAYER-2
  0
POLYLINE
  8
MERGEDLAYER-2
 66
  1
 70
  0
 62
  0
 10
1.984158
 20
6.542024
 30
0.000000
  0
VERTEX
  8
MERGEDLAYER-2
 10
1.984158
 20
6.542024
 30
0.000000
  0
VERTEX
  8
MERGEDLAYER-2
 10
1.979177
 20
6.537043
 30
0.000000
  0
SEQEND
  8
MERGEDLAYER-2
  0
POLYLINE
  8
MERGEDLAYER-2
 66
  1
 70
  0
 62
  0
 10
1.984158
 20
6.542024
 30
0.000000
  0
VERTEX
  8
MERGEDLAYER-2
 10
1.984158
 20
6.542024
 30
0.000000
  0
VERTEX
  8
MERGEDLAYER-2
 10
1.979785
 20
6.546396
 30
0.000000
  0
SEQEND
  8
MERGEDLAYER-2
  0
POLYLINE
  8
MERGEDLAYER-2
 66
  1
 70
  0
 62
  0
 10
2.003932
 20
6.843693
 30
0.000000
  0
VERTEX
  8
MERGEDLAYER-2
 10
2.003932
 20
6.843693
 30
0.000000
  0
VERTEX
  8
MERGEDLAYER-2
 10
2.003217
 20
6.842978
 30
0.000000
  0
SEQEND
  8
MERGEDLAYER-2
  0
POLYLINE
  8
MERGEDLAYER-2
 66
  1
 70
  0
 62
  0
 10
2.003932
 20
6.843693
 30
0.000000
  0
VERTEX
  8
MERGEDLAYER-2
 10
2.003932
 20
6.843693
 30
0.000000
  0
VERTEX
  8
MERGEDLAYER-2
 10
2.003941
 20
6.859244
 30
0.000000
  0
SEQEND
  8
MERGEDLAYER-2
  0
POLYLINE
  8
MERGEDLAYER-2
 66
  1
 70
  0
 62
  0
 10
2.003941
 20
6.859244
 30
0.000000
  0
VERTEX
  8
MERGEDLAYER-2
 10
2.003941
 20
6.859244
 30
0.000000
  0
VERTEX
  8
MERGEDLAYER-2
 10
2.006678
 20
6.873606
 30
0.000000
  0
VERTEX
  8
MERGEDLAYER-2
 10
1.994285
 20
6.878312
 30
0.000000
  0
VERTEX
  8
MERGEDLAYER-2
 10
1.989578
 20
6.865918
 30
0.000000
  0
VERTEX
  8
MERGEDLAYER-2
 10
1.996259
 20
6.859241
 30
0.000000
  0
SEQEND
  8
MERGEDLAYER-2
  0
POLYLINE
  8
MERGEDLAYER-2
 66
  1
 70
  0
 62
  0
 10
1.996269
 20
6.843693
 30
0.000000
  0
VERTEX
  8
MERGEDLAYER-2
 10
1.996269
 20
6.843693
 30
0.000000
  0
VERTEX
  8
MERGEDLAYER-2
 10
1.996259
 20
6.859241
 30
0.000000
  0
SEQEND
  8
MERGEDLAYER-2
  0
POLYLINE
  8
MERGEDLAYER-2
 66
  1
 70
  0
 62
  0
 10
1.996269
 20
6.843693
 30
0.000000
  0
VERTEX
  8
MERGEDLAYER-2
 10
1.996269
 20
6.843693
 30
0.000000
  0
VERTEX
  8
MERGEDLAYER-2
 10
1.997004
 20
6.842957
 30
0.000000
  0
SEQEND
  8
MERGEDLAYER-2
  0
POLYLINE
  8
MERGEDLAYER-2
 66
  1
 70
  0
 62
  0
 10
1.997004
 20
6.581253
 30
0.000000
  0
VERTEX
  8
MERGEDLAYER-2
 10
1.997004
 20
6.581253
 30
0.000000
  0
VERTEX
  8
MERGEDLAYER-2
 10
1.997004
 20
6.842957
 30
0.000000
  0
SEQEND
  8
MERGEDLAYER-2
  0
POLYLINE
  8
MERGEDLAYER-2
 66
  1
 70
  0
 62
  0
 10
1.996266
 20
6.580514
 30
0.000000
  0
VERTEX
  8
MERGEDLAYER-2
 10
1.996266
 20
6.580514
 30
0.000000
  0
VERTEX
  8
MERGEDLAYER-2
 10
1.997004
 20
6.581253
 30
0.000000
  0
SEQEND
  8
MERGEDLAYER-2
  0
POLYLINE
  8
MERGEDLAYER-2
 66
  1
 70
  0
 62
  0
 10
1.996266
 20
6.580514
 30
0.000000
  0
VERTEX
  8
MERGEDLAYER-2
 10
1.996266
 20
6.580514
 30
0.000000
  0
VERTEX
  8
MERGEDLAYER-2
 10
1.996257
 20
6.564963
 30
0.000000
  0
SEQEND
  8
MERGEDLAYER-2
  0
POLYLINE
  8
MERGEDLAYER-2
 66
  1
 70
  0
 62
  0
 10
1.996257
 20
6.564963
 30
0.000000
  0
VERTEX
  8
MERGEDLAYER-2
 10
1.996257
 20
6.564963
 30
0.000000
  0
VERTEX
  8
MERGEDLAYER-2
 10
1.989582
 20
6.554537
 30
0.000000
  0
VERTEX
  8
MERGEDLAYER-2
 10
2.001975
 20
6.549831
 30
0.000000
  0
VERTEX
  8
MERGEDLAYER-2
 10
2.006682
 20
6.562225
 30
0.000000
  0
VERTEX
  8
MERGEDLAYER-2
 10
2.003938
 20
6.564965
 30
0.000000
  0
SEQEND
  8
MERGEDLAYER-2
  0
POLYLINE
  8
MERGEDLAYER-2
 66
  1
 70
  0
 62
  0
 10
2.003928
 20
6.580514
 30
0.000000
  0
VERTEX
  8
MERGEDLAYER-2
 10
2.003928
 20
6.580514
 30
0.000000
  0
VERTEX
  8
MERGEDLAYER-2
 10
2.003938
 20
6.564965
 30
0.000000
  0
SEQEND
  8
MERGEDLAYER-2
  0
POLYLINE
  8
MERGEDLAYER-2
 66
  1
 70
  0
 62
  0
 10
2.003928
 20
6.580514
 30
0.000000
  0
VERTEX
  8
MERGEDLAYER-2
 10
2.003928
 20
6.580514
 30
0.000000
  0
VERTEX
  8
MERGEDLAYER-2
 10
2.003217
 20
6.581226
 30
0.000000
  0
SEQEND
  8
MERGEDLAYER-2
  0
POLYLINE
  8
MERGEDLAYER-2
 66
  1
 70
  0
 62
  0
 10
2.003217
 20
6.581226
 30
0.000000
  0
VERTEX
  8
MERGEDLAYER-2
 10
2.003217
 20
6.581226
 30
0.000000
  0
VERTEX
  8
MERGEDLAYER-2
 10
2.003217
 20
6.842978
 30
0.000000
  0
SEQEND
  8
MERGEDLAYER-2
  0
CIRCLE
  8
MERGEDLAYER-2
 62
  0
 10
1.997855
 20
7.262922
 30
0.000000
 40
0.010221
  0
POLYLINE
  8
MERGEDLAYER-2
 66
  1
 70
  0
 62
  0
 10
2.007369
 20
7.226781
 30
0.000000
  0
VERTEX
  8
MERGEDLAYER-2
 10
2.007369
 20
7.226781
 30
0.000000
  0
VERTEX
  8
MERGEDLAYER-2
 10
2.005975
 20
7.244111
 30
0.000000
  0
VERTEX
  8
MERGEDLAYER-2
 10
1.990614
 20
7.244686
 30
0.000000
  0
VERTEX
  8
MERGEDLAYER-2
 10
1.990039
 20
7.229324
 30
0.000000
  0
VERTEX
  8
MERGEDLAYER-2
 10
1.996150
 20
7.224575
 30
0.000000
  0
SEQEND
  8
MERGEDLAYER-2
  0
POLYLINE
  8
MERGEDLAYER-2
 66
  1
 70
  0
 62
  0
 10
1.994282
 20
7.217453
 30
0.000000
  0
VERTEX
  8
MERGEDLAYER-2
 10
1.994282
 20
7.217453
 30
0.000000
  0
VERTEX
  8
MERGEDLAYER-2
 10
1.989741
 20
7.217455
 30
0.000000
  0
SEQEND
  8
MERGEDLAYER-2
  0
POLYLINE
  8
MERGEDLAYER-2
 66
  1
 70
  0
 62
  0
 10
1.996150
 20
7.224575
 30
0.000000
  0
VERTEX
  8
MERGEDLAYER-2
 10
1.996150
 20
7.224575
 30
0.000000
  0
VERTEX
  8
MERGEDLAYER-2
 10
1.996146
 20
7.219316
 30
0.000000
  0
SEQEND
  8
MERGEDLAYER-2
  0
POLYLINE
  8
MERGEDLAYER-2
 66
  1
 70
  0
 62
  0
 10
1.994282
 20
7.217454
 30
0.000000
  0
VERTEX
  8
MERGEDLAYER-2
 10
1.994282
 20
7.217454
 30
0.000000
  0
VERTEX
  8
MERGEDLAYER-2
 10
1.996146
 20
7.219316
 30
0.000000
  0
SEQEND
  8
MERGEDLAYER-2
  0
POLYLINE
  8
MERGEDLAYER-2
 66
  1
 70
  0
 62
  0
 10
2.016395
 20
7.262882
 30
0.000000
  0
VERTEX
  8
MERGEDLAYER-2
 10
2.016395
 20
7.262882
 30
0.000000
  0
VERTEX
  8
MERGEDLAYER-2
 10
2.019900
 20
7.227941
 30
0.000000
  0
SEQEND
  8
MERGEDLAYER-2
  0
POLYLINE
  8
MERGEDLAYER-2
 66
  1
 70
  0
 62
  0
 10
2.017910
 20
7.222361
 30
0.000000
  0
VERTEX
  8
MERGEDLAYER-2
 10
2.017910
 20
7.222361
 30
0.000000
  0
VERTEX
  8
MERGEDLAYER-2
 10
2.019900
 20
7.227941
 30
0.000000
  0
SEQEND
  8
MERGEDLAYER-2
  0
POLYLINE
  8
MERGEDLAYER-2
 66
  1
 70
  0
 62
  0
 10
2.007369
 20
7.226781
 30
0.000000
  0
VERTEX
  8
MERGEDLAYER-2
 10
2.007369
 20
7.226781
 30
0.000000
  0
VERTEX
  8
MERGEDLAYER-2
 10
2.010490
 20
7.218650
 30
0.000000
  0
SEQEND
  8
MERGEDLAYER-2
  0
POLYLINE
  8
MERGEDLAYER-2
 66
  1
 70
  0
 62
  0
 10
2.013548
 20
7.218000
 30
0.000000
  0
VERTEX
  8
MERGEDLAYER-2
 10
2.013548
 20
7.218000
 30
0.000000
  0
VERTEX
  8
MERGEDLAYER-2
 10
2.017910
 20
7.222362
 30
0.000000
  0
SEQEND
  8
MERGEDLAYER-2
  0
POLYLINE
  8
MERGEDLAYER-2
 66
  1
 70
  0
 62
  0
 10
2.010490
 20
7.218650
 30
0.000000
  0
VERTEX
  8
MERGEDLAYER-2
 10
2.010490
 20
7.218650
 30
0.000000
  0
VERTEX
  8
MERGEDLAYER-2
 10
2.013547
 20
7.218000
 30
0.000000
  0
SEQEND
  8
MERGEDLAYER-2
  0
POLYLINE
  8
MERGEDLAYER-2
 66
  1
 70
  0
 62
  0
 10
1.982625
 20
7.224569
 30
0.000000
  0
VERTEX
  8
MERGEDLAYER-2
 10
1.982625
 20
7.224569
 30
0.000000
  0
VERTEX
  8
MERGEDLAYER-2
 10
1.989741
 20
7.217455
 30
0.000000
  0
SEQEND
  8
MERGEDLAYER-2
  0
POLYLINE
  8
MERGEDLAYER-2
 66
  1
 70
  0
 62
  0
 10
1.982625
 20
7.224569
 30
0.000000
  0
VERTEX
  8
MERGEDLAYER-2
 10
1.982625
 20
7.224569
 30
0.000000
  0
VERTEX
  8
MERGEDLAYER-2
 10
1.979785
 20
7.244983
 30
0.000000
  0
SEQEND
  8
MERGEDLAYER-2
  0
POLYLINE
  8
MERGEDLAYER-2
 66
  1
 70
  0
 62
  0
 10
1.984158
 20
7.249356
 30
0.000000
  0
VERTEX
  8
MERGEDLAYER-2
 10
1.984158
 20
7.249356
 30
0.000000
  0
VERTEX
  8
MERGEDLAYER-2
 10
1.979177
 20
7.254337
 30
0.000000
  0
SEQEND
  8
MERGEDLAYER-2
  0
POLYLINE
  8
MERGEDLAYER-2
 66
  1
 70
  0
 62
  0
 10
1.984158
 20
7.249356
 30
0.000000
  0
VERTEX
  8
MERGEDLAYER-2
 10
1.984158
 20
7.249356
 30
0.000000
  0
VERTEX
  8
MERGEDLAYER-2
 10
1.979785
 20
7.244983
 30
0.000000
  0
SEQEND
  8
MERGEDLAYER-2
  0
POLYLINE
  8
MERGEDLAYER-2
 66
  1
 70
  0
 62
  0
 10
1.979177
 20
7.254337
 30
0.000000
  0
VERTEX
  8
MERGEDLAYER-2
 10
1.979177
 20
7.254337
 30
0.000000
  0
VERTEX
  8
MERGEDLAYER-2
 10
1.979177
 20
7.271427
 30
0.000000
  0
SEQEND
  8
MERGEDLAYER-2
  0
POLYLINE
  8
MERGEDLAYER-2
 66
  1
 70
  0
 62
  0
 10
1.996150
 20
7.301188
 30
0.000000
  0
VERTEX
  8
MERGEDLAYER-2
 10
1.996150
 20
7.301188
 30
0.000000
  0
VERTEX
  8
MERGEDLAYER-2
 10
1.987833
 20
7.289157
 30
0.000000
  0
VERTEX
  8
MERGEDLAYER-2
 10
2.001833
 20
7.282809
 30
0.000000
  0
VERTEX
  8
MERGEDLAYER-2
 10
2.008181
 20
7.296809
 30
0.000000
  0
VERTEX
  8
MERGEDLAYER-2
 10
2.007369
 20
7.298982
 30
0.000000
  0
SEQEND
  8
MERGEDLAYER-2
  0
POLYLINE
  8
MERGEDLAYER-2
 66
  1
 70
  0
 62
  0
 10
1.994282
 20
7.308310
 30
0.000000
  0
VERTEX
  8
MERGEDLAYER-2
 10
1.994282
 20
7.308310
 30
0.000000
  0
VERTEX
  8
MERGEDLAYER-2
 10
1.989741
 20
7.308310
 30
0.000000
  0
SEQEND
  8
MERGEDLAYER-2
  0
POLYLINE
  8
MERGEDLAYER-2
 66
  1
 70
  0
 62
  0
 10
1.996150
 20
7.301188
 30
0.000000
  0
VERTEX
  8
MERGEDLAYER-2
 10
1.996150
 20
7.301188
 30
0.000000
  0
VERTEX
  8
MERGEDLAYER-2
 10
1.996146
 20
7.306447
 30
0.000000
  0
SEQEND
  8
MERGEDLAYER-2
  0
POLYLINE
  8
MERGEDLAYER-2
 66
  1
 70
  0
 62
  0
 10
1.996146
 20
7.306447
 30
0.000000
  0
VERTEX
  8
MERGEDLAYER-2
 10
1.996146
 20
7.306447
 30
0.000000
  0
VERTEX
  8
MERGEDLAYER-2
 10
1.994282
 20
7.308310
 30
0.000000
  0
SEQEND
  8
MERGEDLAYER-2
  0
POLYLINE
  8
MERGEDLAYER-2
 66
  1
 70
  0
 62
  0
 10
2.016395
 20
7.262882
 30
0.000000
  0
VERTEX
  8
MERGEDLAYER-2
 10
2.016395
 20
7.262882
 30
0.000000
  0
VERTEX
  8
MERGEDLAYER-2
 10
2.019900
 20
7.297822
 30
0.000000
  0
SEQEND
  8
MERGEDLAYER-2
  0
POLYLINE
  8
MERGEDLAYER-2
 66
  1
 70
  0
 62
  0
 10
2.019900
 20
7.297823
 30
0.000000
  0
VERTEX
  8
MERGEDLAYER-2
 10
2.019900
 20
7.297823
 30
0.000000
  0
VERTEX
  8
MERGEDLAYER-2
 10
2.017910
 20
7.303402
 30
0.000000
  0
SEQEND
  8
MERGEDLAYER-2
  0
POLYLINE
  8
MERGEDLAYER-2
 66
  1
 70
  0
 62
  0
 10
2.007369
 20
7.298982
 30
0.000000
  0
VERTEX
  8
MERGEDLAYER-2
 10
2.007369
 20
7.298982
 30
0.000000
  0
VERTEX
  8
MERGEDLAYER-2
 10
2.010490
 20
7.307114
 30
0.000000
  0
SEQEND
  8
MERGEDLAYER-2
  0
POLYLINE
  8
MERGEDLAYER-2
 66
  1
 70
  0
 62
  0
 10
2.013548
 20
7.307765
 30
0.000000
  0
VERTEX
  8
MERGEDLAYER-2
 10
2.013548
 20
7.307765
 30
0.000000
  0
VERTEX
  8
MERGEDLAYER-2
 10
2.017910
 20
7.303402
 30
0.000000
  0
SEQEND
  8
MERGEDLAYER-2
  0
POLYLINE
  8
MERGEDLAYER-2
 66
  1
 70
  0
 62
  0
 10
2.013547
 20
7.307764
 30
0.000000
  0
VERTEX
  8
MERGEDLAYER-2
 10
2.013547
 20
7.307764
 30
0.000000
  0
VERTEX
  8
MERGEDLAYER-2
 10
2.010490
 20
7.307114
 30
0.000000
  0
SEQEND
  8
MERGEDLAYER-2
  0
POLYLINE
  8
MERGEDLAYER-2
 66
  1
 70
  0
 62
  0
 10
1.982625
 20
7.301195
 30
0.000000
  0
VERTEX
  8
MERGEDLAYER-2
 10
1.982625
 20
7.301195
 30
0.000000
  0
VERTEX
  8
MERGEDLAYER-2
 10
1.989741
 20
7.308310
 30
0.000000
  0
SEQEND
  8
MERGEDLAYER-2
  0
POLYLINE
  8
MERGEDLAYER-2
 66
  1
 70
  0
 62
  0
 10
1.982625
 20
7.301195
 30
0.000000
  0
VERTEX
  8
MERGEDLAYER-2
 10
1.982625
 20
7.301195
 30
0.000000
  0
VERTEX
  8
MERGEDLAYER-2
 10
1.979785
 20
7.280780
 30
0.000000
  0
SEQEND
  8
MERGEDLAYER-2
  0
POLYLINE
  8
MERGEDLAYER-2
 66
  1
 70
  0
 62
  0
 10
1.984158
 20
7.276407
 30
0.000000
  0
VERTEX
  8
MERGEDLAYER-2
 10
1.984158
 20
7.276407
 30
0.000000
  0
VERTEX
  8
MERGEDLAYER-2
 10
1.979177
 20
7.271427
 30
0.000000
  0
SEQEND
  8
MERGEDLAYER-2
  0
POLYLINE
  8
MERGEDLAYER-2
 66
  1
 70
  0
 62
  0
 10
1.984158
 20
7.276407
 30
0.000000
  0
VERTEX
  8
MERGEDLAYER-2
 10
1.984158
 20
7.276407
 30
0.000000
  0
VERTEX
  8
MERGEDLAYER-2
 10
1.979785
 20
7.280780
 30
0.000000
  0
SEQEND
  8
MERGEDLAYER-2
  0
POLYLINE
  8
MERGEDLAYER-2
 66
  1
 70
  1
 62
  0
  0
VERTEX
  8
MERGEDLAYER-2
 10
0.782822
 20
0.803781
 30
0.000000
  0
VERTEX
  8
MERGEDLAYER-2
 10
1.845759
 20
0.803781
 30
0.000000
  0
VERTEX
  8
MERGEDLAYER-2
 10
1.845759
 20
0.684614
 30
0.000000
  0
VERTEX
  8
MERGEDLAYER-2
 10
0.782822
 20
0.684614
 30
0.000000
  0
SEQEND
  8
MERGEDLAYER-2
  0
POLYLINE
  8
MERGEDLAYER-2
 66
  1
 70
  1
 62
  0
  0
VERTEX
  8
MERGEDLAYER-2
 10
2.014697
 20
0.803781
 30
0.000000
  0
VERTEX
  8
MERGEDLAYER-2
 10
3.077636
 20
0.803781
 30
0.000000
  0
VERTEX
  8
MERGEDLAYER-2
 10
3.077636
 20
0.684614
 30
0.000000
  0
VERTEX
  8
MERGEDLAYER-2
 10
2.014697
 20
0.684614
 30
0.000000
  0
SEQEND
  8
MERGEDLAYER-2
  0
POLYLINE
  8
MERGEDLAYER-2
 66
  1
 70
  1
 62
  0
  0
VERTEX
  8
MERGEDLAYER-2
 10
3.246573
 20
0.803781
 30
0.000000
  0
VERTEX
  8
MERGEDLAYER-2
 10
4.309512
 20
0.803781
 30
0.000000
  0
VERTEX
  8
MERGEDLAYER-2
 10
4.309512
 20
0.684614
 30
0.000000
  0
VERTEX
  8
MERGEDLAYER-2
 10
3.246573
 20
0.684614
 30
0.000000
  0
SEQEND
  8
MERGEDLAYER-2
  0
POLYLINE
  8
MERGEDLAYER-2
 66
  1
 70
  1
 62
  0
  0
VERTEX
  8
MERGEDLAYER-2
 10
4.478450
 20
0.803781
 30
0.000000
  0
VERTEX
  8
MERGEDLAYER-2
 10
5.541387
 20
0.803781
 30
0.000000
  0
VERTEX
  8
MERGEDLAYER-2
 10
5.541387
 20
0.684614
 30
0.000000
  0
VERTEX
  8
MERGEDLAYER-2
 10
4.478450
 20
0.684614
 30
0.000000
  0
SEQEND
  8
MERGEDLAYER-2
  0
POLYLINE
  8
MERGEDLAYER-2
 66
  1
 70
  1
 62
  0
  0
VERTEX
  8
MERGEDLAYER-2
 10
5.710350
 20
0.803781
 30
0.000000
  0
VERTEX
  8
MERGEDLAYER-2
 10
6.773287
 20
0.803781
 30
0.000000
  0
VERTEX
  8
MERGEDLAYER-2
 10
6.773287
 20
0.684614
 30
0.000000
  0
VERTEX
  8
MERGEDLAYER-2
 10
5.710350
 20
0.684614
 30
0.000000
  0
SEQEND
  8
MERGEDLAYER-2
  0
POLYLINE
  8
MERGEDLAYER-2
 66
  1
 70
  0
 62
  0
 10
0.954861
 20
0.705691
 30
0.000000
  0
VERTEX
  8
MERGEDLAYER-2
 10
0.954861
 20
0.705691
 30
0.000000
  0
VERTEX
  8
MERGEDLAYER-2
 10
1.024785
 20
0.746062
 30
0.000000
  0
SEQEND
  8
MERGEDLAYER-2
  0
POLYLINE
  8
MERGEDLAYER-2
 66
  1
 70
  0
 62
  0
 10
1.671875
 20
0.778609
 30
0.000000
  0
VERTEX
  8
MERGEDLAYER-2
 10
1.671875
 20
0.778609
 30
0.000000
  0
VERTEX
  8
MERGEDLAYER-2
 10
1.605903
 20
0.740520
 30
0.000000
  0
SEQEND
  8
MERGEDLAYER-2
  0
POLYLINE
  8
MERGEDLAYER-2
 66
  1
 70
  0
 62
  0
 10
2.186761
 20
0.705691
 30
0.000000
  0
VERTEX
  8
MERGEDLAYER-2
 10
2.186761
 20
0.705691
 30
0.000000
  0
VERTEX
  8
MERGEDLAYER-2
 10
2.256685
 20
0.746062
 30
0.000000
  0
SEQEND
  8
MERGEDLAYER-2
  0
POLYLINE
  8
MERGEDLAYER-2
 66
  1
 70
  0
 62
  0
 10
2.903775
 20
0.778609
 30
0.000000
  0
VERTEX
  8
MERGEDLAYER-2
 10
2.903775
 20
0.778609
 30
0.000000
  0
VERTEX
  8
MERGEDLAYER-2
 10
2.837803
 20
0.740520
 30
0.000000
  0
SEQEND
  8
MERGEDLAYER-2
  0
POLYLINE
  8
MERGEDLAYER-2
 66
  1
 70
  0
 62
  0
 10
3.418661
 20
0.705691
 30
0.000000
  0
VERTEX
  8
MERGEDLAYER-2
 10
3.418661
 20
0.705691
 30
0.000000
  0
VERTEX
  8
MERGEDLAYER-2
 10
3.488585
 20
0.746062
 30
0.000000
  0
SEQEND
  8
MERGEDLAYER-2
  0
POLYLINE
  8
MERGEDLAYER-2
 66
  1
 70
  0
 62
  0
 10
4.135675
 20
0.778609
 30
0.000000
  0
VERTEX
  8
MERGEDLAYER-2
 10
4.135675
 20
0.778609
 30
0.000000
  0
VERTEX
  8
MERGEDLAYER-2
 10
4.069703
 20
0.740520
 30
0.000000
  0
SEQEND
  8
MERGEDLAYER-2
  0
POLYLINE
  8
MERGEDLAYER-2
 66
  1
 70
  0
 62
  0
 10
4.650561
 20
0.705691
 30
0.000000
  0
VERTEX
  8
MERGEDLAYER-2
 10
4.650561
 20
0.705691
 30
0.000000
  0
VERTEX
  8
MERGEDLAYER-2
 10
4.720485
 20
0.746062
 30
0.000000
  0
SEQEND
  8
MERGEDLAYER-2
  0
POLYLINE
  8
MERGEDLAYER-2
 66
  1
 70
  0
 62
  0
 10
5.367575
 20
0.778609
 30
0.000000
  0
VERTEX
  8
MERGEDLAYER-2
 10
5.367575
 20
0.778609
 30
0.000000
  0
VERTEX
  8
MERGEDLAYER-2
 10
5.301603
 20
0.740520
 30
0.000000
  0
SEQEND
  8
MERGEDLAYER-2
  0
POLYLINE
  8
MERGEDLAYER-2
 66
  1
 70
  0
 62
  0
 10
5.882461
 20
0.705691
 30
0.000000
  0
VERTEX
  8
MERGEDLAYER-2
 10
5.882461
 20
0.705691
 30
0.000000
  0
VERTEX
  8
MERGEDLAYER-2
 10
5.952385
 20
0.746062
 30
0.000000
  0
SEQEND
  8
MERGEDLAYER-2
  0
POLYLINE
  8
MERGEDLAYER-2
 66
  1
 70
  0
 62
  0
 10
6.599475
 20
0.778609
 30
0.000000
  0
VERTEX
  8
MERGEDLAYER-2
 10
6.599475
 20
0.778609
 30
0.000000
  0
VERTEX
  8
MERGEDLAYER-2
 10
6.533502
 20
0.740520
 30
0.000000
  0
SEQEND
  8
MERGEDLAYER-2
  0
POLYLINE
  8
MERGEDLAYER-2
 66
  1
 70
  1
 62
  0
  0
VERTEX
  8
MERGEDLAYER-2
 10
0.782822
 20
0.972581
 30
0.000000
  0
VERTEX
  8
MERGEDLAYER-2
 10
1.845759
 20
0.972581
 30
0.000000
  0
VERTEX
  8
MERGEDLAYER-2
 10
1.845759
 20
0.853414
 30
0.000000
  0
VERTEX
  8
MERGEDLAYER-2
 10
0.782822
 20
0.853414
 30
0.000000
  0
SEQEND
  8
MERGEDLAYER-2
  0
POLYLINE
  8
MERGEDLAYER-2
 66
  1
 70
  1
 62
  0
  0
VERTEX
  8
MERGEDLAYER-2
 10
2.014697
 20
0.972581
 30
0.000000
  0
VERTEX
  8
MERGEDLAYER-2
 10
3.077636
 20
0.972581
 30
0.000000
  0
VERTEX
  8
MERGEDLAYER-2
 10
3.077636
 20
0.853414
 30
0.000000
  0
VERTEX
  8
MERGEDLAYER-2
 10
2.014697
 20
0.853414
 30
0.000000
  0
SEQEND
  8
MERGEDLAYER-2
  0
POLYLINE
  8
MERGEDLAYER-2
 66
  1
 70
  1
 62
  0
  0
VERTEX
  8
MERGEDLAYER-2
 10
3.246573
 20
0.972581
 30
0.000000
  0
VERTEX
  8
MERGEDLAYER-2
 10
4.309512
 20
0.972581
 30
0.000000
  0
VERTEX
  8
MERGEDLAYER-2
 10
4.309512
 20
0.853414
 30
0.000000
  0
VERTEX
  8
MERGEDLAYER-2
 10
3.246573
 20
0.853414
 30
0.000000
  0
SEQEND
  8
MERGEDLAYER-2
  0
POLYLINE
  8
MERGEDLAYER-2
 66
  1
 70
  1
 62
  0
  0
VERTEX
  8
MERGEDLAYER-2
 10
4.478450
 20
0.972581
 30
0.000000
  0
VERTEX
  8
MERGEDLAYER-2
 10
5.541387
 20
0.972581
 30
0.000000
  0
VERTEX
  8
MERGEDLAYER-2
 10
5.541387
 20
0.853414
 30
0.000000
  0
VERTEX
  8
MERGEDLAYER-2
 10
4.478450
 20
0.853414
 30
0.000000
  0
SEQEND
  8
MERGEDLAYER-2
  0
POLYLINE
  8
MERGEDLAYER-2
 66
  1
 70
  1
 62
  0
  0
VERTEX
  8
MERGEDLAYER-2
 10
5.710350
 20
0.972581
 30
0.000000
  0
VERTEX
  8
MERGEDLAYER-2
 10
6.773287
 20
0.972581
 30
0.000000
  0
VERTEX
  8
MERGEDLAYER-2
 10
6.773287
 20
0.853414
 30
0.000000
  0
VERTEX
  8
MERGEDLAYER-2
 10
5.710350
 20
0.853414
 30
0.000000
  0
SEQEND
  8
MERGEDLAYER-2
  0
POLYLINE
  8
MERGEDLAYER-2
 66
  1
 70
  0
 62
  0
 10
0.954861
 20
0.874491
 30
0.000000
  0
VERTEX
  8
MERGEDLAYER-2
 10
0.954861
 20
0.874491
 30
0.000000
  0
VERTEX
  8
MERGEDLAYER-2
 10
1.024785
 20
0.914862
 30
0.000000
  0
SEQEND
  8
MERGEDLAYER-2
  0
POLYLINE
  8
MERGEDLAYER-2
 66
  1
 70
  0
 62
  0
 10
1.671875
 20
0.947409
 30
0.000000
  0
VERTEX
  8
MERGEDLAYER-2
 10
1.671875
 20
0.947409
 30
0.000000
  0
VERTEX
  8
MERGEDLAYER-2
 10
1.605903
 20
0.909320
 30
0.000000
  0
SEQEND
  8
MERGEDLAYER-2
  0
POLYLINE
  8
MERGEDLAYER-2
 66
  1
 70
  0
 62
  0
 10
2.186761
 20
0.874491
 30
0.000000
  0
VERTEX
  8
MERGEDLAYER-2
 10
2.186761
 20
0.874491
 30
0.000000
  0
VERTEX
  8
MERGEDLAYER-2
 10
2.256685
 20
0.914862
 30
0.000000
  0
SEQEND
  8
MERGEDLAYER-2
  0
POLYLINE
  8
MERGEDLAYER-2
 66
  1
 70
  0
 62
  0
 10
2.903775
 20
0.947409
 30
0.000000
  0
VERTEX
  8
MERGEDLAYER-2
 10
2.903775
 20
0.947409
 30
0.000000
  0
VERTEX
  8
MERGEDLAYER-2
 10
2.837803
 20
0.909320
 30
0.000000
  0
SEQEND
  8
MERGEDLAYER-2
  0
POLYLINE
  8
MERGEDLAYER-2
 66
  1
 70
  0
 62
  0
 10
3.418661
 20
0.874491
 30
0.000000
  0
VERTEX
  8
MERGEDLAYER-2
 10
3.418661
 20
0.874491
 30
0.000000
  0
VERTEX
  8
MERGEDLAYER-2
 10
3.488585
 20
0.914862
 30
0.000000
  0
SEQEND
  8
MERGEDLAYER-2
  0
POLYLINE
  8
MERGEDLAYER-2
 66
  1
 70
  0
 62
  0
 10
4.135675
 20
0.947409
 30
0.000000
  0
VERTEX
  8
MERGEDLAYER-2
 10
4.135675
 20
0.947409
 30
0.000000
  0
VERTEX
  8
MERGEDLAYER-2
 10
4.069703
 20
0.909320
 30
0.000000
  0
SEQEND
  8
MERGEDLAYER-2
  0
POLYLINE
  8
MERGEDLAYER-2
 66
  1
 70
  0
 62
  0
 10
4.650561
 20
0.874491
 30
0.000000
  0
VERTEX
  8
MERGEDLAYER-2
 10
4.650561
 20
0.874491
 30
0.000000
  0
VERTEX
  8
MERGEDLAYER-2
 10
4.720485
 20
0.914862
 30
0.000000
  0
SEQEND
  8
MERGEDLAYER-2
  0
POLYLINE
  8
MERGEDLAYER-2
 66
  1
 70
  0
 62
  0
 10
5.367575
 20
0.947409
 30
0.000000
  0
VERTEX
  8
MERGEDLAYER-2
 10
5.367575
 20
0.947409
 30
0.000000
  0
VERTEX
  8
MERGEDLAYER-2
 10
5.301603
 20
0.909320
 30
0.000000
  0
SEQEND
  8
MERGEDLAYER-2
  0
POLYLINE
  8
MERGEDLAYER-2
 66
  1
 70
  0
 62
  0
 10
5.882461
 20
0.874491
 30
0.000000
  0
VERTEX
  8
MERGEDLAYER-2
 10
5.882461
 20
0.874491
 30
0.000000
  0
VERTEX
  8
MERGEDLAYER-2
 10
5.952385
 20
0.914862
 30
0.000000
  0
SEQEND
  8
MERGEDLAYER-2
  0
POLYLINE
  8
MERGEDLAYER-2
 66
  1
 70
  0
 62
  0
 10
6.599475
 20
0.947409
 30
0.000000
  0
VERTEX
  8
MERGEDLAYER-2
 10
6.599475
 20
0.947409
 30
0.000000
  0
VERTEX
  8
MERGEDLAYER-2
 10
6.533502
 20
0.909320
 30
0.000000
  0
SEQEND
  8
MERGEDLAYER-2
  0
POLYLINE
  8
MERGEDLAYER-2
 66
  1
 70
  1
 62
  0
  0
VERTEX
  8
MERGEDLAYER-2
 10
0.782822
 20
1.141381
 30
0.000000
  0
VERTEX
  8
MERGEDLAYER-2
 10
1.845759
 20
1.141381
 30
0.000000
  0
VERTEX
  8
MERGEDLAYER-2
 10
1.845759
 20
1.022213
 30
0.000000
  0
VERTEX
  8
MERGEDLAYER-2
 10
0.782822
 20
1.022213
 30
0.000000
  0
SEQEND
  8
MERGEDLAYER-2
  0
POLYLINE
  8
MERGEDLAYER-2
 66
  1
 70
  1
 62
  0
  0
VERTEX
  8
MERGEDLAYER-2
 10
2.014697
 20
1.141381
 30
0.000000
  0
VERTEX
  8
MERGEDLAYER-2
 10
3.077636
 20
1.141381
 30
0.000000
  0
VERTEX
  8
MERGEDLAYER-2
 10
3.077636
 20
1.022213
 30
0.000000
  0
VERTEX
  8
MERGEDLAYER-2
 10
2.014697
 20
1.022213
 30
0.000000
  0
SEQEND
  8
MERGEDLAYER-2
  0
POLYLINE
  8
MERGEDLAYER-2
 66
  1
 70
  1
 62
  0
  0
VERTEX
  8
MERGEDLAYER-2
 10
3.246573
 20
1.141381
 30
0.000000
  0
VERTEX
  8
MERGEDLAYER-2
 10
4.309512
 20
1.141381
 30
0.000000
  0
VERTEX
  8
MERGEDLAYER-2
 10
4.309512
 20
1.022213
 30
0.000000
  0
VERTEX
  8
MERGEDLAYER-2
 10
3.246573
 20
1.022213
 30
0.000000
  0
SEQEND
  8
MERGEDLAYER-2
  0
POLYLINE
  8
MERGEDLAYER-2
 66
  1
 70
  1
 62
  0
  0
VERTEX
  8
MERGEDLAYER-2
 10
4.478450
 20
1.141381
 30
0.000000
  0
VERTEX
  8
MERGEDLAYER-2
 10
5.541387
 20
1.141381
 30
0.000000
  0
VERTEX
  8
MERGEDLAYER-2
 10
5.541387
 20
1.022213
 30
0.000000
  0
VERTEX
  8
MERGEDLAYER-2
 10
4.478450
 20
1.022213
 30
0.000000
  0
SEQEND
  8
MERGEDLAYER-2
  0
POLYLINE
  8
MERGEDLAYER-2
 66
  1
 70
  1
 62
  0
  0
VERTEX
  8
MERGEDLAYER-2
 10
5.710350
 20
1.141381
 30
0.000000
  0
VERTEX
  8
MERGEDLAYER-2
 10
6.773287
 20
1.141381
 30
0.000000
  0
VERTEX
  8
MERGEDLAYER-2
 10
6.773287
 20
1.022213
 30
0.000000
  0
VERTEX
  8
MERGEDLAYER-2
 10
5.710350
 20
1.022213
 30
0.000000
  0
SEQEND
  8
MERGEDLAYER-2
  0
POLYLINE
  8
MERGEDLAYER-2
 66
  1
 70
  0
 62
  0
 10
0.954861
 20
1.043292
 30
0.000000
  0
VERTEX
  8
MERGEDLAYER-2
 10
0.954861
 20
1.043292
 30
0.000000
  0
VERTEX
  8
MERGEDLAYER-2
 10
1.024785
 20
1.083662
 30
0.000000
  0
SEQEND
  8
MERGEDLAYER-2
  0
POLYLINE
  8
MERGEDLAYER-2
 66
  1
 70
  0
 62
  0
 10
1.671875
 20
1.116209
 30
0.000000
  0
VERTEX
  8
MERGEDLAYER-2
 10
1.671875
 20
1.116209
 30
0.000000
  0
VERTEX
  8
MERGEDLAYER-2
 10
1.605903
 20
1.078120
 30
0.000000
  0
SEQEND
  8
MERGEDLAYER-2
  0
POLYLINE
  8
MERGEDLAYER-2
 66
  1
 70
  0
 62
  0
 10
2.186761
 20
1.043292
 30
0.000000
  0
VERTEX
  8
MERGEDLAYER-2
 10
2.186761
 20
1.043292
 30
0.000000
  0
VERTEX
  8
MERGEDLAYER-2
 10
2.256685
 20
1.083662
 30
0.000000
  0
SEQEND
  8
MERGEDLAYER-2
  0
POLYLINE
  8
MERGEDLAYER-2
 66
  1
 70
  0
 62
  0
 10
2.903775
 20
1.116209
 30
0.000000
  0
VERTEX
  8
MERGEDLAYER-2
 10
2.903775
 20
1.116209
 30
0.000000
  0
VERTEX
  8
MERGEDLAYER-2
 10
2.837803
 20
1.078120
 30
0.000000
  0
SEQEND
  8
MERGEDLAYER-2
  0
POLYLINE
  8
MERGEDLAYER-2
 66
  1
 70
  0
 62
  0
 10
3.418661
 20
1.043292
 30
0.000000
  0
VERTEX
  8
MERGEDLAYER-2
 10
3.418661
 20
1.043292
 30
0.000000
  0
VERTEX
  8
MERGEDLAYER-2
 10
3.488585
 20
1.083662
 30
0.000000
  0
SEQEND
  8
MERGEDLAYER-2
  0
POLYLINE
  8
MERGEDLAYER-2
 66
  1
 70
  0
 62
  0
 10
4.135675
 20
1.116209
 30
0.000000
  0
VERTEX
  8
MERGEDLAYER-2
 10
4.135675
 20
1.116209
 30
0.000000
  0
VERTEX
  8
MERGEDLAYER-2
 10
4.069703
 20
1.078120
 30
0.000000
  0
SEQEND
  8
MERGEDLAYER-2
  0
POLYLINE
  8
MERGEDLAYER-2
 66
  1
 70
  0
 62
  0
 10
4.650561
 20
1.043292
 30
0.000000
  0
VERTEX
  8
MERGEDLAYER-2
 10
4.650561
 20
1.043292
 30
0.000000
  0
VERTEX
  8
MERGEDLAYER-2
 10
4.720485
 20
1.083662
 30
0.000000
  0
SEQEND
  8
MERGEDLAYER-2
  0
POLYLINE
  8
MERGEDLAYER-2
 66
  1
 70
  0
 62
  0
 10
5.367575
 20
1.116209
 30
0.000000
  0
VERTEX
  8
MERGEDLAYER-2
 10
5.367575
 20
1.116209
 30
0.000000
  0
VERTEX
  8
MERGEDLAYER-2
 10
5.301603
 20
1.078120
 30
0.000000
  0
SEQEND
  8
MERGEDLAYER-2
  0
POLYLINE
  8
MERGEDLAYER-2
 66
  1
 70
  0
 62
  0
 10
5.882461
 20
1.043292
 30
0.000000
  0
VERTEX
  8
MERGEDLAYER-2
 10
5.882461
 20
1.043292
 30
0.000000
  0
VERTEX
  8
MERGEDLAYER-2
 10
5.952385
 20
1.083662
 30
0.000000
  0
SEQEND
  8
MERGEDLAYER-2
  0
POLYLINE
  8
MERGEDLAYER-2
 66
  1
 70
  0
 62
  0
 10
6.599475
 20
1.116209
 30
0.000000
  0
VERTEX
  8
MERGEDLAYER-2
 10
6.599475
 20
1.116209
 30
0.000000
  0
VERTEX
  8
MERGEDLAYER-2
 10
6.533502
 20
1.078120
 30
0.000000
  0
SEQEND
  8
MERGEDLAYER-2
  0
POLYLINE
  8
MERGEDLAYER-2
 66
  1
 70
  1
 62
  0
  0
VERTEX
  8
MERGEDLAYER-2
 10
0.782822
 20
1.310182
 30
0.000000
  0
VERTEX
  8
MERGEDLAYER-2
 10
1.845759
 20
1.310182
 30
0.000000
  0
VERTEX
  8
MERGEDLAYER-2
 10
1.845759
 20
1.191014
 30
0.000000
  0
VERTEX
  8
MERGEDLAYER-2
 10
0.782822
 20
1.191014
 30
0.000000
  0
SEQEND
  8
MERGEDLAYER-2
  0
POLYLINE
  8
MERGEDLAYER-2
 66
  1
 70
  1
 62
  0
  0
VERTEX
  8
MERGEDLAYER-2
 10
2.014697
 20
1.310182
 30
0.000000
  0
VERTEX
  8
MERGEDLAYER-2
 10
3.077636
 20
1.310182
 30
0.000000
  0
VERTEX
  8
MERGEDLAYER-2
 10
3.077636
 20
1.191014
 30
0.000000
  0
VERTEX
  8
MERGEDLAYER-2
 10
2.014697
 20
1.191014
 30
0.000000
  0
SEQEND
  8
MERGEDLAYER-2
  0
POLYLINE
  8
MERGEDLAYER-2
 66
  1
 70
  1
 62
  0
  0
VERTEX
  8
MERGEDLAYER-2
 10
3.246573
 20
1.310182
 30
0.000000
  0
VERTEX
  8
MERGEDLAYER-2
 10
4.309512
 20
1.310182
 30
0.000000
  0
VERTEX
  8
MERGEDLAYER-2
 10
4.309512
 20
1.191014
 30
0.000000
  0
VERTEX
  8
MERGEDLAYER-2
 10
3.246573
 20
1.191014
 30
0.000000
  0
SEQEND
  8
MERGEDLAYER-2
  0
POLYLINE
  8
MERGEDLAYER-2
 66
  1
 70
  1
 62
  0
  0
VERTEX
  8
MERGEDLAYER-2
 10
4.478450
 20
1.310182
 30
0.000000
  0
VERTEX
  8
MERGEDLAYER-2
 10
5.541387
 20
1.310182
 30
0.000000
  0
VERTEX
  8
MERGEDLAYER-2
 10
5.541387
 20
1.191014
 30
0.000000
  0
VERTEX
  8
MERGEDLAYER-2
 10
4.478450
 20
1.191014
 30
0.000000
  0
SEQEND
  8
MERGEDLAYER-2
  0
POLYLINE
  8
MERGEDLAYER-2
 66
  1
 70
  1
 62
  0
  0
VERTEX
  8
MERGEDLAYER-2
 10
5.710350
 20
1.310182
 30
0.000000
  0
VERTEX
  8
MERGEDLAYER-2
 10
6.773287
 20
1.310182
 30
0.000000
  0
VERTEX
  8
MERGEDLAYER-2
 10
6.773287
 20
1.191014
 30
0.000000
  0
VERTEX
  8
MERGEDLAYER-2
 10
5.710350
 20
1.191014
 30
0.000000
  0
SEQEND
  8
MERGEDLAYER-2
  0
POLYLINE
  8
MERGEDLAYER-2
 66
  1
 70
  0
 62
  0
 10
0.954861
 20
1.212092
 30
0.000000
  0
VERTEX
  8
MERGEDLAYER-2
 10
0.954861
 20
1.212092
 30
0.000000
  0
VERTEX
  8
MERGEDLAYER-2
 10
1.024785
 20
1.252463
 30
0.000000
  0
SEQEND
  8
MERGEDLAYER-2
  0
POLYLINE
  8
MERGEDLAYER-2
 66
  1
 70
  0
 62
  0
 10
1.671875
 20
1.285009
 30
0.000000
  0
VERTEX
  8
MERGEDLAYER-2
 10
1.671875
 20
1.285009
 30
0.000000
  0
VERTEX
  8
MERGEDLAYER-2
 10
1.605903
 20
1.246920
 30
0.000000
  0
SEQEND
  8
MERGEDLAYER-2
  0
POLYLINE
  8
MERGEDLAYER-2
 66
  1
 70
  0
 62
  0
 10
2.186761
 20
1.212092
 30
0.000000
  0
VERTEX
  8
MERGEDLAYER-2
 10
2.186761
 20
1.212092
 30
0.000000
  0
VERTEX
  8
MERGEDLAYER-2
 10
2.256685
 20
1.252463
 30
0.000000
  0
SEQEND
  8
MERGEDLAYER-2
  0
POLYLINE
  8
MERGEDLAYER-2
 66
  1
 70
  0
 62
  0
 10
2.903775
 20
1.285009
 30
0.000000
  0
VERTEX
  8
MERGEDLAYER-2
 10
2.903775
 20
1.285009
 30
0.000000
  0
VERTEX
  8
MERGEDLAYER-2
 10
2.837803
 20
1.246920
 30
0.000000
  0
SEQEND
  8
MERGEDLAYER-2
  0
POLYLINE
  8
MERGEDLAYER-2
 66
  1
 70
  0
 62
  0
 10
3.418661
 20
1.212092
 30
0.000000
  0
VERTEX
  8
MERGEDLAYER-2
 10
3.418661
 20
1.212092
 30
0.000000
  0
VERTEX
  8
MERGEDLAYER-2
 10
3.488585
 20
1.252463
 30
0.000000
  0
SEQEND
  8
MERGEDLAYER-2
  0
POLYLINE
  8
MERGEDLAYER-2
 66
  1
 70
  0
 62
  0
 10
4.135675
 20
1.285009
 30
0.000000
  0
VERTEX
  8
MERGEDLAYER-2
 10
4.135675
 20
1.285009
 30
0.000000
  0
VERTEX
  8
MERGEDLAYER-2
 10
4.069703
 20
1.246920
 30
0.000000
  0
SEQEND
  8
MERGEDLAYER-2
  0
POLYLINE
  8
MERGEDLAYER-2
 66
  1
 70
  0
 62
  0
 10
4.650561
 20
1.212092
 30
0.000000
  0
VERTEX
  8
MERGEDLAYER-2
 10
4.650561
 20
1.212092
 30
0.000000
  0
VERTEX
  8
MERGEDLAYER-2
 10
4.720485
 20
1.252463
 30
0.000000
  0
SEQEND
  8
MERGEDLAYER-2
  0
POLYLINE
  8
MERGEDLAYER-2
 66
  1
 70
  0
 62
  0
 10
5.367575
 20
1.285009
 30
0.000000
  0
VERTEX
  8
MERGEDLAYER-2
 10
5.367575
 20
1.285009
 30
0.000000
  0
VERTEX
  8
MERGEDLAYER-2
 10
5.301603
 20
1.246920
 30
0.000000
  0
SEQEND
  8
MERGEDLAYER-2
  0
POLYLINE
  8
MERGEDLAYER-2
 66
  1
 70
  0
 62
  0
 10
5.882461
 20
1.212092
 30
0.000000
  0
VERTEX
  8
MERGEDLAYER-2
 10
5.882461
 20
1.212092
 30
0.000000
  0
VERTEX
  8
MERGEDLAYER-2
 10
5.952385
 20
1.252463
 30
0.000000
  0
SEQEND
  8
MERGEDLAYER-2
  0
POLYLINE
  8
MERGEDLAYER-2
 66
  1
 70
  0
 62
  0
 10
6.599475
 20
1.285009
 30
0.000000
  0
VERTEX
  8
MERGEDLAYER-2
 10
6.599475
 20
1.285009
 30
0.000000
  0
VERTEX
  8
MERGEDLAYER-2
 10
6.533502
 20
1.246920
 30
0.000000
  0
SEQEND
  8
MERGEDLAYER-2
  0
POLYLINE
  8
MERGEDLAYER-2
 66
  1
 70
  1
 62
  0
  0
VERTEX
  8
MERGEDLAYER-2
 10
0.782822
 20
1.478982
 30
0.000000
  0
VERTEX
  8
MERGEDLAYER-2
 10
1.845759
 20
1.478982
 30
0.000000
  0
VERTEX
  8
MERGEDLAYER-2
 10
1.845759
 20
1.359814
 30
0.000000
  0
VERTEX
  8
MERGEDLAYER-2
 10
0.782822
 20
1.359814
 30
0.000000
  0
SEQEND
  8
MERGEDLAYER-2
  0
POLYLINE
  8
MERGEDLAYER-2
 66
  1
 70
  1
 62
  0
  0
VERTEX
  8
MERGEDLAYER-2
 10
2.014697
 20
1.478982
 30
0.000000
  0
VERTEX
  8
MERGEDLAYER-2
 10
3.077636
 20
1.478982
 30
0.000000
  0
VERTEX
  8
MERGEDLAYER-2
 10
3.077636
 20
1.359814
 30
0.000000
  0
VERTEX
  8
MERGEDLAYER-2
 10
2.014697
 20
1.359814
 30
0.000000
  0
SEQEND
  8
MERGEDLAYER-2
  0
POLYLINE
  8
MERGEDLAYER-2
 66
  1
 70
  1
 62
  0
  0
VERTEX
  8
MERGEDLAYER-2
 10
3.246573
 20
1.478982
 30
0.000000
  0
VERTEX
  8
MERGEDLAYER-2
 10
4.309512
 20
1.478982
 30
0.000000
  0
VERTEX
  8
MERGEDLAYER-2
 10
4.309512
 20
1.359814
 30
0.000000
  0
VERTEX
  8
MERGEDLAYER-2
 10
3.246573
 20
1.359814
 30
0.000000
  0
SEQEND
  8
MERGEDLAYER-2
  0
POLYLINE
  8
MERGEDLAYER-2
 66
  1
 70
  1
 62
  0
  0
VERTEX
  8
MERGEDLAYER-2
 10
4.478450
 20
1.478982
 30
0.000000
  0
VERTEX
  8
MERGEDLAYER-2
 10
5.541387
 20
1.478982
 30
0.000000
  0
VERTEX
  8
MERGEDLAYER-2
 10
5.541387
 20
1.359814
 30
0.000000
  0
VERTEX
  8
MERGEDLAYER-2
 10
4.478450
 20
1.359814
 30
0.000000
  0
SEQEND
  8
MERGEDLAYER-2
  0
POLYLINE
  8
MERGEDLAYER-2
 66
  1
 70
  1
 62
  0
  0
VERTEX
  8
MERGEDLAYER-2
 10
5.710350
 20
1.478982
 30
0.000000
  0
VERTEX
  8
MERGEDLAYER-2
 10
6.773287
 20
1.478982
 30
0.000000
  0
VERTEX
  8
MERGEDLAYER-2
 10
6.773287
 20
1.359814
 30
0.000000
  0
VERTEX
  8
MERGEDLAYER-2
 10
5.710350
 20
1.359814
 30
0.000000
  0
SEQEND
  8
MERGEDLAYER-2
  0
POLYLINE
  8
MERGEDLAYER-2
 66
  1
 70
  0
 62
  0
 10
0.954861
 20
1.380892
 30
0.000000
  0
VERTEX
  8
MERGEDLAYER-2
 10
0.954861
 20
1.380892
 30
0.000000
  0
VERTEX
  8
MERGEDLAYER-2
 10
1.024785
 20
1.421263
 30
0.000000
  0
SEQEND
  8
MERGEDLAYER-2
  0
POLYLINE
  8
MERGEDLAYER-2
 66
  1
 70
  0
 62
  0
 10
1.671875
 20
1.453809
 30
0.000000
  0
VERTEX
  8
MERGEDLAYER-2
 10
1.671875
 20
1.453809
 30
0.000000
  0
VERTEX
  8
MERGEDLAYER-2
 10
1.605903
 20
1.415721
 30
0.000000
  0
SEQEND
  8
MERGEDLAYER-2
  0
POLYLINE
  8
MERGEDLAYER-2
 66
  1
 70
  0
 62
  0
 10
2.186761
 20
1.380892
 30
0.000000
  0
VERTEX
  8
MERGEDLAYER-2
 10
2.186761
 20
1.380892
 30
0.000000
  0
VERTEX
  8
MERGEDLAYER-2
 10
2.256685
 20
1.421263
 30
0.000000
  0
SEQEND
  8
MERGEDLAYER-2
  0
POLYLINE
  8
MERGEDLAYER-2
 66
  1
 70
  0
 62
  0
 10
2.903775
 20
1.453809
 30
0.000000
  0
VERTEX
  8
MERGEDLAYER-2
 10
2.903775
 20
1.453809
 30
0.000000
  0
VERTEX
  8
MERGEDLAYER-2
 10
2.837803
 20
1.415721
 30
0.000000
  0
SEQEND
  8
MERGEDLAYER-2
  0
POLYLINE
  8
MERGEDLAYER-2
 66
  1
 70
  0
 62
  0
 10
3.418661
 20
1.380892
 30
0.000000
  0
VERTEX
  8
MERGEDLAYER-2
 10
3.418661
 20
1.380892
 30
0.000000
  0
VERTEX
  8
MERGEDLAYER-2
 10
3.488585
 20
1.421263
 30
0.000000
  0
SEQEND
  8
MERGEDLAYER-2
  0
POLYLINE
  8
MERGEDLAYER-2
 66
  1
 70
  0
 62
  0
 10
4.135675
 20
1.453809
 30
0.000000
  0
VERTEX
  8
MERGEDLAYER-2
 10
4.135675
 20
1.453809
 30
0.000000
  0
VERTEX
  8
MERGEDLAYER-2
 10
4.069703
 20
1.415721
 30
0.000000
  0
SEQEND
  8
MERGEDLAYER-2
  0
POLYLINE
  8
MERGEDLAYER-2
 66
  1
 70
  0
 62
  0
 10
4.650561
 20
1.380892
 30
0.000000
  0
VERTEX
  8
MERGEDLAYER-2
 10
4.650561
 20
1.380892
 30
0.000000
  0
VERTEX
  8
MERGEDLAYER-2
 10
4.720485
 20
1.421263
 30
0.000000
  0
SEQEND
  8
MERGEDLAYER-2
  0
POLYLINE
  8
MERGEDLAYER-2
 66
  1
 70
  0
 62
  0
 10
5.367575
 20
1.453809
 30
0.000000
  0
VERTEX
  8
MERGEDLAYER-2
 10
5.367575
 20
1.453809
 30
0.000000
  0
VERTEX
  8
MERGEDLAYER-2
 10
5.301603
 20
1.415721
 30
0.000000
  0
SEQEND
  8
MERGEDLAYER-2
  0
POLYLINE
  8
MERGEDLAYER-2
 66
  1
 70
  0
 62
  0
 10
5.882461
 20
1.380892
 30
0.000000
  0
VERTEX
  8
MERGEDLAYER-2
 10
5.882461
 20
1.380892
 30
0.000000
  0
VERTEX
  8
MERGEDLAYER-2
 10
5.952385
 20
1.421263
 30
0.000000
  0
SEQEND
  8
MERGEDLAYER-2
  0
POLYLINE
  8
MERGEDLAYER-2
 66
  1
 70
  0
 62
  0
 10
6.599475
 20
1.453809
 30
0.000000
  0
VERTEX
  8
MERGEDLAYER-2
 10
6.599475
 20
1.453809
 30
0.000000
  0
VERTEX
  8
MERGEDLAYER-2
 10
6.533502
 20
1.415721
 30
0.000000
  0
SEQEND
  8
MERGEDLAYER-2
  0
POLYLINE
  8
MERGEDLAYER-2
 66
  1
 70
  1
 62
  0
  0
VERTEX
  8
MERGEDLAYER-2
 10
0.782822
 20
1.647782
 30
0.000000
  0
VERTEX
  8
MERGEDLAYER-2
 10
1.845759
 20
1.647782
 30
0.000000
  0
VERTEX
  8
MERGEDLAYER-2
 10
1.845759
 20
1.528614
 30
0.000000
  0
VERTEX
  8
MERGEDLAYER-2
 10
0.782822
 20
1.528614
 30
0.000000
  0
SEQEND
  8
MERGEDLAYER-2
  0
POLYLINE
  8
MERGEDLAYER-2
 66
  1
 70
  1
 62
  0
  0
VERTEX
  8
MERGEDLAYER-2
 10
2.014697
 20
1.647782
 30
0.000000
  0
VERTEX
  8
MERGEDLAYER-2
 10
3.077636
 20
1.647782
 30
0.000000
  0
VERTEX
  8
MERGEDLAYER-2
 10
3.077636
 20
1.528614
 30
0.000000
  0
VERTEX
  8
MERGEDLAYER-2
 10
2.014697
 20
1.528614
 30
0.000000
  0
SEQEND
  8
MERGEDLAYER-2
  0
POLYLINE
  8
MERGEDLAYER-2
 66
  1
 70
  1
 62
  0
  0
VERTEX
  8
MERGEDLAYER-2
 10
3.246573
 20
1.647782
 30
0.000000
  0
VERTEX
  8
MERGEDLAYER-2
 10
4.309512
 20
1.647782
 30
0.000000
  0
VERTEX
  8
MERGEDLAYER-2
 10
4.309512
 20
1.528614
 30
0.000000
  0
VERTEX
  8
MERGEDLAYER-2
 10
3.246573
 20
1.528614
 30
0.000000
  0
SEQEND
  8
MERGEDLAYER-2
  0
POLYLINE
  8
MERGEDLAYER-2
 66
  1
 70
  1
 62
  0
  0
VERTEX
  8
MERGEDLAYER-2
 10
4.478450
 20
1.647782
 30
0.000000
  0
VERTEX
  8
MERGEDLAYER-2
 10
5.541387
 20
1.647782
 30
0.000000
  0
VERTEX
  8
MERGEDLAYER-2
 10
5.541387
 20
1.528614
 30
0.000000
  0
VERTEX
  8
MERGEDLAYER-2
 10
4.478450
 20
1.528614
 30
0.000000
  0
SEQEND
  8
MERGEDLAYER-2
  0
POLYLINE
  8
MERGEDLAYER-2
 66
  1
 70
  1
 62
  0
  0
VERTEX
  8
MERGEDLAYER-2
 10
5.710350
 20
1.647782
 30
0.000000
  0
VERTEX
  8
MERGEDLAYER-2
 10
6.773287
 20
1.647782
 30
0.000000
  0
VERTEX
  8
MERGEDLAYER-2
 10
6.773287
 20
1.528614
 30
0.000000
  0
VERTEX
  8
MERGEDLAYER-2
 10
5.710350
 20
1.528614
 30
0.000000
  0
SEQEND
  8
MERGEDLAYER-2
  0
POLYLINE
  8
MERGEDLAYER-2
 66
  1
 70
  0
 62
  0
 10
0.954861
 20
1.549692
 30
0.000000
  0
VERTEX
  8
MERGEDLAYER-2
 10
0.954861
 20
1.549692
 30
0.000000
  0
VERTEX
  8
MERGEDLAYER-2
 10
1.024785
 20
1.590062
 30
0.000000
  0
SEQEND
  8
MERGEDLAYER-2
  0
POLYLINE
  8
MERGEDLAYER-2
 66
  1
 70
  0
 62
  0
 10
1.671875
 20
1.622609
 30
0.000000
  0
VERTEX
  8
MERGEDLAYER-2
 10
1.671875
 20
1.622609
 30
0.000000
  0
VERTEX
  8
MERGEDLAYER-2
 10
1.605903
 20
1.584521
 30
0.000000
  0
SEQEND
  8
MERGEDLAYER-2
  0
POLYLINE
  8
MERGEDLAYER-2
 66
  1
 70
  0
 62
  0
 10
2.186761
 20
1.549692
 30
0.000000
  0
VERTEX
  8
MERGEDLAYER-2
 10
2.186761
 20
1.549692
 30
0.000000
  0
VERTEX
  8
MERGEDLAYER-2
 10
2.256685
 20
1.590062
 30
0.000000
  0
SEQEND
  8
MERGEDLAYER-2
  0
POLYLINE
  8
MERGEDLAYER-2
 66
  1
 70
  0
 62
  0
 10
2.903775
 20
1.622609
 30
0.000000
  0
VERTEX
  8
MERGEDLAYER-2
 10
2.903775
 20
1.622609
 30
0.000000
  0
VERTEX
  8
MERGEDLAYER-2
 10
2.837803
 20
1.584521
 30
0.000000
  0
SEQEND
  8
MERGEDLAYER-2
  0
POLYLINE
  8
MERGEDLAYER-2
 66
  1
 70
  0
 62
  0
 10
3.418661
 20
1.549692
 30
0.000000
  0
VERTEX
  8
MERGEDLAYER-2
 10
3.418661
 20
1.549692
 30
0.000000
  0
VERTEX
  8
MERGEDLAYER-2
 10
3.488585
 20
1.590062
 30
0.000000
  0
SEQEND
  8
MERGEDLAYER-2
  0
POLYLINE
  8
MERGEDLAYER-2
 66
  1
 70
  0
 62
  0
 10
4.135675
 20
1.622609
 30
0.000000
  0
VERTEX
  8
MERGEDLAYER-2
 10
4.135675
 20
1.622609
 30
0.000000
  0
VERTEX
  8
MERGEDLAYER-2
 10
4.069703
 20
1.584521
 30
0.000000
  0
SEQEND
  8
MERGEDLAYER-2
  0
POLYLINE
  8
MERGEDLAYER-2
 66
  1
 70
  0
 62
  0
 10
4.650561
 20
1.549692
 30
0.000000
  0
VERTEX
  8
MERGEDLAYER-2
 10
4.650561
 20
1.549692
 30
0.000000
  0
VERTEX
  8
MERGEDLAYER-2
 10
4.720485
 20
1.590062
 30
0.000000
  0
SEQEND
  8
MERGEDLAYER-2
  0
POLYLINE
  8
MERGEDLAYER-2
 66
  1
 70
  0
 62
  0
 10
5.367575
 20
1.622609
 30
0.000000
  0
VERTEX
  8
MERGEDLAYER-2
 10
5.367575
 20
1.622609
 30
0.000000
  0
VERTEX
  8
MERGEDLAYER-2
 10
5.301603
 20
1.584521
 30
0.000000
  0
SEQEND
  8
MERGEDLAYER-2
  0
POLYLINE
  8
MERGEDLAYER-2
 66
  1
 70
  0
 62
  0
 10
5.882461
 20
1.549692
 30
0.000000
  0
VERTEX
  8
MERGEDLAYER-2
 10
5.882461
 20
1.549692
 30
0.000000
  0
VERTEX
  8
MERGEDLAYER-2
 10
5.952385
 20
1.590062
 30
0.000000
  0
SEQEND
  8
MERGEDLAYER-2
  0
POLYLINE
  8
MERGEDLAYER-2
 66
  1
 70
  0
 62
  0
 10
6.599475
 20
1.622609
 30
0.000000
  0
VERTEX
  8
MERGEDLAYER-2
 10
6.599475
 20
1.622609
 30
0.000000
  0
VERTEX
  8
MERGEDLAYER-2
 10
6.533502
 20
1.584521
 30
0.000000
  0
SEQEND
  8
MERGEDLAYER-2
  0
POLYLINE
  8
MERGEDLAYER-2
 66
  1
 70
  1
 62
  0
  0
VERTEX
  8
MERGEDLAYER-2
 10
0.782822
 20
1.816582
 30
0.000000
  0
VERTEX
  8
MERGEDLAYER-2
 10
1.845759
 20
1.816582
 30
0.000000
  0
VERTEX
  8
MERGEDLAYER-2
 10
1.845759
 20
1.697415
 30
0.000000
  0
VERTEX
  8
MERGEDLAYER-2
 10
0.782822
 20
1.697415
 30
0.000000
  0
SEQEND
  8
MERGEDLAYER-2
  0
POLYLINE
  8
MERGEDLAYER-2
 66
  1
 70
  1
 62
  0
  0
VERTEX
  8
MERGEDLAYER-2
 10
2.014697
 20
1.816582
 30
0.000000
  0
VERTEX
  8
MERGEDLAYER-2
 10
3.077636
 20
1.816582
 30
0.000000
  0
VERTEX
  8
MERGEDLAYER-2
 10
3.077636
 20
1.697415
 30
0.000000
  0
VERTEX
  8
MERGEDLAYER-2
 10
2.014697
 20
1.697415
 30
0.000000
  0
SEQEND
  8
MERGEDLAYER-2
  0
POLYLINE
  8
MERGEDLAYER-2
 66
  1
 70
  1
 62
  0
  0
VERTEX
  8
MERGEDLAYER-2
 10
3.246573
 20
1.816582
 30
0.000000
  0
VERTEX
  8
MERGEDLAYER-2
 10
4.309512
 20
1.816582
 30
0.000000
  0
VERTEX
  8
MERGEDLAYER-2
 10
4.309512
 20
1.697415
 30
0.000000
  0
VERTEX
  8
MERGEDLAYER-2
 10
3.246573
 20
1.697415
 30
0.000000
  0
SEQEND
  8
MERGEDLAYER-2
  0
POLYLINE
  8
MERGEDLAYER-2
 66
  1
 70
  1
 62
  0
  0
VERTEX
  8
MERGEDLAYER-2
 10
4.478450
 20
1.816582
 30
0.000000
  0
VERTEX
  8
MERGEDLAYER-2
 10
5.541387
 20
1.816582
 30
0.000000
  0
VERTEX
  8
MERGEDLAYER-2
 10
5.541387
 20
1.697415
 30
0.000000
  0
VERTEX
  8
MERGEDLAYER-2
 10
4.478450
 20
1.697415
 30
0.000000
  0
SEQEND
  8
MERGEDLAYER-2
  0
POLYLINE
  8
MERGEDLAYER-2
 66
  1
 70
  1
 62
  0
  0
VERTEX
  8
MERGEDLAYER-2
 10
5.710350
 20
1.816582
 30
0.000000
  0
VERTEX
  8
MERGEDLAYER-2
 10
6.773287
 20
1.816582
 30
0.000000
  0
VERTEX
  8
MERGEDLAYER-2
 10
6.773287
 20
1.697415
 30
0.000000
  0
VERTEX
  8
MERGEDLAYER-2
 10
5.710350
 20
1.697415
 30
0.000000
  0
SEQEND
  8
MERGEDLAYER-2
  0
POLYLINE
  8
MERGEDLAYER-2
 66
  1
 70
  0
 62
  0
 10
0.954861
 20
1.718492
 30
0.000000
  0
VERTEX
  8
MERGEDLAYER-2
 10
0.954861
 20
1.718492
 30
0.000000
  0
VERTEX
  8
MERGEDLAYER-2
 10
1.024785
 20
1.758863
 30
0.000000
  0
SEQEND
  8
MERGEDLAYER-2
  0
POLYLINE
  8
MERGEDLAYER-2
 66
  1
 70
  0
 62
  0
 10
1.671875
 20
1.791410
 30
0.000000
  0
VERTEX
  8
MERGEDLAYER-2
 10
1.671875
 20
1.791410
 30
0.000000
  0
VERTEX
  8
MERGEDLAYER-2
 10
1.605903
 20
1.753320
 30
0.000000
  0
SEQEND
  8
MERGEDLAYER-2
  0
POLYLINE
  8
MERGEDLAYER-2
 66
  1
 70
  0
 62
  0
 10
2.186761
 20
1.718492
 30
0.000000
  0
VERTEX
  8
MERGEDLAYER-2
 10
2.186761
 20
1.718492
 30
0.000000
  0
VERTEX
  8
MERGEDLAYER-2
 10
2.256685
 20
1.758863
 30
0.000000
  0
SEQEND
  8
MERGEDLAYER-2
  0
POLYLINE
  8
MERGEDLAYER-2
 66
  1
 70
  0
 62
  0
 10
2.903775
 20
1.791410
 30
0.000000
  0
VERTEX
  8
MERGEDLAYER-2
 10
2.903775
 20
1.791410
 30
0.000000
  0
VERTEX
  8
MERGEDLAYER-2
 10
2.837803
 20
1.753320
 30
0.000000
  0
SEQEND
  8
MERGEDLAYER-2
  0
POLYLINE
  8
MERGEDLAYER-2
 66
  1
 70
  0
 62
  0
 10
3.418661
 20
1.718492
 30
0.000000
  0
VERTEX
  8
MERGEDLAYER-2
 10
3.418661
 20
1.718492
 30
0.000000
  0
VERTEX
  8
MERGEDLAYER-2
 10
3.488585
 20
1.758863
 30
0.000000
  0
SEQEND
  8
MERGEDLAYER-2
  0
POLYLINE
  8
MERGEDLAYER-2
 66
  1
 70
  0
 62
  0
 10
4.135675
 20
1.791410
 30
0.000000
  0
VERTEX
  8
MERGEDLAYER-2
 10
4.135675
 20
1.791410
 30
0.000000
  0
VERTEX
  8
MERGEDLAYER-2
 10
4.069703
 20
1.753320
 30
0.000000
  0
SEQEND
  8
MERGEDLAYER-2
  0
POLYLINE
  8
MERGEDLAYER-2
 66
  1
 70
  0
 62
  0
 10
4.650561
 20
1.718492
 30
0.000000
  0
VERTEX
  8
MERGEDLAYER-2
 10
4.650561
 20
1.718492
 30
0.000000
  0
VERTEX
  8
MERGEDLAYER-2
 10
4.720485
 20
1.758863
 30
0.000000
  0
SEQEND
  8
MERGEDLAYER-2
  0
POLYLINE
  8
MERGEDLAYER-2
 66
  1
 70
  0
 62
  0
 10
5.367575
 20
1.791410
 30
0.000000
  0
VERTEX
  8
MERGEDLAYER-2
 10
5.367575
 20
1.791410
 30
0.000000
  0
VERTEX
  8
MERGEDLAYER-2
 10
5.301603
 20
1.753320
 30
0.000000
  0
SEQEND
  8
MERGEDLAYER-2
  0
POLYLINE
  8
MERGEDLAYER-2
 66
  1
 70
  0
 62
  0
 10
5.882461
 20
1.718492
 30
0.000000
  0
VERTEX
  8
MERGEDLAYER-2
 10
5.882461
 20
1.718492
 30
0.000000
  0
VERTEX
  8
MERGEDLAYER-2
 10
5.952385
 20
1.758863
 30
0.000000
  0
SEQEND
  8
MERGEDLAYER-2
  0
POLYLINE
  8
MERGEDLAYER-2
 66
  1
 70
  0
 62
  0
 10
6.599475
 20
1.791410
 30
0.000000
  0
VERTEX
  8
MERGEDLAYER-2
 10
6.599475
 20
1.791410
 30
0.000000
  0
VERTEX
  8
MERGEDLAYER-2
 10
6.533502
 20
1.753320
 30
0.000000
  0
SEQEND
  8
MERGEDLAYER-2
  0
POLYLINE
  8
MERGEDLAYER-2
 66
  1
 70
  1
 62
  0
  0
VERTEX
  8
MERGEDLAYER-2
 10
0.782822
 20
1.985382
 30
0.000000
  0
VERTEX
  8
MERGEDLAYER-2
 10
1.845759
 20
1.985382
 30
0.000000
  0
VERTEX
  8
MERGEDLAYER-2
 10
1.845759
 20
1.866214
 30
0.000000
  0
VERTEX
  8
MERGEDLAYER-2
 10
0.782822
 20
1.866214
 30
0.000000
  0
SEQEND
  8
MERGEDLAYER-2
  0
POLYLINE
  8
MERGEDLAYER-2
 66
  1
 70
  1
 62
  0
  0
VERTEX
  8
MERGEDLAYER-2
 10
2.014697
 20
1.985382
 30
0.000000
  0
VERTEX
  8
MERGEDLAYER-2
 10
3.077636
 20
1.985382
 30
0.000000
  0
VERTEX
  8
MERGEDLAYER-2
 10
3.077636
 20
1.866214
 30
0.000000
  0
VERTEX
  8
MERGEDLAYER-2
 10
2.014697
 20
1.866214
 30
0.000000
  0
SEQEND
  8
MERGEDLAYER-2
  0
POLYLINE
  8
MERGEDLAYER-2
 66
  1
 70
  1
 62
  0
  0
VERTEX
  8
MERGEDLAYER-2
 10
3.246573
 20
1.985382
 30
0.000000
  0
VERTEX
  8
MERGEDLAYER-2
 10
4.309512
 20
1.985382
 30
0.000000
  0
VERTEX
  8
MERGEDLAYER-2
 10
4.309512
 20
1.866214
 30
0.000000
  0
VERTEX
  8
MERGEDLAYER-2
 10
3.246573
 20
1.866214
 30
0.000000
  0
SEQEND
  8
MERGEDLAYER-2
  0
POLYLINE
  8
MERGEDLAYER-2
 66
  1
 70
  1
 62
  0
  0
VERTEX
  8
MERGEDLAYER-2
 10
4.478450
 20
1.985382
 30
0.000000
  0
VERTEX
  8
MERGEDLAYER-2
 10
5.541387
 20
1.985382
 30
0.000000
  0
VERTEX
  8
MERGEDLAYER-2
 10
5.541387
 20
1.866214
 30
0.000000
  0
VERTEX
  8
MERGEDLAYER-2
 10
4.478450
 20
1.866214
 30
0.000000
  0
SEQEND
  8
MERGEDLAYER-2
  0
POLYLINE
  8
MERGEDLAYER-2
 66
  1
 70
  1
 62
  0
  0
VERTEX
  8
MERGEDLAYER-2
 10
5.710350
 20
1.985382
 30
0.000000
  0
VERTEX
  8
MERGEDLAYER-2
 10
6.773287
 20
1.985382
 30
0.000000
  0
VERTEX
  8
MERGEDLAYER-2
 10
6.773287
 20
1.866214
 30
0.000000
  0
VERTEX
  8
MERGEDLAYER-2
 10
5.710350
 20
1.866214
 30
0.000000
  0
SEQEND
  8
MERGEDLAYER-2
  0
POLYLINE
  8
MERGEDLAYER-2
 66
  1
 70
  0
 62
  0
 10
0.954861
 20
1.887293
 30
0.000000
  0
VERTEX
  8
MERGEDLAYER-2
 10
0.954861
 20
1.887293
 30
0.000000
  0
VERTEX
  8
MERGEDLAYER-2
 10
1.024785
 20
1.927663
 30
0.000000
  0
SEQEND
  8
MERGEDLAYER-2
  0
POLYLINE
  8
MERGEDLAYER-2
 66
  1
 70
  0
 62
  0
 10
1.671875
 20
1.960210
 30
0.000000
  0
VERTEX
  8
MERGEDLAYER-2
 10
1.671875
 20
1.960210
 30
0.000000
  0
VERTEX
  8
MERGEDLAYER-2
 10
1.605903
 20
1.922121
 30
0.000000
  0
SEQEND
  8
MERGEDLAYER-2
  0
POLYLINE
  8
MERGEDLAYER-2
 66
  1
 70
  0
 62
  0
 10
2.186761
 20
1.887293
 30
0.000000
  0
VERTEX
  8
MERGEDLAYER-2
 10
2.186761
 20
1.887293
 30
0.000000
  0
VERTEX
  8
MERGEDLAYER-2
 10
2.256685
 20
1.927663
 30
0.000000
  0
SEQEND
  8
MERGEDLAYER-2
  0
POLYLINE
  8
MERGEDLAYER-2
 66
  1
 70
  0
 62
  0
 10
2.903775
 20
1.960210
 30
0.000000
  0
VERTEX
  8
MERGEDLAYER-2
 10
2.903775
 20
1.960210
 30
0.000000
  0
VERTEX
  8
MERGEDLAYER-2
 10
2.837803
 20
1.922121
 30
0.000000
  0
SEQEND
  8
MERGEDLAYER-2
  0
POLYLINE
  8
MERGEDLAYER-2
 66
  1
 70
  0
 62
  0
 10
3.418661
 20
1.887293
 30
0.000000
  0
VERTEX
  8
MERGEDLAYER-2
 10
3.418661
 20
1.887293
 30
0.000000
  0
VERTEX
  8
MERGEDLAYER-2
 10
3.488585
 20
1.927663
 30
0.000000
  0
SEQEND
  8
MERGEDLAYER-2
  0
POLYLINE
  8
MERGEDLAYER-2
 66
  1
 70
  0
 62
  0
 10
4.135675
 20
1.960210
 30
0.000000
  0
VERTEX
  8
MERGEDLAYER-2
 10
4.135675
 20
1.960210
 30
0.000000
  0
VERTEX
  8
MERGEDLAYER-2
 10
4.069703
 20
1.922121
 30
0.000000
  0
SEQEND
  8
MERGEDLAYER-2
  0
POLYLINE
  8
MERGEDLAYER-2
 66
  1
 70
  0
 62
  0
 10
4.650561
 20
1.887293
 30
0.000000
  0
VERTEX
  8
MERGEDLAYER-2
 10
4.650561
 20
1.887293
 30
0.000000
  0
VERTEX
  8
MERGEDLAYER-2
 10
4.720485
 20
1.927663
 30
0.000000
  0
SEQEND
  8
MERGEDLAYER-2
  0
POLYLINE
  8
MERGEDLAYER-2
 66
  1
 70
  0
 62
  0
 10
5.367575
 20
1.960210
 30
0.000000
  0
VERTEX
  8
MERGEDLAYER-2
 10
5.367575
 20
1.960210
 30
0.000000
  0
VERTEX
  8
MERGEDLAYER-2
 10
5.301603
 20
1.922121
 30
0.000000
  0
SEQEND
  8
MERGEDLAYER-2
  0
POLYLINE
  8
MERGEDLAYER-2
 66
  1
 70
  0
 62
  0
 10
5.882461
 20
1.887293
 30
0.000000
  0
VERTEX
  8
MERGEDLAYER-2
 10
5.882461
 20
1.887293
 30
0.000000
  0
VERTEX
  8
MERGEDLAYER-2
 10
5.952385
 20
1.927663
 30
0.000000
  0
SEQEND
  8
MERGEDLAYER-2
  0
POLYLINE
  8
MERGEDLAYER-2
 66
  1
 70
  0
 62
  0
 10
6.599475
 20
1.960210
 30
0.000000
  0
VERTEX
  8
MERGEDLAYER-2
 10
6.599475
 20
1.960210
 30
0.000000
  0
VERTEX
  8
MERGEDLAYER-2
 10
6.533502
 20
1.922121
 30
0.000000
  0
SEQEND
  8
MERGEDLAYER-2
  0
POLYLINE
  8
MERGEDLAYER-2
 66
  1
 70
  1
 62
  0
  0
VERTEX
  8
MERGEDLAYER-2
 10
0.782822
 20
2.154182
 30
0.000000
  0
VERTEX
  8
MERGEDLAYER-2
 10
1.845759
 20
2.154182
 30
0.000000
  0
VERTEX
  8
MERGEDLAYER-2
 10
1.845759
 20
2.035015
 30
0.000000
  0
VERTEX
  8
MERGEDLAYER-2
 10
0.782822
 20
2.035015
 30
0.000000
  0
SEQEND
  8
MERGEDLAYER-2
  0
POLYLINE
  8
MERGEDLAYER-2
 66
  1
 70
  1
 62
  0
  0
VERTEX
  8
MERGEDLAYER-2
 10
2.014697
 20
2.154182
 30
0.000000
  0
VERTEX
  8
MERGEDLAYER-2
 10
3.077636
 20
2.154182
 30
0.000000
  0
VERTEX
  8
MERGEDLAYER-2
 10
3.077636
 20
2.035015
 30
0.000000
  0
VERTEX
  8
MERGEDLAYER-2
 10
2.014697
 20
2.035015
 30
0.000000
  0
SEQEND
  8
MERGEDLAYER-2
  0
POLYLINE
  8
MERGEDLAYER-2
 66
  1
 70
  1
 62
  0
  0
VERTEX
  8
MERGEDLAYER-2
 10
3.246573
 20
2.154182
 30
0.000000
  0
VERTEX
  8
MERGEDLAYER-2
 10
4.309512
 20
2.154182
 30
0.000000
  0
VERTEX
  8
MERGEDLAYER-2
 10
4.309512
 20
2.035015
 30
0.000000
  0
VERTEX
  8
MERGEDLAYER-2
 10
3.246573
 20
2.035015
 30
0.000000
  0
SEQEND
  8
MERGEDLAYER-2
  0
POLYLINE
  8
MERGEDLAYER-2
 66
  1
 70
  1
 62
  0
  0
VERTEX
  8
MERGEDLAYER-2
 10
4.478450
 20
2.154182
 30
0.000000
  0
VERTEX
  8
MERGEDLAYER-2
 10
5.541387
 20
2.154182
 30
0.000000
  0
VERTEX
  8
MERGEDLAYER-2
 10
5.541387
 20
2.035015
 30
0.000000
  0
VERTEX
  8
MERGEDLAYER-2
 10
4.478450
 20
2.035015
 30
0.000000
  0
SEQEND
  8
MERGEDLAYER-2
  0
POLYLINE
  8
MERGEDLAYER-2
 66
  1
 70
  1
 62
  0
  0
VERTEX
  8
MERGEDLAYER-2
 10
5.710350
 20
2.154182
 30
0.000000
  0
VERTEX
  8
MERGEDLAYER-2
 10
6.773287
 20
2.154182
 30
0.000000
  0
VERTEX
  8
MERGEDLAYER-2
 10
6.773287
 20
2.035015
 30
0.000000
  0
VERTEX
  8
MERGEDLAYER-2
 10
5.710350
 20
2.035015
 30
0.000000
  0
SEQEND
  8
MERGEDLAYER-2
  0
POLYLINE
  8
MERGEDLAYER-2
 66
  1
 70
  0
 62
  0
 10
0.954861
 20
2.056093
 30
0.000000
  0
VERTEX
  8
MERGEDLAYER-2
 10
0.954861
 20
2.056093
 30
0.000000
  0
VERTEX
  8
MERGEDLAYER-2
 10
1.024785
 20
2.096464
 30
0.000000
  0
SEQEND
  8
MERGEDLAYER-2
  0
POLYLINE
  8
MERGEDLAYER-2
 66
  1
 70
  0
 62
  0
 10
1.671875
 20
2.129010
 30
0.000000
  0
VERTEX
  8
MERGEDLAYER-2
 10
1.671875
 20
2.129010
 30
0.000000
  0
VERTEX
  8
MERGEDLAYER-2
 10
1.605903
 20
2.090921
 30
0.000000
  0
SEQEND
  8
MERGEDLAYER-2
  0
POLYLINE
  8
MERGEDLAYER-2
 66
  1
 70
  0
 62
  0
 10
2.186761
 20
2.056093
 30
0.000000
  0
VERTEX
  8
MERGEDLAYER-2
 10
2.186761
 20
2.056093
 30
0.000000
  0
VERTEX
  8
MERGEDLAYER-2
 10
2.256685
 20
2.096464
 30
0.000000
  0
SEQEND
  8
MERGEDLAYER-2
  0
POLYLINE
  8
MERGEDLAYER-2
 66
  1
 70
  0
 62
  0
 10
2.903775
 20
2.129010
 30
0.000000
  0
VERTEX
  8
MERGEDLAYER-2
 10
2.903775
 20
2.129010
 30
0.000000
  0
VERTEX
  8
MERGEDLAYER-2
 10
2.837803
 20
2.090921
 30
0.000000
  0
SEQEND
  8
MERGEDLAYER-2
  0
POLYLINE
  8
MERGEDLAYER-2
 66
  1
 70
  0
 62
  0
 10
3.418661
 20
2.056093
 30
0.000000
  0
VERTEX
  8
MERGEDLAYER-2
 10
3.418661
 20
2.056093
 30
0.000000
  0
VERTEX
  8
MERGEDLAYER-2
 10
3.488585
 20
2.096464
 30
0.000000
  0
SEQEND
  8
MERGEDLAYER-2
  0
POLYLINE
  8
MERGEDLAYER-2
 66
  1
 70
  0
 62
  0
 10
4.135675
 20
2.129010
 30
0.000000
  0
VERTEX
  8
MERGEDLAYER-2
 10
4.135675
 20
2.129010
 30
0.000000
  0
VERTEX
  8
MERGEDLAYER-2
 10
4.069703
 20
2.090921
 30
0.000000
  0
SEQEND
  8
MERGEDLAYER-2
  0
POLYLINE
  8
MERGEDLAYER-2
 66
  1
 70
  0
 62
  0
 10
4.650561
 20
2.056093
 30
0.000000
  0
VERTEX
  8
MERGEDLAYER-2
 10
4.650561
 20
2.056093
 30
0.000000
  0
VERTEX
  8
MERGEDLAYER-2
 10
4.720485
 20
2.096464
 30
0.000000
  0
SEQEND
  8
MERGEDLAYER-2
  0
POLYLINE
  8
MERGEDLAYER-2
 66
  1
 70
  0
 62
  0
 10
5.367575
 20
2.129010
 30
0.000000
  0
VERTEX
  8
MERGEDLAYER-2
 10
5.367575
 20
2.129010
 30
0.000000
  0
VERTEX
  8
MERGEDLAYER-2
 10
5.301603
 20
2.090921
 30
0.000000
  0
SEQEND
  8
MERGEDLAYER-2
  0
POLYLINE
  8
MERGEDLAYER-2
 66
  1
 70
  0
 62
  0
 10
5.882461
 20
2.056093
 30
0.000000
  0
VERTEX
  8
MERGEDLAYER-2
 10
5.882461
 20
2.056093
 30
0.000000
  0
VERTEX
  8
MERGEDLAYER-2
 10
5.952385
 20
2.096464
 30
0.000000
  0
SEQEND
  8
MERGEDLAYER-2
  0
POLYLINE
  8
MERGEDLAYER-2
 66
  1
 70
  0
 62
  0
 10
6.599475
 20
2.129010
 30
0.000000
  0
VERTEX
  8
MERGEDLAYER-2
 10
6.599475
 20
2.129010
 30
0.000000
  0
VERTEX
  8
MERGEDLAYER-2
 10
6.533502
 20
2.090921
 30
0.000000
  0
SEQEND
  8
MERGEDLAYER-2
  0
POLYLINE
  8
MERGEDLAYER-2
 66
  1
 70
  1
 62
  0
  0
VERTEX
  8
MERGEDLAYER-2
 10
0.782822
 20
2.322983
 30
0.000000
  0
VERTEX
  8
MERGEDLAYER-2
 10
1.845759
 20
2.322983
 30
0.000000
  0
VERTEX
  8
MERGEDLAYER-2
 10
1.845759
 20
2.203815
 30
0.000000
  0
VERTEX
  8
MERGEDLAYER-2
 10
0.782822
 20
2.203815
 30
0.000000
  0
SEQEND
  8
MERGEDLAYER-2
  0
POLYLINE
  8
MERGEDLAYER-2
 66
  1
 70
  1
 62
  0
  0
VERTEX
  8
MERGEDLAYER-2
 10
2.014697
 20
2.322983
 30
0.000000
  0
VERTEX
  8
MERGEDLAYER-2
 10
3.077636
 20
2.322983
 30
0.000000
  0
VERTEX
  8
MERGEDLAYER-2
 10
3.077636
 20
2.203815
 30
0.000000
  0
VERTEX
  8
MERGEDLAYER-2
 10
2.014697
 20
2.203815
 30
0.000000
  0
SEQEND
  8
MERGEDLAYER-2
  0
POLYLINE
  8
MERGEDLAYER-2
 66
  1
 70
  1
 62
  0
  0
VERTEX
  8
MERGEDLAYER-2
 10
3.246573
 20
2.322983
 30
0.000000
  0
VERTEX
  8
MERGEDLAYER-2
 10
4.309512
 20
2.322983
 30
0.000000
  0
VERTEX
  8
MERGEDLAYER-2
 10
4.309512
 20
2.203815
 30
0.000000
  0
VERTEX
  8
MERGEDLAYER-2
 10
3.246573
 20
2.203815
 30
0.000000
  0
SEQEND
  8
MERGEDLAYER-2
  0
POLYLINE
  8
MERGEDLAYER-2
 66
  1
 70
  1
 62
  0
  0
VERTEX
  8
MERGEDLAYER-2
 10
4.478450
 20
2.322983
 30
0.000000
  0
VERTEX
  8
MERGEDLAYER-2
 10
5.541387
 20
2.322983
 30
0.000000
  0
VERTEX
  8
MERGEDLAYER-2
 10
5.541387
 20
2.203815
 30
0.000000
  0
VERTEX
  8
MERGEDLAYER-2
 10
4.478450
 20
2.203815
 30
0.000000
  0
SEQEND
  8
MERGEDLAYER-2
  0
POLYLINE
  8
MERGEDLAYER-2
 66
  1
 70
  1
 62
  0
  0
VERTEX
  8
MERGEDLAYER-2
 10
5.710350
 20
2.322983
 30
0.000000
  0
VERTEX
  8
MERGEDLAYER-2
 10
6.773287
 20
2.322983
 30
0.000000
  0
VERTEX
  8
MERGEDLAYER-2
 10
6.773287
 20
2.203815
 30
0.000000
  0
VERTEX
  8
MERGEDLAYER-2
 10
5.710350
 20
2.203815
 30
0.000000
  0
SEQEND
  8
MERGEDLAYER-2
  0
POLYLINE
  8
MERGEDLAYER-2
 66
  1
 70
  0
 62
  0
 10
0.954861
 20
2.224893
 30
0.000000
  0
VERTEX
  8
MERGEDLAYER-2
 10
0.954861
 20
2.224893
 30
0.000000
  0
VERTEX
  8
MERGEDLAYER-2
 10
1.024785
 20
2.265264
 30
0.000000
  0
SEQEND
  8
MERGEDLAYER-2
  0
POLYLINE
  8
MERGEDLAYER-2
 66
  1
 70
  0
 62
  0
 10
1.671875
 20
2.297810
 30
0.000000
  0
VERTEX
  8
MERGEDLAYER-2
 10
1.671875
 20
2.297810
 30
0.000000
  0
VERTEX
  8
MERGEDLAYER-2
 10
1.605903
 20
2.259722
 30
0.000000
  0
SEQEND
  8
MERGEDLAYER-2
  0
POLYLINE
  8
MERGEDLAYER-2
 66
  1
 70
  0
 62
  0
 10
2.186761
 20
2.224893
 30
0.000000
  0
VERTEX
  8
MERGEDLAYER-2
 10
2.186761
 20
2.224893
 30
0.000000
  0
VERTEX
  8
MERGEDLAYER-2
 10
2.256685
 20
2.265264
 30
0.000000
  0
SEQEND
  8
MERGEDLAYER-2
  0
POLYLINE
  8
MERGEDLAYER-2
 66
  1
 70
  0
 62
  0
 10
2.903775
 20
2.297810
 30
0.000000
  0
VERTEX
  8
MERGEDLAYER-2
 10
2.903775
 20
2.297810
 30
0.000000
  0
VERTEX
  8
MERGEDLAYER-2
 10
2.837803
 20
2.259722
 30
0.000000
  0
SEQEND
  8
MERGEDLAYER-2
  0
POLYLINE
  8
MERGEDLAYER-2
 66
  1
 70
  0
 62
  0
 10
3.418661
 20
2.224893
 30
0.000000
  0
VERTEX
  8
MERGEDLAYER-2
 10
3.418661
 20
2.224893
 30
0.000000
  0
VERTEX
  8
MERGEDLAYER-2
 10
3.488585
 20
2.265264
 30
0.000000
  0
SEQEND
  8
MERGEDLAYER-2
  0
POLYLINE
  8
MERGEDLAYER-2
 66
  1
 70
  0
 62
  0
 10
4.135675
 20
2.297810
 30
0.000000
  0
VERTEX
  8
MERGEDLAYER-2
 10
4.135675
 20
2.297810
 30
0.000000
  0
VERTEX
  8
MERGEDLAYER-2
 10
4.069703
 20
2.259722
 30
0.000000
  0
SEQEND
  8
MERGEDLAYER-2
  0
POLYLINE
  8
MERGEDLAYER-2
 66
  1
 70
  0
 62
  0
 10
4.650561
 20
2.224893
 30
0.000000
  0
VERTEX
  8
MERGEDLAYER-2
 10
4.650561
 20
2.224893
 30
0.000000
  0
VERTEX
  8
MERGEDLAYER-2
 10
4.720485
 20
2.265264
 30
0.000000
  0
SEQEND
  8
MERGEDLAYER-2
  0
POLYLINE
  8
MERGEDLAYER-2
 66
  1
 70
  0
 62
  0
 10
5.367575
 20
2.297810
 30
0.000000
  0
VERTEX
  8
MERGEDLAYER-2
 10
5.367575
 20
2.297810
 30
0.000000
  0
VERTEX
  8
MERGEDLAYER-2
 10
5.301603
 20
2.259722
 30
0.000000
  0
SEQEND
  8
MERGEDLAYER-2
  0
POLYLINE
  8
MERGEDLAYER-2
 66
  1
 70
  0
 62
  0
 10
5.882461
 20
2.224893
 30
0.000000
  0
VERTEX
  8
MERGEDLAYER-2
 10
5.882461
 20
2.224893
 30
0.000000
  0
VERTEX
  8
MERGEDLAYER-2
 10
5.952385
 20
2.265264
 30
0.000000
  0
SEQEND
  8
MERGEDLAYER-2
  0
POLYLINE
  8
MERGEDLAYER-2
 66
  1
 70
  0
 62
  0
 10
6.599475
 20
2.297810
 30
0.000000
  0
VERTEX
  8
MERGEDLAYER-2
 10
6.599475
 20
2.297810
 30
0.000000
  0
VERTEX
  8
MERGEDLAYER-2
 10
6.533502
 20
2.259722
 30
0.000000
  0
SEQEND
  8
MERGEDLAYER-2
  0
POLYLINE
  8
MERGEDLAYER-2
 66
  1
 70
  1
 62
  0
  0
VERTEX
  8
MERGEDLAYER-2
 10
0.782822
 20
2.491783
 30
0.000000
  0
VERTEX
  8
MERGEDLAYER-2
 10
1.845759
 20
2.491783
 30
0.000000
  0
VERTEX
  8
MERGEDLAYER-2
 10
1.845759
 20
2.372615
 30
0.000000
  0
VERTEX
  8
MERGEDLAYER-2
 10
0.782822
 20
2.372615
 30
0.000000
  0
SEQEND
  8
MERGEDLAYER-2
  0
POLYLINE
  8
MERGEDLAYER-2
 66
  1
 70
  1
 62
  0
  0
VERTEX
  8
MERGEDLAYER-2
 10
2.014697
 20
2.491783
 30
0.000000
  0
VERTEX
  8
MERGEDLAYER-2
 10
3.077636
 20
2.491783
 30
0.000000
  0
VERTEX
  8
MERGEDLAYER-2
 10
3.077636
 20
2.372615
 30
0.000000
  0
VERTEX
  8
MERGEDLAYER-2
 10
2.014697
 20
2.372615
 30
0.000000
  0
SEQEND
  8
MERGEDLAYER-2
  0
POLYLINE
  8
MERGEDLAYER-2
 66
  1
 70
  1
 62
  0
  0
VERTEX
  8
MERGEDLAYER-2
 10
3.246573
 20
2.491783
 30
0.000000
  0
VERTEX
  8
MERGEDLAYER-2
 10
4.309512
 20
2.491783
 30
0.000000
  0
VERTEX
  8
MERGEDLAYER-2
 10
4.309512
 20
2.372615
 30
0.000000
  0
VERTEX
  8
MERGEDLAYER-2
 10
3.246573
 20
2.372615
 30
0.000000
  0
SEQEND
  8
MERGEDLAYER-2
  0
POLYLINE
  8
MERGEDLAYER-2
 66
  1
 70
  1
 62
  0
  0
VERTEX
  8
MERGEDLAYER-2
 10
4.478450
 20
2.491783
 30
0.000000
  0
VERTEX
  8
MERGEDLAYER-2
 10
5.541387
 20
2.491783
 30
0.000000
  0
VERTEX
  8
MERGEDLAYER-2
 10
5.541387
 20
2.372615
 30
0.000000
  0
VERTEX
  8
MERGEDLAYER-2
 10
4.478450
 20
2.372615
 30
0.000000
  0
SEQEND
  8
MERGEDLAYER-2
  0
POLYLINE
  8
MERGEDLAYER-2
 66
  1
 70
  1
 62
  0
  0
VERTEX
  8
MERGEDLAYER-2
 10
5.710350
 20
2.491783
 30
0.000000
  0
VERTEX
  8
MERGEDLAYER-2
 10
6.773287
 20
2.491783
 30
0.000000
  0
VERTEX
  8
MERGEDLAYER-2
 10
6.773287
 20
2.372615
 30
0.000000
  0
VERTEX
  8
MERGEDLAYER-2
 10
5.710350
 20
2.372615
 30
0.000000
  0
SEQEND
  8
MERGEDLAYER-2
  0
POLYLINE
  8
MERGEDLAYER-2
 66
  1
 70
  0
 62
  0
 10
0.954861
 20
2.393693
 30
0.000000
  0
VERTEX
  8
MERGEDLAYER-2
 10
0.954861
 20
2.393693
 30
0.000000
  0
VERTEX
  8
MERGEDLAYER-2
 10
1.024785
 20
2.434063
 30
0.000000
  0
SEQEND
  8
MERGEDLAYER-2
  0
POLYLINE
  8
MERGEDLAYER-2
 66
  1
 70
  0
 62
  0
 10
1.671875
 20
2.466610
 30
0.000000
  0
VERTEX
  8
MERGEDLAYER-2
 10
1.671875
 20
2.466610
 30
0.000000
  0
VERTEX
  8
MERGEDLAYER-2
 10
1.605903
 20
2.428522
 30
0.000000
  0
SEQEND
  8
MERGEDLAYER-2
  0
POLYLINE
  8
MERGEDLAYER-2
 66
  1
 70
  0
 62
  0
 10
2.186761
 20
2.393693
 30
0.000000
  0
VERTEX
  8
MERGEDLAYER-2
 10
2.186761
 20
2.393693
 30
0.000000
  0
VERTEX
  8
MERGEDLAYER-2
 10
2.256685
 20
2.434063
 30
0.000000
  0
SEQEND
  8
MERGEDLAYER-2
  0
POLYLINE
  8
MERGEDLAYER-2
 66
  1
 70
  0
 62
  0
 10
2.903775
 20
2.466610
 30
0.000000
  0
VERTEX
  8
MERGEDLAYER-2
 10
2.903775
 20
2.466610
 30
0.000000
  0
VERTEX
  8
MERGEDLAYER-2
 10
2.837803
 20
2.428522
 30
0.000000
  0
SEQEND
  8
MERGEDLAYER-2
  0
POLYLINE
  8
MERGEDLAYER-2
 66
  1
 70
  0
 62
  0
 10
3.418661
 20
2.393693
 30
0.000000
  0
VERTEX
  8
MERGEDLAYER-2
 10
3.418661
 20
2.393693
 30
0.000000
  0
VERTEX
  8
MERGEDLAYER-2
 10
3.488585
 20
2.434063
 30
0.000000
  0
SEQEND
  8
MERGEDLAYER-2
  0
POLYLINE
  8
MERGEDLAYER-2
 66
  1
 70
  0
 62
  0
 10
4.135675
 20
2.466610
 30
0.000000
  0
VERTEX
  8
MERGEDLAYER-2
 10
4.135675
 20
2.466610
 30
0.000000
  0
VERTEX
  8
MERGEDLAYER-2
 10
4.069703
 20
2.428522
 30
0.000000
  0
SEQEND
  8
MERGEDLAYER-2
  0
POLYLINE
  8
MERGEDLAYER-2
 66
  1
 70
  0
 62
  0
 10
4.650561
 20
2.393693
 30
0.000000
  0
VERTEX
  8
MERGEDLAYER-2
 10
4.650561
 20
2.393693
 30
0.000000
  0
VERTEX
  8
MERGEDLAYER-2
 10
4.720485
 20
2.434063
 30
0.000000
  0
SEQEND
  8
MERGEDLAYER-2
  0
POLYLINE
  8
MERGEDLAYER-2
 66
  1
 70
  0
 62
  0
 10
5.367575
 20
2.466610
 30
0.000000
  0
VERTEX
  8
MERGEDLAYER-2
 10
5.367575
 20
2.466610
 30
0.000000
  0
VERTEX
  8
MERGEDLAYER-2
 10
5.301603
 20
2.428522
 30
0.000000
  0
SEQEND
  8
MERGEDLAYER-2
  0
POLYLINE
  8
MERGEDLAYER-2
 66
  1
 70
  0
 62
  0
 10
5.882461
 20
2.393693
 30
0.000000
  0
VERTEX
  8
MERGEDLAYER-2
 10
5.882461
 20
2.393693
 30
0.000000
  0
VERTEX
  8
MERGEDLAYER-2
 10
5.952385
 20
2.434063
 30
0.000000
  0
SEQEND
  8
MERGEDLAYER-2
  0
POLYLINE
  8
MERGEDLAYER-2
 66
  1
 70
  0
 62
  0
 10
6.599475
 20
2.466610
 30
0.000000
  0
VERTEX
  8
MERGEDLAYER-2
 10
6.599475
 20
2.466610
 30
0.000000
  0
VERTEX
  8
MERGEDLAYER-2
 10
6.533502
 20
2.428522
 30
0.000000
  0
SEQEND
  8
MERGEDLAYER-2
  0
POLYLINE
  8
MERGEDLAYER-2
 66
  1
 70
  1
 62
  0
  0
VERTEX
  8
MERGEDLAYER-2
 10
0.782822
 20
2.660583
 30
0.000000
  0
VERTEX
  8
MERGEDLAYER-2
 10
1.845759
 20
2.660583
 30
0.000000
  0
VERTEX
  8
MERGEDLAYER-2
 10
1.845759
 20
2.541416
 30
0.000000
  0
VERTEX
  8
MERGEDLAYER-2
 10
0.782822
 20
2.541416
 30
0.000000
  0
SEQEND
  8
MERGEDLAYER-2
  0
POLYLINE
  8
MERGEDLAYER-2
 66
  1
 70
  1
 62
  0
  0
VERTEX
  8
MERGEDLAYER-2
 10
2.014697
 20
2.660583
 30
0.000000
  0
VERTEX
  8
MERGEDLAYER-2
 10
3.077636
 20
2.660583
 30
0.000000
  0
VERTEX
  8
MERGEDLAYER-2
 10
3.077636
 20
2.541416
 30
0.000000
  0
VERTEX
  8
MERGEDLAYER-2
 10
2.014697
 20
2.541416
 30
0.000000
  0
SEQEND
  8
MERGEDLAYER-2
  0
POLYLINE
  8
MERGEDLAYER-2
 66
  1
 70
  1
 62
  0
  0
VERTEX
  8
MERGEDLAYER-2
 10
3.246573
 20
2.660583
 30
0.000000
  0
VERTEX
  8
MERGEDLAYER-2
 10
4.309512
 20
2.660583
 30
0.000000
  0
VERTEX
  8
MERGEDLAYER-2
 10
4.309512
 20
2.541416
 30
0.000000
  0
VERTEX
  8
MERGEDLAYER-2
 10
3.246573
 20
2.541416
 30
0.000000
  0
SEQEND
  8
MERGEDLAYER-2
  0
POLYLINE
  8
MERGEDLAYER-2
 66
  1
 70
  1
 62
  0
  0
VERTEX
  8
MERGEDLAYER-2
 10
4.478450
 20
2.660583
 30
0.000000
  0
VERTEX
  8
MERGEDLAYER-2
 10
5.541387
 20
2.660583
 30
0.000000
  0
VERTEX
  8
MERGEDLAYER-2
 10
5.541387
 20
2.541416
 30
0.000000
  0
VERTEX
  8
MERGEDLAYER-2
 10
4.478450
 20
2.541416
 30
0.000000
  0
SEQEND
  8
MERGEDLAYER-2
  0
POLYLINE
  8
MERGEDLAYER-2
 66
  1
 70
  1
 62
  0
  0
VERTEX
  8
MERGEDLAYER-2
 10
5.710350
 20
2.660583
 30
0.000000
  0
VERTEX
  8
MERGEDLAYER-2
 10
6.773287
 20
2.660583
 30
0.000000
  0
VERTEX
  8
MERGEDLAYER-2
 10
6.773287
 20
2.541416
 30
0.000000
  0
VERTEX
  8
MERGEDLAYER-2
 10
5.710350
 20
2.541416
 30
0.000000
  0
SEQEND
  8
MERGEDLAYER-2
  0
POLYLINE
  8
MERGEDLAYER-2
 66
  1
 70
  0
 62
  0
 10
0.954861
 20
2.562493
 30
0.000000
  0
VERTEX
  8
MERGEDLAYER-2
 10
0.954861
 20
2.562493
 30
0.000000
  0
VERTEX
  8
MERGEDLAYER-2
 10
1.024785
 20
2.602864
 30
0.000000
  0
SEQEND
  8
MERGEDLAYER-2
  0
POLYLINE
  8
MERGEDLAYER-2
 66
  1
 70
  0
 62
  0
 10
1.671875
 20
2.635411
 30
0.000000
  0
VERTEX
  8
MERGEDLAYER-2
 10
1.671875
 20
2.635411
 30
0.000000
  0
VERTEX
  8
MERGEDLAYER-2
 10
1.605903
 20
2.597321
 30
0.000000
  0
SEQEND
  8
MERGEDLAYER-2
  0
POLYLINE
  8
MERGEDLAYER-2
 66
  1
 70
  0
 62
  0
 10
2.186761
 20
2.562493
 30
0.000000
  0
VERTEX
  8
MERGEDLAYER-2
 10
2.186761
 20
2.562493
 30
0.000000
  0
VERTEX
  8
MERGEDLAYER-2
 10
2.256685
 20
2.602864
 30
0.000000
  0
SEQEND
  8
MERGEDLAYER-2
  0
POLYLINE
  8
MERGEDLAYER-2
 66
  1
 70
  0
 62
  0
 10
2.903775
 20
2.635411
 30
0.000000
  0
VERTEX
  8
MERGEDLAYER-2
 10
2.903775
 20
2.635411
 30
0.000000
  0
VERTEX
  8
MERGEDLAYER-2
 10
2.837803
 20
2.597321
 30
0.000000
  0
SEQEND
  8
MERGEDLAYER-2
  0
POLYLINE
  8
MERGEDLAYER-2
 66
  1
 70
  0
 62
  0
 10
3.418661
 20
2.562493
 30
0.000000
  0
VERTEX
  8
MERGEDLAYER-2
 10
3.418661
 20
2.562493
 30
0.000000
  0
VERTEX
  8
MERGEDLAYER-2
 10
3.488585
 20
2.602864
 30
0.000000
  0
SEQEND
  8
MERGEDLAYER-2
  0
POLYLINE
  8
MERGEDLAYER-2
 66
  1
 70
  0
 62
  0
 10
4.135675
 20
2.635411
 30
0.000000
  0
VERTEX
  8
MERGEDLAYER-2
 10
4.135675
 20
2.635411
 30
0.000000
  0
VERTEX
  8
MERGEDLAYER-2
 10
4.069703
 20
2.597321
 30
0.000000
  0
SEQEND
  8
MERGEDLAYER-2
  0
POLYLINE
  8
MERGEDLAYER-2
 66
  1
 70
  0
 62
  0
 10
4.650561
 20
2.562493
 30
0.000000
  0
VERTEX
  8
MERGEDLAYER-2
 10
4.650561
 20
2.562493
 30
0.000000
  0
VERTEX
  8
MERGEDLAYER-2
 10
4.720485
 20
2.602864
 30
0.000000
  0
SEQEND
  8
MERGEDLAYER-2
  0
POLYLINE
  8
MERGEDLAYER-2
 66
  1
 70
  0
 62
  0
 10
5.367575
 20
2.635411
 30
0.000000
  0
VERTEX
  8
MERGEDLAYER-2
 10
5.367575
 20
2.635411
 30
0.000000
  0
VERTEX
  8
MERGEDLAYER-2
 10
5.301603
 20
2.597321
 30
0.000000
  0
SEQEND
  8
MERGEDLAYER-2
  0
POLYLINE
  8
MERGEDLAYER-2
 66
  1
 70
  0
 62
  0
 10
5.882461
 20
2.562493
 30
0.000000
  0
VERTEX
  8
MERGEDLAYER-2
 10
5.882461
 20
2.562493
 30
0.000000
  0
VERTEX
  8
MERGEDLAYER-2
 10
5.952385
 20
2.602864
 30
0.000000
  0
SEQEND
  8
MERGEDLAYER-2
  0
POLYLINE
  8
MERGEDLAYER-2
 66
  1
 70
  0
 62
  0
 10
6.599475
 20
2.635411
 30
0.000000
  0
VERTEX
  8
MERGEDLAYER-2
 10
6.599475
 20
2.635411
 30
0.000000
  0
VERTEX
  8
MERGEDLAYER-2
 10
6.533502
 20
2.597321
 30
0.000000
  0
SEQEND
  8
MERGEDLAYER-2
  0
POLYLINE
  8
MERGEDLAYER-2
 66
  1
 70
  1
 62
  0
  0
VERTEX
  8
MERGEDLAYER-2
 10
0.782822
 20
2.829383
 30
0.000000
  0
VERTEX
  8
MERGEDLAYER-2
 10
1.845759
 20
2.829383
 30
0.000000
  0
VERTEX
  8
MERGEDLAYER-2
 10
1.845759
 20
2.710215
 30
0.000000
  0
VERTEX
  8
MERGEDLAYER-2
 10
0.782822
 20
2.710215
 30
0.000000
  0
SEQEND
  8
MERGEDLAYER-2
  0
POLYLINE
  8
MERGEDLAYER-2
 66
  1
 70
  1
 62
  0
  0
VERTEX
  8
MERGEDLAYER-2
 10
2.014697
 20
2.829383
 30
0.000000
  0
VERTEX
  8
MERGEDLAYER-2
 10
3.077636
 20
2.829383
 30
0.000000
  0
VERTEX
  8
MERGEDLAYER-2
 10
3.077636
 20
2.710215
 30
0.000000
  0
VERTEX
  8
MERGEDLAYER-2
 10
2.014697
 20
2.710215
 30
0.000000
  0
SEQEND
  8
MERGEDLAYER-2
  0
POLYLINE
  8
MERGEDLAYER-2
 66
  1
 70
  1
 62
  0
  0
VERTEX
  8
MERGEDLAYER-2
 10
3.246573
 20
2.829383
 30
0.000000
  0
VERTEX
  8
MERGEDLAYER-2
 10
4.309512
 20
2.829383
 30
0.000000
  0
VERTEX
  8
MERGEDLAYER-2
 10
4.309512
 20
2.710215
 30
0.000000
  0
VERTEX
  8
MERGEDLAYER-2
 10
3.246573
 20
2.710215
 30
0.000000
  0
SEQEND
  8
MERGEDLAYER-2
  0
POLYLINE
  8
MERGEDLAYER-2
 66
  1
 70
  1
 62
  0
  0
VERTEX
  8
MERGEDLAYER-2
 10
4.478450
 20
2.829383
 30
0.000000
  0
VERTEX
  8
MERGEDLAYER-2
 10
5.541387
 20
2.829383
 30
0.000000
  0
VERTEX
  8
MERGEDLAYER-2
 10
5.541387
 20
2.710215
 30
0.000000
  0
VERTEX
  8
MERGEDLAYER-2
 10
4.478450
 20
2.710215
 30
0.000000
  0
SEQEND
  8
MERGEDLAYER-2
  0
POLYLINE
  8
MERGEDLAYER-2
 66
  1
 70
  1
 62
  0
  0
VERTEX
  8
MERGEDLAYER-2
 10
5.710350
 20
2.829383
 30
0.000000
  0
VERTEX
  8
MERGEDLAYER-2
 10
6.773287
 20
2.829383
 30
0.000000
  0
VERTEX
  8
MERGEDLAYER-2
 10
6.773287
 20
2.710215
 30
0.000000
  0
VERTEX
  8
MERGEDLAYER-2
 10
5.710350
 20
2.710215
 30
0.000000
  0
SEQEND
  8
MERGEDLAYER-2
  0
POLYLINE
  8
MERGEDLAYER-2
 66
  1
 70
  0
 62
  0
 10
0.954861
 20
2.731294
 30
0.000000
  0
VERTEX
  8
MERGEDLAYER-2
 10
0.954861
 20
2.731294
 30
0.000000
  0
VERTEX
  8
MERGEDLAYER-2
 10
1.024785
 20
2.771664
 30
0.000000
  0
SEQEND
  8
MERGEDLAYER-2
  0
POLYLINE
  8
MERGEDLAYER-2
 66
  1
 70
  0
 62
  0
 10
1.671875
 20
2.804211
 30
0.000000
  0
VERTEX
  8
MERGEDLAYER-2
 10
1.671875
 20
2.804211
 30
0.000000
  0
VERTEX
  8
MERGEDLAYER-2
 10
1.605903
 20
2.766122
 30
0.000000
  0
SEQEND
  8
MERGEDLAYER-2
  0
POLYLINE
  8
MERGEDLAYER-2
 66
  1
 70
  0
 62
  0
 10
2.186761
 20
2.731294
 30
0.000000
  0
VERTEX
  8
MERGEDLAYER-2
 10
2.186761
 20
2.731294
 30
0.000000
  0
VERTEX
  8
MERGEDLAYER-2
 10
2.256685
 20
2.771664
 30
0.000000
  0
SEQEND
  8
MERGEDLAYER-2
  0
POLYLINE
  8
MERGEDLAYER-2
 66
  1
 70
  0
 62
  0
 10
2.903775
 20
2.804211
 30
0.000000
  0
VERTEX
  8
MERGEDLAYER-2
 10
2.903775
 20
2.804211
 30
0.000000
  0
VERTEX
  8
MERGEDLAYER-2
 10
2.837803
 20
2.766122
 30
0.000000
  0
SEQEND
  8
MERGEDLAYER-2
  0
POLYLINE
  8
MERGEDLAYER-2
 66
  1
 70
  0
 62
  0
 10
3.418661
 20
2.731294
 30
0.000000
  0
VERTEX
  8
MERGEDLAYER-2
 10
3.418661
 20
2.731294
 30
0.000000
  0
VERTEX
  8
MERGEDLAYER-2
 10
3.488585
 20
2.771664
 30
0.000000
  0
SEQEND
  8
MERGEDLAYER-2
  0
POLYLINE
  8
MERGEDLAYER-2
 66
  1
 70
  0
 62
  0
 10
4.135675
 20
2.804211
 30
0.000000
  0
VERTEX
  8
MERGEDLAYER-2
 10
4.135675
 20
2.804211
 30
0.000000
  0
VERTEX
  8
MERGEDLAYER-2
 10
4.069703
 20
2.766122
 30
0.000000
  0
SEQEND
  8
MERGEDLAYER-2
  0
POLYLINE
  8
MERGEDLAYER-2
 66
  1
 70
  0
 62
  0
 10
4.650561
 20
2.731294
 30
0.000000
  0
VERTEX
  8
MERGEDLAYER-2
 10
4.650561
 20
2.731294
 30
0.000000
  0
VERTEX
  8
MERGEDLAYER-2
 10
4.720485
 20
2.771664
 30
0.000000
  0
SEQEND
  8
MERGEDLAYER-2
  0
POLYLINE
  8
MERGEDLAYER-2
 66
  1
 70
  0
 62
  0
 10
5.367575
 20
2.804211
 30
0.000000
  0
VERTEX
  8
MERGEDLAYER-2
 10
5.367575
 20
2.804211
 30
0.000000
  0
VERTEX
  8
MERGEDLAYER-2
 10
5.301603
 20
2.766122
 30
0.000000
  0
SEQEND
  8
MERGEDLAYER-2
  0
POLYLINE
  8
MERGEDLAYER-2
 66
  1
 70
  0
 62
  0
 10
5.882461
 20
2.731294
 30
0.000000
  0
VERTEX
  8
MERGEDLAYER-2
 10
5.882461
 20
2.731294
 30
0.000000
  0
VERTEX
  8
MERGEDLAYER-2
 10
5.952385
 20
2.771664
 30
0.000000
  0
SEQEND
  8
MERGEDLAYER-2
  0
POLYLINE
  8
MERGEDLAYER-2
 66
  1
 70
  0
 62
  0
 10
6.599475
 20
2.804211
 30
0.000000
  0
VERTEX
  8
MERGEDLAYER-2
 10
6.599475
 20
2.804211
 30
0.000000
  0
VERTEX
  8
MERGEDLAYER-2
 10
6.533502
 20
2.766122
 30
0.000000
  0
SEQEND
  8
MERGEDLAYER-2
  0
POLYLINE
  8
MERGEDLAYER-2
 66
  1
 70
  1
 62
  0
  0
VERTEX
  8
MERGEDLAYER-2
 10
0.782822
 20
2.998183
 30
0.000000
  0
VERTEX
  8
MERGEDLAYER-2
 10
1.845759
 20
2.998183
 30
0.000000
  0
VERTEX
  8
MERGEDLAYER-2
 10
1.845759
 20
2.879016
 30
0.000000
  0
VERTEX
  8
MERGEDLAYER-2
 10
0.782822
 20
2.879016
 30
0.000000
  0
SEQEND
  8
MERGEDLAYER-2
  0
POLYLINE
  8
MERGEDLAYER-2
 66
  1
 70
  1
 62
  0
  0
VERTEX
  8
MERGEDLAYER-2
 10
2.014697
 20
2.998183
 30
0.000000
  0
VERTEX
  8
MERGEDLAYER-2
 10
3.077636
 20
2.998183
 30
0.000000
  0
VERTEX
  8
MERGEDLAYER-2
 10
3.077636
 20
2.879016
 30
0.000000
  0
VERTEX
  8
MERGEDLAYER-2
 10
2.014697
 20
2.879016
 30
0.000000
  0
SEQEND
  8
MERGEDLAYER-2
  0
POLYLINE
  8
MERGEDLAYER-2
 66
  1
 70
  1
 62
  0
  0
VERTEX
  8
MERGEDLAYER-2
 10
3.246573
 20
2.998183
 30
0.000000
  0
VERTEX
  8
MERGEDLAYER-2
 10
4.309512
 20
2.998183
 30
0.000000
  0
VERTEX
  8
MERGEDLAYER-2
 10
4.309512
 20
2.879016
 30
0.000000
  0
VERTEX
  8
MERGEDLAYER-2
 10
3.246573
 20
2.879016
 30
0.000000
  0
SEQEND
  8
MERGEDLAYER-2
  0
POLYLINE
  8
MERGEDLAYER-2
 66
  1
 70
  1
 62
  0
  0
VERTEX
  8
MERGEDLAYER-2
 10
4.478450
 20
2.998183
 30
0.000000
  0
VERTEX
  8
MERGEDLAYER-2
 10
5.541387
 20
2.998183
 30
0.000000
  0
VERTEX
  8
MERGEDLAYER-2
 10
5.541387
 20
2.879016
 30
0.000000
  0
VERTEX
  8
MERGEDLAYER-2
 10
4.478450
 20
2.879016
 30
0.000000
  0
SEQEND
  8
MERGEDLAYER-2
  0
POLYLINE
  8
MERGEDLAYER-2
 66
  1
 70
  1
 62
  0
  0
VERTEX
  8
MERGEDLAYER-2
 10
5.710350
 20
2.998183
 30
0.000000
  0
VERTEX
  8
MERGEDLAYER-2
 10
6.773287
 20
2.998183
 30
0.000000
  0
VERTEX
  8
MERGEDLAYER-2
 10
6.773287
 20
2.879016
 30
0.000000
  0
VERTEX
  8
MERGEDLAYER-2
 10
5.710350
 20
2.879016
 30
0.000000
  0
SEQEND
  8
MERGEDLAYER-2
  0
POLYLINE
  8
MERGEDLAYER-2
 66
  1
 70
  0
 62
  0
 10
0.954861
 20
2.900094
 30
0.000000
  0
VERTEX
  8
MERGEDLAYER-2
 10
0.954861
 20
2.900094
 30
0.000000
  0
VERTEX
  8
MERGEDLAYER-2
 10
1.024785
 20
2.940464
 30
0.000000
  0
SEQEND
  8
MERGEDLAYER-2
  0
POLYLINE
  8
MERGEDLAYER-2
 66
  1
 70
  0
 62
  0
 10
1.671875
 20
2.973011
 30
0.000000
  0
VERTEX
  8
MERGEDLAYER-2
 10
1.671875
 20
2.973011
 30
0.000000
  0
VERTEX
  8
MERGEDLAYER-2
 10
1.605903
 20
2.934922
 30
0.000000
  0
SEQEND
  8
MERGEDLAYER-2
  0
POLYLINE
  8
MERGEDLAYER-2
 66
  1
 70
  0
 62
  0
 10
2.186761
 20
2.900094
 30
0.000000
  0
VERTEX
  8
MERGEDLAYER-2
 10
2.186761
 20
2.900094
 30
0.000000
  0
VERTEX
  8
MERGEDLAYER-2
 10
2.256685
 20
2.940464
 30
0.000000
  0
SEQEND
  8
MERGEDLAYER-2
  0
POLYLINE
  8
MERGEDLAYER-2
 66
  1
 70
  0
 62
  0
 10
2.903775
 20
2.973011
 30
0.000000
  0
VERTEX
  8
MERGEDLAYER-2
 10
2.903775
 20
2.973011
 30
0.000000
  0
VERTEX
  8
MERGEDLAYER-2
 10
2.837803
 20
2.934922
 30
0.000000
  0
SEQEND
  8
MERGEDLAYER-2
  0
POLYLINE
  8
MERGEDLAYER-2
 66
  1
 70
  0
 62
  0
 10
3.418661
 20
2.900094
 30
0.000000
  0
VERTEX
  8
MERGEDLAYER-2
 10
3.418661
 20
2.900094
 30
0.000000
  0
VERTEX
  8
MERGEDLAYER-2
 10
3.488585
 20
2.940464
 30
0.000000
  0
SEQEND
  8
MERGEDLAYER-2
  0
POLYLINE
  8
MERGEDLAYER-2
 66
  1
 70
  0
 62
  0
 10
4.135675
 20
2.973011
 30
0.000000
  0
VERTEX
  8
MERGEDLAYER-2
 10
4.135675
 20
2.973011
 30
0.000000
  0
VERTEX
  8
MERGEDLAYER-2
 10
4.069703
 20
2.934922
 30
0.000000
  0
SEQEND
  8
MERGEDLAYER-2
  0
POLYLINE
  8
MERGEDLAYER-2
 66
  1
 70
  0
 62
  0
 10
4.650561
 20
2.900094
 30
0.000000
  0
VERTEX
  8
MERGEDLAYER-2
 10
4.650561
 20
2.900094
 30
0.000000
  0
VERTEX
  8
MERGEDLAYER-2
 10
4.720485
 20
2.940464
 30
0.000000
  0
SEQEND
  8
MERGEDLAYER-2
  0
POLYLINE
  8
MERGEDLAYER-2
 66
  1
 70
  0
 62
  0
 10
5.367575
 20
2.973011
 30
0.000000
  0
VERTEX
  8
MERGEDLAYER-2
 10
5.367575
 20
2.973011
 30
0.000000
  0
VERTEX
  8
MERGEDLAYER-2
 10
5.301603
 20
2.934922
 30
0.000000
  0
SEQEND
  8
MERGEDLAYER-2
  0
POLYLINE
  8
MERGEDLAYER-2
 66
  1
 70
  0
 62
  0
 10
5.882461
 20
2.900094
 30
0.000000
  0
VERTEX
  8
MERGEDLAYER-2
 10
5.882461
 20
2.900094
 30
0.000000
  0
VERTEX
  8
MERGEDLAYER-2
 10
5.952385
 20
2.940464
 30
0.000000
  0
SEQEND
  8
MERGEDLAYER-2
  0
POLYLINE
  8
MERGEDLAYER-2
 66
  1
 70
  0
 62
  0
 10
6.599475
 20
2.973011
 30
0.000000
  0
VERTEX
  8
MERGEDLAYER-2
 10
6.599475
 20
2.973011
 30
0.000000
  0
VERTEX
  8
MERGEDLAYER-2
 10
6.533502
 20
2.934922
 30
0.000000
  0
SEQEND
  8
MERGEDLAYER-2
  0
POLYLINE
  8
MERGEDLAYER-2
 66
  1
 70
  1
 62
  0
  0
VERTEX
  8
MERGEDLAYER-2
 10
0.782822
 20
3.166984
 30
0.000000
  0
VERTEX
  8
MERGEDLAYER-2
 10
1.845759
 20
3.166984
 30
0.000000
  0
VERTEX
  8
MERGEDLAYER-2
 10
1.845759
 20
3.047816
 30
0.000000
  0
VERTEX
  8
MERGEDLAYER-2
 10
0.782822
 20
3.047816
 30
0.000000
  0
SEQEND
  8
MERGEDLAYER-2
  0
POLYLINE
  8
MERGEDLAYER-2
 66
  1
 70
  1
 62
  0
  0
VERTEX
  8
MERGEDLAYER-2
 10
2.014697
 20
3.166984
 30
0.000000
  0
VERTEX
  8
MERGEDLAYER-2
 10
3.077636
 20
3.166984
 30
0.000000
  0
VERTEX
  8
MERGEDLAYER-2
 10
3.077636
 20
3.047816
 30
0.000000
  0
VERTEX
  8
MERGEDLAYER-2
 10
2.014697
 20
3.047816
 30
0.000000
  0
SEQEND
  8
MERGEDLAYER-2
  0
POLYLINE
  8
MERGEDLAYER-2
 66
  1
 70
  1
 62
  0
  0
VERTEX
  8
MERGEDLAYER-2
 10
3.246573
 20
3.166984
 30
0.000000
  0
VERTEX
  8
MERGEDLAYER-2
 10
4.309512
 20
3.166984
 30
0.000000
  0
VERTEX
  8
MERGEDLAYER-2
 10
4.309512
 20
3.047816
 30
0.000000
  0
VERTEX
  8
MERGEDLAYER-2
 10
3.246573
 20
3.047816
 30
0.000000
  0
SEQEND
  8
MERGEDLAYER-2
  0
POLYLINE
  8
MERGEDLAYER-2
 66
  1
 70
  1
 62
  0
  0
VERTEX
  8
MERGEDLAYER-2
 10
4.478450
 20
3.166984
 30
0.000000
  0
VERTEX
  8
MERGEDLAYER-2
 10
5.541387
 20
3.166984
 30
0.000000
  0
VERTEX
  8
MERGEDLAYER-2
 10
5.541387
 20
3.047816
 30
0.000000
  0
VERTEX
  8
MERGEDLAYER-2
 10
4.478450
 20
3.047816
 30
0.000000
  0
SEQEND
  8
MERGEDLAYER-2
  0
POLYLINE
  8
MERGEDLAYER-2
 66
  1
 70
  1
 62
  0
  0
VERTEX
  8
MERGEDLAYER-2
 10
5.710350
 20
3.166984
 30
0.000000
  0
VERTEX
  8
MERGEDLAYER-2
 10
6.773287
 20
3.166984
 30
0.000000
  0
VERTEX
  8
MERGEDLAYER-2
 10
6.773287
 20
3.047816
 30
0.000000
  0
VERTEX
  8
MERGEDLAYER-2
 10
5.710350
 20
3.047816
 30
0.000000
  0
SEQEND
  8
MERGEDLAYER-2
  0
POLYLINE
  8
MERGEDLAYER-2
 66
  1
 70
  0
 62
  0
 10
0.954861
 20
3.068893
 30
0.000000
  0
VERTEX
  8
MERGEDLAYER-2
 10
0.954861
 20
3.068893
 30
0.000000
  0
VERTEX
  8
MERGEDLAYER-2
 10
1.024785
 20
3.109265
 30
0.000000
  0
SEQEND
  8
MERGEDLAYER-2
  0
POLYLINE
  8
MERGEDLAYER-2
 66
  1
 70
  0
 62
  0
 10
1.671875
 20
3.141811
 30
0.000000
  0
VERTEX
  8
MERGEDLAYER-2
 10
1.671875
 20
3.141811
 30
0.000000
  0
VERTEX
  8
MERGEDLAYER-2
 10
1.605903
 20
3.103722
 30
0.000000
  0
SEQEND
  8
MERGEDLAYER-2
  0
POLYLINE
  8
MERGEDLAYER-2
 66
  1
 70
  0
 62
  0
 10
2.186761
 20
3.068893
 30
0.000000
  0
VERTEX
  8
MERGEDLAYER-2
 10
2.186761
 20
3.068893
 30
0.000000
  0
VERTEX
  8
MERGEDLAYER-2
 10
2.256685
 20
3.109265
 30
0.000000
  0
SEQEND
  8
MERGEDLAYER-2
  0
POLYLINE
  8
MERGEDLAYER-2
 66
  1
 70
  0
 62
  0
 10
2.903775
 20
3.141811
 30
0.000000
  0
VERTEX
  8
MERGEDLAYER-2
 10
2.903775
 20
3.141811
 30
0.000000
  0
VERTEX
  8
MERGEDLAYER-2
 10
2.837803
 20
3.103722
 30
0.000000
  0
SEQEND
  8
MERGEDLAYER-2
  0
POLYLINE
  8
MERGEDLAYER-2
 66
  1
 70
  0
 62
  0
 10
3.418661
 20
3.068893
 30
0.000000
  0
VERTEX
  8
MERGEDLAYER-2
 10
3.418661
 20
3.068893
 30
0.000000
  0
VERTEX
  8
MERGEDLAYER-2
 10
3.488585
 20
3.109265
 30
0.000000
  0
SEQEND
  8
MERGEDLAYER-2
  0
POLYLINE
  8
MERGEDLAYER-2
 66
  1
 70
  0
 62
  0
 10
4.135675
 20
3.141811
 30
0.000000
  0
VERTEX
  8
MERGEDLAYER-2
 10
4.135675
 20
3.141811
 30
0.000000
  0
VERTEX
  8
MERGEDLAYER-2
 10
4.069703
 20
3.103722
 30
0.000000
  0
SEQEND
  8
MERGEDLAYER-2
  0
POLYLINE
  8
MERGEDLAYER-2
 66
  1
 70
  0
 62
  0
 10
4.650561
 20
3.068893
 30
0.000000
  0
VERTEX
  8
MERGEDLAYER-2
 10
4.650561
 20
3.068893
 30
0.000000
  0
VERTEX
  8
MERGEDLAYER-2
 10
4.720485
 20
3.109265
 30
0.000000
  0
SEQEND
  8
MERGEDLAYER-2
  0
POLYLINE
  8
MERGEDLAYER-2
 66
  1
 70
  0
 62
  0
 10
5.367575
 20
3.141811
 30
0.000000
  0
VERTEX
  8
MERGEDLAYER-2
 10
5.367575
 20
3.141811
 30
0.000000
  0
VERTEX
  8
MERGEDLAYER-2
 10
5.301603
 20
3.103722
 30
0.000000
  0
SEQEND
  8
MERGEDLAYER-2
  0
POLYLINE
  8
MERGEDLAYER-2
 66
  1
 70
  0
 62
  0
 10
5.882461
 20
3.068893
 30
0.000000
  0
VERTEX
  8
MERGEDLAYER-2
 10
5.882461
 20
3.068893
 30
0.000000
  0
VERTEX
  8
MERGEDLAYER-2
 10
5.952385
 20
3.109265
 30
0.000000
  0
SEQEND
  8
MERGEDLAYER-2
  0
POLYLINE
  8
MERGEDLAYER-2
 66
  1
 70
  0
 62
  0
 10
6.599475
 20
3.141811
 30
0.000000
  0
VERTEX
  8
MERGEDLAYER-2
 10
6.599475
 20
3.141811
 30
0.000000
  0
VERTEX
  8
MERGEDLAYER-2
 10
6.533502
 20
3.103722
 30
0.000000
  0
SEQEND
  8
MERGEDLAYER-2
  0
POLYLINE
  8
MERGEDLAYER-2
 66
  1
 70
  1
 62
  0
  0
VERTEX
  8
MERGEDLAYER-2
 10
0.782822
 20
3.335784
 30
0.000000
  0
VERTEX
  8
MERGEDLAYER-2
 10
1.845759
 20
3.335784
 30
0.000000
  0
VERTEX
  8
MERGEDLAYER-2
 10
1.845759
 20
3.216616
 30
0.000000
  0
VERTEX
  8
MERGEDLAYER-2
 10
0.782822
 20
3.216616
 30
0.000000
  0
SEQEND
  8
MERGEDLAYER-2
  0
POLYLINE
  8
MERGEDLAYER-2
 66
  1
 70
  1
 62
  0
  0
VERTEX
  8
MERGEDLAYER-2
 10
2.014697
 20
3.335784
 30
0.000000
  0
VERTEX
  8
MERGEDLAYER-2
 10
3.077636
 20
3.335784
 30
0.000000
  0
VERTEX
  8
MERGEDLAYER-2
 10
3.077636
 20
3.216616
 30
0.000000
  0
VERTEX
  8
MERGEDLAYER-2
 10
2.014697
 20
3.216616
 30
0.000000
  0
SEQEND
  8
MERGEDLAYER-2
  0
POLYLINE
  8
MERGEDLAYER-2
 66
  1
 70
  1
 62
  0
  0
VERTEX
  8
MERGEDLAYER-2
 10
3.246573
 20
3.335784
 30
0.000000
  0
VERTEX
  8
MERGEDLAYER-2
 10
4.309512
 20
3.335784
 30
0.000000
  0
VERTEX
  8
MERGEDLAYER-2
 10
4.309512
 20
3.216616
 30
0.000000
  0
VERTEX
  8
MERGEDLAYER-2
 10
3.246573
 20
3.216616
 30
0.000000
  0
SEQEND
  8
MERGEDLAYER-2
  0
POLYLINE
  8
MERGEDLAYER-2
 66
  1
 70
  1
 62
  0
  0
VERTEX
  8
MERGEDLAYER-2
 10
4.478450
 20
3.335784
 30
0.000000
  0
VERTEX
  8
MERGEDLAYER-2
 10
5.541387
 20
3.335784
 30
0.000000
  0
VERTEX
  8
MERGEDLAYER-2
 10
5.541387
 20
3.216616
 30
0.000000
  0
VERTEX
  8
MERGEDLAYER-2
 10
4.478450
 20
3.216616
 30
0.000000
  0
SEQEND
  8
MERGEDLAYER-2
  0
POLYLINE
  8
MERGEDLAYER-2
 66
  1
 70
  1
 62
  0
  0
VERTEX
  8
MERGEDLAYER-2
 10
5.710350
 20
3.335784
 30
0.000000
  0
VERTEX
  8
MERGEDLAYER-2
 10
6.773287
 20
3.335784
 30
0.000000
  0
VERTEX
  8
MERGEDLAYER-2
 10
6.773287
 20
3.216616
 30
0.000000
  0
VERTEX
  8
MERGEDLAYER-2
 10
5.710350
 20
3.216616
 30
0.000000
  0
SEQEND
  8
MERGEDLAYER-2
  0
POLYLINE
  8
MERGEDLAYER-2
 66
  1
 70
  0
 62
  0
 10
0.954861
 20
3.237694
 30
0.000000
  0
VERTEX
  8
MERGEDLAYER-2
 10
0.954861
 20
3.237694
 30
0.000000
  0
VERTEX
  8
MERGEDLAYER-2
 10
1.024785
 20
3.278064
 30
0.000000
  0
SEQEND
  8
MERGEDLAYER-2
  0
POLYLINE
  8
MERGEDLAYER-2
 66
  1
 70
  0
 62
  0
 10
1.671875
 20
3.310611
 30
0.000000
  0
VERTEX
  8
MERGEDLAYER-2
 10
1.671875
 20
3.310611
 30
0.000000
  0
VERTEX
  8
MERGEDLAYER-2
 10
1.605903
 20
3.272523
 30
0.000000
  0
SEQEND
  8
MERGEDLAYER-2
  0
POLYLINE
  8
MERGEDLAYER-2
 66
  1
 70
  0
 62
  0
 10
2.186761
 20
3.237694
 30
0.000000
  0
VERTEX
  8
MERGEDLAYER-2
 10
2.186761
 20
3.237694
 30
0.000000
  0
VERTEX
  8
MERGEDLAYER-2
 10
2.256685
 20
3.278064
 30
0.000000
  0
SEQEND
  8
MERGEDLAYER-2
  0
POLYLINE
  8
MERGEDLAYER-2
 66
  1
 70
  0
 62
  0
 10
2.903775
 20
3.310611
 30
0.000000
  0
VERTEX
  8
MERGEDLAYER-2
 10
2.903775
 20
3.310611
 30
0.000000
  0
VERTEX
  8
MERGEDLAYER-2
 10
2.837803
 20
3.272523
 30
0.000000
  0
SEQEND
  8
MERGEDLAYER-2
  0
POLYLINE
  8
MERGEDLAYER-2
 66
  1
 70
  0
 62
  0
 10
3.418661
 20
3.237694
 30
0.000000
  0
VERTEX
  8
MERGEDLAYER-2
 10
3.418661
 20
3.237694
 30
0.000000
  0
VERTEX
  8
MERGEDLAYER-2
 10
3.488585
 20
3.278064
 30
0.000000
  0
SEQEND
  8
MERGEDLAYER-2
  0
POLYLINE
  8
MERGEDLAYER-2
 66
  1
 70
  0
 62
  0
 10
4.135675
 20
3.310611
 30
0.000000
  0
VERTEX
  8
MERGEDLAYER-2
 10
4.135675
 20
3.310611
 30
0.000000
  0
VERTEX
  8
MERGEDLAYER-2
 10
4.069703
 20
3.272523
 30
0.000000
  0
SEQEND
  8
MERGEDLAYER-2
  0
POLYLINE
  8
MERGEDLAYER-2
 66
  1
 70
  0
 62
  0
 10
4.650561
 20
3.237694
 30
0.000000
  0
VERTEX
  8
MERGEDLAYER-2
 10
4.650561
 20
3.237694
 30
0.000000
  0
VERTEX
  8
MERGEDLAYER-2
 10
4.720485
 20
3.278064
 30
0.000000
  0
SEQEND
  8
MERGEDLAYER-2
  0
POLYLINE
  8
MERGEDLAYER-2
 66
  1
 70
  0
 62
  0
 10
5.367575
 20
3.310611
 30
0.000000
  0
VERTEX
  8
MERGEDLAYER-2
 10
5.367575
 20
3.310611
 30
0.000000
  0
VERTEX
  8
MERGEDLAYER-2
 10
5.301603
 20
3.272523
 30
0.000000
  0
SEQEND
  8
MERGEDLAYER-2
  0
POLYLINE
  8
MERGEDLAYER-2
 66
  1
 70
  0
 62
  0
 10
5.882461
 20
3.237694
 30
0.000000
  0
VERTEX
  8
MERGEDLAYER-2
 10
5.882461
 20
3.237694
 30
0.000000
  0
VERTEX
  8
MERGEDLAYER-2
 10
5.952385
 20
3.278064
 30
0.000000
  0
SEQEND
  8
MERGEDLAYER-2
  0
POLYLINE
  8
MERGEDLAYER-2
 66
  1
 70
  0
 62
  0
 10
6.599475
 20
3.310611
 30
0.000000
  0
VERTEX
  8
MERGEDLAYER-2
 10
6.599475
 20
3.310611
 30
0.000000
  0
VERTEX
  8
MERGEDLAYER-2
 10
6.533502
 20
3.272523
 30
0.000000
  0
SEQEND
  8
MERGEDLAYER-2
  0
POLYLINE
  8
MERGEDLAYER-2
 66
  1
 70
  1
 62
  0
  0
VERTEX
  8
MERGEDLAYER-2
 10
0.782822
 20
3.504584
 30
0.000000
  0
VERTEX
  8
MERGEDLAYER-2
 10
1.845759
 20
3.504584
 30
0.000000
  0
VERTEX
  8
MERGEDLAYER-2
 10
1.845759
 20
3.385416
 30
0.000000
  0
VERTEX
  8
MERGEDLAYER-2
 10
0.782822
 20
3.385416
 30
0.000000
  0
SEQEND
  8
MERGEDLAYER-2
  0
POLYLINE
  8
MERGEDLAYER-2
 66
  1
 70
  1
 62
  0
  0
VERTEX
  8
MERGEDLAYER-2
 10
2.014697
 20
3.504584
 30
0.000000
  0
VERTEX
  8
MERGEDLAYER-2
 10
3.077636
 20
3.504584
 30
0.000000
  0
VERTEX
  8
MERGEDLAYER-2
 10
3.077636
 20
3.385416
 30
0.000000
  0
VERTEX
  8
MERGEDLAYER-2
 10
2.014697
 20
3.385416
 30
0.000000
  0
SEQEND
  8
MERGEDLAYER-2
  0
POLYLINE
  8
MERGEDLAYER-2
 66
  1
 70
  1
 62
  0
  0
VERTEX
  8
MERGEDLAYER-2
 10
3.246573
 20
3.504584
 30
0.000000
  0
VERTEX
  8
MERGEDLAYER-2
 10
4.309512
 20
3.504584
 30
0.000000
  0
VERTEX
  8
MERGEDLAYER-2
 10
4.309512
 20
3.385416
 30
0.000000
  0
VERTEX
  8
MERGEDLAYER-2
 10
3.246573
 20
3.385416
 30
0.000000
  0
SEQEND
  8
MERGEDLAYER-2
  0
POLYLINE
  8
MERGEDLAYER-2
 66
  1
 70
  1
 62
  0
  0
VERTEX
  8
MERGEDLAYER-2
 10
4.478450
 20
3.504584
 30
0.000000
  0
VERTEX
  8
MERGEDLAYER-2
 10
5.541387
 20
3.504584
 30
0.000000
  0
VERTEX
  8
MERGEDLAYER-2
 10
5.541387
 20
3.385416
 30
0.000000
  0
VERTEX
  8
MERGEDLAYER-2
 10
4.478450
 20
3.385416
 30
0.000000
  0
SEQEND
  8
MERGEDLAYER-2
  0
POLYLINE
  8
MERGEDLAYER-2
 66
  1
 70
  1
 62
  0
  0
VERTEX
  8
MERGEDLAYER-2
 10
5.710350
 20
3.504584
 30
0.000000
  0
VERTEX
  8
MERGEDLAYER-2
 10
6.773287
 20
3.504584
 30
0.000000
  0
VERTEX
  8
MERGEDLAYER-2
 10
6.773287
 20
3.385416
 30
0.000000
  0
VERTEX
  8
MERGEDLAYER-2
 10
5.710350
 20
3.385416
 30
0.000000
  0
SEQEND
  8
MERGEDLAYER-2
  0
POLYLINE
  8
MERGEDLAYER-2
 66
  1
 70
  0
 62
  0
 10
0.954861
 20
3.406494
 30
0.000000
  0
VERTEX
  8
MERGEDLAYER-2
 10
0.954861
 20
3.406494
 30
0.000000
  0
VERTEX
  8
MERGEDLAYER-2
 10
1.024785
 20
3.446865
 30
0.000000
  0
SEQEND
  8
MERGEDLAYER-2
  0
POLYLINE
  8
MERGEDLAYER-2
 66
  1
 70
  0
 62
  0
 10
1.671875
 20
3.479411
 30
0.000000
  0
VERTEX
  8
MERGEDLAYER-2
 10
1.671875
 20
3.479411
 30
0.000000
  0
VERTEX
  8
MERGEDLAYER-2
 10
1.605903
 20
3.441323
 30
0.000000
  0
SEQEND
  8
MERGEDLAYER-2
  0
POLYLINE
  8
MERGEDLAYER-2
 66
  1
 70
  0
 62
  0
 10
2.186761
 20
3.406494
 30
0.000000
  0
VERTEX
  8
MERGEDLAYER-2
 10
2.186761
 20
3.406494
 30
0.000000
  0
VERTEX
  8
MERGEDLAYER-2
 10
2.256685
 20
3.446865
 30
0.000000
  0
SEQEND
  8
MERGEDLAYER-2
  0
POLYLINE
  8
MERGEDLAYER-2
 66
  1
 70
  0
 62
  0
 10
2.903775
 20
3.479411
 30
0.000000
  0
VERTEX
  8
MERGEDLAYER-2
 10
2.903775
 20
3.479411
 30
0.000000
  0
VERTEX
  8
MERGEDLAYER-2
 10
2.837803
 20
3.441323
 30
0.000000
  0
SEQEND
  8
MERGEDLAYER-2
  0
POLYLINE
  8
MERGEDLAYER-2
 66
  1
 70
  0
 62
  0
 10
3.418661
 20
3.406494
 30
0.000000
  0
VERTEX
  8
MERGEDLAYER-2
 10
3.418661
 20
3.406494
 30
0.000000
  0
VERTEX
  8
MERGEDLAYER-2
 10
3.488585
 20
3.446865
 30
0.000000
  0
SEQEND
  8
MERGEDLAYER-2
  0
POLYLINE
  8
MERGEDLAYER-2
 66
  1
 70
  0
 62
  0
 10
4.135675
 20
3.479411
 30
0.000000
  0
VERTEX
  8
MERGEDLAYER-2
 10
4.135675
 20
3.479411
 30
0.000000
  0
VERTEX
  8
MERGEDLAYER-2
 10
4.069703
 20
3.441323
 30
0.000000
  0
SEQEND
  8
MERGEDLAYER-2
  0
POLYLINE
  8
MERGEDLAYER-2
 66
  1
 70
  0
 62
  0
 10
4.650561
 20
3.406494
 30
0.000000
  0
VERTEX
  8
MERGEDLAYER-2
 10
4.650561
 20
3.406494
 30
0.000000
  0
VERTEX
  8
MERGEDLAYER-2
 10
4.720485
 20
3.446865
 30
0.000000
  0
SEQEND
  8
MERGEDLAYER-2
  0
POLYLINE
  8
MERGEDLAYER-2
 66
  1
 70
  0
 62
  0
 10
5.367575
 20
3.479411
 30
0.000000
  0
VERTEX
  8
MERGEDLAYER-2
 10
5.367575
 20
3.479411
 30
0.000000
  0
VERTEX
  8
MERGEDLAYER-2
 10
5.301603
 20
3.441323
 30
0.000000
  0
SEQEND
  8
MERGEDLAYER-2
  0
POLYLINE
  8
MERGEDLAYER-2
 66
  1
 70
  0
 62
  0
 10
5.882461
 20
3.406494
 30
0.000000
  0
VERTEX
  8
MERGEDLAYER-2
 10
5.882461
 20
3.406494
 30
0.000000
  0
VERTEX
  8
MERGEDLAYER-2
 10
5.952385
 20
3.446865
 30
0.000000
  0
SEQEND
  8
MERGEDLAYER-2
  0
POLYLINE
  8
MERGEDLAYER-2
 66
  1
 70
  0
 62
  0
 10
6.599475
 20
3.479411
 30
0.000000
  0
VERTEX
  8
MERGEDLAYER-2
 10
6.599475
 20
3.479411
 30
0.000000
  0
VERTEX
  8
MERGEDLAYER-2
 10
6.533502
 20
3.441323
 30
0.000000
  0
SEQEND
  8
MERGEDLAYER-2
  0
POLYLINE
  8
MERGEDLAYER-2
 66
  1
 70
  1
 62
  0
  0
VERTEX
  8
MERGEDLAYER-2
 10
0.782822
 20
3.673384
 30
0.000000
  0
VERTEX
  8
MERGEDLAYER-2
 10
1.845759
 20
3.673384
 30
0.000000
  0
VERTEX
  8
MERGEDLAYER-2
 10
1.845759
 20
3.554217
 30
0.000000
  0
VERTEX
  8
MERGEDLAYER-2
 10
0.782822
 20
3.554217
 30
0.000000
  0
SEQEND
  8
MERGEDLAYER-2
  0
POLYLINE
  8
MERGEDLAYER-2
 66
  1
 70
  1
 62
  0
  0
VERTEX
  8
MERGEDLAYER-2
 10
2.014697
 20
3.673384
 30
0.000000
  0
VERTEX
  8
MERGEDLAYER-2
 10
3.077636
 20
3.673384
 30
0.000000
  0
VERTEX
  8
MERGEDLAYER-2
 10
3.077636
 20
3.554217
 30
0.000000
  0
VERTEX
  8
MERGEDLAYER-2
 10
2.014697
 20
3.554217
 30
0.000000
  0
SEQEND
  8
MERGEDLAYER-2
  0
POLYLINE
  8
MERGEDLAYER-2
 66
  1
 70
  1
 62
  0
  0
VERTEX
  8
MERGEDLAYER-2
 10
3.246573
 20
3.673384
 30
0.000000
  0
VERTEX
  8
MERGEDLAYER-2
 10
4.309512
 20
3.673384
 30
0.000000
  0
VERTEX
  8
MERGEDLAYER-2
 10
4.309512
 20
3.554217
 30
0.000000
  0
VERTEX
  8
MERGEDLAYER-2
 10
3.246573
 20
3.554217
 30
0.000000
  0
SEQEND
  8
MERGEDLAYER-2
  0
POLYLINE
  8
MERGEDLAYER-2
 66
  1
 70
  1
 62
  0
  0
VERTEX
  8
MERGEDLAYER-2
 10
4.478450
 20
3.673384
 30
0.000000
  0
VERTEX
  8
MERGEDLAYER-2
 10
5.541387
 20
3.673384
 30
0.000000
  0
VERTEX
  8
MERGEDLAYER-2
 10
5.541387
 20
3.554217
 30
0.000000
  0
VERTEX
  8
MERGEDLAYER-2
 10
4.478450
 20
3.554217
 30
0.000000
  0
SEQEND
  8
MERGEDLAYER-2
  0
POLYLINE
  8
MERGEDLAYER-2
 66
  1
 70
  1
 62
  0
  0
VERTEX
  8
MERGEDLAYER-2
 10
5.710350
 20
3.673384
 30
0.000000
  0
VERTEX
  8
MERGEDLAYER-2
 10
6.773287
 20
3.673384
 30
0.000000
  0
VERTEX
  8
MERGEDLAYER-2
 10
6.773287
 20
3.554217
 30
0.000000
  0
VERTEX
  8
MERGEDLAYER-2
 10
5.710350
 20
3.554217
 30
0.000000
  0
SEQEND
  8
MERGEDLAYER-2
  0
POLYLINE
  8
MERGEDLAYER-2
 66
  1
 70
  0
 62
  0
 10
0.954861
 20
3.575294
 30
0.000000
  0
VERTEX
  8
MERGEDLAYER-2
 10
0.954861
 20
3.575294
 30
0.000000
  0
VERTEX
  8
MERGEDLAYER-2
 10
1.024785
 20
3.615665
 30
0.000000
  0
SEQEND
  8
MERGEDLAYER-2
  0
POLYLINE
  8
MERGEDLAYER-2
 66
  1
 70
  0
 62
  0
 10
1.671875
 20
3.648212
 30
0.000000
  0
VERTEX
  8
MERGEDLAYER-2
 10
1.671875
 20
3.648212
 30
0.000000
  0
VERTEX
  8
MERGEDLAYER-2
 10
1.605903
 20
3.610123
 30
0.000000
  0
SEQEND
  8
MERGEDLAYER-2
  0
POLYLINE
  8
MERGEDLAYER-2
 66
  1
 70
  0
 62
  0
 10
2.186761
 20
3.575294
 30
0.000000
  0
VERTEX
  8
MERGEDLAYER-2
 10
2.186761
 20
3.575294
 30
0.000000
  0
VERTEX
  8
MERGEDLAYER-2
 10
2.256685
 20
3.615665
 30
0.000000
  0
SEQEND
  8
MERGEDLAYER-2
  0
POLYLINE
  8
MERGEDLAYER-2
 66
  1
 70
  0
 62
  0
 10
2.903775
 20
3.648212
 30
0.000000
  0
VERTEX
  8
MERGEDLAYER-2
 10
2.903775
 20
3.648212
 30
0.000000
  0
VERTEX
  8
MERGEDLAYER-2
 10
2.837803
 20
3.610123
 30
0.000000
  0
SEQEND
  8
MERGEDLAYER-2
  0
POLYLINE
  8
MERGEDLAYER-2
 66
  1
 70
  0
 62
  0
 10
3.418661
 20
3.575294
 30
0.000000
  0
VERTEX
  8
MERGEDLAYER-2
 10
3.418661
 20
3.575294
 30
0.000000
  0
VERTEX
  8
MERGEDLAYER-2
 10
3.488585
 20
3.615665
 30
0.000000
  0
SEQEND
  8
MERGEDLAYER-2
  0
POLYLINE
  8
MERGEDLAYER-2
 66
  1
 70
  0
 62
  0
 10
4.135675
 20
3.648212
 30
0.000000
  0
VERTEX
  8
MERGEDLAYER-2
 10
4.135675
 20
3.648212
 30
0.000000
  0
VERTEX
  8
MERGEDLAYER-2
 10
4.069703
 20
3.610123
 30
0.000000
  0
SEQEND
  8
MERGEDLAYER-2
  0
POLYLINE
  8
MERGEDLAYER-2
 66
  1
 70
  0
 62
  0
 10
4.650561
 20
3.575294
 30
0.000000
  0
VERTEX
  8
MERGEDLAYER-2
 10
4.650561
 20
3.575294
 30
0.000000
  0
VERTEX
  8
MERGEDLAYER-2
 10
4.720485
 20
3.615665
 30
0.000000
  0
SEQEND
  8
MERGEDLAYER-2
  0
POLYLINE
  8
MERGEDLAYER-2
 66
  1
 70
  0
 62
  0
 10
5.367575
 20
3.648212
 30
0.000000
  0
VERTEX
  8
MERGEDLAYER-2
 10
5.367575
 20
3.648212
 30
0.000000
  0
VERTEX
  8
MERGEDLAYER-2
 10
5.301603
 20
3.610123
 30
0.000000
  0
SEQEND
  8
MERGEDLAYER-2
  0
POLYLINE
  8
MERGEDLAYER-2
 66
  1
 70
  0
 62
  0
 10
5.882461
 20
3.575294
 30
0.000000
  0
VERTEX
  8
MERGEDLAYER-2
 10
5.882461
 20
3.575294
 30
0.000000
  0
VERTEX
  8
MERGEDLAYER-2
 10
5.952385
 20
3.615665
 30
0.000000
  0
SEQEND
  8
MERGEDLAYER-2
  0
POLYLINE
  8
MERGEDLAYER-2
 66
  1
 70
  0
 62
  0
 10
6.599475
 20
3.648212
 30
0.000000
  0
VERTEX
  8
MERGEDLAYER-2
 10
6.599475
 20
3.648212
 30
0.000000
  0
VERTEX
  8
MERGEDLAYER-2
 10
6.533502
 20
3.610123
 30
0.000000
  0
SEQEND
  8
MERGEDLAYER-2
  0
POLYLINE
  8
MERGEDLAYER-2
 66
  1
 70
  1
 62
  0
  0
VERTEX
  8
MERGEDLAYER-2
 10
0.782822
 20
3.842184
 30
0.000000
  0
VERTEX
  8
MERGEDLAYER-2
 10
1.845759
 20
3.842184
 30
0.000000
  0
VERTEX
  8
MERGEDLAYER-2
 10
1.845759
 20
3.723017
 30
0.000000
  0
VERTEX
  8
MERGEDLAYER-2
 10
0.782822
 20
3.723017
 30
0.000000
  0
SEQEND
  8
MERGEDLAYER-2
  0
POLYLINE
  8
MERGEDLAYER-2
 66
  1
 70
  1
 62
  0
  0
VERTEX
  8
MERGEDLAYER-2
 10
2.014697
 20
3.842184
 30
0.000000
  0
VERTEX
  8
MERGEDLAYER-2
 10
3.077636
 20
3.842184
 30
0.000000
  0
VERTEX
  8
MERGEDLAYER-2
 10
3.077636
 20
3.723017
 30
0.000000
  0
VERTEX
  8
MERGEDLAYER-2
 10
2.014697
 20
3.723017
 30
0.000000
  0
SEQEND
  8
MERGEDLAYER-2
  0
POLYLINE
  8
MERGEDLAYER-2
 66
  1
 70
  1
 62
  0
  0
VERTEX
  8
MERGEDLAYER-2
 10
3.246573
 20
3.842184
 30
0.000000
  0
VERTEX
  8
MERGEDLAYER-2
 10
4.309512
 20
3.842184
 30
0.000000
  0
VERTEX
  8
MERGEDLAYER-2
 10
4.309512
 20
3.723017
 30
0.000000
  0
VERTEX
  8
MERGEDLAYER-2
 10
3.246573
 20
3.723017
 30
0.000000
  0
SEQEND
  8
MERGEDLAYER-2
  0
POLYLINE
  8
MERGEDLAYER-2
 66
  1
 70
  1
 62
  0
  0
VERTEX
  8
MERGEDLAYER-2
 10
4.478450
 20
3.842184
 30
0.000000
  0
VERTEX
  8
MERGEDLAYER-2
 10
5.541387
 20
3.842184
 30
0.000000
  0
VERTEX
  8
MERGEDLAYER-2
 10
5.541387
 20
3.723017
 30
0.000000
  0
VERTEX
  8
MERGEDLAYER-2
 10
4.478450
 20
3.723017
 30
0.000000
  0
SEQEND
  8
MERGEDLAYER-2
  0
POLYLINE
  8
MERGEDLAYER-2
 66
  1
 70
  1
 62
  0
  0
VERTEX
  8
MERGEDLAYER-2
 10
5.710350
 20
3.842184
 30
0.000000
  0
VERTEX
  8
MERGEDLAYER-2
 10
6.773287
 20
3.842184
 30
0.000000
  0
VERTEX
  8
MERGEDLAYER-2
 10
6.773287
 20
3.723017
 30
0.000000
  0
VERTEX
  8
MERGEDLAYER-2
 10
5.710350
 20
3.723017
 30
0.000000
  0
SEQEND
  8
MERGEDLAYER-2
  0
POLYLINE
  8
MERGEDLAYER-2
 66
  1
 70
  0
 62
  0
 10
0.954861
 20
3.744094
 30
0.000000
  0
VERTEX
  8
MERGEDLAYER-2
 10
0.954861
 20
3.744094
 30
0.000000
  0
VERTEX
  8
MERGEDLAYER-2
 10
1.024785
 20
3.784465
 30
0.000000
  0
SEQEND
  8
MERGEDLAYER-2
  0
POLYLINE
  8
MERGEDLAYER-2
 66
  1
 70
  0
 62
  0
 10
1.671875
 20
3.817012
 30
0.000000
  0
VERTEX
  8
MERGEDLAYER-2
 10
1.671875
 20
3.817012
 30
0.000000
  0
VERTEX
  8
MERGEDLAYER-2
 10
1.605903
 20
3.778923
 30
0.000000
  0
SEQEND
  8
MERGEDLAYER-2
  0
POLYLINE
  8
MERGEDLAYER-2
 66
  1
 70
  0
 62
  0
 10
2.186761
 20
3.744094
 30
0.000000
  0
VERTEX
  8
MERGEDLAYER-2
 10
2.186761
 20
3.744094
 30
0.000000
  0
VERTEX
  8
MERGEDLAYER-2
 10
2.256685
 20
3.784465
 30
0.000000
  0
SEQEND
  8
MERGEDLAYER-2
  0
POLYLINE
  8
MERGEDLAYER-2
 66
  1
 70
  0
 62
  0
 10
2.903775
 20
3.817012
 30
0.000000
  0
VERTEX
  8
MERGEDLAYER-2
 10
2.903775
 20
3.817012
 30
0.000000
  0
VERTEX
  8
MERGEDLAYER-2
 10
2.837803
 20
3.778923
 30
0.000000
  0
SEQEND
  8
MERGEDLAYER-2
  0
POLYLINE
  8
MERGEDLAYER-2
 66
  1
 70
  0
 62
  0
 10
3.418661
 20
3.744094
 30
0.000000
  0
VERTEX
  8
MERGEDLAYER-2
 10
3.418661
 20
3.744094
 30
0.000000
  0
VERTEX
  8
MERGEDLAYER-2
 10
3.488585
 20
3.784465
 30
0.000000
  0
SEQEND
  8
MERGEDLAYER-2
  0
POLYLINE
  8
MERGEDLAYER-2
 66
  1
 70
  0
 62
  0
 10
4.135675
 20
3.817012
 30
0.000000
  0
VERTEX
  8
MERGEDLAYER-2
 10
4.135675
 20
3.817012
 30
0.000000
  0
VERTEX
  8
MERGEDLAYER-2
 10
4.069703
 20
3.778923
 30
0.000000
  0
SEQEND
  8
MERGEDLAYER-2
  0
POLYLINE
  8
MERGEDLAYER-2
 66
  1
 70
  0
 62
  0
 10
4.650561
 20
3.744094
 30
0.000000
  0
VERTEX
  8
MERGEDLAYER-2
 10
4.650561
 20
3.744094
 30
0.000000
  0
VERTEX
  8
MERGEDLAYER-2
 10
4.720485
 20
3.784465
 30
0.000000
  0
SEQEND
  8
MERGEDLAYER-2
  0
POLYLINE
  8
MERGEDLAYER-2
 66
  1
 70
  0
 62
  0
 10
5.367575
 20
3.817012
 30
0.000000
  0
VERTEX
  8
MERGEDLAYER-2
 10
5.367575
 20
3.817012
 30
0.000000
  0
VERTEX
  8
MERGEDLAYER-2
 10
5.301603
 20
3.778923
 30
0.000000
  0
SEQEND
  8
MERGEDLAYER-2
  0
POLYLINE
  8
MERGEDLAYER-2
 66
  1
 70
  0
 62
  0
 10
5.882461
 20
3.744094
 30
0.000000
  0
VERTEX
  8
MERGEDLAYER-2
 10
5.882461
 20
3.744094
 30
0.000000
  0
VERTEX
  8
MERGEDLAYER-2
 10
5.952385
 20
3.784465
 30
0.000000
  0
SEQEND
  8
MERGEDLAYER-2
  0
POLYLINE
  8
MERGEDLAYER-2
 66
  1
 70
  0
 62
  0
 10
6.599475
 20
3.817012
 30
0.000000
  0
VERTEX
  8
MERGEDLAYER-2
 10
6.599475
 20
3.817012
 30
0.000000
  0
VERTEX
  8
MERGEDLAYER-2
 10
6.533502
 20
3.778923
 30
0.000000
  0
SEQEND
  8
MERGEDLAYER-2
  0
POLYLINE
  8
MERGEDLAYER-2
 66
  1
 70
  1
 62
  0
  0
VERTEX
  8
MERGEDLAYER-2
 10
0.782822
 20
4.010984
 30
0.000000
  0
VERTEX
  8
MERGEDLAYER-2
 10
1.845759
 20
4.010984
 30
0.000000
  0
VERTEX
  8
MERGEDLAYER-2
 10
1.845759
 20
3.891817
 30
0.000000
  0
VERTEX
  8
MERGEDLAYER-2
 10
0.782822
 20
3.891817
 30
0.000000
  0
SEQEND
  8
MERGEDLAYER-2
  0
POLYLINE
  8
MERGEDLAYER-2
 66
  1
 70
  1
 62
  0
  0
VERTEX
  8
MERGEDLAYER-2
 10
2.014697
 20
4.010984
 30
0.000000
  0
VERTEX
  8
MERGEDLAYER-2
 10
3.077636
 20
4.010984
 30
0.000000
  0
VERTEX
  8
MERGEDLAYER-2
 10
3.077636
 20
3.891817
 30
0.000000
  0
VERTEX
  8
MERGEDLAYER-2
 10
2.014697
 20
3.891817
 30
0.000000
  0
SEQEND
  8
MERGEDLAYER-2
  0
POLYLINE
  8
MERGEDLAYER-2
 66
  1
 70
  1
 62
  0
  0
VERTEX
  8
MERGEDLAYER-2
 10
3.246573
 20
4.010984
 30
0.000000
  0
VERTEX
  8
MERGEDLAYER-2
 10
4.309512
 20
4.010984
 30
0.000000
  0
VERTEX
  8
MERGEDLAYER-2
 10
4.309512
 20
3.891817
 30
0.000000
  0
VERTEX
  8
MERGEDLAYER-2
 10
3.246573
 20
3.891817
 30
0.000000
  0
SEQEND
  8
MERGEDLAYER-2
  0
POLYLINE
  8
MERGEDLAYER-2
 66
  1
 70
  1
 62
  0
  0
VERTEX
  8
MERGEDLAYER-2
 10
4.478450
 20
4.010984
 30
0.000000
  0
VERTEX
  8
MERGEDLAYER-2
 10
5.541387
 20
4.010984
 30
0.000000
  0
VERTEX
  8
MERGEDLAYER-2
 10
5.541387
 20
3.891817
 30
0.000000
  0
VERTEX
  8
MERGEDLAYER-2
 10
4.478450
 20
3.891817
 30
0.000000
  0
SEQEND
  8
MERGEDLAYER-2
  0
POLYLINE
  8
MERGEDLAYER-2
 66
  1
 70
  1
 62
  0
  0
VERTEX
  8
MERGEDLAYER-2
 10
5.710350
 20
4.010984
 30
0.000000
  0
VERTEX
  8
MERGEDLAYER-2
 10
6.773287
 20
4.010984
 30
0.000000
  0
VERTEX
  8
MERGEDLAYER-2
 10
6.773287
 20
3.891817
 30
0.000000
  0
VERTEX
  8
MERGEDLAYER-2
 10
5.710350
 20
3.891817
 30
0.000000
  0
SEQEND
  8
MERGEDLAYER-2
  0
POLYLINE
  8
MERGEDLAYER-2
 66
  1
 70
  0
 62
  0
 10
0.954861
 20
3.912895
 30
0.000000
  0
VERTEX
  8
MERGEDLAYER-2
 10
0.954861
 20
3.912895
 30
0.000000
  0
VERTEX
  8
MERGEDLAYER-2
 10
1.024785
 20
3.953265
 30
0.000000
  0
SEQEND
  8
MERGEDLAYER-2
  0
POLYLINE
  8
MERGEDLAYER-2
 66
  1
 70
  0
 62
  0
 10
1.671875
 20
3.985812
 30
0.000000
  0
VERTEX
  8
MERGEDLAYER-2
 10
1.671875
 20
3.985812
 30
0.000000
  0
VERTEX
  8
MERGEDLAYER-2
 10
1.605903
 20
3.947723
 30
0.000000
  0
SEQEND
  8
MERGEDLAYER-2
  0
POLYLINE
  8
MERGEDLAYER-2
 66
  1
 70
  0
 62
  0
 10
2.186761
 20
3.912895
 30
0.000000
  0
VERTEX
  8
MERGEDLAYER-2
 10
2.186761
 20
3.912895
 30
0.000000
  0
VERTEX
  8
MERGEDLAYER-2
 10
2.256685
 20
3.953265
 30
0.000000
  0
SEQEND
  8
MERGEDLAYER-2
  0
POLYLINE
  8
MERGEDLAYER-2
 66
  1
 70
  0
 62
  0
 10
2.903775
 20
3.985812
 30
0.000000
  0
VERTEX
  8
MERGEDLAYER-2
 10
2.903775
 20
3.985812
 30
0.000000
  0
VERTEX
  8
MERGEDLAYER-2
 10
2.837803
 20
3.947723
 30
0.000000
  0
SEQEND
  8
MERGEDLAYER-2
  0
POLYLINE
  8
MERGEDLAYER-2
 66
  1
 70
  0
 62
  0
 10
3.418661
 20
3.912895
 30
0.000000
  0
VERTEX
  8
MERGEDLAYER-2
 10
3.418661
 20
3.912895
 30
0.000000
  0
VERTEX
  8
MERGEDLAYER-2
 10
3.488585
 20
3.953265
 30
0.000000
  0
SEQEND
  8
MERGEDLAYER-2
  0
POLYLINE
  8
MERGEDLAYER-2
 66
  1
 70
  0
 62
  0
 10
4.135675
 20
3.985812
 30
0.000000
  0
VERTEX
  8
MERGEDLAYER-2
 10
4.135675
 20
3.985812
 30
0.000000
  0
VERTEX
  8
MERGEDLAYER-2
 10
4.069703
 20
3.947723
 30
0.000000
  0
SEQEND
  8
MERGEDLAYER-2
  0
POLYLINE
  8
MERGEDLAYER-2
 66
  1
 70
  0
 62
  0
 10
4.650561
 20
3.912895
 30
0.000000
  0
VERTEX
  8
MERGEDLAYER-2
 10
4.650561
 20
3.912895
 30
0.000000
  0
VERTEX
  8
MERGEDLAYER-2
 10
4.720485
 20
3.953265
 30
0.000000
  0
SEQEND
  8
MERGEDLAYER-2
  0
POLYLINE
  8
MERGEDLAYER-2
 66
  1
 70
  0
 62
  0
 10
5.367575
 20
3.985812
 30
0.000000
  0
VERTEX
  8
MERGEDLAYER-2
 10
5.367575
 20
3.985812
 30
0.000000
  0
VERTEX
  8
MERGEDLAYER-2
 10
5.301603
 20
3.947723
 30
0.000000
  0
SEQEND
  8
MERGEDLAYER-2
  0
POLYLINE
  8
MERGEDLAYER-2
 66
  1
 70
  0
 62
  0
 10
5.882461
 20
3.912895
 30
0.000000
  0
VERTEX
  8
MERGEDLAYER-2
 10
5.882461
 20
3.912895
 30
0.000000
  0
VERTEX
  8
MERGEDLAYER-2
 10
5.952385
 20
3.953265
 30
0.000000
  0
SEQEND
  8
MERGEDLAYER-2
  0
POLYLINE
  8
MERGEDLAYER-2
 66
  1
 70
  0
 62
  0
 10
6.599475
 20
3.985812
 30
0.000000
  0
VERTEX
  8
MERGEDLAYER-2
 10
6.599475
 20
3.985812
 30
0.000000
  0
VERTEX
  8
MERGEDLAYER-2
 10
6.533502
 20
3.947723
 30
0.000000
  0
SEQEND
  8
MERGEDLAYER-2
  0
POLYLINE
  8
MERGEDLAYER-2
 66
  1
 70
  1
 62
  0
  0
VERTEX
  8
MERGEDLAYER-2
 10
0.782822
 20
4.179785
 30
0.000000
  0
VERTEX
  8
MERGEDLAYER-2
 10
1.845759
 20
4.179785
 30
0.000000
  0
VERTEX
  8
MERGEDLAYER-2
 10
1.845759
 20
4.060617
 30
0.000000
  0
VERTEX
  8
MERGEDLAYER-2
 10
0.782822
 20
4.060617
 30
0.000000
  0
SEQEND
  8
MERGEDLAYER-2
  0
POLYLINE
  8
MERGEDLAYER-2
 66
  1
 70
  1
 62
  0
  0
VERTEX
  8
MERGEDLAYER-2
 10
2.014697
 20
4.179785
 30
0.000000
  0
VERTEX
  8
MERGEDLAYER-2
 10
3.077636
 20
4.179785
 30
0.000000
  0
VERTEX
  8
MERGEDLAYER-2
 10
3.077636
 20
4.060617
 30
0.000000
  0
VERTEX
  8
MERGEDLAYER-2
 10
2.014697
 20
4.060617
 30
0.000000
  0
SEQEND
  8
MERGEDLAYER-2
  0
POLYLINE
  8
MERGEDLAYER-2
 66
  1
 70
  1
 62
  0
  0
VERTEX
  8
MERGEDLAYER-2
 10
3.246573
 20
4.179785
 30
0.000000
  0
VERTEX
  8
MERGEDLAYER-2
 10
4.309512
 20
4.179785
 30
0.000000
  0
VERTEX
  8
MERGEDLAYER-2
 10
4.309512
 20
4.060617
 30
0.000000
  0
VERTEX
  8
MERGEDLAYER-2
 10
3.246573
 20
4.060617
 30
0.000000
  0
SEQEND
  8
MERGEDLAYER-2
  0
POLYLINE
  8
MERGEDLAYER-2
 66
  1
 70
  1
 62
  0
  0
VERTEX
  8
MERGEDLAYER-2
 10
4.478450
 20
4.179785
 30
0.000000
  0
VERTEX
  8
MERGEDLAYER-2
 10
5.541387
 20
4.179785
 30
0.000000
  0
VERTEX
  8
MERGEDLAYER-2
 10
5.541387
 20
4.060617
 30
0.000000
  0
VERTEX
  8
MERGEDLAYER-2
 10
4.478450
 20
4.060617
 30
0.000000
  0
SEQEND
  8
MERGEDLAYER-2
  0
POLYLINE
  8
MERGEDLAYER-2
 66
  1
 70
  1
 62
  0
  0
VERTEX
  8
MERGEDLAYER-2
 10
5.710350
 20
4.179785
 30
0.000000
  0
VERTEX
  8
MERGEDLAYER-2
 10
6.773287
 20
4.179785
 30
0.000000
  0
VERTEX
  8
MERGEDLAYER-2
 10
6.773287
 20
4.060617
 30
0.000000
  0
VERTEX
  8
MERGEDLAYER-2
 10
5.710350
 20
4.060617
 30
0.000000
  0
SEQEND
  8
MERGEDLAYER-2
  0
POLYLINE
  8
MERGEDLAYER-2
 66
  1
 70
  0
 62
  0
 10
0.954861
 20
4.081695
 30
0.000000
  0
VERTEX
  8
MERGEDLAYER-2
 10
0.954861
 20
4.081695
 30
0.000000
  0
VERTEX
  8
MERGEDLAYER-2
 10
1.024785
 20
4.122066
 30
0.000000
  0
SEQEND
  8
MERGEDLAYER-2
  0
POLYLINE
  8
MERGEDLAYER-2
 66
  1
 70
  0
 62
  0
 10
1.671875
 20
4.154612
 30
0.000000
  0
VERTEX
  8
MERGEDLAYER-2
 10
1.671875
 20
4.154612
 30
0.000000
  0
VERTEX
  8
MERGEDLAYER-2
 10
1.605903
 20
4.116523
 30
0.000000
  0
SEQEND
  8
MERGEDLAYER-2
  0
POLYLINE
  8
MERGEDLAYER-2
 66
  1
 70
  0
 62
  0
 10
2.186761
 20
4.081695
 30
0.000000
  0
VERTEX
  8
MERGEDLAYER-2
 10
2.186761
 20
4.081695
 30
0.000000
  0
VERTEX
  8
MERGEDLAYER-2
 10
2.256685
 20
4.122066
 30
0.000000
  0
SEQEND
  8
MERGEDLAYER-2
  0
POLYLINE
  8
MERGEDLAYER-2
 66
  1
 70
  0
 62
  0
 10
2.903775
 20
4.154612
 30
0.000000
  0
VERTEX
  8
MERGEDLAYER-2
 10
2.903775
 20
4.154612
 30
0.000000
  0
VERTEX
  8
MERGEDLAYER-2
 10
2.837803
 20
4.116523
 30
0.000000
  0
SEQEND
  8
MERGEDLAYER-2
  0
POLYLINE
  8
MERGEDLAYER-2
 66
  1
 70
  0
 62
  0
 10
3.418661
 20
4.081695
 30
0.000000
  0
VERTEX
  8
MERGEDLAYER-2
 10
3.418661
 20
4.081695
 30
0.000000
  0
VERTEX
  8
MERGEDLAYER-2
 10
3.488585
 20
4.122066
 30
0.000000
  0
SEQEND
  8
MERGEDLAYER-2
  0
POLYLINE
  8
MERGEDLAYER-2
 66
  1
 70
  0
 62
  0
 10
4.135675
 20
4.154612
 30
0.000000
  0
VERTEX
  8
MERGEDLAYER-2
 10
4.135675
 20
4.154612
 30
0.000000
  0
VERTEX
  8
MERGEDLAYER-2
 10
4.069703
 20
4.116523
 30
0.000000
  0
SEQEND
  8
MERGEDLAYER-2
  0
POLYLINE
  8
MERGEDLAYER-2
 66
  1
 70
  0
 62
  0
 10
4.650561
 20
4.081695
 30
0.000000
  0
VERTEX
  8
MERGEDLAYER-2
 10
4.650561
 20
4.081695
 30
0.000000
  0
VERTEX
  8
MERGEDLAYER-2
 10
4.720485
 20
4.122066
 30
0.000000
  0
SEQEND
  8
MERGEDLAYER-2
  0
POLYLINE
  8
MERGEDLAYER-2
 66
  1
 70
  0
 62
  0
 10
5.367575
 20
4.154612
 30
0.000000
  0
VERTEX
  8
MERGEDLAYER-2
 10
5.367575
 20
4.154612
 30
0.000000
  0
VERTEX
  8
MERGEDLAYER-2
 10
5.301603
 20
4.116523
 30
0.000000
  0
SEQEND
  8
MERGEDLAYER-2
  0
POLYLINE
  8
MERGEDLAYER-2
 66
  1
 70
  0
 62
  0
 10
5.882461
 20
4.081695
 30
0.000000
  0
VERTEX
  8
MERGEDLAYER-2
 10
5.882461
 20
4.081695
 30
0.000000
  0
VERTEX
  8
MERGEDLAYER-2
 10
5.952385
 20
4.122066
 30
0.000000
  0
SEQEND
  8
MERGEDLAYER-2
  0
POLYLINE
  8
MERGEDLAYER-2
 66
  1
 70
  0
 62
  0
 10
6.599475
 20
4.154612
 30
0.000000
  0
VERTEX
  8
MERGEDLAYER-2
 10
6.599475
 20
4.154612
 30
0.000000
  0
VERTEX
  8
MERGEDLAYER-2
 10
6.533502
 20
4.116523
 30
0.000000
  0
SEQEND
  8
MERGEDLAYER-2
  0
POLYLINE
  8
MERGEDLAYER-2
 66
  1
 70
  1
 62
  0
  0
VERTEX
  8
MERGEDLAYER-2
 10
0.782822
 20
4.348585
 30
0.000000
  0
VERTEX
  8
MERGEDLAYER-2
 10
1.845759
 20
4.348585
 30
0.000000
  0
VERTEX
  8
MERGEDLAYER-2
 10
1.845759
 20
4.229417
 30
0.000000
  0
VERTEX
  8
MERGEDLAYER-2
 10
0.782822
 20
4.229417
 30
0.000000
  0
SEQEND
  8
MERGEDLAYER-2
  0
POLYLINE
  8
MERGEDLAYER-2
 66
  1
 70
  1
 62
  0
  0
VERTEX
  8
MERGEDLAYER-2
 10
2.014697
 20
4.348585
 30
0.000000
  0
VERTEX
  8
MERGEDLAYER-2
 10
3.077636
 20
4.348585
 30
0.000000
  0
VERTEX
  8
MERGEDLAYER-2
 10
3.077636
 20
4.229417
 30
0.000000
  0
VERTEX
  8
MERGEDLAYER-2
 10
2.014697
 20
4.229417
 30
0.000000
  0
SEQEND
  8
MERGEDLAYER-2
  0
POLYLINE
  8
MERGEDLAYER-2
 66
  1
 70
  1
 62
  0
  0
VERTEX
  8
MERGEDLAYER-2
 10
3.246573
 20
4.348585
 30
0.000000
  0
VERTEX
  8
MERGEDLAYER-2
 10
4.309512
 20
4.348585
 30
0.000000
  0
VERTEX
  8
MERGEDLAYER-2
 10
4.309512
 20
4.229417
 30
0.000000
  0
VERTEX
  8
MERGEDLAYER-2
 10
3.246573
 20
4.229417
 30
0.000000
  0
SEQEND
  8
MERGEDLAYER-2
  0
POLYLINE
  8
MERGEDLAYER-2
 66
  1
 70
  1
 62
  0
  0
VERTEX
  8
MERGEDLAYER-2
 10
4.478450
 20
4.348585
 30
0.000000
  0
VERTEX
  8
MERGEDLAYER-2
 10
5.541387
 20
4.348585
 30
0.000000
  0
VERTEX
  8
MERGEDLAYER-2
 10
5.541387
 20
4.229417
 30
0.000000
  0
VERTEX
  8
MERGEDLAYER-2
 10
4.478450
 20
4.229417
 30
0.000000
  0
SEQEND
  8
MERGEDLAYER-2
  0
POLYLINE
  8
MERGEDLAYER-2
 66
  1
 70
  1
 62
  0
  0
VERTEX
  8
MERGEDLAYER-2
 10
5.710350
 20
4.348585
 30
0.000000
  0
VERTEX
  8
MERGEDLAYER-2
 10
6.773287
 20
4.348585
 30
0.000000
  0
VERTEX
  8
MERGEDLAYER-2
 10
6.773287
 20
4.229417
 30
0.000000
  0
VERTEX
  8
MERGEDLAYER-2
 10
5.710350
 20
4.229417
 30
0.000000
  0
SEQEND
  8
MERGEDLAYER-2
  0
POLYLINE
  8
MERGEDLAYER-2
 66
  1
 70
  0
 62
  0
 10
0.954861
 20
4.250495
 30
0.000000
  0
VERTEX
  8
MERGEDLAYER-2
 10
0.954861
 20
4.250495
 30
0.000000
  0
VERTEX
  8
MERGEDLAYER-2
 10
1.024785
 20
4.290866
 30
0.000000
  0
SEQEND
  8
MERGEDLAYER-2
  0
POLYLINE
  8
MERGEDLAYER-2
 66
  1
 70
  0
 62
  0
 10
1.671875
 20
4.323412
 30
0.000000
  0
VERTEX
  8
MERGEDLAYER-2
 10
1.671875
 20
4.323412
 30
0.000000
  0
VERTEX
  8
MERGEDLAYER-2
 10
1.605903
 20
4.285324
 30
0.000000
  0
SEQEND
  8
MERGEDLAYER-2
  0
POLYLINE
  8
MERGEDLAYER-2
 66
  1
 70
  0
 62
  0
 10
2.186761
 20
4.250495
 30
0.000000
  0
VERTEX
  8
MERGEDLAYER-2
 10
2.186761
 20
4.250495
 30
0.000000
  0
VERTEX
  8
MERGEDLAYER-2
 10
2.256685
 20
4.290866
 30
0.000000
  0
SEQEND
  8
MERGEDLAYER-2
  0
POLYLINE
  8
MERGEDLAYER-2
 66
  1
 70
  0
 62
  0
 10
2.903775
 20
4.323412
 30
0.000000
  0
VERTEX
  8
MERGEDLAYER-2
 10
2.903775
 20
4.323412
 30
0.000000
  0
VERTEX
  8
MERGEDLAYER-2
 10
2.837803
 20
4.285324
 30
0.000000
  0
SEQEND
  8
MERGEDLAYER-2
  0
POLYLINE
  8
MERGEDLAYER-2
 66
  1
 70
  0
 62
  0
 10
3.418661
 20
4.250495
 30
0.000000
  0
VERTEX
  8
MERGEDLAYER-2
 10
3.418661
 20
4.250495
 30
0.000000
  0
VERTEX
  8
MERGEDLAYER-2
 10
3.488585
 20
4.290866
 30
0.000000
  0
SEQEND
  8
MERGEDLAYER-2
  0
POLYLINE
  8
MERGEDLAYER-2
 66
  1
 70
  0
 62
  0
 10
4.135675
 20
4.323412
 30
0.000000
  0
VERTEX
  8
MERGEDLAYER-2
 10
4.135675
 20
4.323412
 30
0.000000
  0
VERTEX
  8
MERGEDLAYER-2
 10
4.069703
 20
4.285324
 30
0.000000
  0
SEQEND
  8
MERGEDLAYER-2
  0
POLYLINE
  8
MERGEDLAYER-2
 66
  1
 70
  0
 62
  0
 10
4.650561
 20
4.250495
 30
0.000000
  0
VERTEX
  8
MERGEDLAYER-2
 10
4.650561
 20
4.250495
 30
0.000000
  0
VERTEX
  8
MERGEDLAYER-2
 10
4.720485
 20
4.290866
 30
0.000000
  0
SEQEND
  8
MERGEDLAYER-2
  0
POLYLINE
  8
MERGEDLAYER-2
 66
  1
 70
  0
 62
  0
 10
5.367575
 20
4.323412
 30
0.000000
  0
VERTEX
  8
MERGEDLAYER-2
 10
5.367575
 20
4.323412
 30
0.000000
  0
VERTEX
  8
MERGEDLAYER-2
 10
5.301603
 20
4.285324
 30
0.000000
  0
SEQEND
  8
MERGEDLAYER-2
  0
POLYLINE
  8
MERGEDLAYER-2
 66
  1
 70
  0
 62
  0
 10
5.882461
 20
4.250495
 30
0.000000
  0
VERTEX
  8
MERGEDLAYER-2
 10
5.882461
 20
4.250495
 30
0.000000
  0
VERTEX
  8
MERGEDLAYER-2
 10
5.952385
 20
4.290866
 30
0.000000
  0
SEQEND
  8
MERGEDLAYER-2
  0
POLYLINE
  8
MERGEDLAYER-2
 66
  1
 70
  0
 62
  0
 10
6.599475
 20
4.323412
 30
0.000000
  0
VERTEX
  8
MERGEDLAYER-2
 10
6.599475
 20
4.323412
 30
0.000000
  0
VERTEX
  8
MERGEDLAYER-2
 10
6.533502
 20
4.285324
 30
0.000000
  0
SEQEND
  8
MERGEDLAYER-2
  0
POLYLINE
  8
MERGEDLAYER-2
 66
  1
 70
  1
 62
  0
  0
VERTEX
  8
MERGEDLAYER-2
 10
0.782822
 20
4.517385
 30
0.000000
  0
VERTEX
  8
MERGEDLAYER-2
 10
1.845759
 20
4.517385
 30
0.000000
  0
VERTEX
  8
MERGEDLAYER-2
 10
1.845759
 20
4.398218
 30
0.000000
  0
VERTEX
  8
MERGEDLAYER-2
 10
0.782822
 20
4.398218
 30
0.000000
  0
SEQEND
  8
MERGEDLAYER-2
  0
POLYLINE
  8
MERGEDLAYER-2
 66
  1
 70
  1
 62
  0
  0
VERTEX
  8
MERGEDLAYER-2
 10
2.014697
 20
4.517385
 30
0.000000
  0
VERTEX
  8
MERGEDLAYER-2
 10
3.077636
 20
4.517385
 30
0.000000
  0
VERTEX
  8
MERGEDLAYER-2
 10
3.077636
 20
4.398218
 30
0.000000
  0
VERTEX
  8
MERGEDLAYER-2
 10
2.014697
 20
4.398218
 30
0.000000
  0
SEQEND
  8
MERGEDLAYER-2
  0
POLYLINE
  8
MERGEDLAYER-2
 66
  1
 70
  1
 62
  0
  0
VERTEX
  8
MERGEDLAYER-2
 10
3.246573
 20
4.517385
 30
0.000000
  0
VERTEX
  8
MERGEDLAYER-2
 10
4.309512
 20
4.517385
 30
0.000000
  0
VERTEX
  8
MERGEDLAYER-2
 10
4.309512
 20
4.398218
 30
0.000000
  0
VERTEX
  8
MERGEDLAYER-2
 10
3.246573
 20
4.398218
 30
0.000000
  0
SEQEND
  8
MERGEDLAYER-2
  0
POLYLINE
  8
MERGEDLAYER-2
 66
  1
 70
  1
 62
  0
  0
VERTEX
  8
MERGEDLAYER-2
 10
4.478450
 20
4.517385
 30
0.000000
  0
VERTEX
  8
MERGEDLAYER-2
 10
5.541387
 20
4.517385
 30
0.000000
  0
VERTEX
  8
MERGEDLAYER-2
 10
5.541387
 20
4.398218
 30
0.000000
  0
VERTEX
  8
MERGEDLAYER-2
 10
4.478450
 20
4.398218
 30
0.000000
  0
SEQEND
  8
MERGEDLAYER-2
  0
POLYLINE
  8
MERGEDLAYER-2
 66
  1
 70
  1
 62
  0
  0
VERTEX
  8
MERGEDLAYER-2
 10
5.710350
 20
4.517385
 30
0.000000
  0
VERTEX
  8
MERGEDLAYER-2
 10
6.773287
 20
4.517385
 30
0.000000
  0
VERTEX
  8
MERGEDLAYER-2
 10
6.773287
 20
4.398218
 30
0.000000
  0
VERTEX
  8
MERGEDLAYER-2
 10
5.710350
 20
4.398218
 30
0.000000
  0
SEQEND
  8
MERGEDLAYER-2
  0
POLYLINE
  8
MERGEDLAYER-2
 66
  1
 70
  0
 62
  0
 10
0.954861
 20
4.419295
 30
0.000000
  0
VERTEX
  8
MERGEDLAYER-2
 10
0.954861
 20
4.419295
 30
0.000000
  0
VERTEX
  8
MERGEDLAYER-2
 10
1.024785
 20
4.459666
 30
0.000000
  0
SEQEND
  8
MERGEDLAYER-2
  0
POLYLINE
  8
MERGEDLAYER-2
 66
  1
 70
  0
 62
  0
 10
1.671875
 20
4.492213
 30
0.000000
  0
VERTEX
  8
MERGEDLAYER-2
 10
1.671875
 20
4.492213
 30
0.000000
  0
VERTEX
  8
MERGEDLAYER-2
 10
1.605903
 20
4.454124
 30
0.000000
  0
SEQEND
  8
MERGEDLAYER-2
  0
POLYLINE
  8
MERGEDLAYER-2
 66
  1
 70
  0
 62
  0
 10
2.186761
 20
4.419295
 30
0.000000
  0
VERTEX
  8
MERGEDLAYER-2
 10
2.186761
 20
4.419295
 30
0.000000
  0
VERTEX
  8
MERGEDLAYER-2
 10
2.256685
 20
4.459666
 30
0.000000
  0
SEQEND
  8
MERGEDLAYER-2
  0
POLYLINE
  8
MERGEDLAYER-2
 66
  1
 70
  0
 62
  0
 10
2.903775
 20
4.492213
 30
0.000000
  0
VERTEX
  8
MERGEDLAYER-2
 10
2.903775
 20
4.492213
 30
0.000000
  0
VERTEX
  8
MERGEDLAYER-2
 10
2.837803
 20
4.454124
 30
0.000000
  0
SEQEND
  8
MERGEDLAYER-2
  0
POLYLINE
  8
MERGEDLAYER-2
 66
  1
 70
  0
 62
  0
 10
3.418661
 20
4.419295
 30
0.000000
  0
VERTEX
  8
MERGEDLAYER-2
 10
3.418661
 20
4.419295
 30
0.000000
  0
VERTEX
  8
MERGEDLAYER-2
 10
3.488585
 20
4.459666
 30
0.000000
  0
SEQEND
  8
MERGEDLAYER-2
  0
POLYLINE
  8
MERGEDLAYER-2
 66
  1
 70
  0
 62
  0
 10
4.135675
 20
4.492213
 30
0.000000
  0
VERTEX
  8
MERGEDLAYER-2
 10
4.135675
 20
4.492213
 30
0.000000
  0
VERTEX
  8
MERGEDLAYER-2
 10
4.069703
 20
4.454124
 30
0.000000
  0
SEQEND
  8
MERGEDLAYER-2
  0
POLYLINE
  8
MERGEDLAYER-2
 66
  1
 70
  0
 62
  0
 10
4.650561
 20
4.419295
 30
0.000000
  0
VERTEX
  8
MERGEDLAYER-2
 10
4.650561
 20
4.419295
 30
0.000000
  0
VERTEX
  8
MERGEDLAYER-2
 10
4.720485
 20
4.459666
 30
0.000000
  0
SEQEND
  8
MERGEDLAYER-2
  0
POLYLINE
  8
MERGEDLAYER-2
 66
  1
 70
  0
 62
  0
 10
5.367575
 20
4.492213
 30
0.000000
  0
VERTEX
  8
MERGEDLAYER-2
 10
5.367575
 20
4.492213
 30
0.000000
  0
VERTEX
  8
MERGEDLAYER-2
 10
5.301603
 20
4.454124
 30
0.000000
  0
SEQEND
  8
MERGEDLAYER-2
  0
POLYLINE
  8
MERGEDLAYER-2
 66
  1
 70
  0
 62
  0
 10
5.882461
 20
4.419295
 30
0.000000
  0
VERTEX
  8
MERGEDLAYER-2
 10
5.882461
 20
4.419295
 30
0.000000
  0
VERTEX
  8
MERGEDLAYER-2
 10
5.952385
 20
4.459666
 30
0.000000
  0
SEQEND
  8
MERGEDLAYER-2
  0
POLYLINE
  8
MERGEDLAYER-2
 66
  1
 70
  0
 62
  0
 10
6.599475
 20
4.492213
 30
0.000000
  0
VERTEX
  8
MERGEDLAYER-2
 10
6.599475
 20
4.492213
 30
0.000000
  0
VERTEX
  8
MERGEDLAYER-2
 10
6.533502
 20
4.454124
 30
0.000000
  0
SEQEND
  8
MERGEDLAYER-2
  0
POLYLINE
  8
MERGEDLAYER-2
 66
  1
 70
  1
 62
  0
  0
VERTEX
  8
MERGEDLAYER-2
 10
0.782822
 20
4.686185
 30
0.000000
  0
VERTEX
  8
MERGEDLAYER-2
 10
1.845759
 20
4.686185
 30
0.000000
  0
VERTEX
  8
MERGEDLAYER-2
 10
1.845759
 20
4.567017
 30
0.000000
  0
VERTEX
  8
MERGEDLAYER-2
 10
0.782822
 20
4.567017
 30
0.000000
  0
SEQEND
  8
MERGEDLAYER-2
  0
POLYLINE
  8
MERGEDLAYER-2
 66
  1
 70
  1
 62
  0
  0
VERTEX
  8
MERGEDLAYER-2
 10
2.014697
 20
4.686185
 30
0.000000
  0
VERTEX
  8
MERGEDLAYER-2
 10
3.077636
 20
4.686185
 30
0.000000
  0
VERTEX
  8
MERGEDLAYER-2
 10
3.077636
 20
4.567017
 30
0.000000
  0
VERTEX
  8
MERGEDLAYER-2
 10
2.014697
 20
4.567017
 30
0.000000
  0
SEQEND
  8
MERGEDLAYER-2
  0
POLYLINE
  8
MERGEDLAYER-2
 66
  1
 70
  1
 62
  0
  0
VERTEX
  8
MERGEDLAYER-2
 10
3.246573
 20
4.686185
 30
0.000000
  0
VERTEX
  8
MERGEDLAYER-2
 10
4.309512
 20
4.686185
 30
0.000000
  0
VERTEX
  8
MERGEDLAYER-2
 10
4.309512
 20
4.567017
 30
0.000000
  0
VERTEX
  8
MERGEDLAYER-2
 10
3.246573
 20
4.567017
 30
0.000000
  0
SEQEND
  8
MERGEDLAYER-2
  0
POLYLINE
  8
MERGEDLAYER-2
 66
  1
 70
  1
 62
  0
  0
VERTEX
  8
MERGEDLAYER-2
 10
4.478450
 20
4.686185
 30
0.000000
  0
VERTEX
  8
MERGEDLAYER-2
 10
5.541387
 20
4.686185
 30
0.000000
  0
VERTEX
  8
MERGEDLAYER-2
 10
5.541387
 20
4.567017
 30
0.000000
  0
VERTEX
  8
MERGEDLAYER-2
 10
4.478450
 20
4.567017
 30
0.000000
  0
SEQEND
  8
MERGEDLAYER-2
  0
POLYLINE
  8
MERGEDLAYER-2
 66
  1
 70
  1
 62
  0
  0
VERTEX
  8
MERGEDLAYER-2
 10
5.710350
 20
4.686185
 30
0.000000
  0
VERTEX
  8
MERGEDLAYER-2
 10
6.773287
 20
4.686185
 30
0.000000
  0
VERTEX
  8
MERGEDLAYER-2
 10
6.773287
 20
4.567017
 30
0.000000
  0
VERTEX
  8
MERGEDLAYER-2
 10
5.710350
 20
4.567017
 30
0.000000
  0
SEQEND
  8
MERGEDLAYER-2
  0
POLYLINE
  8
MERGEDLAYER-2
 66
  1
 70
  0
 62
  0
 10
0.954861
 20
4.588095
 30
0.000000
  0
VERTEX
  8
MERGEDLAYER-2
 10
0.954861
 20
4.588095
 30
0.000000
  0
VERTEX
  8
MERGEDLAYER-2
 10
1.024785
 20
4.628466
 30
0.000000
  0
SEQEND
  8
MERGEDLAYER-2
  0
POLYLINE
  8
MERGEDLAYER-2
 66
  1
 70
  0
 62
  0
 10
1.671875
 20
4.661013
 30
0.000000
  0
VERTEX
  8
MERGEDLAYER-2
 10
1.671875
 20
4.661013
 30
0.000000
  0
VERTEX
  8
MERGEDLAYER-2
 10
1.605903
 20
4.622924
 30
0.000000
  0
SEQEND
  8
MERGEDLAYER-2
  0
POLYLINE
  8
MERGEDLAYER-2
 66
  1
 70
  0
 62
  0
 10
2.186761
 20
4.588095
 30
0.000000
  0
VERTEX
  8
MERGEDLAYER-2
 10
2.186761
 20
4.588095
 30
0.000000
  0
VERTEX
  8
MERGEDLAYER-2
 10
2.256685
 20
4.628466
 30
0.000000
  0
SEQEND
  8
MERGEDLAYER-2
  0
POLYLINE
  8
MERGEDLAYER-2
 66
  1
 70
  0
 62
  0
 10
2.903775
 20
4.661013
 30
0.000000
  0
VERTEX
  8
MERGEDLAYER-2
 10
2.903775
 20
4.661013
 30
0.000000
  0
VERTEX
  8
MERGEDLAYER-2
 10
2.837803
 20
4.622924
 30
0.000000
  0
SEQEND
  8
MERGEDLAYER-2
  0
POLYLINE
  8
MERGEDLAYER-2
 66
  1
 70
  0
 62
  0
 10
3.418661
 20
4.588095
 30
0.000000
  0
VERTEX
  8
MERGEDLAYER-2
 10
3.418661
 20
4.588095
 30
0.000000
  0
VERTEX
  8
MERGEDLAYER-2
 10
3.488585
 20
4.628466
 30
0.000000
  0
SEQEND
  8
MERGEDLAYER-2
  0
POLYLINE
  8
MERGEDLAYER-2
 66
  1
 70
  0
 62
  0
 10
4.135675
 20
4.661013
 30
0.000000
  0
VERTEX
  8
MERGEDLAYER-2
 10
4.135675
 20
4.661013
 30
0.000000
  0
VERTEX
  8
MERGEDLAYER-2
 10
4.069703
 20
4.622924
 30
0.000000
  0
SEQEND
  8
MERGEDLAYER-2
  0
POLYLINE
  8
MERGEDLAYER-2
 66
  1
 70
  0
 62
  0
 10
4.650561
 20
4.588095
 30
0.000000
  0
VERTEX
  8
MERGEDLAYER-2
 10
4.650561
 20
4.588095
 30
0.000000
  0
VERTEX
  8
MERGEDLAYER-2
 10
4.720485
 20
4.628466
 30
0.000000
  0
SEQEND
  8
MERGEDLAYER-2
  0
POLYLINE
  8
MERGEDLAYER-2
 66
  1
 70
  0
 62
  0
 10
5.367575
 20
4.661013
 30
0.000000
  0
VERTEX
  8
MERGEDLAYER-2
 10
5.367575
 20
4.661013
 30
0.000000
  0
VERTEX
  8
MERGEDLAYER-2
 10
5.301603
 20
4.622924
 30
0.000000
  0
SEQEND
  8
MERGEDLAYER-2
  0
POLYLINE
  8
MERGEDLAYER-2
 66
  1
 70
  0
 62
  0
 10
5.882461
 20
4.588095
 30
0.000000
  0
VERTEX
  8
MERGEDLAYER-2
 10
5.882461
 20
4.588095
 30
0.000000
  0
VERTEX
  8
MERGEDLAYER-2
 10
5.952385
 20
4.628466
 30
0.000000
  0
SEQEND
  8
MERGEDLAYER-2
  0
POLYLINE
  8
MERGEDLAYER-2
 66
  1
 70
  0
 62
  0
 10
6.599475
 20
4.661013
 30
0.000000
  0
VERTEX
  8
MERGEDLAYER-2
 10
6.599475
 20
4.661013
 30
0.000000
  0
VERTEX
  8
MERGEDLAYER-2
 10
6.533502
 20
4.622924
 30
0.000000
  0
SEQEND
  8
MERGEDLAYER-2
  0
POLYLINE
  8
MERGEDLAYER-2
 66
  1
 70
  1
 62
  0
  0
VERTEX
  8
MERGEDLAYER-2
 10
0.782822
 20
4.854985
 30
0.000000
  0
VERTEX
  8
MERGEDLAYER-2
 10
1.845759
 20
4.854985
 30
0.000000
  0
VERTEX
  8
MERGEDLAYER-2
 10
1.845759
 20
4.735818
 30
0.000000
  0
VERTEX
  8
MERGEDLAYER-2
 10
0.782822
 20
4.735818
 30
0.000000
  0
SEQEND
  8
MERGEDLAYER-2
  0
POLYLINE
  8
MERGEDLAYER-2
 66
  1
 70
  1
 62
  0
  0
VERTEX
  8
MERGEDLAYER-2
 10
2.014697
 20
4.854985
 30
0.000000
  0
VERTEX
  8
MERGEDLAYER-2
 10
3.077636
 20
4.854985
 30
0.000000
  0
VERTEX
  8
MERGEDLAYER-2
 10
3.077636
 20
4.735818
 30
0.000000
  0
VERTEX
  8
MERGEDLAYER-2
 10
2.014697
 20
4.735818
 30
0.000000
  0
SEQEND
  8
MERGEDLAYER-2
  0
POLYLINE
  8
MERGEDLAYER-2
 66
  1
 70
  1
 62
  0
  0
VERTEX
  8
MERGEDLAYER-2
 10
3.246573
 20
4.854985
 30
0.000000
  0
VERTEX
  8
MERGEDLAYER-2
 10
4.309512
 20
4.854985
 30
0.000000
  0
VERTEX
  8
MERGEDLAYER-2
 10
4.309512
 20
4.735818
 30
0.000000
  0
VERTEX
  8
MERGEDLAYER-2
 10
3.246573
 20
4.735818
 30
0.000000
  0
SEQEND
  8
MERGEDLAYER-2
  0
POLYLINE
  8
MERGEDLAYER-2
 66
  1
 70
  1
 62
  0
  0
VERTEX
  8
MERGEDLAYER-2
 10
4.478450
 20
4.854985
 30
0.000000
  0
VERTEX
  8
MERGEDLAYER-2
 10
5.541387
 20
4.854985
 30
0.000000
  0
VERTEX
  8
MERGEDLAYER-2
 10
5.541387
 20
4.735818
 30
0.000000
  0
VERTEX
  8
MERGEDLAYER-2
 10
4.478450
 20
4.735818
 30
0.000000
  0
SEQEND
  8
MERGEDLAYER-2
  0
POLYLINE
  8
MERGEDLAYER-2
 66
  1
 70
  1
 62
  0
  0
VERTEX
  8
MERGEDLAYER-2
 10
5.710350
 20
4.854985
 30
0.000000
  0
VERTEX
  8
MERGEDLAYER-2
 10
6.773287
 20
4.854985
 30
0.000000
  0
VERTEX
  8
MERGEDLAYER-2
 10
6.773287
 20
4.735818
 30
0.000000
  0
VERTEX
  8
MERGEDLAYER-2
 10
5.710350
 20
4.735818
 30
0.000000
  0
SEQEND
  8
MERGEDLAYER-2
  0
POLYLINE
  8
MERGEDLAYER-2
 66
  1
 70
  0
 62
  0
 10
0.954861
 20
4.756896
 30
0.000000
  0
VERTEX
  8
MERGEDLAYER-2
 10
0.954861
 20
4.756896
 30
0.000000
  0
VERTEX
  8
MERGEDLAYER-2
 10
1.024785
 20
4.797266
 30
0.000000
  0
SEQEND
  8
MERGEDLAYER-2
  0
POLYLINE
  8
MERGEDLAYER-2
 66
  1
 70
  0
 62
  0
 10
1.671875
 20
4.829813
 30
0.000000
  0
VERTEX
  8
MERGEDLAYER-2
 10
1.671875
 20
4.829813
 30
0.000000
  0
VERTEX
  8
MERGEDLAYER-2
 10
1.605903
 20
4.791724
 30
0.000000
  0
SEQEND
  8
MERGEDLAYER-2
  0
POLYLINE
  8
MERGEDLAYER-2
 66
  1
 70
  0
 62
  0
 10
2.186761
 20
4.756896
 30
0.000000
  0
VERTEX
  8
MERGEDLAYER-2
 10
2.186761
 20
4.756896
 30
0.000000
  0
VERTEX
  8
MERGEDLAYER-2
 10
2.256685
 20
4.797266
 30
0.000000
  0
SEQEND
  8
MERGEDLAYER-2
  0
POLYLINE
  8
MERGEDLAYER-2
 66
  1
 70
  0
 62
  0
 10
2.903775
 20
4.829813
 30
0.000000
  0
VERTEX
  8
MERGEDLAYER-2
 10
2.903775
 20
4.829813
 30
0.000000
  0
VERTEX
  8
MERGEDLAYER-2
 10
2.837803
 20
4.791724
 30
0.000000
  0
SEQEND
  8
MERGEDLAYER-2
  0
POLYLINE
  8
MERGEDLAYER-2
 66
  1
 70
  0
 62
  0
 10
3.418661
 20
4.756896
 30
0.000000
  0
VERTEX
  8
MERGEDLAYER-2
 10
3.418661
 20
4.756896
 30
0.000000
  0
VERTEX
  8
MERGEDLAYER-2
 10
3.488585
 20
4.797266
 30
0.000000
  0
SEQEND
  8
MERGEDLAYER-2
  0
POLYLINE
  8
MERGEDLAYER-2
 66
  1
 70
  0
 62
  0
 10
4.135675
 20
4.829813
 30
0.000000
  0
VERTEX
  8
MERGEDLAYER-2
 10
4.135675
 20
4.829813
 30
0.000000
  0
VERTEX
  8
MERGEDLAYER-2
 10
4.069703
 20
4.791724
 30
0.000000
  0
SEQEND
  8
MERGEDLAYER-2
  0
POLYLINE
  8
MERGEDLAYER-2
 66
  1
 70
  0
 62
  0
 10
4.650561
 20
4.756896
 30
0.000000
  0
VERTEX
  8
MERGEDLAYER-2
 10
4.650561
 20
4.756896
 30
0.000000
  0
VERTEX
  8
MERGEDLAYER-2
 10
4.720485
 20
4.797266
 30
0.000000
  0
SEQEND
  8
MERGEDLAYER-2
  0
POLYLINE
  8
MERGEDLAYER-2
 66
  1
 70
  0
 62
  0
 10
5.367575
 20
4.829813
 30
0.000000
  0
VERTEX
  8
MERGEDLAYER-2
 10
5.367575
 20
4.829813
 30
0.000000
  0
VERTEX
  8
MERGEDLAYER-2
 10
5.301603
 20
4.791724
 30
0.000000
  0
SEQEND
  8
MERGEDLAYER-2
  0
POLYLINE
  8
MERGEDLAYER-2
 66
  1
 70
  0
 62
  0
 10
5.882461
 20
4.756896
 30
0.000000
  0
VERTEX
  8
MERGEDLAYER-2
 10
5.882461
 20
4.756896
 30
0.000000
  0
VERTEX
  8
MERGEDLAYER-2
 10
5.952385
 20
4.797266
 30
0.000000
  0
SEQEND
  8
MERGEDLAYER-2
  0
POLYLINE
  8
MERGEDLAYER-2
 66
  1
 70
  0
 62
  0
 10
6.599475
 20
4.829813
 30
0.000000
  0
VERTEX
  8
MERGEDLAYER-2
 10
6.599475
 20
4.829813
 30
0.000000
  0
VERTEX
  8
MERGEDLAYER-2
 10
6.533502
 20
4.791724
 30
0.000000
  0
SEQEND
  8
MERGEDLAYER-2
  0
POLYLINE
  8
MERGEDLAYER-2
 66
  1
 70
  1
 62
  0
  0
VERTEX
  8
MERGEDLAYER-2
 10
0.782822
 20
5.023785
 30
0.000000
  0
VERTEX
  8
MERGEDLAYER-2
 10
1.845759
 20
5.023785
 30
0.000000
  0
VERTEX
  8
MERGEDLAYER-2
 10
1.845759
 20
4.904618
 30
0.000000
  0
VERTEX
  8
MERGEDLAYER-2
 10
0.782822
 20
4.904618
 30
0.000000
  0
SEQEND
  8
MERGEDLAYER-2
  0
POLYLINE
  8
MERGEDLAYER-2
 66
  1
 70
  1
 62
  0
  0
VERTEX
  8
MERGEDLAYER-2
 10
2.014697
 20
5.023785
 30
0.000000
  0
VERTEX
  8
MERGEDLAYER-2
 10
3.077636
 20
5.023785
 30
0.000000
  0
VERTEX
  8
MERGEDLAYER-2
 10
3.077636
 20
4.904618
 30
0.000000
  0
VERTEX
  8
MERGEDLAYER-2
 10
2.014697
 20
4.904618
 30
0.000000
  0
SEQEND
  8
MERGEDLAYER-2
  0
POLYLINE
  8
MERGEDLAYER-2
 66
  1
 70
  1
 62
  0
  0
VERTEX
  8
MERGEDLAYER-2
 10
3.246573
 20
5.023785
 30
0.000000
  0
VERTEX
  8
MERGEDLAYER-2
 10
4.309512
 20
5.023785
 30
0.000000
  0
VERTEX
  8
MERGEDLAYER-2
 10
4.309512
 20
4.904618
 30
0.000000
  0
VERTEX
  8
MERGEDLAYER-2
 10
3.246573
 20
4.904618
 30
0.000000
  0
SEQEND
  8
MERGEDLAYER-2
  0
POLYLINE
  8
MERGEDLAYER-2
 66
  1
 70
  1
 62
  0
  0
VERTEX
  8
MERGEDLAYER-2
 10
4.478450
 20
5.023785
 30
0.000000
  0
VERTEX
  8
MERGEDLAYER-2
 10
5.541387
 20
5.023785
 30
0.000000
  0
VERTEX
  8
MERGEDLAYER-2
 10
5.541387
 20
4.904618
 30
0.000000
  0
VERTEX
  8
MERGEDLAYER-2
 10
4.478450
 20
4.904618
 30
0.000000
  0
SEQEND
  8
MERGEDLAYER-2
  0
POLYLINE
  8
MERGEDLAYER-2
 66
  1
 70
  1
 62
  0
  0
VERTEX
  8
MERGEDLAYER-2
 10
5.710350
 20
5.023785
 30
0.000000
  0
VERTEX
  8
MERGEDLAYER-2
 10
6.773287
 20
5.023785
 30
0.000000
  0
VERTEX
  8
MERGEDLAYER-2
 10
6.773287
 20
4.904618
 30
0.000000
  0
VERTEX
  8
MERGEDLAYER-2
 10
5.710350
 20
4.904618
 30
0.000000
  0
SEQEND
  8
MERGEDLAYER-2
  0
POLYLINE
  8
MERGEDLAYER-2
 66
  1
 70
  0
 62
  0
 10
0.954861
 20
4.925696
 30
0.000000
  0
VERTEX
  8
MERGEDLAYER-2
 10
0.954861
 20
4.925696
 30
0.000000
  0
VERTEX
  8
MERGEDLAYER-2
 10
1.024785
 20
4.966067
 30
0.000000
  0
SEQEND
  8
MERGEDLAYER-2
  0
POLYLINE
  8
MERGEDLAYER-2
 66
  1
 70
  0
 62
  0
 10
1.671875
 20
4.998613
 30
0.000000
  0
VERTEX
  8
MERGEDLAYER-2
 10
1.671875
 20
4.998613
 30
0.000000
  0
VERTEX
  8
MERGEDLAYER-2
 10
1.605903
 20
4.960524
 30
0.000000
  0
SEQEND
  8
MERGEDLAYER-2
  0
POLYLINE
  8
MERGEDLAYER-2
 66
  1
 70
  0
 62
  0
 10
2.186761
 20
4.925696
 30
0.000000
  0
VERTEX
  8
MERGEDLAYER-2
 10
2.186761
 20
4.925696
 30
0.000000
  0
VERTEX
  8
MERGEDLAYER-2
 10
2.256685
 20
4.966067
 30
0.000000
  0
SEQEND
  8
MERGEDLAYER-2
  0
POLYLINE
  8
MERGEDLAYER-2
 66
  1
 70
  0
 62
  0
 10
2.903775
 20
4.998613
 30
0.000000
  0
VERTEX
  8
MERGEDLAYER-2
 10
2.903775
 20
4.998613
 30
0.000000
  0
VERTEX
  8
MERGEDLAYER-2
 10
2.837803
 20
4.960524
 30
0.000000
  0
SEQEND
  8
MERGEDLAYER-2
  0
POLYLINE
  8
MERGEDLAYER-2
 66
  1
 70
  0
 62
  0
 10
3.418661
 20
4.925696
 30
0.000000
  0
VERTEX
  8
MERGEDLAYER-2
 10
3.418661
 20
4.925696
 30
0.000000
  0
VERTEX
  8
MERGEDLAYER-2
 10
3.488585
 20
4.966067
 30
0.000000
  0
SEQEND
  8
MERGEDLAYER-2
  0
POLYLINE
  8
MERGEDLAYER-2
 66
  1
 70
  0
 62
  0
 10
4.135675
 20
4.998613
 30
0.000000
  0
VERTEX
  8
MERGEDLAYER-2
 10
4.135675
 20
4.998613
 30
0.000000
  0
VERTEX
  8
MERGEDLAYER-2
 10
4.069703
 20
4.960524
 30
0.000000
  0
SEQEND
  8
MERGEDLAYER-2
  0
POLYLINE
  8
MERGEDLAYER-2
 66
  1
 70
  0
 62
  0
 10
4.650561
 20
4.925696
 30
0.000000
  0
VERTEX
  8
MERGEDLAYER-2
 10
4.650561
 20
4.925696
 30
0.000000
  0
VERTEX
  8
MERGEDLAYER-2
 10
4.720485
 20
4.966067
 30
0.000000
  0
SEQEND
  8
MERGEDLAYER-2
  0
POLYLINE
  8
MERGEDLAYER-2
 66
  1
 70
  0
 62
  0
 10
5.367575
 20
4.998613
 30
0.000000
  0
VERTEX
  8
MERGEDLAYER-2
 10
5.367575
 20
4.998613
 30
0.000000
  0
VERTEX
  8
MERGEDLAYER-2
 10
5.301603
 20
4.960524
 30
0.000000
  0
SEQEND
  8
MERGEDLAYER-2
  0
POLYLINE
  8
MERGEDLAYER-2
 66
  1
 70
  0
 62
  0
 10
5.882461
 20
4.925696
 30
0.000000
  0
VERTEX
  8
MERGEDLAYER-2
 10
5.882461
 20
4.925696
 30
0.000000
  0
VERTEX
  8
MERGEDLAYER-2
 10
5.952385
 20
4.966067
 30
0.000000
  0
SEQEND
  8
MERGEDLAYER-2
  0
POLYLINE
  8
MERGEDLAYER-2
 66
  1
 70
  0
 62
  0
 10
6.599475
 20
4.998613
 30
0.000000
  0
VERTEX
  8
MERGEDLAYER-2
 10
6.599475
 20
4.998613
 30
0.000000
  0
VERTEX
  8
MERGEDLAYER-2
 10
6.533502
 20
4.960524
 30
0.000000
  0
SEQEND
  8
MERGEDLAYER-2
  0
POLYLINE
  8
MERGEDLAYER-2
 66
  1
 70
  1
 62
  0
  0
VERTEX
  8
MERGEDLAYER-2
 10
0.782822
 20
5.192586
 30
0.000000
  0
VERTEX
  8
MERGEDLAYER-2
 10
1.845759
 20
5.192586
 30
0.000000
  0
VERTEX
  8
MERGEDLAYER-2
 10
1.845759
 20
5.073418
 30
0.000000
  0
VERTEX
  8
MERGEDLAYER-2
 10
0.782822
 20
5.073418
 30
0.000000
  0
SEQEND
  8
MERGEDLAYER-2
  0
POLYLINE
  8
MERGEDLAYER-2
 66
  1
 70
  0
 62
  0
 10
0.954861
 20
5.094496
 30
0.000000
  0
VERTEX
  8
MERGEDLAYER-2
 10
0.954861
 20
5.094496
 30
0.000000
  0
VERTEX
  8
MERGEDLAYER-2
 10
1.024785
 20
5.134867
 30
0.000000
  0
SEQEND
  8
MERGEDLAYER-2
  0
POLYLINE
  8
MERGEDLAYER-2
 66
  1
 70
  0
 62
  0
 10
1.671875
 20
5.167413
 30
0.000000
  0
VERTEX
  8
MERGEDLAYER-2
 10
1.671875
 20
5.167413
 30
0.000000
  0
VERTEX
  8
MERGEDLAYER-2
 10
1.605903
 20
5.129325
 30
0.000000
  0
SEQEND
  8
MERGEDLAYER-2
  0
POLYLINE
  8
MERGEDLAYER-2
 66
  1
 70
  1
 62
  0
  0
VERTEX
  8
MERGEDLAYER-2
 10
2.014697
 20
5.192586
 30
0.000000
  0
VERTEX
  8
MERGEDLAYER-2
 10
3.077636
 20
5.192586
 30
0.000000
  0
VERTEX
  8
MERGEDLAYER-2
 10
3.077636
 20
5.073418
 30
0.000000
  0
VERTEX
  8
MERGEDLAYER-2
 10
2.014697
 20
5.073418
 30
0.000000
  0
SEQEND
  8
MERGEDLAYER-2
  0
POLYLINE
  8
MERGEDLAYER-2
 66
  1
 70
  1
 62
  0
  0
VERTEX
  8
MERGEDLAYER-2
 10
3.246573
 20
5.192586
 30
0.000000
  0
VERTEX
  8
MERGEDLAYER-2
 10
4.309512
 20
5.192586
 30
0.000000
  0
VERTEX
  8
MERGEDLAYER-2
 10
4.309512
 20
5.073418
 30
0.000000
  0
VERTEX
  8
MERGEDLAYER-2
 10
3.246573
 20
5.073418
 30
0.000000
  0
SEQEND
  8
MERGEDLAYER-2
  0
POLYLINE
  8
MERGEDLAYER-2
 66
  1
 70
  1
 62
  0
  0
VERTEX
  8
MERGEDLAYER-2
 10
4.478450
 20
5.192586
 30
0.000000
  0
VERTEX
  8
MERGEDLAYER-2
 10
5.541387
 20
5.192586
 30
0.000000
  0
VERTEX
  8
MERGEDLAYER-2
 10
5.541387
 20
5.073418
 30
0.000000
  0
VERTEX
  8
MERGEDLAYER-2
 10
4.478450
 20
5.073418
 30
0.000000
  0
SEQEND
  8
MERGEDLAYER-2
  0
POLYLINE
  8
MERGEDLAYER-2
 66
  1
 70
  1
 62
  0
  0
VERTEX
  8
MERGEDLAYER-2
 10
5.710350
 20
5.192586
 30
0.000000
  0
VERTEX
  8
MERGEDLAYER-2
 10
6.773287
 20
5.192586
 30
0.000000
  0
VERTEX
  8
MERGEDLAYER-2
 10
6.773287
 20
5.073418
 30
0.000000
  0
VERTEX
  8
MERGEDLAYER-2
 10
5.710350
 20
5.073418
 30
0.000000
  0
SEQEND
  8
MERGEDLAYER-2
  0
POLYLINE
  8
MERGEDLAYER-2
 66
  1
 70
  0
 62
  0
 10
2.186761
 20
5.094496
 30
0.000000
  0
VERTEX
  8
MERGEDLAYER-2
 10
2.186761
 20
5.094496
 30
0.000000
  0
VERTEX
  8
MERGEDLAYER-2
 10
2.256685
 20
5.134867
 30
0.000000
  0
SEQEND
  8
MERGEDLAYER-2
  0
POLYLINE
  8
MERGEDLAYER-2
 66
  1
 70
  0
 62
  0
 10
2.903775
 20
5.167413
 30
0.000000
  0
VERTEX
  8
MERGEDLAYER-2
 10
2.903775
 20
5.167413
 30
0.000000
  0
VERTEX
  8
MERGEDLAYER-2
 10
2.837803
 20
5.129325
 30
0.000000
  0
SEQEND
  8
MERGEDLAYER-2
  0
POLYLINE
  8
MERGEDLAYER-2
 66
  1
 70
  0
 62
  0
 10
3.418661
 20
5.094496
 30
0.000000
  0
VERTEX
  8
MERGEDLAYER-2
 10
3.418661
 20
5.094496
 30
0.000000
  0
VERTEX
  8
MERGEDLAYER-2
 10
3.488585
 20
5.134867
 30
0.000000
  0
SEQEND
  8
MERGEDLAYER-2
  0
POLYLINE
  8
MERGEDLAYER-2
 66
  1
 70
  0
 62
  0
 10
4.135675
 20
5.167413
 30
0.000000
  0
VERTEX
  8
MERGEDLAYER-2
 10
4.135675
 20
5.167413
 30
0.000000
  0
VERTEX
  8
MERGEDLAYER-2
 10
4.069703
 20
5.129325
 30
0.000000
  0
SEQEND
  8
MERGEDLAYER-2
  0
POLYLINE
  8
MERGEDLAYER-2
 66
  1
 70
  0
 62
  0
 10
4.650561
 20
5.094496
 30
0.000000
  0
VERTEX
  8
MERGEDLAYER-2
 10
4.650561
 20
5.094496
 30
0.000000
  0
VERTEX
  8
MERGEDLAYER-2
 10
4.720485
 20
5.134867
 30
0.000000
  0
SEQEND
  8
MERGEDLAYER-2
  0
POLYLINE
  8
MERGEDLAYER-2
 66
  1
 70
  0
 62
  0
 10
5.367575
 20
5.167413
 30
0.000000
  0
VERTEX
  8
MERGEDLAYER-2
 10
5.367575
 20
5.167413
 30
0.000000
  0
VERTEX
  8
MERGEDLAYER-2
 10
5.301603
 20
5.129325
 30
0.000000
  0
SEQEND
  8
MERGEDLAYER-2
  0
POLYLINE
  8
MERGEDLAYER-2
 66
  1
 70
  0
 62
  0
 10
5.882461
 20
5.094496
 30
0.000000
  0
VERTEX
  8
MERGEDLAYER-2
 10
5.882461
 20
5.094496
 30
0.000000
  0
VERTEX
  8
MERGEDLAYER-2
 10
5.952385
 20
5.134867
 30
0.000000
  0
SEQEND
  8
MERGEDLAYER-2
  0
POLYLINE
  8
MERGEDLAYER-2
 66
  1
 70
  0
 62
  0
 10
6.599475
 20
5.167413
 30
0.000000
  0
VERTEX
  8
MERGEDLAYER-2
 10
6.599475
 20
5.167413
 30
0.000000
  0
VERTEX
  8
MERGEDLAYER-2
 10
6.533502
 20
5.129325
 30
0.000000
  0
SEQEND
  8
MERGEDLAYER-2
  0
POLYLINE
  8
MERGEDLAYER-2
 66
  1
 70
  1
 62
  0
  0
VERTEX
  8
MERGEDLAYER-2
 10
2.618279
 20
6.850452
 30
0.000000
  0
VERTEX
  8
MERGEDLAYER-2
 10
5.084590
 20
6.850452
 30
0.000000
  0
VERTEX
  8
MERGEDLAYER-2
 10
5.084590
 20
6.573949
 30
0.000000
  0
VERTEX
  8
MERGEDLAYER-2
 10
2.618279
 20
6.573949
 30
0.000000
  0
SEQEND
  8
MERGEDLAYER-2
  0
POLYLINE
  8
MERGEDLAYER-2
 66
  1
 70
  0
 62
  0
 10
3.017458
 20
6.622856
 30
0.000000
  0
VERTEX
  8
MERGEDLAYER-2
 10
3.017458
 20
6.622856
 30
0.000000
  0
VERTEX
  8
MERGEDLAYER-2
 10
3.179702
 20
6.716527
 30
0.000000
  0
SEQEND
  8
MERGEDLAYER-2
  0
POLYLINE
  8
MERGEDLAYER-2
 66
  1
 70
  0
 62
  0
 10
4.681130
 20
6.792045
 30
0.000000
  0
VERTEX
  8
MERGEDLAYER-2
 10
4.681130
 20
6.792045
 30
0.000000
  0
VERTEX
  8
MERGEDLAYER-2
 10
4.528055
 20
6.703668
 30
0.000000
  0
SEQEND
  8
MERGEDLAYER-2
  0
POLYLINE
  8
MERGEDLAYER-2
 66
  1
 70
  1
 62
  0
  0
VERTEX
  8
MERGEDLAYER-2
 10
2.618660
 20
7.218177
 30
0.000000
  0
VERTEX
  8
MERGEDLAYER-2
 10
5.084970
 20
7.218177
 30
0.000000
  0
VERTEX
  8
MERGEDLAYER-2
 10
5.084970
 20
6.941675
 30
0.000000
  0
VERTEX
  8
MERGEDLAYER-2
 10
2.618660
 20
6.941675
 30
0.000000
  0
SEQEND
  8
MERGEDLAYER-2
  0
POLYLINE
  8
MERGEDLAYER-2
 66
  1
 70
  0
 62
  0
 10
3.017839
 20
6.990581
 30
0.000000
  0
VERTEX
  8
MERGEDLAYER-2
 10
3.017839
 20
6.990581
 30
0.000000
  0
VERTEX
  8
MERGEDLAYER-2
 10
3.180083
 20
7.084252
 30
0.000000
  0
SEQEND
  8
MERGEDLAYER-2
  0
POLYLINE
  8
MERGEDLAYER-2
 66
  1
 70
  0
 62
  0
 10
4.681510
 20
7.159770
 30
0.000000
  0
VERTEX
  8
MERGEDLAYER-2
 10
4.681510
 20
7.159770
 30
0.000000
  0
VERTEX
  8
MERGEDLAYER-2
 10
4.528436
 20
7.071393
 30
0.000000
  0
SEQEND
  8
MERGEDLAYER-2
  0
POLYLINE
  8
MERGEDLAYER-2
 66
  1
 70
  1
 62
  7
  0
VERTEX
  8
MERGEDLAYER-2
 10
2.129081
 20
7.218278
 30
0.000000
  0
VERTEX
  8
MERGEDLAYER-2
 10
2.226564
 20
7.218278
 30
0.000000
  0
VERTEX
  8
MERGEDLAYER-2
 10
2.226564
 20
6.941856
 30
0.000000
  0
VERTEX
  8
MERGEDLAYER-2
 10
2.129081
 20
6.941856
 30
0.000000
  0
SEQEND
  8
MERGEDLAYER-2
  0
POLYLINE
  8
MERGEDLAYER-2
 66
  1
 70
  0
 62
  0
 10
2.226564
 20
7.218278
 30
0.000000
  0
VERTEX
  8
MERGEDLAYER-2
 10
2.226564
 20
7.218278
 30
0.000000
  0
VERTEX
  8
MERGEDLAYER-2
 10
2.226564
 20
6.941856
 30
0.000000
  0
SEQEND
  8
MERGEDLAYER-2
  0
POLYLINE
  8
MERGEDLAYER-2
 66
  1
 70
  1
 62
  7
  0
VERTEX
  8
MERGEDLAYER-2
 10
2.129081
 20
6.850656
 30
0.000000
  0
VERTEX
  8
MERGEDLAYER-2
 10
2.226564
 20
6.850656
 30
0.000000
  0
VERTEX
  8
MERGEDLAYER-2
 10
2.226564
 20
6.574235
 30
0.000000
  0
VERTEX
  8
MERGEDLAYER-2
 10
2.129081
 20
6.574235
 30
0.000000
  0
SEQEND
  8
MERGEDLAYER-2
  0
POLYLINE
  8
MERGEDLAYER-2
 66
  1
 70
  0
 62
  0
 10
2.226564
 20
6.850656
 30
0.000000
  0
VERTEX
  8
MERGEDLAYER-2
 10
2.226564
 20
6.850656
 30
0.000000
  0
VERTEX
  8
MERGEDLAYER-2
 10
2.226564
 20
6.574235
 30
0.000000
  0
SEQEND
  8
MERGEDLAYER-2
  0
POLYLINE
  8
MERGEDLAYER-2
 66
  1
 70
  1
 62
  7
  0
VERTEX
  8
MERGEDLAYER-2
 10
5.476562
 20
7.218278
 30
0.000000
  0
VERTEX
  8
MERGEDLAYER-2
 10
5.574044
 20
7.218278
 30
0.000000
  0
VERTEX
  8
MERGEDLAYER-2
 10
5.574044
 20
6.941856
 30
0.000000
  0
VERTEX
  8
MERGEDLAYER-2
 10
5.476562
 20
6.941856
 30
0.000000
  0
SEQEND
  8
MERGEDLAYER-2
  0
POLYLINE
  8
MERGEDLAYER-2
 66
  1
 70
  0
 62
  0
 10
5.476562
 20
7.218278
 30
0.000000
  0
VERTEX
  8
MERGEDLAYER-2
 10
5.476562
 20
7.218278
 30
0.000000
  0
VERTEX
  8
MERGEDLAYER-2
 10
5.476562
 20
6.941856
 30
0.000000
  0
SEQEND
  8
MERGEDLAYER-2
  0
POLYLINE
  8
MERGEDLAYER-2
 66
  1
 70
  1
 62
  7
  0
VERTEX
  8
MERGEDLAYER-2
 10
5.476562
 20
6.850656
 30
0.000000
  0
VERTEX
  8
MERGEDLAYER-2
 10
5.574044
 20
6.850656
 30
0.000000
  0
VERTEX
  8
MERGEDLAYER-2
 10
5.574044
 20
6.574235
 30
0.000000
  0
VERTEX
  8
MERGEDLAYER-2
 10
5.476562
 20
6.574235
 30
0.000000
  0
SEQEND
  8
MERGEDLAYER-2
  0
POLYLINE
  8
MERGEDLAYER-2
 66
  1
 70
  0
 62
  0
 10
5.476562
 20
6.850656
 30
0.000000
  0
VERTEX
  8
MERGEDLAYER-2
 10
5.476562
 20
6.850656
 30
0.000000
  0
VERTEX
  8
MERGEDLAYER-2
 10
5.476562
 20
6.574235
 30
0.000000
  0
SEQEND
  8
MERGEDLAYER-2
  0
POLYLINE
  8
MERGEDLAYER-2
 66
  1
 70
  0
 62
  0
 10
2.135156
 20
7.308336
 30
0.000000
  0
VERTEX
  8
MERGEDLAYER-2
 10
2.135156
 20
7.308336
 30
0.000000
  0
VERTEX
  8
MERGEDLAYER-2
 10
5.566139
 20
7.308336
 30
0.000000
  0
SEQEND
  8
MERGEDLAYER-2
  0
POLYLINE
  8
MERGEDLAYER-2
 66
  1
 70
  0
 62
  0
 10
2.135664
 20
7.276070
 30
0.000000
  0
VERTEX
  8
MERGEDLAYER-2
 10
2.135664
 20
7.276070
 30
0.000000
  0
VERTEX
  8
MERGEDLAYER-2
 10
5.566139
 20
7.276070
 30
0.000000
  0
SEQEND
  8
MERGEDLAYER-2
  0
POLYLINE
  8
MERGEDLAYER-2
 66
  1
 70
  0
 62
  0
 10
2.135693
 20
7.248874
 30
0.000000
  0
VERTEX
  8
MERGEDLAYER-2
 10
2.135693
 20
7.248874
 30
0.000000
  0
VERTEX
  8
MERGEDLAYER-2
 10
5.566139
 20
7.248874
 30
0.000000
  0
SEQEND
  8
MERGEDLAYER-2
  0
POLYLINE
  8
MERGEDLAYER-2
 66
  1
 70
  0
 62
  0
 10
2.135156
 20
7.218326
 30
0.000000
  0
VERTEX
  8
MERGEDLAYER-2
 10
2.135156
 20
7.218326
 30
0.000000
  0
VERTEX
  8
MERGEDLAYER-2
 10
5.566139
 20
7.218326
 30
0.000000
  0
SEQEND
  8
MERGEDLAYER-2
  0
POLYLINE
  8
MERGEDLAYER-2
 66
  1
 70
  0
 62
  0
 10
2.135156
 20
6.941856
 30
0.000000
  0
VERTEX
  8
MERGEDLAYER-2
 10
2.135156
 20
6.941856
 30
0.000000
  0
VERTEX
  8
MERGEDLAYER-2
 10
5.566139
 20
6.941856
 30
0.000000
  0
SEQEND
  8
MERGEDLAYER-2
  0
POLYLINE
  8
MERGEDLAYER-2
 66
  1
 70
  0
 62
  0
 10
2.135664
 20
6.910977
 30
0.000000
  0
VERTEX
  8
MERGEDLAYER-2
 10
2.135664
 20
6.910977
 30
0.000000
  0
VERTEX
  8
MERGEDLAYER-2
 10
5.566139
 20
6.910977
 30
0.000000
  0
SEQEND
  8
MERGEDLAYER-2
  0
POLYLINE
  8
MERGEDLAYER-2
 66
  1
 70
  0
 62
  0
 10
2.135703
 20
6.883406
 30
0.000000
  0
VERTEX
  8
MERGEDLAYER-2
 10
2.135703
 20
6.883406
 30
0.000000
  0
VERTEX
  8
MERGEDLAYER-2
 10
5.566139
 20
6.883406
 30
0.000000
  0
SEQEND
  8
MERGEDLAYER-2
  0
POLYLINE
  8
MERGEDLAYER-2
 66
  1
 70
  0
 62
  0
 10
2.135156
 20
6.850765
 30
0.000000
  0
VERTEX
  8
MERGEDLAYER-2
 10
2.135156
 20
6.850765
 30
0.000000
  0
VERTEX
  8
MERGEDLAYER-2
 10
5.566139
 20
6.850765
 30
0.000000
  0
SEQEND
  8
MERGEDLAYER-2
  0
POLYLINE
  8
MERGEDLAYER-2
 66
  1
 70
  0
 62
  0
 10
2.135156
 20
6.573819
 30
0.000000
  0
VERTEX
  8
MERGEDLAYER-2
 10
2.135156
 20
6.573819
 30
0.000000
  0
VERTEX
  8
MERGEDLAYER-2
 10
5.566139
 20
6.573819
 30
0.000000
  0
SEQEND
  8
MERGEDLAYER-2
  0
POLYLINE
  8
MERGEDLAYER-2
 66
  1
 70
  0
 62
  0
 10
2.135664
 20
6.542180
 30
0.000000
  0
VERTEX
  8
MERGEDLAYER-2
 10
2.135664
 20
6.542180
 30
0.000000
  0
VERTEX
  8
MERGEDLAYER-2
 10
5.566139
 20
6.542180
 30
0.000000
  0
SEQEND
  8
MERGEDLAYER-2
  0
POLYLINE
  8
MERGEDLAYER-2
 66
  1
 70
  0
 62
  0
 10
2.135630
 20
6.515362
 30
0.000000
  0
VERTEX
  8
MERGEDLAYER-2
 10
2.135630
 20
6.515362
 30
0.000000
  0
VERTEX
  8
MERGEDLAYER-2
 10
5.566139
 20
6.515362
 30
0.000000
  0
SEQEND
  8
MERGEDLAYER-2
  0
POLYLINE
  8
MERGEDLAYER-2
 66
  1
 70
  0
 62
  0
 10
2.135156
 20
6.483065
 30
0.000000
  0
VERTEX
  8
MERGEDLAYER-2
 10
2.135156
 20
6.483065
 30
0.000000
  0
VERTEX
  8
MERGEDLAYER-2
 10
5.566139
 20
6.483065
 30
0.000000
  0
SEQEND
  8
MERGEDLAYER-2
  0
LINE
  8
MERGEDLAYER-2
 62
  0
 10
2.618660
 20
7.650135
 30
0.000000
 11
5.084970
 21
7.650135
 31
0.000000
  0
LINE
  8
MERGEDLAYER-2
 62
  0
 10
2.618660
 20
7.280677
 30
0.000000
 11
2.618660
 21
7.775135
 31
0.000000
  0
LINE
  8
MERGEDLAYER-2
 62
  0
 10
5.084970
 20
7.280677
 30
0.000000
 11
5.084970
 21
7.775135
 31
0.000000
  0
LINE
  8
MERGEDLAYER-2
 62
  0
 10
2.648122
 20
7.679598
 30
0.000000
 11
2.589197
 21
7.620672
 31
0.000000
  0
LINE
  8
MERGEDLAYER-2
 62
  0
 10
5.114433
 20
7.679598
 30
0.000000
 11
5.055508
 21
7.620672
 31
0.000000
  0
TEXT
  8
MERGEDLAYER-2
 62
  0
 10
3.626422
 20
7.768109
 30
0.000000
 40
0.125000
  1
 
  0
TEXT
  8
MERGEDLAYER-2
 62
  0
 10
3.097222
 20
7.709163
 30
0.000000
 40
0.145833
  1
15 
 72
  5
 11
3.444444
 21
7.709163
 31
0.000000
  0
TEXT
  8
MERGEDLAYER-2
 62
  0
 10
3.444444
 20
7.709163
 30
0.000000
 40
0.125000
  1
3/4
 72
  5
 11
3.750000
 21
7.709163
 31
0.000000
  0
TEXT
  8
MERGEDLAYER-2
 62
  0
 10
3.750000
 20
7.709163
 30
0.000000
 40
0.145833
  1
" (400
 72
  5
 11
4.347222
 21
7.709163
 31
0.000000
  0
TEXT
  8
MERGEDLAYER-2
 62
  0
 10
4.347222
 20
7.709163
 30
0.000000
 40
0.125000
  1
mm
 72
  5
 11
4.722222
 21
7.709163
 31
0.000000
  0
TEXT
  8
MERGEDLAYER-2
 62
  0
 10
4.722222
 20
7.709163
 30
0.000000
 40
0.145833
  1
)
 72
  5
 11
4.861111
 21
7.709163
 31
0.000000
  0
TEXT
  8
MERGEDLAYER-2
 62
  0
 10
3.180556
 20
7.375830
 30
0.000000
 40
0.145833
  1
polycarbonate
 72
  5
 11
4.500000
 21
7.375830
 31
0.000000
  0
TEXT
  8
MERGEDLAYER-2
 62
  0
 10
2.513889
 20
0.084163
 30
0.000000
 40
0.125000
  1
PoignÄe
 72
  5
 11
3.222222
 21
0.084163
 31
0.000000
  0
TEXT
  8
MERGEDLAYER-2
 62
  0
 10
3.972222
 20
0.084163
 30
0.000000
 40
0.125000
  1
Cylindre
 72
  5
 11
4.666667
 21
0.084163
 31
0.000000
  0
POLYLINE
  8
MERGEDLAYER-2
 66
  1
 70
  0
 62
  0
 10
3.947180
 20
0.142362
 30
0.000000
  0
VERTEX
  8
MERGEDLAYER-2
 10
3.947180
 20
0.142362
 30
0.000000
  0
VERTEX
  8
MERGEDLAYER-2
 10
3.792686
 20
0.338697
 30
0.000000
  0
SEQEND
  8
MERGEDLAYER-2
  0
POLYLINE
  8
MERGEDLAYER-2
 66
  1
 70
  1
 62
  0
  0
VERTEX
  8
MERGEDLAYER-2
 10
3.780512
 20
0.354168
 30
0.000000
  0
VERTEX
  8
MERGEDLAYER-2
 10
3.856201
 20
0.325360
 30
0.000000
  0
VERTEX
  8
MERGEDLAYER-2
 10
3.823457
 20
0.299594
 30
0.000000
  0
VERTEX
  8
MERGEDLAYER-2
 10
3.790712
 20
0.273827
 30
0.000000
  0
VERTEX
  8
MERGEDLAYER-2
 10
3.780512
 20
0.354168
 30
0.000000
  0
SEQEND
  8
MERGEDLAYER-2
  0
TEXT
  8
MERGEDLAYER-2
 62
  0
 10
3.055556
 20
6.028608
 30
0.000000
 40
0.145833
  1
entre
 72
  5
 11
3.583333
 21
6.028608
 31
0.000000
  0
TEXT
  8
MERGEDLAYER-2
 62
  0
 10
3.055556
 20
5.806385
 30
0.000000
 40
0.145833
  1
connecteurs
 72
  5
 11
4.208333
 21
5.806385
 31
0.000000
  0
TEXT
  8
MERGEDLAYER-2
 62
  0
 10
2.458333
 20
6.292497
 30
0.000000
 40
0.145833
  1
2 
 72
  5
 11
2.694444
 21
6.292497
 31
0.000000
  0
TEXT
  8
MERGEDLAYER-2
 62
  0
 10
2.694444
 20
6.292497
 30
0.000000
 40
0.125000
  1
1/2
 72
  5
 11
3.000000
 21
6.292497
 31
0.000000
  0
TEXT
  8
MERGEDLAYER-2
 62
  0
 10
3.000000
 20
6.292497
 30
0.000000
 40
0.145833
  1
"
 72
  5
 11
3.138889
 21
6.292497
 31
0.000000
  0
TEXT
  8
MERGEDLAYER-2
 62
  0
 10
2.458333
 20
6.070274
 30
0.000000
 40
0.145833
  1
64
 72
  5
 11
2.750000
 21
6.070274
 31
0.000000
  0
TEXT
  8
MERGEDLAYER-2
 62
  0
 10
2.750000
 20
6.070274
 30
0.000000
 40
0.125000
  1
mm
 72
  5
 11
3.125000
 21
6.070274
 31
0.000000
  0
TEXT
  8
MERGEDLAYER-2
 62
  0
 10
4.513889
 20
6.292497
 30
0.000000
 40
0.145833
  1
2 
 72
  5
 11
4.750000
 21
6.292497
 31
0.000000
  0
TEXT
  8
MERGEDLAYER-2
 62
  0
 10
4.750000
 20
6.292497
 30
0.000000
 40
0.125000
  1
1/2
 72
  5
 11
5.055556
 21
6.292497
 31
0.000000
  0
TEXT
  8
MERGEDLAYER-2
 62
  0
 10
5.055556
 20
6.292497
 30
0.000000
 40
0.145833
  1
"
 72
  5
 11
5.194444
 21
6.292497
 31
0.000000
  0
TEXT
  8
MERGEDLAYER-2
 62
  0
 10
4.513889
 20
6.070274
 30
0.000000
 40
0.145833
  1
64
 72
  5
 11
4.805556
 21
6.070274
 31
0.000000
  0
TEXT
  8
MERGEDLAYER-2
 62
  0
 10
4.805556
 20
6.070274
 30
0.000000
 40
0.125000
  1
mm
 72
  5
 11
5.180556
 21
6.070274
 31
0.000000
  0
POLYLINE
  8
MERGEDLAYER-2
 66
  1
 70
  0
 62
  0
 10
5.477431
 20
6.478260
 30
0.000000
  0
VERTEX
  8
MERGEDLAYER-2
 10
5.477431
 20
6.478260
 30
0.000000
  0
VERTEX
  8
MERGEDLAYER-2
 10
5.477431
 20
6.231734
 30
0.000000
  0
SEQEND
  8
MERGEDLAYER-2
  0
POLYLINE
  8
MERGEDLAYER-2
 66
  1
 70
  0
 62
  0
 10
5.085070
 20
6.231734
 30
0.000000
  0
VERTEX
  8
MERGEDLAYER-2
 10
5.085070
 20
6.231734
 30
0.000000
  0
VERTEX
  8
MERGEDLAYER-2
 10
5.085070
 20
6.478260
 30
0.000000
  0
SEQEND
  8
MERGEDLAYER-2
  0
POLYLINE
  8
MERGEDLAYER-2
 66
  1
 70
  0
 62
  0
 10
5.477431
 20
6.304650
 30
0.000000
  0
VERTEX
  8
MERGEDLAYER-2
 10
5.477431
 20
6.304650
 30
0.000000
  0
VERTEX
  8
MERGEDLAYER-2
 10
5.085070
 20
6.304650
 30
0.000000
  0
SEQEND
  8
MERGEDLAYER-2
  0
LINE
  8
MERGEDLAYER-2
 62
  0
 10
5.447968
 20
6.275187
 30
0.000000
 11
5.506894
 21
6.334112
 31
0.000000
  0
LINE
  8
MERGEDLAYER-2
 62
  0
 10
5.055607
 20
6.275187
 30
0.000000
 11
5.114533
 21
6.334112
 31
0.000000
  0
POLYLINE
  8
MERGEDLAYER-2
 66
  1
 70
  0
 62
  0
 10
5.085070
 20
6.304650
 30
0.000000
  0
VERTEX
  8
MERGEDLAYER-2
 10
5.085070
 20
6.304650
 30
0.000000
  0
VERTEX
  8
MERGEDLAYER-2
 10
4.977431
 20
6.304650
 30
0.000000
  0
SEQEND
  8
MERGEDLAYER-2
  0
TEXT
  8
MERGEDLAYER-2
 62
  0
 10
1.819444
 20
8.542497
 30
0.000000
 40
0.125000
  1
FERMETURE ╦ ENROULEMENT POLYCARBONATE
 72
  5
 11
5.861111
 21
8.542497
 31
0.000000
  0
ENDSEC
  0
EOF
