  0
SECTION
  2
HEADER
999
MacDraft 5.0\0
  9
$ACADVER
  1
AC1006
  9
$CLAYER
  8
ROLL-SHUTTER
  9
$EXTMIN
 10
0.000000
 20
0.000000
  9
$EXTMAX
 10
7.536368
 20
10.122823
  9
$FASTZOOM
 70
0
  9
$FILLMODE
 70
1
  0
ENDSEC
  0
SECTION
  2
TABLES
  0
TABLE
  2
LTYPE
 70
16
  0
LTYPE
  2
CONTINUOUS
 70
64
  3
Solid Line
 72
65
 73
0
 40
0.000000
  0
LTYPE
  2
LTYPE01
 70
64
  3
CUSTOM
 72
65
 73
2
 40
0.072727
 49
0.054545
 49
-0.018182
  0
LTYPE
  2
LTYPE02
 70
64
  3
CUSTOM
 72
65
 73
2
 40
0.127273
 49
0.109091
 49
-0.018182
  0
LTYPE
  2
LTYPE03
 70
64
  3
CUSTOM
 72
65
 73
2
 40
0.245455
 49
0.218182
 49
-0.027273
  0
LTYPE
  2
LTYPE04
 70
64
  3
CUSTOM
 72
65
 73
2
 40
0.472727
 49
0.436364
 49
-0.036364
  0
LTYPE
  2
LTYPE05
 70
64
  3
CUSTOM
 72
65
 73
4
 40
0.100000
 49
0.054545
 49
-0.018182
 49
0.009091
 49
-0.018182
  0
LTYPE
  2
LTYPE06
 70
64
  3
CUSTOM
 72
65
 73
4
 40
0.154545
 49
0.109091
 49
-0.018182
 49
0.009091
 49
-0.018182
  0
LTYPE
  2
LTYPE07
 70
64
  3
CUSTOM
 72
65
 73
4
 40
0.290909
 49
0.218182
 49
-0.027273
 49
0.018182
 49
-0.027273
  0
LTYPE
  2
LTYPE08
 70
64
  3
CUSTOM
 72
65
 73
4
 40
0.527273
 49
0.436364
 49
-0.036364
 49
0.018182
 49
-0.036364
  0
LTYPE
  2
LTYPE09
 70
64
  3
CUSTOM
 72
65
 73
6
 40
0.127273
 49
0.054545
 49
-0.018182
 49
0.009091
 49
-0.018182
 49
0.009091
 49
-0.018182
  0
LTYPE
  2
LTYPE10
 70
64
  3
CUSTOM
 72
65
 73
6
 40
0.181818
 49
0.109091
 49
-0.018182
 49
0.009091
 49
-0.018182
 49
0.009091
 49
-0.018182
  0
LTYPE
  2
LTYPE11
 70
64
  3
CUSTOM
 72
65
 73
6
 40
0.327273
 49
0.218182
 49
-0.027273
 49
0.018182
 49
-0.018182
 49
0.018182
 49
-0.027273
  0
LTYPE
  2
LTYPE12
 70
64
  3
CUSTOM
 72
65
 73
6
 40
0.563636
 49
0.436364
 49
-0.036364
 49
0.018182
 49
-0.018182
 49
0.018182
 49
-0.036364
  0
LTYPE
  2
LTYPE13
 70
64
  3
CUSTOM
 72
65
 73
8
 40
0.209091
 49
0.109091
 49
-0.018182
 49
0.009091
 49
-0.018182
 49
0.009091
 49
-0.018182
 49
0.009091
 49
-0.018182
  0
LTYPE
  2
LTYPE14
 70
64
  3
CUSTOM
 72
65
 73
8
 40
0.363636
 49
0.218182
 49
-0.027273
 49
0.018182
 49
-0.018182
 49
0.018182
 49
-0.018182
 49
0.018182
 49
-0.027273
  0
LTYPE
  2
LTYPE15
 70
64
  3
CUSTOM
 72
65
 73
8
 40
0.618182
 49
0.436364
 49
-0.036364
 49
0.018182
 49
-0.027273
 49
0.018182
 49
-0.027273
 49
0.018182
 49
-0.036364
  0
ENDTAB
  0
TABLE
  2
LAYER
 70
1
  0
LAYER
  2
ROLL-SHUTTER
 70
0
 62
7
  6
CONTINUOUS
  0
ENDTAB
  0
ENDSEC
  0
SECTION
  2
BLOCKS
  0
ENDSEC
  0
SECTION
  2
ENTITIES
  0
POLYLINE
  8
ROLL-SHUTTER
 66
  1
 70
  1
 62
  7
  0
VERTEX
  8
ROLL-SHUTTER
 10
0.969431
 20
2.545726
 30
0.000000
  0
VERTEX
  8
ROLL-SHUTTER
 10
6.567122
 20
2.545726
 30
0.000000
  0
VERTEX
  8
ROLL-SHUTTER
 10
6.567122
 20
2.359629
 30
0.000000
  0
VERTEX
  8
ROLL-SHUTTER
 10
0.969431
 20
2.359629
 30
0.000000
  0
SEQEND
  8
ROLL-SHUTTER
  0
POLYLINE
  8
ROLL-SHUTTER
 66
  1
 70
  1
 62
  7
  0
VERTEX
  8
ROLL-SHUTTER
 10
0.969431
 20
2.359104
 30
0.000000
  0
VERTEX
  8
ROLL-SHUTTER
 10
6.567122
 20
2.359104
 30
0.000000
  0
VERTEX
  8
ROLL-SHUTTER
 10
6.567122
 20
2.351004
 30
0.000000
  0
VERTEX
  8
ROLL-SHUTTER
 10
0.969431
 20
2.351004
 30
0.000000
  0
SEQEND
  8
ROLL-SHUTTER
  0
POLYLINE
  8
ROLL-SHUTTER
 66
  1
 70
  1
 62
  7
 10
6.567185
 20
2.359104
 30
0.000000
  0
VERTEX
  8
ROLL-SHUTTER
 10
6.567185
 20
2.359104
 30
0.000000
  0
VERTEX
  8
ROLL-SHUTTER
 10
6.592166
 20
2.359624
 30
0.000000
  0
VERTEX
  8
ROLL-SHUTTER
 10
6.592166
 20
2.532182
 30
0.000000
  0
VERTEX
  8
ROLL-SHUTTER
 10
6.567185
 20
2.531517
 30
0.000000
  0
SEQEND
  8
ROLL-SHUTTER
  0
POLYLINE
  8
ROLL-SHUTTER
 66
  1
 70
  0
 62
  7
 10
6.571234
 20
2.531517
 30
0.000000
  0
VERTEX
  8
ROLL-SHUTTER
 10
6.571234
 20
2.531517
 30
0.000000
  0
VERTEX
  8
ROLL-SHUTTER
 10
6.571234
 20
2.359104
 30
0.000000
  0
SEQEND
  8
ROLL-SHUTTER
  0
POLYLINE
  8
ROLL-SHUTTER
 66
  1
 70
  1
 62
  7
 10
0.968858
 20
2.357967
 30
0.000000
  0
VERTEX
  8
ROLL-SHUTTER
 10
0.968858
 20
2.357967
 30
0.000000
  0
VERTEX
  8
ROLL-SHUTTER
 10
0.943877
 20
2.358491
 30
0.000000
  0
VERTEX
  8
ROLL-SHUTTER
 10
0.943877
 20
2.532183
 30
0.000000
  0
VERTEX
  8
ROLL-SHUTTER
 10
0.968858
 20
2.531513
 30
0.000000
  0
SEQEND
  8
ROLL-SHUTTER
  0
POLYLINE
  8
ROLL-SHUTTER
 66
  1
 70
  0
 62
  7
 10
0.964810
 20
2.531513
 30
0.000000
  0
VERTEX
  8
ROLL-SHUTTER
 10
0.964810
 20
2.531513
 30
0.000000
  0
VERTEX
  8
ROLL-SHUTTER
 10
0.964810
 20
2.357967
 30
0.000000
  0
SEQEND
  8
ROLL-SHUTTER
  0
POLYLINE
  8
ROLL-SHUTTER
 66
  1
 70
  1
 62
  7
  0
VERTEX
  8
ROLL-SHUTTER
 10
0.943490
 20
5.371717
 30
0.000000
  0
VERTEX
  8
ROLL-SHUTTER
 10
6.592875
 20
5.371717
 30
0.000000
  0
VERTEX
  8
ROLL-SHUTTER
 10
6.592875
 20
2.545726
 30
0.000000
  0
VERTEX
  8
ROLL-SHUTTER
 10
0.943490
 20
2.545726
 30
0.000000
  0
SEQEND
  8
ROLL-SHUTTER
  0
POLYLINE
  8
ROLL-SHUTTER
 66
  1
 70
  0
 62
  7
 10
0.943517
 20
2.553787
 30
0.000000
  0
VERTEX
  8
ROLL-SHUTTER
 10
0.943517
 20
2.553787
 30
0.000000
  0
VERTEX
  8
ROLL-SHUTTER
 10
6.592474
 20
2.553787
 30
0.000000
  0
SEQEND
  8
ROLL-SHUTTER
  0
POLYLINE
  8
ROLL-SHUTTER
 66
  1
 70
  1
 62
  7
 10
3.344039
 20
2.550094
 30
0.000000
  0
VERTEX
  8
ROLL-SHUTTER
 10
3.344039
 20
2.550094
 30
0.000000
  0
VERTEX
  8
ROLL-SHUTTER
 10
3.603080
 20
2.550094
 30
0.000000
  0
VERTEX
  8
ROLL-SHUTTER
 10
3.603080
 20
2.455862
 30
0.000000
  0
VERTEX
  8
ROLL-SHUTTER
 10
3.344039
 20
2.455862
 30
0.000000
  0
SEQEND
  8
ROLL-SHUTTER
  0
POLYLINE
  8
ROLL-SHUTTER
 66
  1
 70
  0
 62
  7
 10
3.603080
 20
2.501265
 30
0.000000
  0
VERTEX
  8
ROLL-SHUTTER
 10
3.603080
 20
2.501265
 30
0.000000
  0
VERTEX
  8
ROLL-SHUTTER
 10
3.344039
 20
2.501460
 30
0.000000
  0
SEQEND
  8
ROLL-SHUTTER
  0
POLYLINE
  8
ROLL-SHUTTER
 66
  1
 70
  0
 62
  7
 10
3.603080
 20
2.488962
 30
0.000000
  0
VERTEX
  8
ROLL-SHUTTER
 10
3.603080
 20
2.488962
 30
0.000000
  0
VERTEX
  8
ROLL-SHUTTER
 10
3.344039
 20
2.489156
 30
0.000000
  0
SEQEND
  8
ROLL-SHUTTER
  0
CIRCLE
  8
ROLL-SHUTTER
 62
  7
 10
3.392496
 20
2.521970
 30
0.000000
 40
0.004385
  0
CIRCLE
  8
ROLL-SHUTTER
 62
  7
 10
3.392496
 20
2.521970
 30
0.000000
 40
0.009388
  0
CIRCLE
  8
ROLL-SHUTTER
 62
  7
 10
3.554395
 20
2.521970
 30
0.000000
 40
0.004385
  0
CIRCLE
  8
ROLL-SHUTTER
 62
  7
 10
3.554395
 20
2.521970
 30
0.000000
 40
0.009388
  0
POLYLINE
  8
ROLL-SHUTTER
 66
  1
 70
  1
 62
  7
  0
VERTEX
  8
ROLL-SHUTTER
 10
3.752163
 20
2.466958
 30
0.000000
  0
VERTEX
  8
ROLL-SHUTTER
 10
3.797878
 20
2.466958
 30
0.000000
  0
VERTEX
  8
ROLL-SHUTTER
 10
3.797878
 20
2.454766
 30
0.000000
  0
VERTEX
  8
ROLL-SHUTTER
 10
3.752163
 20
2.454766
 30
0.000000
  0
SEQEND
  8
ROLL-SHUTTER
  0
CIRCLE
  8
ROLL-SHUTTER
 62
  7
 10
3.766903
 20
2.461861
 30
0.000000
 40
0.064283
  0
CIRCLE
  8
ROLL-SHUTTER
 62
  7
 10
3.767144
 20
2.461861
 30
0.000000
 40
0.047124
  0
CIRCLE
  8
ROLL-SHUTTER
 62
  7
 10
3.767144
 20
2.461861
 30
0.000000
 40
0.042287
  0
CIRCLE
  8
ROLL-SHUTTER
 62
  7
 10
3.783940
 20
2.461861
 30
0.000000
 40
0.018794
  0
CIRCLE
  8
ROLL-SHUTTER
 62
  7
 10
3.791976
 20
2.461861
 30
0.000000
 40
0.008035
  0
TEXT
  8
ROLL-SHUTTER
 62
  7
 10
3.745286
 20
2.431808
 30
0.000000
 40
0.006818
  1
MobilFlex
 50
90.000000
 72
  5
 11
3.745286
 21
2.531808
 31
0.000000
  0
POLYLINE
  8
ROLL-SHUTTER
 66
  1
 70
  1
 62
  7
 10
3.802186
 20
2.458236
 30
0.000000
  0
VERTEX
  8
ROLL-SHUTTER
 10
3.802186
 20
2.458236
 30
0.000000
  0
VERTEX
  8
ROLL-SHUTTER
 10
3.793486
 20
2.458236
 30
0.000000
  0
VERTEX
  8
ROLL-SHUTTER
 10
3.793486
 20
2.461619
 30
0.000000
  0
VERTEX
  8
ROLL-SHUTTER
 10
3.790103
 20
2.461619
 30
0.000000
  0
VERTEX
  8
ROLL-SHUTTER
 10
3.786478
 20
2.457996
 30
0.000000
  0
VERTEX
  8
ROLL-SHUTTER
 10
3.784062
 20
2.457996
 30
0.000000
  0
VERTEX
  8
ROLL-SHUTTER
 10
3.776811
 20
2.460412
 30
0.000000
  0
VERTEX
  8
ROLL-SHUTTER
 10
3.776811
 20
2.463553
 30
0.000000
  0
VERTEX
  8
ROLL-SHUTTER
 10
3.782129
 20
2.462828
 30
0.000000
  0
VERTEX
  8
ROLL-SHUTTER
 10
3.784062
 20
2.463070
 30
0.000000
  0
VERTEX
  8
ROLL-SHUTTER
 10
3.784062
 20
2.464520
 30
0.000000
  0
VERTEX
  8
ROLL-SHUTTER
 10
3.796386
 20
2.464520
 30
0.000000
  0
VERTEX
  8
ROLL-SHUTTER
 10
3.797595
 20
2.461861
 30
0.000000
  0
VERTEX
  8
ROLL-SHUTTER
 10
3.800011
 20
2.461861
 30
0.000000
  0
VERTEX
  8
ROLL-SHUTTER
 10
3.800495
 20
2.464520
 30
0.000000
  0
VERTEX
  8
ROLL-SHUTTER
 10
3.802186
 20
2.464520
 30
0.000000
  0
SEQEND
  8
ROLL-SHUTTER
  0
POLYLINE
  8
ROLL-SHUTTER
 66
  1
 70
  1
 62
  7
  0
VERTEX
  8
ROLL-SHUTTER
 10
3.938801
 20
2.509793
 30
0.000000
  0
VERTEX
  8
ROLL-SHUTTER
 10
4.344271
 20
2.509793
 30
0.000000
  0
VERTEX
  8
ROLL-SHUTTER
 10
4.344271
 20
2.383236
 30
0.000000
  0
VERTEX
  8
ROLL-SHUTTER
 10
3.938801
 20
2.383236
 30
0.000000
  0
SEQEND
  8
ROLL-SHUTTER
  0
POLYLINE
  8
ROLL-SHUTTER
 66
  1
 70
  1
 62
  7
  0
VERTEX
  8
ROLL-SHUTTER
 10
3.951692
 20
2.490926
 30
0.000000
  0
VERTEX
  8
ROLL-SHUTTER
 10
3.967278
 20
2.490926
 30
0.000000
  0
VERTEX
  8
ROLL-SHUTTER
 10
3.967278
 20
2.457059
 30
0.000000
  0
VERTEX
  8
ROLL-SHUTTER
 10
3.951692
 20
2.457059
 30
0.000000
  0
SEQEND
  8
ROLL-SHUTTER
  0
POLYLINE
  8
ROLL-SHUTTER
 66
  1
 70
  1
 62
  7
  0
VERTEX
  8
ROLL-SHUTTER
 10
3.972551
 20
2.490926
 30
0.000000
  0
VERTEX
  8
ROLL-SHUTTER
 10
3.987903
 20
2.490926
 30
0.000000
  0
VERTEX
  8
ROLL-SHUTTER
 10
3.987903
 20
2.457059
 30
0.000000
  0
VERTEX
  8
ROLL-SHUTTER
 10
3.972551
 20
2.457059
 30
0.000000
  0
SEQEND
  8
ROLL-SHUTTER
  0
POLYLINE
  8
ROLL-SHUTTER
 66
  1
 70
  1
 62
  7
  0
VERTEX
  8
ROLL-SHUTTER
 10
3.992357
 20
2.490926
 30
0.000000
  0
VERTEX
  8
ROLL-SHUTTER
 10
4.007708
 20
2.490926
 30
0.000000
  0
VERTEX
  8
ROLL-SHUTTER
 10
4.007708
 20
2.457059
 30
0.000000
  0
VERTEX
  8
ROLL-SHUTTER
 10
3.992357
 20
2.457059
 30
0.000000
  0
SEQEND
  8
ROLL-SHUTTER
  0
POLYLINE
  8
ROLL-SHUTTER
 66
  1
 70
  1
 62
  7
  0
VERTEX
  8
ROLL-SHUTTER
 10
4.012747
 20
2.490926
 30
0.000000
  0
VERTEX
  8
ROLL-SHUTTER
 10
4.028098
 20
2.490926
 30
0.000000
  0
VERTEX
  8
ROLL-SHUTTER
 10
4.028098
 20
2.457059
 30
0.000000
  0
VERTEX
  8
ROLL-SHUTTER
 10
4.012747
 20
2.457059
 30
0.000000
  0
SEQEND
  8
ROLL-SHUTTER
  0
POLYLINE
  8
ROLL-SHUTTER
 66
  1
 70
  1
 62
  7
  0
VERTEX
  8
ROLL-SHUTTER
 10
4.033606
 20
2.481668
 30
0.000000
  0
VERTEX
  8
ROLL-SHUTTER
 10
4.033606
 20
2.490457
 30
0.000000
  0
VERTEX
  8
ROLL-SHUTTER
 10
4.058568
 20
2.490457
 30
0.000000
  0
VERTEX
  8
ROLL-SHUTTER
 10
4.058568
 20
2.481668
 30
0.000000
  0
SEQEND
  8
ROLL-SHUTTER
  0
POLYLINE
  8
ROLL-SHUTTER
 66
  1
 70
  1
 62
  7
  0
VERTEX
  8
ROLL-SHUTTER
 10
4.033607
 20
2.466785
 30
0.000000
  0
VERTEX
  8
ROLL-SHUTTER
 10
4.033607
 20
2.475574
 30
0.000000
  0
VERTEX
  8
ROLL-SHUTTER
 10
4.053997
 20
2.475574
 30
0.000000
  0
VERTEX
  8
ROLL-SHUTTER
 10
4.053997
 20
2.466785
 30
0.000000
  0
SEQEND
  8
ROLL-SHUTTER
  0
POLYLINE
  8
ROLL-SHUTTER
 66
  1
 70
  0
 62
  7
 10
3.951692
 20
2.446512
 30
0.000000
  0
VERTEX
  8
ROLL-SHUTTER
 10
3.951692
 20
2.446512
 30
0.000000
  0
VERTEX
  8
ROLL-SHUTTER
 10
4.338939
 20
2.446395
 30
0.000000
  0
SEQEND
  8
ROLL-SHUTTER
  0
TEXT
  8
ROLL-SHUTTER
 62
  7
 10
4.127104
 20
2.468172
 30
0.000000
 40
0.020455
  1
mobilflex.com
 72
  5
 11
4.381650
 21
2.468172
 31
0.000000
  0
TEXT
  8
ROLL-SHUTTER
 62
  7
 10
3.945286
 20
2.395445
 30
0.000000
 40
0.040909
  1
MobilFlex
 72
  5
 11
4.208922
 21
2.395445
 31
0.000000
  0
POLYLINE
  8
ROLL-SHUTTER
 66
  1
 70
  0
 62
  7
 10
0.943488
 20
2.651795
 30
0.000000
  0
VERTEX
  8
ROLL-SHUTTER
 10
0.943488
 20
2.651795
 30
0.000000
  0
VERTEX
  8
ROLL-SHUTTER
 10
6.592308
 20
2.651795
 30
0.000000
  0
SEQEND
  8
ROLL-SHUTTER
  0
POLYLINE
  8
ROLL-SHUTTER
 66
  1
 70
  0
 62
  7
 10
0.943488
 20
2.748935
 30
0.000000
  0
VERTEX
  8
ROLL-SHUTTER
 10
0.943488
 20
2.748935
 30
0.000000
  0
VERTEX
  8
ROLL-SHUTTER
 10
6.592308
 20
2.748935
 30
0.000000
  0
SEQEND
  8
ROLL-SHUTTER
  0
POLYLINE
  8
ROLL-SHUTTER
 66
  1
 70
  0
 62
  7
 10
0.943488
 20
2.846075
 30
0.000000
  0
VERTEX
  8
ROLL-SHUTTER
 10
0.943488
 20
2.846075
 30
0.000000
  0
VERTEX
  8
ROLL-SHUTTER
 10
6.592308
 20
2.846075
 30
0.000000
  0
SEQEND
  8
ROLL-SHUTTER
  0
POLYLINE
  8
ROLL-SHUTTER
 66
  1
 70
  0
 62
  7
 10
0.943488
 20
2.943215
 30
0.000000
  0
VERTEX
  8
ROLL-SHUTTER
 10
0.943488
 20
2.943215
 30
0.000000
  0
VERTEX
  8
ROLL-SHUTTER
 10
6.592308
 20
2.943215
 30
0.000000
  0
SEQEND
  8
ROLL-SHUTTER
  0
POLYLINE
  8
ROLL-SHUTTER
 66
  1
 70
  0
 62
  7
 10
0.943488
 20
3.040355
 30
0.000000
  0
VERTEX
  8
ROLL-SHUTTER
 10
0.943488
 20
3.040355
 30
0.000000
  0
VERTEX
  8
ROLL-SHUTTER
 10
6.592308
 20
3.040355
 30
0.000000
  0
SEQEND
  8
ROLL-SHUTTER
  0
POLYLINE
  8
ROLL-SHUTTER
 66
  1
 70
  0
 62
  7
 10
0.943488
 20
3.137496
 30
0.000000
  0
VERTEX
  8
ROLL-SHUTTER
 10
0.943488
 20
3.137496
 30
0.000000
  0
VERTEX
  8
ROLL-SHUTTER
 10
6.592308
 20
3.137496
 30
0.000000
  0
SEQEND
  8
ROLL-SHUTTER
  0
POLYLINE
  8
ROLL-SHUTTER
 66
  1
 70
  0
 62
  7
 10
0.943488
 20
3.234636
 30
0.000000
  0
VERTEX
  8
ROLL-SHUTTER
 10
0.943488
 20
3.234636
 30
0.000000
  0
VERTEX
  8
ROLL-SHUTTER
 10
6.592308
 20
3.234636
 30
0.000000
  0
SEQEND
  8
ROLL-SHUTTER
  0
POLYLINE
  8
ROLL-SHUTTER
 66
  1
 70
  0
 62
  7
 10
0.943488
 20
3.331775
 30
0.000000
  0
VERTEX
  8
ROLL-SHUTTER
 10
0.943488
 20
3.331775
 30
0.000000
  0
VERTEX
  8
ROLL-SHUTTER
 10
6.592308
 20
3.331775
 30
0.000000
  0
SEQEND
  8
ROLL-SHUTTER
  0
POLYLINE
  8
ROLL-SHUTTER
 66
  1
 70
  0
 62
  7
 10
0.943488
 20
3.428916
 30
0.000000
  0
VERTEX
  8
ROLL-SHUTTER
 10
0.943488
 20
3.428916
 30
0.000000
  0
VERTEX
  8
ROLL-SHUTTER
 10
6.592308
 20
3.428916
 30
0.000000
  0
SEQEND
  8
ROLL-SHUTTER
  0
POLYLINE
  8
ROLL-SHUTTER
 66
  1
 70
  0
 62
  7
 10
0.943488
 20
3.526057
 30
0.000000
  0
VERTEX
  8
ROLL-SHUTTER
 10
0.943488
 20
3.526057
 30
0.000000
  0
VERTEX
  8
ROLL-SHUTTER
 10
6.592308
 20
3.526057
 30
0.000000
  0
SEQEND
  8
ROLL-SHUTTER
  0
POLYLINE
  8
ROLL-SHUTTER
 66
  1
 70
  0
 62
  7
 10
0.943488
 20
3.623197
 30
0.000000
  0
VERTEX
  8
ROLL-SHUTTER
 10
0.943488
 20
3.623197
 30
0.000000
  0
VERTEX
  8
ROLL-SHUTTER
 10
6.592308
 20
3.623197
 30
0.000000
  0
SEQEND
  8
ROLL-SHUTTER
  0
POLYLINE
  8
ROLL-SHUTTER
 66
  1
 70
  0
 62
  7
 10
0.943488
 20
3.720337
 30
0.000000
  0
VERTEX
  8
ROLL-SHUTTER
 10
0.943488
 20
3.720337
 30
0.000000
  0
VERTEX
  8
ROLL-SHUTTER
 10
6.592308
 20
3.720337
 30
0.000000
  0
SEQEND
  8
ROLL-SHUTTER
  0
POLYLINE
  8
ROLL-SHUTTER
 66
  1
 70
  0
 62
  7
 10
0.943488
 20
3.817476
 30
0.000000
  0
VERTEX
  8
ROLL-SHUTTER
 10
0.943488
 20
3.817476
 30
0.000000
  0
VERTEX
  8
ROLL-SHUTTER
 10
6.592308
 20
3.817476
 30
0.000000
  0
SEQEND
  8
ROLL-SHUTTER
  0
POLYLINE
  8
ROLL-SHUTTER
 66
  1
 70
  0
 62
  7
 10
0.943488
 20
3.914616
 30
0.000000
  0
VERTEX
  8
ROLL-SHUTTER
 10
0.943488
 20
3.914616
 30
0.000000
  0
VERTEX
  8
ROLL-SHUTTER
 10
6.592308
 20
3.914616
 30
0.000000
  0
SEQEND
  8
ROLL-SHUTTER
  0
POLYLINE
  8
ROLL-SHUTTER
 66
  1
 70
  0
 62
  7
 10
0.943488
 20
4.011756
 30
0.000000
  0
VERTEX
  8
ROLL-SHUTTER
 10
0.943488
 20
4.011756
 30
0.000000
  0
VERTEX
  8
ROLL-SHUTTER
 10
6.592308
 20
4.011756
 30
0.000000
  0
SEQEND
  8
ROLL-SHUTTER
  0
POLYLINE
  8
ROLL-SHUTTER
 66
  1
 70
  0
 62
  7
 10
0.943488
 20
4.108896
 30
0.000000
  0
VERTEX
  8
ROLL-SHUTTER
 10
0.943488
 20
4.108896
 30
0.000000
  0
VERTEX
  8
ROLL-SHUTTER
 10
6.592308
 20
4.108896
 30
0.000000
  0
SEQEND
  8
ROLL-SHUTTER
  0
POLYLINE
  8
ROLL-SHUTTER
 66
  1
 70
  0
 62
  7
 10
0.943488
 20
4.206036
 30
0.000000
  0
VERTEX
  8
ROLL-SHUTTER
 10
0.943488
 20
4.206036
 30
0.000000
  0
VERTEX
  8
ROLL-SHUTTER
 10
6.592308
 20
4.206036
 30
0.000000
  0
SEQEND
  8
ROLL-SHUTTER
  0
POLYLINE
  8
ROLL-SHUTTER
 66
  1
 70
  0
 62
  7
 10
0.943488
 20
4.303177
 30
0.000000
  0
VERTEX
  8
ROLL-SHUTTER
 10
0.943488
 20
4.303177
 30
0.000000
  0
VERTEX
  8
ROLL-SHUTTER
 10
6.592308
 20
4.303177
 30
0.000000
  0
SEQEND
  8
ROLL-SHUTTER
  0
POLYLINE
  8
ROLL-SHUTTER
 66
  1
 70
  0
 62
  7
 10
0.943488
 20
4.400318
 30
0.000000
  0
VERTEX
  8
ROLL-SHUTTER
 10
0.943488
 20
4.400318
 30
0.000000
  0
VERTEX
  8
ROLL-SHUTTER
 10
6.592308
 20
4.400318
 30
0.000000
  0
SEQEND
  8
ROLL-SHUTTER
  0
POLYLINE
  8
ROLL-SHUTTER
 66
  1
 70
  0
 62
  7
 10
0.943488
 20
4.497457
 30
0.000000
  0
VERTEX
  8
ROLL-SHUTTER
 10
0.943488
 20
4.497457
 30
0.000000
  0
VERTEX
  8
ROLL-SHUTTER
 10
6.592308
 20
4.497457
 30
0.000000
  0
SEQEND
  8
ROLL-SHUTTER
  0
POLYLINE
  8
ROLL-SHUTTER
 66
  1
 70
  0
 62
  7
 10
0.943488
 20
4.594597
 30
0.000000
  0
VERTEX
  8
ROLL-SHUTTER
 10
0.943488
 20
4.594597
 30
0.000000
  0
VERTEX
  8
ROLL-SHUTTER
 10
6.592308
 20
4.594597
 30
0.000000
  0
SEQEND
  8
ROLL-SHUTTER
  0
POLYLINE
  8
ROLL-SHUTTER
 66
  1
 70
  0
 62
  7
 10
0.943488
 20
4.691737
 30
0.000000
  0
VERTEX
  8
ROLL-SHUTTER
 10
0.943488
 20
4.691737
 30
0.000000
  0
VERTEX
  8
ROLL-SHUTTER
 10
6.592308
 20
4.691737
 30
0.000000
  0
SEQEND
  8
ROLL-SHUTTER
  0
POLYLINE
  8
ROLL-SHUTTER
 66
  1
 70
  0
 62
  7
 10
0.943488
 20
4.788877
 30
0.000000
  0
VERTEX
  8
ROLL-SHUTTER
 10
0.943488
 20
4.788877
 30
0.000000
  0
VERTEX
  8
ROLL-SHUTTER
 10
6.592308
 20
4.788877
 30
0.000000
  0
SEQEND
  8
ROLL-SHUTTER
  0
POLYLINE
  8
ROLL-SHUTTER
 66
  1
 70
  0
 62
  7
 10
0.943488
 20
4.886017
 30
0.000000
  0
VERTEX
  8
ROLL-SHUTTER
 10
0.943488
 20
4.886017
 30
0.000000
  0
VERTEX
  8
ROLL-SHUTTER
 10
6.592308
 20
4.886017
 30
0.000000
  0
SEQEND
  8
ROLL-SHUTTER
  0
POLYLINE
  8
ROLL-SHUTTER
 66
  1
 70
  0
 62
  7
 10
0.943488
 20
4.983157
 30
0.000000
  0
VERTEX
  8
ROLL-SHUTTER
 10
0.943488
 20
4.983157
 30
0.000000
  0
VERTEX
  8
ROLL-SHUTTER
 10
6.592308
 20
4.983157
 30
0.000000
  0
SEQEND
  8
ROLL-SHUTTER
  0
POLYLINE
  8
ROLL-SHUTTER
 66
  1
 70
  0
 62
  7
 10
0.943488
 20
5.080297
 30
0.000000
  0
VERTEX
  8
ROLL-SHUTTER
 10
0.943488
 20
5.080297
 30
0.000000
  0
VERTEX
  8
ROLL-SHUTTER
 10
6.592308
 20
5.080297
 30
0.000000
  0
SEQEND
  8
ROLL-SHUTTER
  0
POLYLINE
  8
ROLL-SHUTTER
 66
  1
 70
  0
 62
  7
 10
0.943488
 20
5.177438
 30
0.000000
  0
VERTEX
  8
ROLL-SHUTTER
 10
0.943488
 20
5.177438
 30
0.000000
  0
VERTEX
  8
ROLL-SHUTTER
 10
6.592308
 20
5.177438
 30
0.000000
  0
SEQEND
  8
ROLL-SHUTTER
  0
POLYLINE
  8
ROLL-SHUTTER
 66
  1
 70
  0
 62
  7
 10
0.943488
 20
5.274578
 30
0.000000
  0
VERTEX
  8
ROLL-SHUTTER
 10
0.943488
 20
5.274578
 30
0.000000
  0
VERTEX
  8
ROLL-SHUTTER
 10
6.592308
 20
5.274578
 30
0.000000
  0
SEQEND
  8
ROLL-SHUTTER
  0
POLYLINE
  8
ROLL-SHUTTER
 66
  1
 70
  0
 62
  7
 10
0.943488
 20
5.371717
 30
0.000000
  0
VERTEX
  8
ROLL-SHUTTER
 10
0.943488
 20
5.371717
 30
0.000000
  0
VERTEX
  8
ROLL-SHUTTER
 10
6.592308
 20
5.371717
 30
0.000000
  0
SEQEND
  8
ROLL-SHUTTER
  0
POLYLINE
  8
ROLL-SHUTTER
 66
  1
 70
  1
 62
  7
  0
VERTEX
  8
ROLL-SHUTTER
 10
0.813990
 20
5.371717
 30
0.000000
  0
VERTEX
  8
ROLL-SHUTTER
 10
0.943490
 20
5.371717
 30
0.000000
  0
VERTEX
  8
ROLL-SHUTTER
 10
0.943490
 20
2.351689
 30
0.000000
  0
VERTEX
  8
ROLL-SHUTTER
 10
0.813990
 20
2.351689
 30
0.000000
  0
SEQEND
  8
ROLL-SHUTTER
  0
POLYLINE
  8
ROLL-SHUTTER
 66
  1
 70
  1
 62
  7
  0
VERTEX
  8
ROLL-SHUTTER
 10
6.592474
 20
5.371717
 30
0.000000
  0
VERTEX
  8
ROLL-SHUTTER
 10
6.721974
 20
5.371717
 30
0.000000
  0
VERTEX
  8
ROLL-SHUTTER
 10
6.721974
 20
2.351988
 30
0.000000
  0
VERTEX
  8
ROLL-SHUTTER
 10
6.592474
 20
2.351988
 30
0.000000
  0
SEQEND
  8
ROLL-SHUTTER
  0
POLYLINE
  8
ROLL-SHUTTER
 66
  1
 70
  1
 62
255
  0
VERTEX
  8
ROLL-SHUTTER
 10
0.813990
 20
2.351023
 30
0.000000
  0
VERTEX
  8
ROLL-SHUTTER
 10
6.722207
 20
2.351023
 30
0.000000
  0
VERTEX
  8
ROLL-SHUTTER
 10
6.722207
 20
0.018075
 30
0.000000
  0
VERTEX
  8
ROLL-SHUTTER
 10
0.813990
 20
0.018075
 30
0.000000
  0
SEQEND
  8
ROLL-SHUTTER
  0
POLYLINE
  8
ROLL-SHUTTER
 66
  1
 70
  0
 62
  7
 10
5.761940
 20
6.940196
 30
0.000000
  0
VERTEX
  8
ROLL-SHUTTER
 10
5.761940
 20
6.940196
 30
0.000000
  0
VERTEX
  8
ROLL-SHUTTER
 10
5.759534
 20
7.003731
 30
0.000000
  0
VERTEX
  8
ROLL-SHUTTER
 10
5.752323
 20
7.067113
 30
0.000000
  0
VERTEX
  8
ROLL-SHUTTER
 10
5.740324
 20
7.130189
 30
0.000000
  0
VERTEX
  8
ROLL-SHUTTER
 10
5.723565
 20
7.192808
 30
0.000000
  0
VERTEX
  8
ROLL-SHUTTER
 10
5.702088
 20
7.254817
 30
0.000000
  0
VERTEX
  8
ROLL-SHUTTER
 10
5.675943
 20
7.316069
 30
0.000000
  0
VERTEX
  8
ROLL-SHUTTER
 10
5.645195
 20
7.376416
 30
0.000000
  0
VERTEX
  8
ROLL-SHUTTER
 10
5.609916
 20
7.435711
 30
0.000000
  0
VERTEX
  8
ROLL-SHUTTER
 10
5.570193
 20
7.493813
 30
0.000000
  0
VERTEX
  8
ROLL-SHUTTER
 10
5.526119
 20
7.550581
 30
0.000000
  0
VERTEX
  8
ROLL-SHUTTER
 10
5.477803
 20
7.605879
 30
0.000000
  0
VERTEX
  8
ROLL-SHUTTER
 10
5.425360
 20
7.659573
 30
0.000000
  0
VERTEX
  8
ROLL-SHUTTER
 10
5.368916
 20
7.711534
 30
0.000000
  0
VERTEX
  8
ROLL-SHUTTER
 10
5.308608
 20
7.761637
 30
0.000000
  0
VERTEX
  8
ROLL-SHUTTER
 10
5.244581
 20
7.809761
 30
0.000000
  0
VERTEX
  8
ROLL-SHUTTER
 10
5.176989
 20
7.855789
 30
0.000000
  0
VERTEX
  8
ROLL-SHUTTER
 10
5.105994
 20
7.899613
 30
0.000000
  0
VERTEX
  8
ROLL-SHUTTER
 10
5.031769
 20
7.941124
 30
0.000000
  0
VERTEX
  8
ROLL-SHUTTER
 10
4.954492
 20
7.980225
 30
0.000000
  0
VERTEX
  8
ROLL-SHUTTER
 10
4.874348
 20
8.016820
 30
0.000000
  0
VERTEX
  8
ROLL-SHUTTER
 10
4.791531
 20
8.050821
 30
0.000000
  0
VERTEX
  8
ROLL-SHUTTER
 10
4.706241
 20
8.082147
 30
0.000000
  0
VERTEX
  8
ROLL-SHUTTER
 10
4.618683
 20
8.110722
 30
0.000000
  0
VERTEX
  8
ROLL-SHUTTER
 10
4.529067
 20
8.136477
 30
0.000000
  0
VERTEX
  8
ROLL-SHUTTER
 10
4.437611
 20
8.159349
 30
0.000000
  0
VERTEX
  8
ROLL-SHUTTER
 10
4.344533
 20
8.179285
 30
0.000000
  0
VERTEX
  8
ROLL-SHUTTER
 10
4.250059
 20
8.196236
 30
0.000000
  0
VERTEX
  8
ROLL-SHUTTER
 10
4.154416
 20
8.210161
 30
0.000000
  0
VERTEX
  8
ROLL-SHUTTER
 10
4.057834
 20
8.221026
 30
0.000000
  0
VERTEX
  8
ROLL-SHUTTER
 10
3.960546
 20
8.228805
 30
0.000000
  0
VERTEX
  8
ROLL-SHUTTER
 10
3.862787
 20
8.233481
 30
0.000000
  0
VERTEX
  8
ROLL-SHUTTER
 10
3.764792
 20
8.235041
 30
0.000000
  0
VERTEX
  8
ROLL-SHUTTER
 10
3.666796
 20
8.233481
 30
0.000000
  0
VERTEX
  8
ROLL-SHUTTER
 10
3.569037
 20
8.228805
 30
0.000000
  0
VERTEX
  8
ROLL-SHUTTER
 10
3.471749
 20
8.221026
 30
0.000000
  0
VERTEX
  8
ROLL-SHUTTER
 10
3.375167
 20
8.210161
 30
0.000000
  0
VERTEX
  8
ROLL-SHUTTER
 10
3.279524
 20
8.196236
 30
0.000000
  0
VERTEX
  8
ROLL-SHUTTER
 10
3.185050
 20
8.179285
 30
0.000000
  0
VERTEX
  8
ROLL-SHUTTER
 10
3.091972
 20
8.159349
 30
0.000000
  0
VERTEX
  8
ROLL-SHUTTER
 10
3.000516
 20
8.136477
 30
0.000000
  0
VERTEX
  8
ROLL-SHUTTER
 10
2.910901
 20
8.110722
 30
0.000000
  0
VERTEX
  8
ROLL-SHUTTER
 10
2.823342
 20
8.082147
 30
0.000000
  0
VERTEX
  8
ROLL-SHUTTER
 10
2.738052
 20
8.050821
 30
0.000000
  0
VERTEX
  8
ROLL-SHUTTER
 10
2.655235
 20
8.016820
 30
0.000000
  0
VERTEX
  8
ROLL-SHUTTER
 10
2.575092
 20
7.980225
 30
0.000000
  0
VERTEX
  8
ROLL-SHUTTER
 10
2.497814
 20
7.941124
 30
0.000000
  0
VERTEX
  8
ROLL-SHUTTER
 10
2.423588
 20
7.899613
 30
0.000000
  0
VERTEX
  8
ROLL-SHUTTER
 10
2.352594
 20
7.855789
 30
0.000000
  0
VERTEX
  8
ROLL-SHUTTER
 10
2.285002
 20
7.809761
 30
0.000000
  0
VERTEX
  8
ROLL-SHUTTER
 10
2.220975
 20
7.761637
 30
0.000000
  0
VERTEX
  8
ROLL-SHUTTER
 10
2.160667
 20
7.711534
 30
0.000000
  0
VERTEX
  8
ROLL-SHUTTER
 10
2.104223
 20
7.659573
 30
0.000000
  0
VERTEX
  8
ROLL-SHUTTER
 10
2.051780
 20
7.605879
 30
0.000000
  0
VERTEX
  8
ROLL-SHUTTER
 10
2.003464
 20
7.550581
 30
0.000000
  0
VERTEX
  8
ROLL-SHUTTER
 10
1.959390
 20
7.493813
 30
0.000000
  0
VERTEX
  8
ROLL-SHUTTER
 10
1.919667
 20
7.435711
 30
0.000000
  0
VERTEX
  8
ROLL-SHUTTER
 10
1.884388
 20
7.376416
 30
0.000000
  0
VERTEX
  8
ROLL-SHUTTER
 10
1.853639
 20
7.316069
 30
0.000000
  0
VERTEX
  8
ROLL-SHUTTER
 10
1.827495
 20
7.254817
 30
0.000000
  0
VERTEX
  8
ROLL-SHUTTER
 10
1.806018
 20
7.192808
 30
0.000000
  0
VERTEX
  8
ROLL-SHUTTER
 10
1.789259
 20
7.130189
 30
0.000000
  0
VERTEX
  8
ROLL-SHUTTER
 10
1.777260
 20
7.067113
 30
0.000000
  0
VERTEX
  8
ROLL-SHUTTER
 10
1.770049
 20
7.003731
 30
0.000000
  0
VERTEX
  8
ROLL-SHUTTER
 10
1.767643
 20
6.940196
 30
0.000000
  0
VERTEX
  8
ROLL-SHUTTER
 10
1.770049
 20
6.876661
 30
0.000000
  0
VERTEX
  8
ROLL-SHUTTER
 10
1.777260
 20
6.813279
 30
0.000000
  0
VERTEX
  8
ROLL-SHUTTER
 10
1.789259
 20
6.750203
 30
0.000000
  0
VERTEX
  8
ROLL-SHUTTER
 10
1.806018
 20
6.687584
 30
0.000000
  0
VERTEX
  8
ROLL-SHUTTER
 10
1.827495
 20
6.625574
 30
0.000000
  0
VERTEX
  8
ROLL-SHUTTER
 10
1.853639
 20
6.564322
 30
0.000000
  0
VERTEX
  8
ROLL-SHUTTER
 10
1.884388
 20
6.503976
 30
0.000000
  0
VERTEX
  8
ROLL-SHUTTER
 10
1.919667
 20
6.444680
 30
0.000000
  0
VERTEX
  8
ROLL-SHUTTER
 10
1.959390
 20
6.386578
 30
0.000000
  0
VERTEX
  8
ROLL-SHUTTER
 10
2.003464
 20
6.329810
 30
0.000000
  0
VERTEX
  8
ROLL-SHUTTER
 10
2.051780
 20
6.274512
 30
0.000000
  0
VERTEX
  8
ROLL-SHUTTER
 10
2.104223
 20
6.220819
 30
0.000000
  0
VERTEX
  8
ROLL-SHUTTER
 10
2.160667
 20
6.168858
 30
0.000000
  0
VERTEX
  8
ROLL-SHUTTER
 10
2.220975
 20
6.118754
 30
0.000000
  0
VERTEX
  8
ROLL-SHUTTER
 10
2.285002
 20
6.070631
 30
0.000000
  0
VERTEX
  8
ROLL-SHUTTER
 10
2.352594
 20
6.024602
 30
0.000000
  0
VERTEX
  8
ROLL-SHUTTER
 10
2.423588
 20
5.980779
 30
0.000000
  0
VERTEX
  8
ROLL-SHUTTER
 10
2.497814
 20
5.939267
 30
0.000000
  0
VERTEX
  8
ROLL-SHUTTER
 10
2.575092
 20
5.900166
 30
0.000000
  0
VERTEX
  8
ROLL-SHUTTER
 10
2.655235
 20
5.863572
 30
0.000000
  0
VERTEX
  8
ROLL-SHUTTER
 10
2.738052
 20
5.829570
 30
0.000000
  0
VERTEX
  8
ROLL-SHUTTER
 10
2.823342
 20
5.798244
 30
0.000000
  0
VERTEX
  8
ROLL-SHUTTER
 10
2.910901
 20
5.769670
 30
0.000000
  0
VERTEX
  8
ROLL-SHUTTER
 10
3.000516
 20
5.743915
 30
0.000000
  0
VERTEX
  8
ROLL-SHUTTER
 10
3.091972
 20
5.721042
 30
0.000000
  0
VERTEX
  8
ROLL-SHUTTER
 10
3.185050
 20
5.701106
 30
0.000000
  0
VERTEX
  8
ROLL-SHUTTER
 10
3.279524
 20
5.684156
 30
0.000000
  0
VERTEX
  8
ROLL-SHUTTER
 10
3.375167
 20
5.670231
 30
0.000000
  0
VERTEX
  8
ROLL-SHUTTER
 10
3.471749
 20
5.659366
 30
0.000000
  0
VERTEX
  8
ROLL-SHUTTER
 10
3.569037
 20
5.651586
 30
0.000000
  0
VERTEX
  8
ROLL-SHUTTER
 10
3.666796
 20
5.646911
 30
0.000000
  0
VERTEX
  8
ROLL-SHUTTER
 10
3.764792
 20
5.645351
 30
0.000000
  0
VERTEX
  8
ROLL-SHUTTER
 10
3.862787
 20
5.646911
 30
0.000000
  0
VERTEX
  8
ROLL-SHUTTER
 10
3.960546
 20
5.651586
 30
0.000000
  0
VERTEX
  8
ROLL-SHUTTER
 10
4.057834
 20
5.659366
 30
0.000000
  0
VERTEX
  8
ROLL-SHUTTER
 10
4.154416
 20
5.670231
 30
0.000000
  0
VERTEX
  8
ROLL-SHUTTER
 10
4.250059
 20
5.684156
 30
0.000000
  0
VERTEX
  8
ROLL-SHUTTER
 10
4.344533
 20
5.701106
 30
0.000000
  0
VERTEX
  8
ROLL-SHUTTER
 10
4.437611
 20
5.721042
 30
0.000000
  0
VERTEX
  8
ROLL-SHUTTER
 10
4.529067
 20
5.743915
 30
0.000000
  0
VERTEX
  8
ROLL-SHUTTER
 10
4.618683
 20
5.769670
 30
0.000000
  0
VERTEX
  8
ROLL-SHUTTER
 10
4.706241
 20
5.798244
 30
0.000000
  0
VERTEX
  8
ROLL-SHUTTER
 10
4.791531
 20
5.829570
 30
0.000000
  0
VERTEX
  8
ROLL-SHUTTER
 10
4.874348
 20
5.863572
 30
0.000000
  0
VERTEX
  8
ROLL-SHUTTER
 10
4.954492
 20
5.900166
 30
0.000000
  0
VERTEX
  8
ROLL-SHUTTER
 10
5.031769
 20
5.939267
 30
0.000000
  0
VERTEX
  8
ROLL-SHUTTER
 10
5.105994
 20
5.980779
 30
0.000000
  0
VERTEX
  8
ROLL-SHUTTER
 10
5.176989
 20
6.024602
 30
0.000000
  0
VERTEX
  8
ROLL-SHUTTER
 10
5.244581
 20
6.070631
 30
0.000000
  0
VERTEX
  8
ROLL-SHUTTER
 10
5.308608
 20
6.118754
 30
0.000000
  0
VERTEX
  8
ROLL-SHUTTER
 10
5.368916
 20
6.168858
 30
0.000000
  0
VERTEX
  8
ROLL-SHUTTER
 10
5.425360
 20
6.220819
 30
0.000000
  0
VERTEX
  8
ROLL-SHUTTER
 10
5.477803
 20
6.274512
 30
0.000000
  0
VERTEX
  8
ROLL-SHUTTER
 10
5.526119
 20
6.329810
 30
0.000000
  0
VERTEX
  8
ROLL-SHUTTER
 10
5.570193
 20
6.386578
 30
0.000000
  0
VERTEX
  8
ROLL-SHUTTER
 10
5.609916
 20
6.444680
 30
0.000000
  0
VERTEX
  8
ROLL-SHUTTER
 10
5.645195
 20
6.503976
 30
0.000000
  0
VERTEX
  8
ROLL-SHUTTER
 10
5.675943
 20
6.564322
 30
0.000000
  0
VERTEX
  8
ROLL-SHUTTER
 10
5.702088
 20
6.625574
 30
0.000000
  0
VERTEX
  8
ROLL-SHUTTER
 10
5.723565
 20
6.687584
 30
0.000000
  0
VERTEX
  8
ROLL-SHUTTER
 10
5.740324
 20
6.750203
 30
0.000000
  0
VERTEX
  8
ROLL-SHUTTER
 10
5.752323
 20
6.813279
 30
0.000000
  0
VERTEX
  8
ROLL-SHUTTER
 10
5.759534
 20
6.876661
 30
0.000000
  0
VERTEX
  8
ROLL-SHUTTER
 10
5.761940
 20
6.940196
 30
0.000000
  0
SEQEND
  8
ROLL-SHUTTER
  0
POLYLINE
  8
ROLL-SHUTTER
 66
  1
 70
  1
 62
255
  0
VERTEX
  8
ROLL-SHUTTER
 10
2.264057
 20
7.518994
 30
0.000000
  0
VERTEX
  8
ROLL-SHUTTER
 10
4.448643
 20
7.518994
 30
0.000000
  0
VERTEX
  8
ROLL-SHUTTER
 10
4.448643
 20
6.215673
 30
0.000000
  0
VERTEX
  8
ROLL-SHUTTER
 10
2.264057
 20
6.215673
 30
0.000000
  0
SEQEND
  8
ROLL-SHUTTER
  0
POLYLINE
  8
ROLL-SHUTTER
 66
  1
 70
  0
 62
  7
 10
2.264057
 20
7.421772
 30
0.000000
  0
VERTEX
  8
ROLL-SHUTTER
 10
2.264057
 20
7.421772
 30
0.000000
  0
VERTEX
  8
ROLL-SHUTTER
 10
4.448643
 20
7.421772
 30
0.000000
  0
SEQEND
  8
ROLL-SHUTTER
  0
POLYLINE
  8
ROLL-SHUTTER
 66
  1
 70
  0
 62
  7
 10
2.264380
 20
6.899723
 30
0.000000
  0
VERTEX
  8
ROLL-SHUTTER
 10
2.264380
 20
6.899723
 30
0.000000
  0
VERTEX
  8
ROLL-SHUTTER
 10
4.448475
 20
6.899723
 30
0.000000
  0
SEQEND
  8
ROLL-SHUTTER
  0
POLYLINE
  8
ROLL-SHUTTER
 66
  1
 70
  0
 62
  7
 10
2.264405
 20
6.894163
 30
0.000000
  0
VERTEX
  8
ROLL-SHUTTER
 10
2.264405
 20
6.894163
 30
0.000000
  0
VERTEX
  8
ROLL-SHUTTER
 10
4.448500
 20
6.894163
 30
0.000000
  0
SEQEND
  8
ROLL-SHUTTER
  0
POLYLINE
  8
ROLL-SHUTTER
 66
  1
 70
  0
 62
  7
 10
2.264057
 20
6.371923
 30
0.000000
  0
VERTEX
  8
ROLL-SHUTTER
 10
2.264057
 20
6.371923
 30
0.000000
  0
VERTEX
  8
ROLL-SHUTTER
 10
4.448643
 20
6.371923
 30
0.000000
  0
SEQEND
  8
ROLL-SHUTTER
  0
POLYLINE
  8
ROLL-SHUTTER
 66
  1
 70
  0
 62
  7
 10
2.264057
 20
7.428146
 30
0.000000
  0
VERTEX
  8
ROLL-SHUTTER
 10
2.264057
 20
7.428146
 30
0.000000
  0
VERTEX
  8
ROLL-SHUTTER
 10
4.448643
 20
7.428146
 30
0.000000
  0
SEQEND
  8
ROLL-SHUTTER
  0
POLYLINE
  8
ROLL-SHUTTER
 66
  1
 70
  0
 62
  7
 10
2.264057
 20
6.365645
 30
0.000000
  0
VERTEX
  8
ROLL-SHUTTER
 10
2.264057
 20
6.365645
 30
0.000000
  0
VERTEX
  8
ROLL-SHUTTER
 10
4.448643
 20
6.365645
 30
0.000000
  0
SEQEND
  8
ROLL-SHUTTER
  0
ARC
  8
ROLL-SHUTTER
 62
  7
 10
5.480002
 20
9.053494
 30
0.000000
 40
0.254425
 50
270.000000
 51
90.000000
  0
POLYLINE
  8
ROLL-SHUTTER
 66
  1
 70
  0
 62
  7
 10
5.480002
 20
9.307920
 30
0.000000
  0
VERTEX
  8
ROLL-SHUTTER
 10
5.480002
 20
9.307920
 30
0.000000
  0
VERTEX
  8
ROLL-SHUTTER
 10
1.815081
 20
9.307920
 30
0.000000
  0
SEQEND
  8
ROLL-SHUTTER
  0
POLYLINE
  8
ROLL-SHUTTER
 66
  1
 70
  0
 62
  7
 10
1.815081
 20
9.307920
 30
0.000000
  0
VERTEX
  8
ROLL-SHUTTER
 10
1.815081
 20
9.307920
 30
0.000000
  0
VERTEX
  8
ROLL-SHUTTER
 10
1.815081
 20
8.799070
 30
0.000000
  0
SEQEND
  8
ROLL-SHUTTER
  0
POLYLINE
  8
ROLL-SHUTTER
 66
  1
 70
  0
 62
  7
 10
5.480002
 20
8.799070
 30
0.000000
  0
VERTEX
  8
ROLL-SHUTTER
 10
5.480002
 20
8.799070
 30
0.000000
  0
VERTEX
  8
ROLL-SHUTTER
 10
1.815081
 20
8.799070
 30
0.000000
  0
SEQEND
  8
ROLL-SHUTTER
  0
TEXT
  8
ROLL-SHUTTER
 62
  7
 10
3.608922
 20
9.613626
 30
0.000000
 40
0.340909
  1
MobilFlex
 72
  5
 11
5.818013
 21
9.613626
 31
0.000000
  0
POLYLINE
  8
ROLL-SHUTTER
 66
  1
 70
  1
 62
  7
  0
VERTEX
  8
ROLL-SHUTTER
 10
1.816584
 20
10.121732
 30
0.000000
  0
VERTEX
  8
ROLL-SHUTTER
 10
2.054432
 20
10.121732
 30
0.000000
  0
VERTEX
  8
ROLL-SHUTTER
 10
2.054432
 20
9.604787
 30
0.000000
  0
VERTEX
  8
ROLL-SHUTTER
 10
1.816584
 20
9.604787
 30
0.000000
  0
SEQEND
  8
ROLL-SHUTTER
  0
POLYLINE
  8
ROLL-SHUTTER
 66
  1
 70
  1
 62
  7
  0
VERTEX
  8
ROLL-SHUTTER
 10
2.129084
 20
10.121732
 30
0.000000
  0
VERTEX
  8
ROLL-SHUTTER
 10
2.366932
 20
10.121732
 30
0.000000
  0
VERTEX
  8
ROLL-SHUTTER
 10
2.366932
 20
9.604787
 30
0.000000
  0
VERTEX
  8
ROLL-SHUTTER
 10
2.129084
 20
9.604787
 30
0.000000
  0
SEQEND
  8
ROLL-SHUTTER
  0
POLYLINE
  8
ROLL-SHUTTER
 66
  1
 70
  1
 62
  7
  0
VERTEX
  8
ROLL-SHUTTER
 10
2.429432
 20
10.121732
 30
0.000000
  0
VERTEX
  8
ROLL-SHUTTER
 10
2.667279
 20
10.121732
 30
0.000000
  0
VERTEX
  8
ROLL-SHUTTER
 10
2.667279
 20
9.604787
 30
0.000000
  0
VERTEX
  8
ROLL-SHUTTER
 10
2.429432
 20
9.604787
 30
0.000000
  0
SEQEND
  8
ROLL-SHUTTER
  0
POLYLINE
  8
ROLL-SHUTTER
 66
  1
 70
  1
 62
  7
  0
VERTEX
  8
ROLL-SHUTTER
 10
2.733251
 20
10.121732
 30
0.000000
  0
VERTEX
  8
ROLL-SHUTTER
 10
2.971098
 20
10.121732
 30
0.000000
  0
VERTEX
  8
ROLL-SHUTTER
 10
2.971098
 20
9.604787
 30
0.000000
  0
VERTEX
  8
ROLL-SHUTTER
 10
2.733251
 20
9.604787
 30
0.000000
  0
SEQEND
  8
ROLL-SHUTTER
  0
POLYLINE
  8
ROLL-SHUTTER
 66
  1
 70
  1
 62
  7
  0
VERTEX
  8
ROLL-SHUTTER
 10
3.050091
 20
10.117817
 30
0.000000
  0
VERTEX
  8
ROLL-SHUTTER
 10
3.425525
 20
10.117817
 30
0.000000
  0
VERTEX
  8
ROLL-SHUTTER
 10
3.425525
 20
9.979796
 30
0.000000
  0
VERTEX
  8
ROLL-SHUTTER
 10
3.050091
 20
9.979796
 30
0.000000
  0
SEQEND
  8
ROLL-SHUTTER
  0
POLYLINE
  8
ROLL-SHUTTER
 66
  1
 70
  1
 62
  7
  0
VERTEX
  8
ROLL-SHUTTER
 10
3.049657
 20
9.890386
 30
0.000000
  0
VERTEX
  8
ROLL-SHUTTER
 10
3.357817
 20
9.890386
 30
0.000000
  0
VERTEX
  8
ROLL-SHUTTER
 10
3.357817
 20
9.756271
 30
0.000000
  0
VERTEX
  8
ROLL-SHUTTER
 10
3.049657
 20
9.756271
 30
0.000000
  0
SEQEND
  8
ROLL-SHUTTER
  0
POLYLINE
  8
ROLL-SHUTTER
 66
  1
 70
  1
 62
  7
  0
VERTEX
  8
ROLL-SHUTTER
 10
1.816584
 20
9.520160
 30
0.000000
  0
VERTEX
  8
ROLL-SHUTTER
 10
5.734987
 20
9.520160
 30
0.000000
  0
VERTEX
  8
ROLL-SHUTTER
 10
5.734987
 20
9.476758
 30
0.000000
  0
VERTEX
  8
ROLL-SHUTTER
 10
1.816584
 20
9.476758
 30
0.000000
  0
SEQEND
  8
ROLL-SHUTTER
  0
TEXT
  8
ROLL-SHUTTER
 62
  7
 10
1.990741
 20
8.931808
 30
0.000000
 40
0.190909
  1
ネ思ation Volet de comptoir
 72
  5
 11
5.418013
 21
8.931808
 31
0.000000
  0
POLYLINE
  8
ROLL-SHUTTER
 66
  1
 70
  0
 62
  7
 10
4.893754
 20
6.897252
 30
0.000000
  0
VERTEX
  8
ROLL-SHUTTER
 10
4.893754
 20
6.897252
 30
0.000000
  0
VERTEX
  8
ROLL-SHUTTER
 10
4.893754
 20
6.369475
 30
0.000000
  0
SEQEND
  8
ROLL-SHUTTER
  0
LINE
  8
ROLL-SHUTTER
 62
  7
 10
4.913039
 20
6.877967
 30
0.000000
 11
4.874468
 21
6.916537
 31
0.000000
  0
LINE
  8
ROLL-SHUTTER
 62
  7
 10
4.913039
 20
6.350191
 30
0.000000
 11
4.874468
 21
6.388760
 31
0.000000
  0
POLYLINE
  8
ROLL-SHUTTER
 66
  1
 70
  0
 62
  7
 10
4.815867
 20
6.897252
 30
0.000000
  0
VERTEX
  8
ROLL-SHUTTER
 10
4.815867
 20
6.897252
 30
0.000000
  0
VERTEX
  8
ROLL-SHUTTER
 10
4.923623
 20
6.897252
 30
0.000000
  0
SEQEND
  8
ROLL-SHUTTER
  0
POLYLINE
  8
ROLL-SHUTTER
 66
  1
 70
  0
 62
  7
 10
4.815000
 20
6.369475
 30
0.000000
  0
VERTEX
  8
ROLL-SHUTTER
 10
4.815000
 20
6.369475
 30
0.000000
  0
VERTEX
  8
ROLL-SHUTTER
 10
4.923506
 20
6.369475
 30
0.000000
  0
SEQEND
  8
ROLL-SHUTTER
  0
POLYLINE
  8
ROLL-SHUTTER
 66
  1
 70
  1
 62
  7
 10
4.651495
 20
7.515880
 30
0.000000
  0
VERTEX
  8
ROLL-SHUTTER
 10
4.651495
 20
7.515880
 30
0.000000
  0
VERTEX
  8
ROLL-SHUTTER
 10
4.645006
 20
7.511320
 30
0.000000
  0
VERTEX
  8
ROLL-SHUTTER
 10
4.638166
 20
7.522545
 30
0.000000
  0
VERTEX
  8
ROLL-SHUTTER
 10
4.633255
 20
7.515880
 30
0.000000
  0
VERTEX
  8
ROLL-SHUTTER
 10
4.631720
 20
7.506076
 30
0.000000
  0
VERTEX
  8
ROLL-SHUTTER
 10
4.628832
 20
7.498051
 30
0.000000
  0
VERTEX
  8
ROLL-SHUTTER
 10
4.623482
 20
7.487459
 30
0.000000
  0
VERTEX
  8
ROLL-SHUTTER
 10
4.615563
 20
7.477937
 30
0.000000
  0
VERTEX
  8
ROLL-SHUTTER
 10
4.606681
 20
7.469805
 30
0.000000
  0
VERTEX
  8
ROLL-SHUTTER
 10
4.593949
 20
7.461568
 30
0.000000
  0
VERTEX
  8
ROLL-SHUTTER
 10
4.591167
 20
7.458251
 30
0.000000
  0
VERTEX
  8
ROLL-SHUTTER
 10
4.590417
 20
7.453436
 30
0.000000
  0
VERTEX
  8
ROLL-SHUTTER
 10
4.591490
 20
7.449156
 30
0.000000
  0
VERTEX
  8
ROLL-SHUTTER
 10
4.597908
 20
7.438778
 30
0.000000
  0
VERTEX
  8
ROLL-SHUTTER
 10
4.598016
 20
7.434392
 30
0.000000
  0
VERTEX
  8
ROLL-SHUTTER
 10
4.594377
 20
7.427437
 30
0.000000
  0
VERTEX
  8
ROLL-SHUTTER
 10
4.582052
 20
7.427398
 30
0.000000
  0
VERTEX
  8
ROLL-SHUTTER
 10
4.576294
 20
7.425725
 30
0.000000
  0
VERTEX
  8
ROLL-SHUTTER
 10
4.570517
 20
7.422943
 30
0.000000
  0
VERTEX
  8
ROLL-SHUTTER
 10
4.565915
 20
7.419841
 30
0.000000
  0
VERTEX
  8
ROLL-SHUTTER
 10
4.561315
 20
7.415667
 30
0.000000
  0
VERTEX
  8
ROLL-SHUTTER
 10
4.557998
 20
7.411282
 30
0.000000
  0
VERTEX
  8
ROLL-SHUTTER
 10
4.555644
 20
7.406038
 30
0.000000
  0
VERTEX
  8
ROLL-SHUTTER
 10
4.553825
 20
7.400260
 30
0.000000
  0
VERTEX
  8
ROLL-SHUTTER
 10
4.553397
 20
7.393627
 30
0.000000
  0
VERTEX
  8
ROLL-SHUTTER
 10
4.554359
 20
7.386458
 30
0.000000
  0
VERTEX
  8
ROLL-SHUTTER
 10
4.555965
 20
7.380788
 30
0.000000
  0
VERTEX
  8
ROLL-SHUTTER
 10
4.558533
 20
7.375973
 30
0.000000
  0
VERTEX
  8
ROLL-SHUTTER
 10
4.562814
 20
7.375973
 30
0.000000
  0
VERTEX
  8
ROLL-SHUTTER
 10
4.569873
 20
7.387742
 30
0.000000
  0
VERTEX
  8
ROLL-SHUTTER
 10
4.569934
 20
7.391177
 30
0.000000
  0
VERTEX
  8
ROLL-SHUTTER
 10
4.569766
 20
7.394804
 30
0.000000
  0
VERTEX
  8
ROLL-SHUTTER
 10
4.570625
 20
7.399511
 30
0.000000
  0
VERTEX
  8
ROLL-SHUTTER
 10
4.572870
 20
7.404113
 30
0.000000
  0
VERTEX
  8
ROLL-SHUTTER
 10
4.576722
 20
7.407965
 30
0.000000
  0
VERTEX
  8
ROLL-SHUTTER
 10
4.580573
 20
7.410425
 30
0.000000
  0
VERTEX
  8
ROLL-SHUTTER
 10
4.585497
 20
7.411282
 30
0.000000
  0
VERTEX
  8
ROLL-SHUTTER
 10
4.590204
 20
7.411388
 30
0.000000
  0
VERTEX
  8
ROLL-SHUTTER
 10
4.595020
 20
7.410532
 30
0.000000
  0
VERTEX
  8
ROLL-SHUTTER
 10
4.598123
 20
7.408499
 30
0.000000
  0
VERTEX
  8
ROLL-SHUTTER
 10
4.601868
 20
7.403684
 30
0.000000
  0
VERTEX
  8
ROLL-SHUTTER
 10
4.604221
 20
7.399298
 30
0.000000
  0
VERTEX
  8
ROLL-SHUTTER
 10
4.604864
 20
7.393306
 30
0.000000
  0
VERTEX
  8
ROLL-SHUTTER
 10
4.603471
 20
7.387742
 30
0.000000
  0
VERTEX
  8
ROLL-SHUTTER
 10
4.600904
 20
7.382714
 30
0.000000
  0
VERTEX
  8
ROLL-SHUTTER
 10
4.597373
 20
7.379183
 30
0.000000
  0
VERTEX
  8
ROLL-SHUTTER
 10
4.592773
 20
7.376187
 30
0.000000
  0
VERTEX
  8
ROLL-SHUTTER
 10
4.585280
 20
7.362921
 30
0.000000
  0
VERTEX
  8
ROLL-SHUTTER
 10
4.588493
 20
7.360886
 30
0.000000
  0
VERTEX
  8
ROLL-SHUTTER
 10
4.592666
 20
7.360994
 30
0.000000
  0
VERTEX
  8
ROLL-SHUTTER
 10
4.597695
 20
7.361956
 30
0.000000
  0
VERTEX
  8
ROLL-SHUTTER
 10
4.602937
 20
7.364738
 30
0.000000
  0
VERTEX
  8
ROLL-SHUTTER
 10
4.608929
 20
7.368804
 30
0.000000
  0
VERTEX
  8
ROLL-SHUTTER
 10
4.614172
 20
7.373833
 30
0.000000
  0
VERTEX
  8
ROLL-SHUTTER
 10
4.618130
 20
7.379076
 30
0.000000
  0
VERTEX
  8
ROLL-SHUTTER
 10
4.620378
 20
7.386137
 30
0.000000
  0
VERTEX
  8
ROLL-SHUTTER
 10
4.621152
 20
7.395211
 30
0.000000
  0
VERTEX
  8
ROLL-SHUTTER
 10
4.620486
 20
7.400796
 30
0.000000
  0
VERTEX
  8
ROLL-SHUTTER
 10
4.617060
 20
7.410425
 30
0.000000
  0
VERTEX
  8
ROLL-SHUTTER
 10
4.613423
 20
7.414919
 30
0.000000
  0
VERTEX
  8
ROLL-SHUTTER
 10
4.612779
 20
7.417165
 30
0.000000
  0
VERTEX
  8
ROLL-SHUTTER
 10
4.613423
 20
7.419841
 30
0.000000
  0
VERTEX
  8
ROLL-SHUTTER
 10
4.618558
 20
7.427330
 30
0.000000
  0
VERTEX
  8
ROLL-SHUTTER
 10
4.633004
 20
7.427544
 30
0.000000
  0
VERTEX
  8
ROLL-SHUTTER
 10
4.637390
 20
7.429256
 30
0.000000
  0
VERTEX
  8
ROLL-SHUTTER
 10
4.640920
 20
7.433643
 30
0.000000
  0
VERTEX
  8
ROLL-SHUTTER
 10
4.642313
 20
7.438243
 30
0.000000
  0
VERTEX
  8
ROLL-SHUTTER
 10
4.645796
 20
7.465719
 30
0.000000
  0
VERTEX
  8
ROLL-SHUTTER
 10
4.648776
 20
7.490360
 30
0.000000
  0
SEQEND
  8
ROLL-SHUTTER
  0
POLYLINE
  8
ROLL-SHUTTER
 66
  1
 70
  1
 62
  7
 10
4.569722
 20
6.848514
 30
0.000000
  0
VERTEX
  8
ROLL-SHUTTER
 10
4.569722
 20
6.848514
 30
0.000000
  0
VERTEX
  8
ROLL-SHUTTER
 10
4.565441
 20
6.848514
 30
0.000000
  0
VERTEX
  8
ROLL-SHUTTER
 10
4.562874
 20
6.853328
 30
0.000000
  0
VERTEX
  8
ROLL-SHUTTER
 10
4.561268
 20
6.858999
 30
0.000000
  0
VERTEX
  8
ROLL-SHUTTER
 10
4.560306
 20
6.866168
 30
0.000000
  0
VERTEX
  8
ROLL-SHUTTER
 10
4.560733
 20
6.872801
 30
0.000000
  0
VERTEX
  8
ROLL-SHUTTER
 10
4.562554
 20
6.878578
 30
0.000000
  0
VERTEX
  8
ROLL-SHUTTER
 10
4.564906
 20
6.883822
 30
0.000000
  0
VERTEX
  8
ROLL-SHUTTER
 10
4.568223
 20
6.888207
 30
0.000000
  0
VERTEX
  8
ROLL-SHUTTER
 10
4.572825
 20
6.892381
 30
0.000000
  0
VERTEX
  8
ROLL-SHUTTER
 10
4.577426
 20
6.895483
 30
0.000000
  0
VERTEX
  8
ROLL-SHUTTER
 10
4.583205
 20
6.898265
 30
0.000000
  0
VERTEX
  8
ROLL-SHUTTER
 10
4.588875
 20
6.899764
 30
0.000000
  0
VERTEX
  8
ROLL-SHUTTER
 10
4.594224
 20
6.900084
 30
0.000000
  0
VERTEX
  8
ROLL-SHUTTER
 10
4.601286
 20
6.899977
 30
0.000000
  0
VERTEX
  8
ROLL-SHUTTER
 10
4.604924
 20
6.906932
 30
0.000000
  0
VERTEX
  8
ROLL-SHUTTER
 10
4.604818
 20
6.911319
 30
0.000000
  0
VERTEX
  8
ROLL-SHUTTER
 10
4.602464
 20
6.915491
 30
0.000000
  0
VERTEX
  8
ROLL-SHUTTER
 10
4.598399
 20
6.921697
 30
0.000000
  0
VERTEX
  8
ROLL-SHUTTER
 10
4.597327
 20
6.925977
 30
0.000000
  0
VERTEX
  8
ROLL-SHUTTER
 10
4.598077
 20
6.930792
 30
0.000000
  0
VERTEX
  8
ROLL-SHUTTER
 10
4.600859
 20
6.934109
 30
0.000000
  0
VERTEX
  8
ROLL-SHUTTER
 10
4.613590
 20
6.942347
 30
0.000000
  0
VERTEX
  8
ROLL-SHUTTER
 10
4.622472
 20
6.950479
 30
0.000000
  0
VERTEX
  8
ROLL-SHUTTER
 10
4.630392
 20
6.960001
 30
0.000000
  0
VERTEX
  8
ROLL-SHUTTER
 10
4.635742
 20
6.970593
 30
0.000000
  0
VERTEX
  8
ROLL-SHUTTER
 10
4.638629
 20
6.978618
 30
0.000000
  0
VERTEX
  8
ROLL-SHUTTER
 10
4.640554
 20
6.990066
 30
0.000000
  0
VERTEX
  8
ROLL-SHUTTER
 10
4.643979
 20
7.029975
 30
0.000000
  0
VERTEX
  8
ROLL-SHUTTER
 10
4.646440
 20
7.064107
 30
0.000000
  0
VERTEX
  8
ROLL-SHUTTER
 10
4.647723
 20
7.103801
 30
0.000000
  0
VERTEX
  8
ROLL-SHUTTER
 10
4.648045
 20
7.158260
 30
0.000000
  0
VERTEX
  8
ROLL-SHUTTER
 10
4.647083
 20
7.211223
 30
0.000000
  0
VERTEX
  8
ROLL-SHUTTER
 10
4.644942
 20
7.250705
 30
0.000000
  0
VERTEX
  8
ROLL-SHUTTER
 10
4.642587
 20
7.277132
 30
0.000000
  0
VERTEX
  8
ROLL-SHUTTER
 10
4.639806
 20
7.292217
 30
0.000000
  0
VERTEX
  8
ROLL-SHUTTER
 10
4.636489
 20
7.301847
 30
0.000000
  0
VERTEX
  8
ROLL-SHUTTER
 10
4.631673
 20
7.311370
 30
0.000000
  0
VERTEX
  8
ROLL-SHUTTER
 10
4.625147
 20
7.320678
 30
0.000000
  0
VERTEX
  8
ROLL-SHUTTER
 10
4.615303
 20
7.329130
 30
0.000000
  0
VERTEX
  8
ROLL-SHUTTER
 10
4.605460
 20
7.335977
 30
0.000000
  0
VERTEX
  8
ROLL-SHUTTER
 10
4.595829
 20
7.340471
 30
0.000000
  0
VERTEX
  8
ROLL-SHUTTER
 10
4.584167
 20
7.342826
 30
0.000000
  0
VERTEX
  8
ROLL-SHUTTER
 10
4.573252
 20
7.344537
 30
0.000000
  0
VERTEX
  8
ROLL-SHUTTER
 10
4.564157
 20
7.347426
 30
0.000000
  0
VERTEX
  8
ROLL-SHUTTER
 10
4.557630
 20
7.351171
 30
0.000000
  0
VERTEX
  8
ROLL-SHUTTER
 10
4.550997
 20
7.356092
 30
0.000000
  0
VERTEX
  8
ROLL-SHUTTER
 10
4.544577
 20
7.361657
 30
0.000000
  0
VERTEX
  8
ROLL-SHUTTER
 10
4.540191
 20
7.368291
 30
0.000000
  0
VERTEX
  8
ROLL-SHUTTER
 10
4.536447
 20
7.375459
 30
0.000000
  0
VERTEX
  8
ROLL-SHUTTER
 10
4.533023
 20
7.384125
 30
0.000000
  0
VERTEX
  8
ROLL-SHUTTER
 10
4.530776
 20
7.393113
 30
0.000000
  0
VERTEX
  8
ROLL-SHUTTER
 10
4.529064
 20
7.403063
 30
0.000000
  0
VERTEX
  8
ROLL-SHUTTER
 10
4.528420
 20
7.409269
 30
0.000000
  0
VERTEX
  8
ROLL-SHUTTER
 10
4.528849
 20
7.411622
 30
0.000000
  0
VERTEX
  8
ROLL-SHUTTER
 10
4.534627
 20
7.417186
 30
0.000000
  0
VERTEX
  8
ROLL-SHUTTER
 10
4.559771
 20
7.418256
 30
0.000000
  0
VERTEX
  8
ROLL-SHUTTER
 10
4.559879
 20
7.414619
 30
0.000000
  0
VERTEX
  8
ROLL-SHUTTER
 10
4.555598
 20
7.408734
 30
0.000000
  0
VERTEX
  8
ROLL-SHUTTER
 10
4.552923
 20
7.401993
 30
0.000000
  0
VERTEX
  8
ROLL-SHUTTER
 10
4.552710
 20
7.393434
 30
0.000000
  0
VERTEX
  8
ROLL-SHUTTER
 10
4.553137
 20
7.386800
 30
0.000000
  0
VERTEX
  8
ROLL-SHUTTER
 10
4.556775
 20
7.378242
 30
0.000000
  0
VERTEX
  8
ROLL-SHUTTER
 10
4.561376
 20
7.371072
 30
0.000000
  0
VERTEX
  8
ROLL-SHUTTER
 10
4.566938
 20
7.365829
 30
0.000000
  0
VERTEX
  8
ROLL-SHUTTER
 10
4.574965
 20
7.361549
 30
0.000000
  0
VERTEX
  8
ROLL-SHUTTER
 10
4.581812
 20
7.359730
 30
0.000000
  0
VERTEX
  8
ROLL-SHUTTER
 10
4.588447
 20
7.358875
 30
0.000000
  0
VERTEX
  8
ROLL-SHUTTER
 10
4.596686
 20
7.359944
 30
0.000000
  0
VERTEX
  8
ROLL-SHUTTER
 10
4.603640
 20
7.362512
 30
0.000000
  0
VERTEX
  8
ROLL-SHUTTER
 10
4.610169
 20
7.366685
 30
0.000000
  0
VERTEX
  8
ROLL-SHUTTER
 10
4.615623
 20
7.372463
 30
0.000000
  0
VERTEX
  8
ROLL-SHUTTER
 10
4.619584
 20
7.378561
 30
0.000000
  0
VERTEX
  8
ROLL-SHUTTER
 10
4.623007
 20
7.386479
 30
0.000000
  0
VERTEX
  8
ROLL-SHUTTER
 10
4.623649
 20
7.394182
 30
0.000000
  0
VERTEX
  8
ROLL-SHUTTER
 10
4.623007
 20
7.400816
 30
0.000000
  0
VERTEX
  8
ROLL-SHUTTER
 10
4.621294
 20
7.407021
 30
0.000000
  0
VERTEX
  8
ROLL-SHUTTER
 10
4.617764
 20
7.413014
 30
0.000000
  0
VERTEX
  8
ROLL-SHUTTER
 10
4.615411
 20
7.416652
 30
0.000000
  0
VERTEX
  8
ROLL-SHUTTER
 10
4.615411
 20
7.419325
 30
0.000000
  0
VERTEX
  8
ROLL-SHUTTER
 10
4.618086
 20
7.421787
 30
0.000000
  0
VERTEX
  8
ROLL-SHUTTER
 10
4.636062
 20
7.421573
 30
0.000000
  0
VERTEX
  8
ROLL-SHUTTER
 10
4.639592
 20
7.418577
 30
0.000000
  0
VERTEX
  8
ROLL-SHUTTER
 10
4.642587
 20
7.414083
 30
0.000000
  0
VERTEX
  8
ROLL-SHUTTER
 10
4.644191
 20
7.405952
 30
0.000000
  0
VERTEX
  8
ROLL-SHUTTER
 10
4.649435
 20
7.372783
 30
0.000000
  0
VERTEX
  8
ROLL-SHUTTER
 10
4.655104
 20
7.324744
 30
0.000000
  0
VERTEX
  8
ROLL-SHUTTER
 10
4.660240
 20
7.277453
 30
0.000000
  0
VERTEX
  8
ROLL-SHUTTER
 10
4.664200
 20
7.227486
 30
0.000000
  0
VERTEX
  8
ROLL-SHUTTER
 10
4.665591
 20
7.190894
 30
0.000000
  0
VERTEX
  8
ROLL-SHUTTER
 10
4.666340
 20
7.158154
 30
0.000000
  0
VERTEX
  8
ROLL-SHUTTER
 10
4.665376
 20
7.079727
 30
0.000000
  0
VERTEX
  8
ROLL-SHUTTER
 10
4.663238
 20
7.042494
 30
0.000000
  0
VERTEX
  8
ROLL-SHUTTER
 10
4.659493
 20
6.999802
 30
0.000000
  0
VERTEX
  8
ROLL-SHUTTER
 10
4.655320
 20
6.959252
 30
0.000000
  0
VERTEX
  8
ROLL-SHUTTER
 10
4.649222
 20
6.910784
 30
0.000000
  0
VERTEX
  8
ROLL-SHUTTER
 10
4.647831
 20
6.906182
 30
0.000000
  0
VERTEX
  8
ROLL-SHUTTER
 10
4.644299
 20
6.901796
 30
0.000000
  0
VERTEX
  8
ROLL-SHUTTER
 10
4.639914
 20
6.900084
 30
0.000000
  0
VERTEX
  8
ROLL-SHUTTER
 10
4.625467
 20
6.899871
 30
0.000000
  0
VERTEX
  8
ROLL-SHUTTER
 10
4.620332
 20
6.892381
 30
0.000000
  0
VERTEX
  8
ROLL-SHUTTER
 10
4.619689
 20
6.889706
 30
0.000000
  0
VERTEX
  8
ROLL-SHUTTER
 10
4.620332
 20
6.887459
 30
0.000000
  0
VERTEX
  8
ROLL-SHUTTER
 10
4.623970
 20
6.882967
 30
0.000000
  0
VERTEX
  8
ROLL-SHUTTER
 10
4.625790
 20
6.878472
 30
0.000000
  0
VERTEX
  8
ROLL-SHUTTER
 10
4.627396
 20
6.873336
 30
0.000000
  0
VERTEX
  8
ROLL-SHUTTER
 10
4.627822
 20
6.866487
 30
0.000000
  0
VERTEX
  8
ROLL-SHUTTER
 10
4.627288
 20
6.858678
 30
0.000000
  0
VERTEX
  8
ROLL-SHUTTER
 10
4.625041
 20
6.851616
 30
0.000000
  0
VERTEX
  8
ROLL-SHUTTER
 10
4.621082
 20
6.846373
 30
0.000000
  0
VERTEX
  8
ROLL-SHUTTER
 10
4.615838
 20
6.841345
 30
0.000000
  0
VERTEX
  8
ROLL-SHUTTER
 10
4.609845
 20
6.837279
 30
0.000000
  0
VERTEX
  8
ROLL-SHUTTER
 10
4.604604
 20
6.834497
 30
0.000000
  0
VERTEX
  8
ROLL-SHUTTER
 10
4.599574
 20
6.833535
 30
0.000000
  0
VERTEX
  8
ROLL-SHUTTER
 10
4.595401
 20
6.833428
 30
0.000000
  0
VERTEX
  8
ROLL-SHUTTER
 10
4.592191
 20
6.835461
 30
0.000000
  0
VERTEX
  8
ROLL-SHUTTER
 10
4.599682
 20
6.848727
 30
0.000000
  0
VERTEX
  8
ROLL-SHUTTER
 10
4.604282
 20
6.851723
 30
0.000000
  0
VERTEX
  8
ROLL-SHUTTER
 10
4.607813
 20
6.855254
 30
0.000000
  0
VERTEX
  8
ROLL-SHUTTER
 10
4.610381
 20
6.860283
 30
0.000000
  0
VERTEX
  8
ROLL-SHUTTER
 10
4.611773
 20
6.865846
 30
0.000000
  0
VERTEX
  8
ROLL-SHUTTER
 10
4.611131
 20
6.871838
 30
0.000000
  0
VERTEX
  8
ROLL-SHUTTER
 10
4.608778
 20
6.876224
 30
0.000000
  0
VERTEX
  8
ROLL-SHUTTER
 10
4.605032
 20
6.881040
 30
0.000000
  0
VERTEX
  8
ROLL-SHUTTER
 10
4.601929
 20
6.883073
 30
0.000000
  0
VERTEX
  8
ROLL-SHUTTER
 10
4.597114
 20
6.883928
 30
0.000000
  0
VERTEX
  8
ROLL-SHUTTER
 10
4.592405
 20
6.883822
 30
0.000000
  0
VERTEX
  8
ROLL-SHUTTER
 10
4.587483
 20
6.882967
 30
0.000000
  0
VERTEX
  8
ROLL-SHUTTER
 10
4.583632
 20
6.880504
 30
0.000000
  0
VERTEX
  8
ROLL-SHUTTER
 10
4.579778
 20
6.876652
 30
0.000000
  0
VERTEX
  8
ROLL-SHUTTER
 10
4.577533
 20
6.872051
 30
0.000000
  0
VERTEX
  8
ROLL-SHUTTER
 10
4.576675
 20
6.867344
 30
0.000000
  0
VERTEX
  8
ROLL-SHUTTER
 10
4.576782
 20
6.862957
 30
0.000000
  0
VERTEX
  8
ROLL-SHUTTER
 10
4.576782
 20
6.860283
 30
0.000000
  0
SEQEND
  8
ROLL-SHUTTER
  0
POLYLINE
  8
ROLL-SHUTTER
 66
  1
 70
  1
 62
  7
 10
4.572074
 20
6.362971
 30
0.000000
  0
VERTEX
  8
ROLL-SHUTTER
 10
4.572074
 20
6.362971
 30
0.000000
  0
VERTEX
  8
ROLL-SHUTTER
 10
4.546929
 20
6.361901
 30
0.000000
  0
VERTEX
  8
ROLL-SHUTTER
 10
4.541152
 20
6.356338
 30
0.000000
  0
VERTEX
  8
ROLL-SHUTTER
 10
4.540723
 20
6.353984
 30
0.000000
  0
VERTEX
  8
ROLL-SHUTTER
 10
4.541366
 20
6.347779
 30
0.000000
  0
VERTEX
  8
ROLL-SHUTTER
 10
4.543079
 20
6.337828
 30
0.000000
  0
VERTEX
  8
ROLL-SHUTTER
 10
4.545326
 20
6.328840
 30
0.000000
  0
VERTEX
  8
ROLL-SHUTTER
 10
4.548749
 20
6.320174
 30
0.000000
  0
VERTEX
  8
ROLL-SHUTTER
 10
4.552494
 20
6.313005
 30
0.000000
  0
VERTEX
  8
ROLL-SHUTTER
 10
4.556881
 20
6.306371
 30
0.000000
  0
VERTEX
  8
ROLL-SHUTTER
 10
4.563300
 20
6.300808
 30
0.000000
  0
VERTEX
  8
ROLL-SHUTTER
 10
4.569932
 20
6.295886
 30
0.000000
  0
VERTEX
  8
ROLL-SHUTTER
 10
4.576460
 20
6.292142
 30
0.000000
  0
VERTEX
  8
ROLL-SHUTTER
 10
4.585557
 20
6.289253
 30
0.000000
  0
VERTEX
  8
ROLL-SHUTTER
 10
4.596471
 20
6.287541
 30
0.000000
  0
VERTEX
  8
ROLL-SHUTTER
 10
4.608132
 20
6.285187
 30
0.000000
  0
VERTEX
  8
ROLL-SHUTTER
 10
4.617763
 20
6.280693
 30
0.000000
  0
VERTEX
  8
ROLL-SHUTTER
 10
4.627606
 20
6.273845
 30
0.000000
  0
VERTEX
  8
ROLL-SHUTTER
 10
4.637451
 20
6.265393
 30
0.000000
  0
VERTEX
  8
ROLL-SHUTTER
 10
4.643976
 20
6.256085
 30
0.000000
  0
VERTEX
  8
ROLL-SHUTTER
 10
4.648793
 20
6.246562
 30
0.000000
  0
VERTEX
  8
ROLL-SHUTTER
 10
4.652109
 20
6.236932
 30
0.000000
  0
VERTEX
  8
ROLL-SHUTTER
 10
4.654889
 20
6.221847
 30
0.000000
  0
VERTEX
  8
ROLL-SHUTTER
 10
4.655448
 20
6.215872
 30
0.000000
  0
VERTEX
  8
ROLL-SHUTTER
 10
4.661586
 20
6.220608
 30
0.000000
  0
VERTEX
  8
ROLL-SHUTTER
 10
4.670180
 20
6.209909
 30
0.000000
  0
VERTEX
  8
ROLL-SHUTTER
 10
4.672812
 20
6.215872
 30
0.000000
  0
VERTEX
  8
ROLL-SHUTTER
 10
4.672543
 20
6.222168
 30
0.000000
  0
VERTEX
  8
ROLL-SHUTTER
 10
4.667408
 20
6.269458
 30
0.000000
  0
VERTEX
  8
ROLL-SHUTTER
 10
4.661737
 20
6.317499
 30
0.000000
  0
VERTEX
  8
ROLL-SHUTTER
 10
4.656494
 20
6.350668
 30
0.000000
  0
VERTEX
  8
ROLL-SHUTTER
 10
4.654889
 20
6.358798
 30
0.000000
  0
VERTEX
  8
ROLL-SHUTTER
 10
4.651895
 20
6.363291
 30
0.000000
  0
VERTEX
  8
ROLL-SHUTTER
 10
4.648363
 20
6.366289
 30
0.000000
  0
VERTEX
  8
ROLL-SHUTTER
 10
4.630390
 20
6.366502
 30
0.000000
  0
VERTEX
  8
ROLL-SHUTTER
 10
4.627714
 20
6.364040
 30
0.000000
  0
VERTEX
  8
ROLL-SHUTTER
 10
4.627714
 20
6.361367
 30
0.000000
  0
VERTEX
  8
ROLL-SHUTTER
 10
4.630067
 20
6.357729
 30
0.000000
  0
VERTEX
  8
ROLL-SHUTTER
 10
4.633598
 20
6.351737
 30
0.000000
  0
VERTEX
  8
ROLL-SHUTTER
 10
4.635311
 20
6.345531
 30
0.000000
  0
VERTEX
  8
ROLL-SHUTTER
 10
4.635953
 20
6.338897
 30
0.000000
  0
VERTEX
  8
ROLL-SHUTTER
 10
4.635311
 20
6.331195
 30
0.000000
  0
VERTEX
  8
ROLL-SHUTTER
 10
4.631887
 20
6.323277
 30
0.000000
  0
VERTEX
  8
ROLL-SHUTTER
 10
4.627926
 20
6.317178
 30
0.000000
  0
VERTEX
  8
ROLL-SHUTTER
 10
4.622472
 20
6.311400
 30
0.000000
  0
VERTEX
  8
ROLL-SHUTTER
 10
4.615943
 20
6.307228
 30
0.000000
  0
VERTEX
  8
ROLL-SHUTTER
 10
4.608989
 20
6.304660
 30
0.000000
  0
VERTEX
  8
ROLL-SHUTTER
 10
4.600751
 20
6.303589
 30
0.000000
  0
VERTEX
  8
ROLL-SHUTTER
 10
4.594115
 20
6.304446
 30
0.000000
  0
VERTEX
  8
ROLL-SHUTTER
 10
4.587268
 20
6.306264
 30
0.000000
  0
VERTEX
  8
ROLL-SHUTTER
 10
4.578271
 20
6.311111
 30
0.000000
  0
VERTEX
  8
ROLL-SHUTTER
 10
4.573678
 20
6.315787
 30
0.000000
  0
VERTEX
  8
ROLL-SHUTTER
 10
4.569078
 20
6.322956
 30
0.000000
  0
VERTEX
  8
ROLL-SHUTTER
 10
4.565441
 20
6.331515
 30
0.000000
  0
VERTEX
  8
ROLL-SHUTTER
 10
4.565013
 20
6.338149
 30
0.000000
  0
VERTEX
  8
ROLL-SHUTTER
 10
4.565226
 20
6.346709
 30
0.000000
  0
VERTEX
  8
ROLL-SHUTTER
 10
4.567901
 20
6.353449
 30
0.000000
  0
VERTEX
  8
ROLL-SHUTTER
 10
4.572182
 20
6.359334
 30
0.000000
  0
SEQEND
  8
ROLL-SHUTTER
  0
POLYLINE
  8
ROLL-SHUTTER
 66
  1
 70
  1
 62
  7
 10
4.575741
 20
6.321145
 30
0.000000
  0
VERTEX
  8
ROLL-SHUTTER
 10
4.575741
 20
6.321145
 30
0.000000
  0
VERTEX
  8
ROLL-SHUTTER
 10
4.571461
 20
6.321145
 30
0.000000
  0
VERTEX
  8
ROLL-SHUTTER
 10
4.568892
 20
6.325959
 30
0.000000
  0
VERTEX
  8
ROLL-SHUTTER
 10
4.567288
 20
6.331631
 30
0.000000
  0
VERTEX
  8
ROLL-SHUTTER
 10
4.566326
 20
6.338799
 30
0.000000
  0
VERTEX
  8
ROLL-SHUTTER
 10
4.566753
 20
6.345432
 30
0.000000
  0
VERTEX
  8
ROLL-SHUTTER
 10
4.568573
 20
6.351211
 30
0.000000
  0
VERTEX
  8
ROLL-SHUTTER
 10
4.570925
 20
6.356454
 30
0.000000
  0
VERTEX
  8
ROLL-SHUTTER
 10
4.574243
 20
6.360840
 30
0.000000
  0
VERTEX
  8
ROLL-SHUTTER
 10
4.578843
 20
6.365012
 30
0.000000
  0
VERTEX
  8
ROLL-SHUTTER
 10
4.583446
 20
6.368115
 30
0.000000
  0
VERTEX
  8
ROLL-SHUTTER
 10
4.589223
 20
6.370897
 30
0.000000
  0
VERTEX
  8
ROLL-SHUTTER
 10
4.594894
 20
6.372395
 30
0.000000
  0
VERTEX
  8
ROLL-SHUTTER
 10
4.600242
 20
6.372717
 30
0.000000
  0
VERTEX
  8
ROLL-SHUTTER
 10
4.607306
 20
6.372609
 30
0.000000
  0
VERTEX
  8
ROLL-SHUTTER
 10
4.610944
 20
6.379564
 30
0.000000
  0
VERTEX
  8
ROLL-SHUTTER
 10
4.610836
 20
6.383951
 30
0.000000
  0
VERTEX
  8
ROLL-SHUTTER
 10
4.608484
 20
6.388123
 30
0.000000
  0
VERTEX
  8
ROLL-SHUTTER
 10
4.604418
 20
6.394329
 30
0.000000
  0
VERTEX
  8
ROLL-SHUTTER
 10
4.603346
 20
6.398608
 30
0.000000
  0
VERTEX
  8
ROLL-SHUTTER
 10
4.604096
 20
6.403424
 30
0.000000
  0
VERTEX
  8
ROLL-SHUTTER
 10
4.606878
 20
6.406740
 30
0.000000
  0
VERTEX
  8
ROLL-SHUTTER
 10
4.619610
 20
6.414978
 30
0.000000
  0
VERTEX
  8
ROLL-SHUTTER
 10
4.628493
 20
6.423111
 30
0.000000
  0
VERTEX
  8
ROLL-SHUTTER
 10
4.636411
 20
6.432633
 30
0.000000
  0
VERTEX
  8
ROLL-SHUTTER
 10
4.641761
 20
6.443225
 30
0.000000
  0
VERTEX
  8
ROLL-SHUTTER
 10
4.644649
 20
6.451250
 30
0.000000
  0
VERTEX
  8
ROLL-SHUTTER
 10
4.646574
 20
6.462698
 30
0.000000
  0
VERTEX
  8
ROLL-SHUTTER
 10
4.649998
 20
6.502607
 30
0.000000
  0
VERTEX
  8
ROLL-SHUTTER
 10
4.652459
 20
6.536739
 30
0.000000
  0
VERTEX
  8
ROLL-SHUTTER
 10
4.653742
 20
6.576434
 30
0.000000
  0
VERTEX
  8
ROLL-SHUTTER
 10
4.654065
 20
6.630893
 30
0.000000
  0
VERTEX
  8
ROLL-SHUTTER
 10
4.653101
 20
6.683855
 30
0.000000
  0
VERTEX
  8
ROLL-SHUTTER
 10
4.650961
 20
6.723337
 30
0.000000
  0
VERTEX
  8
ROLL-SHUTTER
 10
4.648606
 20
6.749764
 30
0.000000
  0
VERTEX
  8
ROLL-SHUTTER
 10
4.645827
 20
6.764849
 30
0.000000
  0
VERTEX
  8
ROLL-SHUTTER
 10
4.642508
 20
6.774479
 30
0.000000
  0
VERTEX
  8
ROLL-SHUTTER
 10
4.637693
 20
6.784002
 30
0.000000
  0
VERTEX
  8
ROLL-SHUTTER
 10
4.631168
 20
6.793309
 30
0.000000
  0
VERTEX
  8
ROLL-SHUTTER
 10
4.621323
 20
6.801762
 30
0.000000
  0
VERTEX
  8
ROLL-SHUTTER
 10
4.611479
 20
6.808610
 30
0.000000
  0
VERTEX
  8
ROLL-SHUTTER
 10
4.601849
 20
6.813104
 30
0.000000
  0
VERTEX
  8
ROLL-SHUTTER
 10
4.590186
 20
6.815459
 30
0.000000
  0
VERTEX
  8
ROLL-SHUTTER
 10
4.579272
 20
6.817169
 30
0.000000
  0
VERTEX
  8
ROLL-SHUTTER
 10
4.570176
 20
6.820058
 30
0.000000
  0
VERTEX
  8
ROLL-SHUTTER
 10
4.563649
 20
6.823803
 30
0.000000
  0
VERTEX
  8
ROLL-SHUTTER
 10
4.557017
 20
6.828724
 30
0.000000
  0
VERTEX
  8
ROLL-SHUTTER
 10
4.550597
 20
6.834288
 30
0.000000
  0
VERTEX
  8
ROLL-SHUTTER
 10
4.546211
 20
6.840922
 30
0.000000
  0
VERTEX
  8
ROLL-SHUTTER
 10
4.542466
 20
6.848091
 30
0.000000
  0
VERTEX
  8
ROLL-SHUTTER
 10
4.539042
 20
6.856757
 30
0.000000
  0
VERTEX
  8
ROLL-SHUTTER
 10
4.536796
 20
6.865745
 30
0.000000
  0
VERTEX
  8
ROLL-SHUTTER
 10
4.535083
 20
6.875695
 30
0.000000
  0
VERTEX
  8
ROLL-SHUTTER
 10
4.534440
 20
6.881901
 30
0.000000
  0
VERTEX
  8
ROLL-SHUTTER
 10
4.534869
 20
6.884255
 30
0.000000
  0
VERTEX
  8
ROLL-SHUTTER
 10
4.540646
 20
6.889818
 30
0.000000
  0
VERTEX
  8
ROLL-SHUTTER
 10
4.565791
 20
6.890888
 30
0.000000
  0
VERTEX
  8
ROLL-SHUTTER
 10
4.565898
 20
6.887251
 30
0.000000
  0
VERTEX
  8
ROLL-SHUTTER
 10
4.561617
 20
6.881366
 30
0.000000
  0
VERTEX
  8
ROLL-SHUTTER
 10
4.558942
 20
6.874625
 30
0.000000
  0
VERTEX
  8
ROLL-SHUTTER
 10
4.558729
 20
6.866066
 30
0.000000
  0
VERTEX
  8
ROLL-SHUTTER
 10
4.559157
 20
6.859433
 30
0.000000
  0
VERTEX
  8
ROLL-SHUTTER
 10
4.562794
 20
6.850873
 30
0.000000
  0
VERTEX
  8
ROLL-SHUTTER
 10
4.567396
 20
6.843705
 30
0.000000
  0
VERTEX
  8
ROLL-SHUTTER
 10
4.572957
 20
6.838461
 30
0.000000
  0
VERTEX
  8
ROLL-SHUTTER
 10
4.580984
 20
6.834181
 30
0.000000
  0
VERTEX
  8
ROLL-SHUTTER
 10
4.587830
 20
6.832363
 30
0.000000
  0
VERTEX
  8
ROLL-SHUTTER
 10
4.594467
 20
6.831507
 30
0.000000
  0
VERTEX
  8
ROLL-SHUTTER
 10
4.602706
 20
6.832577
 30
0.000000
  0
VERTEX
  8
ROLL-SHUTTER
 10
4.609659
 20
6.835145
 30
0.000000
  0
VERTEX
  8
ROLL-SHUTTER
 10
4.616187
 20
6.839317
 30
0.000000
  0
VERTEX
  8
ROLL-SHUTTER
 10
4.621643
 20
6.845095
 30
0.000000
  0
VERTEX
  8
ROLL-SHUTTER
 10
4.625604
 20
6.851193
 30
0.000000
  0
VERTEX
  8
ROLL-SHUTTER
 10
4.629027
 20
6.859111
 30
0.000000
  0
VERTEX
  8
ROLL-SHUTTER
 10
4.629669
 20
6.866814
 30
0.000000
  0
VERTEX
  8
ROLL-SHUTTER
 10
4.629027
 20
6.873447
 30
0.000000
  0
VERTEX
  8
ROLL-SHUTTER
 10
4.627314
 20
6.879653
 30
0.000000
  0
VERTEX
  8
ROLL-SHUTTER
 10
4.623783
 20
6.885646
 30
0.000000
  0
VERTEX
  8
ROLL-SHUTTER
 10
4.621431
 20
6.889283
 30
0.000000
  0
VERTEX
  8
ROLL-SHUTTER
 10
4.621431
 20
6.891958
 30
0.000000
  0
VERTEX
  8
ROLL-SHUTTER
 10
4.624106
 20
6.894420
 30
0.000000
  0
VERTEX
  8
ROLL-SHUTTER
 10
4.642081
 20
6.894205
 30
0.000000
  0
VERTEX
  8
ROLL-SHUTTER
 10
4.645611
 20
6.891209
 30
0.000000
  0
VERTEX
  8
ROLL-SHUTTER
 10
4.648606
 20
6.886715
 30
0.000000
  0
VERTEX
  8
ROLL-SHUTTER
 10
4.650211
 20
6.878584
 30
0.000000
  0
VERTEX
  8
ROLL-SHUTTER
 10
4.655453
 20
6.845416
 30
0.000000
  0
VERTEX
  8
ROLL-SHUTTER
 10
4.661124
 20
6.797375
 30
0.000000
  0
VERTEX
  8
ROLL-SHUTTER
 10
4.666260
 20
6.750084
 30
0.000000
  0
VERTEX
  8
ROLL-SHUTTER
 10
4.670220
 20
6.700118
 30
0.000000
  0
VERTEX
  8
ROLL-SHUTTER
 10
4.671611
 20
6.663526
 30
0.000000
  0
VERTEX
  8
ROLL-SHUTTER
 10
4.672359
 20
6.630786
 30
0.000000
  0
VERTEX
  8
ROLL-SHUTTER
 10
4.671396
 20
6.552359
 30
0.000000
  0
VERTEX
  8
ROLL-SHUTTER
 10
4.669257
 20
6.515126
 30
0.000000
  0
VERTEX
  8
ROLL-SHUTTER
 10
4.665512
 20
6.472434
 30
0.000000
  0
VERTEX
  8
ROLL-SHUTTER
 10
4.661340
 20
6.431885
 30
0.000000
  0
VERTEX
  8
ROLL-SHUTTER
 10
4.655242
 20
6.383416
 30
0.000000
  0
VERTEX
  8
ROLL-SHUTTER
 10
4.653849
 20
6.378815
 30
0.000000
  0
VERTEX
  8
ROLL-SHUTTER
 10
4.650318
 20
6.374427
 30
0.000000
  0
VERTEX
  8
ROLL-SHUTTER
 10
4.645933
 20
6.372717
 30
0.000000
  0
VERTEX
  8
ROLL-SHUTTER
 10
4.631488
 20
6.372503
 30
0.000000
  0
VERTEX
  8
ROLL-SHUTTER
 10
4.626352
 20
6.365012
 30
0.000000
  0
VERTEX
  8
ROLL-SHUTTER
 10
4.625709
 20
6.362338
 30
0.000000
  0
VERTEX
  8
ROLL-SHUTTER
 10
4.626352
 20
6.360091
 30
0.000000
  0
VERTEX
  8
ROLL-SHUTTER
 10
4.629989
 20
6.355598
 30
0.000000
  0
VERTEX
  8
ROLL-SHUTTER
 10
4.631810
 20
6.351104
 30
0.000000
  0
VERTEX
  8
ROLL-SHUTTER
 10
4.633415
 20
6.345968
 30
0.000000
  0
VERTEX
  8
ROLL-SHUTTER
 10
4.633843
 20
6.339120
 30
0.000000
  0
VERTEX
  8
ROLL-SHUTTER
 10
4.633308
 20
6.331310
 30
0.000000
  0
VERTEX
  8
ROLL-SHUTTER
 10
4.631060
 20
6.324248
 30
0.000000
  0
VERTEX
  8
ROLL-SHUTTER
 10
4.627102
 20
6.319005
 30
0.000000
  0
VERTEX
  8
ROLL-SHUTTER
 10
4.621858
 20
6.313977
 30
0.000000
  0
VERTEX
  8
ROLL-SHUTTER
 10
4.615866
 20
6.309910
 30
0.000000
  0
VERTEX
  8
ROLL-SHUTTER
 10
4.610623
 20
6.307129
 30
0.000000
  0
VERTEX
  8
ROLL-SHUTTER
 10
4.605594
 20
6.306167
 30
0.000000
  0
VERTEX
  8
ROLL-SHUTTER
 10
4.601421
 20
6.306060
 30
0.000000
  0
VERTEX
  8
ROLL-SHUTTER
 10
4.598209
 20
6.308093
 30
0.000000
  0
VERTEX
  8
ROLL-SHUTTER
 10
4.605701
 20
6.321359
 30
0.000000
  0
VERTEX
  8
ROLL-SHUTTER
 10
4.610301
 20
6.324355
 30
0.000000
  0
VERTEX
  8
ROLL-SHUTTER
 10
4.613833
 20
6.327886
 30
0.000000
  0
VERTEX
  8
ROLL-SHUTTER
 10
4.616400
 20
6.332915
 30
0.000000
  0
VERTEX
  8
ROLL-SHUTTER
 10
4.617793
 20
6.338479
 30
0.000000
  0
VERTEX
  8
ROLL-SHUTTER
 10
4.617149
 20
6.344470
 30
0.000000
  0
VERTEX
  8
ROLL-SHUTTER
 10
4.614796
 20
6.348856
 30
0.000000
  0
VERTEX
  8
ROLL-SHUTTER
 10
4.611052
 20
6.353672
 30
0.000000
  0
VERTEX
  8
ROLL-SHUTTER
 10
4.607948
 20
6.355706
 30
0.000000
  0
VERTEX
  8
ROLL-SHUTTER
 10
4.603132
 20
6.356560
 30
0.000000
  0
VERTEX
  8
ROLL-SHUTTER
 10
4.598424
 20
6.356454
 30
0.000000
  0
VERTEX
  8
ROLL-SHUTTER
 10
4.593502
 20
6.355598
 30
0.000000
  0
VERTEX
  8
ROLL-SHUTTER
 10
4.589651
 20
6.353137
 30
0.000000
  0
VERTEX
  8
ROLL-SHUTTER
 10
4.585797
 20
6.349284
 30
0.000000
  0
VERTEX
  8
ROLL-SHUTTER
 10
4.583552
 20
6.344683
 30
0.000000
  0
VERTEX
  8
ROLL-SHUTTER
 10
4.582694
 20
6.339976
 30
0.000000
  0
VERTEX
  8
ROLL-SHUTTER
 10
4.582802
 20
6.335588
 30
0.000000
  0
VERTEX
  8
ROLL-SHUTTER
 10
4.582802
 20
6.332915
 30
0.000000
  0
SEQEND
  8
ROLL-SHUTTER
  0
TEXT
  8
ROLL-SHUTTER
 62
  7
 10
5.018013
 20
6.659081
 30
0.000000
 40
0.150000
  1
1 
 72
  5
 11
5.227104
 21
6.659081
 31
0.000000
  0
TEXT
  8
ROLL-SHUTTER
 62
  7
 10
5.227104
 20
6.659081
 30
0.000000
 40
0.122727
  1
1/2
 72
  5
 11
5.499831
 21
6.659081
 31
0.000000
  0
TEXT
  8
ROLL-SHUTTER
 62
  7
 10
5.499831
 20
6.659081
 30
0.000000
 40
0.150000
  1
"
 72
  5
 11
5.618013
 21
6.659081
 31
0.000000
  0
TEXT
  8
ROLL-SHUTTER
 62
  7
 10
5.008922
 20
6.422717
 30
0.000000
 40
0.150000
  1
38
 72
  5
 11
5.272559
 21
6.422717
 31
0.000000
  0
TEXT
  8
ROLL-SHUTTER
 62
  7
 10
5.272559
 20
6.422717
 30
0.000000
 40
0.122727
  1
mm
 72
  5
 11
5.590741
 21
6.422717
 31
0.000000
  0
TEXT
  8
ROLL-SHUTTER
 62
  7
 10
4.908922
 20
7.031808
 30
0.000000
 40
0.150000
  1
hauteur
 72
  5
 11
5.618013
 21
7.031808
 31
0.000000
  0
TEXT
  8
ROLL-SHUTTER
 62
  7
 10
1.790741
 20
8.622717
 30
0.000000
 40
0.122727
  1
VOLET ROULANT (OPAQUE)
 72
  5
 11
4.054377
 21
8.622717
 31
0.000000
  0
TEXT
  8
ROLL-SHUTTER
 62
  7
 10
2.790741
 20
7.849990
 30
0.000000
 40
0.150000
  1
panneaux d'aluminium
 72
  5
 11
4.799831
 21
7.849990
 31
0.000000
  0
TEXT
  8
ROLL-SHUTTER
 62
  7
 10
3.172559
 20
7.613626
 30
0.000000
 40
0.150000
  1
pleine largeur
 72
  5
 11
4.408922
 21
7.613626
 31
0.000000
  0
POLYLINE
  8
ROLL-SHUTTER
 66
  1
 70
  1
 62
  7
  0
VERTEX
  8
ROLL-SHUTTER
 10
0.814218
 20
2.351023
 30
0.000000
  0
VERTEX
  8
ROLL-SHUTTER
 10
6.722207
 20
2.351023
 30
0.000000
  0
VERTEX
  8
ROLL-SHUTTER
 10
6.722207
 20
0.019108
 30
0.000000
  0
VERTEX
  8
ROLL-SHUTTER
 10
0.814218
 20
0.019108
 30
0.000000
  0
SEQEND
  8
ROLL-SHUTTER
  0
POLYLINE
  8
ROLL-SHUTTER
 66
  1
 70
  0
 62
  7
 40
0.018182
 41
0.018182
 10
0.018182
 20
0.018182
 30
0.000000
  0
VERTEX
  8
ROLL-SHUTTER
 10
0.018182
 20
0.018182
 30
0.000000
  0
VERTEX
  8
ROLL-SHUTTER
 10
7.518186
 20
0.018182
 30
0.000000
  0
SEQEND
  8
ROLL-SHUTTER
  0
POLYLINE
  8
ROLL-SHUTTER
 66
  1
 70
  0
 62
  7
 10
5.591575
 20
2.221600
 30
0.000000
  0
VERTEX
  8
ROLL-SHUTTER
 10
5.591575
 20
2.221600
 30
0.000000
  0
VERTEX
  8
ROLL-SHUTTER
 10
5.351780
 20
2.341010
 30
0.000000
  0
SEQEND
  8
ROLL-SHUTTER
  0
POLYLINE
  8
ROLL-SHUTTER
 66
  1
 70
  1
 62
  7
  0
VERTEX
  8
ROLL-SHUTTER
 10
5.334159
 20
2.349785
 30
0.000000
  0
VERTEX
  8
ROLL-SHUTTER
 10
5.387005
 20
2.353937
 30
0.000000
  0
VERTEX
  8
ROLL-SHUTTER
 10
5.374848
 20
2.329523
 30
0.000000
  0
VERTEX
  8
ROLL-SHUTTER
 10
5.362691
 20
2.305110
 30
0.000000
  0
VERTEX
  8
ROLL-SHUTTER
 10
5.334159
 20
2.349785
 30
0.000000
  0
SEQEND
  8
ROLL-SHUTTER
  0
POLYLINE
  8
ROLL-SHUTTER
 66
  1
 70
  0
 62
  7
 10
3.936590
 20
2.214365
 30
0.000000
  0
VERTEX
  8
ROLL-SHUTTER
 10
3.936590
 20
2.214365
 30
0.000000
  0
VERTEX
  8
ROLL-SHUTTER
 10
3.792988
 20
2.348499
 30
0.000000
  0
SEQEND
  8
ROLL-SHUTTER
  0
POLYLINE
  8
ROLL-SHUTTER
 66
  1
 70
  1
 62
  7
  0
VERTEX
  8
ROLL-SHUTTER
 10
3.778603
 20
2.361936
 30
0.000000
  0
VERTEX
  8
ROLL-SHUTTER
 10
3.830437
 20
2.350839
 30
0.000000
  0
VERTEX
  8
ROLL-SHUTTER
 10
3.811821
 20
2.330909
 30
0.000000
  0
VERTEX
  8
ROLL-SHUTTER
 10
3.793204
 20
2.310979
 30
0.000000
  0
VERTEX
  8
ROLL-SHUTTER
 10
3.778603
 20
2.361936
 30
0.000000
  0
SEQEND
  8
ROLL-SHUTTER
  0
POLYLINE
  8
ROLL-SHUTTER
 66
  1
 70
  0
 62
  7
 10
3.378929
 20
2.235200
 30
0.000000
  0
VERTEX
  8
ROLL-SHUTTER
 10
3.378929
 20
2.235200
 30
0.000000
  0
VERTEX
  8
ROLL-SHUTTER
 10
3.525032
 20
2.387654
 30
0.000000
  0
SEQEND
  8
ROLL-SHUTTER
  0
POLYLINE
  8
ROLL-SHUTTER
 66
  1
 70
  1
 62
  7
  0
VERTEX
  8
ROLL-SHUTTER
 10
3.538652
 20
2.401865
 30
0.000000
  0
VERTEX
  8
ROLL-SHUTTER
 10
3.526892
 20
2.350178
 30
0.000000
  0
VERTEX
  8
ROLL-SHUTTER
 10
3.507202
 20
2.369048
 30
0.000000
  0
VERTEX
  8
ROLL-SHUTTER
 10
3.487511
 20
2.387918
 30
0.000000
  0
VERTEX
  8
ROLL-SHUTTER
 10
3.538652
 20
2.401865
 30
0.000000
  0
SEQEND
  8
ROLL-SHUTTER
  0
TEXT
  8
ROLL-SHUTTER
 62
  7
 10
5.790741
 20
5.449990
 30
0.000000
 40
0.122727
  1
Guide
 72
  5
 11
6.272559
 21
5.449990
 31
0.000000
  0
POLYLINE
  8
ROLL-SHUTTER
 66
  1
 70
  0
 62
  7
 10
6.328702
 20
5.481967
 30
0.000000
  0
VERTEX
  8
ROLL-SHUTTER
 10
6.328702
 20
5.481967
 30
0.000000
  0
VERTEX
  8
ROLL-SHUTTER
 10
6.566025
 20
5.331344
 30
0.000000
  0
SEQEND
  8
ROLL-SHUTTER
  0
POLYLINE
  8
ROLL-SHUTTER
 66
  1
 70
  1
 62
  7
  0
VERTEX
  8
ROLL-SHUTTER
 10
6.582645
 20
5.320796
 30
0.000000
  0
VERTEX
  8
ROLL-SHUTTER
 10
6.529653
 20
5.322127
 30
0.000000
  0
VERTEX
  8
ROLL-SHUTTER
 10
6.544267
 20
5.345154
 30
0.000000
  0
VERTEX
  8
ROLL-SHUTTER
 10
6.558882
 20
5.368180
 30
0.000000
  0
VERTEX
  8
ROLL-SHUTTER
 10
6.582645
 20
5.320796
 30
0.000000
  0
SEQEND
  8
ROLL-SHUTTER
  0
POLYLINE
  8
ROLL-SHUTTER
 66
  1
 70
  0
 62
  7
 10
0.809848
 20
1.948735
 30
0.000000
  0
VERTEX
  8
ROLL-SHUTTER
 10
0.809848
 20
1.948735
 30
0.000000
  0
VERTEX
  8
ROLL-SHUTTER
 10
6.726519
 20
1.948735
 30
0.000000
  0
SEQEND
  8
ROLL-SHUTTER
  0
POLYLINE
  8
ROLL-SHUTTER
 66
  1
 70
  1
 62
  7
  0
VERTEX
  8
ROLL-SHUTTER
 10
3.932683
 20
2.329289
 30
0.000000
  0
VERTEX
  8
ROLL-SHUTTER
 10
4.592840
 20
2.329289
 30
0.000000
  0
VERTEX
  8
ROLL-SHUTTER
 10
4.592840
 20
2.118351
 30
0.000000
  0
VERTEX
  8
ROLL-SHUTTER
 10
3.932683
 20
2.118351
 30
0.000000
  0
SEQEND
  8
ROLL-SHUTTER
  0
POLYLINE
  8
ROLL-SHUTTER
 66
  1
 70
  1
 62
  7
  0
VERTEX
  8
ROLL-SHUTTER
 10
5.595445
 20
2.328508
 30
0.000000
  0
VERTEX
  8
ROLL-SHUTTER
 10
6.627997
 20
2.328508
 30
0.000000
  0
VERTEX
  8
ROLL-SHUTTER
 10
6.627997
 20
2.117570
 30
0.000000
  0
VERTEX
  8
ROLL-SHUTTER
 10
5.595445
 20
2.117570
 30
0.000000
  0
SEQEND
  8
ROLL-SHUTTER
  0
POLYLINE
  8
ROLL-SHUTTER
 66
  1
 70
  0
 62
  7
 10
0.854492
 20
1.948735
 30
0.000000
  0
VERTEX
  8
ROLL-SHUTTER
 10
0.854492
 20
1.948735
 30
0.000000
  0
VERTEX
  8
ROLL-SHUTTER
 10
0.854492
 20
0.019108
 30
0.000000
  0
SEQEND
  8
ROLL-SHUTTER
  0
POLYLINE
  8
ROLL-SHUTTER
 66
  1
 70
  0
 62
  7
 10
6.681906
 20
0.019108
 30
0.000000
  0
VERTEX
  8
ROLL-SHUTTER
 10
6.681906
 20
0.019108
 30
0.000000
  0
VERTEX
  8
ROLL-SHUTTER
 10
6.681906
 20
1.948735
 30
0.000000
  0
SEQEND
  8
ROLL-SHUTTER
  0
POLYLINE
  8
ROLL-SHUTTER
 66
  1
 70
  0
 62
  7
 10
2.776841
 20
1.948735
 30
0.000000
  0
VERTEX
  8
ROLL-SHUTTER
 10
2.776841
 20
1.948735
 30
0.000000
  0
VERTEX
  8
ROLL-SHUTTER
 10
2.776841
 20
0.019108
 30
0.000000
  0
SEQEND
  8
ROLL-SHUTTER
  0
POLYLINE
  8
ROLL-SHUTTER
 66
  1
 70
  0
 62
  7
 10
4.719346
 20
1.948735
 30
0.000000
  0
VERTEX
  8
ROLL-SHUTTER
 10
4.719346
 20
1.948735
 30
0.000000
  0
VERTEX
  8
ROLL-SHUTTER
 10
4.719346
 20
0.019108
 30
0.000000
  0
SEQEND
  8
ROLL-SHUTTER
  0
POLYLINE
  8
ROLL-SHUTTER
 66
  1
 70
  0
 62
  7
 10
2.817141
 20
1.948735
 30
0.000000
  0
VERTEX
  8
ROLL-SHUTTER
 10
2.817141
 20
1.948735
 30
0.000000
  0
VERTEX
  8
ROLL-SHUTTER
 10
2.817141
 20
0.019108
 30
0.000000
  0
SEQEND
  8
ROLL-SHUTTER
  0
POLYLINE
  8
ROLL-SHUTTER
 66
  1
 70
  0
 62
  7
 10
4.759647
 20
1.948735
 30
0.000000
  0
VERTEX
  8
ROLL-SHUTTER
 10
4.759647
 20
1.948735
 30
0.000000
  0
VERTEX
  8
ROLL-SHUTTER
 10
4.759647
 20
0.019108
 30
0.000000
  0
SEQEND
  8
ROLL-SHUTTER
  0
POLYLINE
  8
ROLL-SHUTTER
 66
  1
 70
  1
 62
  7
  0
VERTEX
  8
ROLL-SHUTTER
 10
2.685909
 20
2.326411
 30
0.000000
  0
VERTEX
  8
ROLL-SHUTTER
 10
3.362994
 20
2.326411
 30
0.000000
  0
VERTEX
  8
ROLL-SHUTTER
 10
3.362994
 20
2.115474
 30
0.000000
  0
VERTEX
  8
ROLL-SHUTTER
 10
2.685909
 20
2.115474
 30
0.000000
  0
SEQEND
  8
ROLL-SHUTTER
  0
TEXT
  8
ROLL-SHUTTER
 62
  7
 10
2.708922
 20
2.177263
 30
0.000000
 40
0.122727
  1
Poign仔
 72
  5
 11
3.354377
 21
2.177263
 31
0.000000
  0
TEXT
  8
ROLL-SHUTTER
 62
  7
 10
5.618013
 20
2.177263
 30
0.000000
 40
0.122727
  1
Barre du bas
 72
  5
 11
6.599831
 21
2.177263
 31
0.000000
  0
TEXT
  8
ROLL-SHUTTER
 62
  7
 10
3.936195
 20
2.177263
 30
0.000000
 40
0.122727
  1
Cylindre
 72
  5
 11
4.581650
 21
2.177263
 31
0.000000
  0
ENDSEC
  0
EOF
