  0
SECTION
  2
HEADER
999
MacDraft 5.0\0
  9
$ACADVER
  1
AC1006
  9
$CLAYER
  8
LAYER-2
  9
$EXTMIN
 10
0.000000
 20
0.000000
  9
$EXTMAX
 10
7.441762
 20
10.246928
  9
$FASTZOOM
 70
0
  9
$FILLMODE
 70
1
  0
ENDSEC
  0
SECTION
  2
TABLES
  0
TABLE
  2
LTYPE
 70
16
  0
LTYPE
  2
CONTINUOUS
 70
64
  3
Solid Line
 72
65
 73
0
 40
0.000000
  0
LTYPE
  2
LTYPE01
 70
64
  3
CUSTOM
 72
65
 73
2
 40
0.111111
 49
0.083333
 49
-0.027778
  0
LTYPE
  2
LTYPE02
 70
64
  3
CUSTOM
 72
65
 73
2
 40
0.194444
 49
0.166667
 49
-0.027778
  0
LTYPE
  2
LTYPE03
 70
64
  3
CUSTOM
 72
65
 73
2
 40
0.375000
 49
0.333333
 49
-0.041667
  0
LTYPE
  2
LTYPE04
 70
64
  3
CUSTOM
 72
65
 73
2
 40
0.722222
 49
0.666667
 49
-0.055556
  0
LTYPE
  2
LTYPE05
 70
64
  3
CUSTOM
 72
65
 73
4
 40
0.152778
 49
0.083333
 49
-0.027778
 49
0.013889
 49
-0.027778
  0
LTYPE
  2
LTYPE06
 70
64
  3
CUSTOM
 72
65
 73
4
 40
0.236111
 49
0.166667
 49
-0.027778
 49
0.013889
 49
-0.027778
  0
LTYPE
  2
LTYPE07
 70
64
  3
CUSTOM
 72
65
 73
4
 40
0.444444
 49
0.333333
 49
-0.041667
 49
0.027778
 49
-0.041667
  0
LTYPE
  2
LTYPE08
 70
64
  3
CUSTOM
 72
65
 73
4
 40
0.805556
 49
0.666667
 49
-0.055556
 49
0.027778
 49
-0.055556
  0
LTYPE
  2
LTYPE09
 70
64
  3
CUSTOM
 72
65
 73
6
 40
0.194444
 49
0.083333
 49
-0.027778
 49
0.013889
 49
-0.027778
 49
0.013889
 49
-0.027778
  0
LTYPE
  2
LTYPE10
 70
64
  3
CUSTOM
 72
65
 73
6
 40
0.277778
 49
0.166667
 49
-0.027778
 49
0.013889
 49
-0.027778
 49
0.013889
 49
-0.027778
  0
LTYPE
  2
LTYPE11
 70
64
  3
CUSTOM
 72
65
 73
6
 40
0.500000
 49
0.333333
 49
-0.041667
 49
0.027778
 49
-0.027778
 49
0.027778
 49
-0.041667
  0
LTYPE
  2
LTYPE12
 70
64
  3
CUSTOM
 72
65
 73
6
 40
0.861111
 49
0.666667
 49
-0.055556
 49
0.027778
 49
-0.027778
 49
0.027778
 49
-0.055556
  0
LTYPE
  2
LTYPE13
 70
64
  3
CUSTOM
 72
65
 73
8
 40
0.319444
 49
0.166667
 49
-0.027778
 49
0.013889
 49
-0.027778
 49
0.013889
 49
-0.027778
 49
0.013889
 49
-0.027778
  0
LTYPE
  2
LTYPE14
 70
64
  3
CUSTOM
 72
65
 73
8
 40
0.555556
 49
0.333333
 49
-0.041667
 49
0.027778
 49
-0.027778
 49
0.027778
 49
-0.027778
 49
0.027778
 49
-0.041667
  0
LTYPE
  2
LTYPE15
 70
64
  3
CUSTOM
 72
65
 73
8
 40
0.944444
 49
0.666667
 49
-0.055556
 49
0.027778
 49
-0.041667
 49
0.027778
 49
-0.041667
 49
0.027778
 49
-0.055556
  0
ENDTAB
  0
TABLE
  2
LAYER
 70
1
  0
LAYER
  2
LAYER-2
 70
0
 62
7
  6
CONTINUOUS
  0
ENDTAB
  0
ENDSEC
  0
SECTION
  2
BLOCKS
  0
ENDSEC
  0
SECTION
  2
ENTITIES
  0
POLYLINE
  8
LAYER-2
 66
  1
 70
  0
 62
  0
 10
10.459055
 20
14.536106
 30
0.000000
  0
VERTEX
  8
LAYER-2
 10
10.459055
 20
14.536106
 30
0.000000
  0
VERTEX
  8
LAYER-2
 10
11.419045
 20
14.793664
 30
0.000000
  0
SEQEND
  8
LAYER-2
  0
ARC
  8
LAYER-2
 62
  0
 10
10.478657
 20
14.504178
 30
0.000000
 40
0.037466
 50
121.547974
 51
283.694336
  0
POLYLINE
  8
LAYER-2
 66
  1
 70
  0
 62
  0
 10
11.444726
 20
14.724257
 30
0.000000
  0
VERTEX
  8
LAYER-2
 10
11.444726
 20
14.724257
 30
0.000000
  0
VERTEX
  8
LAYER-2
 10
10.487527
 20
14.467777
 30
0.000000
  0
SEQEND
  8
LAYER-2
  0
POLYLINE
  8
LAYER-2
 66
  1
 70
  0
 62
  0
 10
11.444625
 20
14.724314
 30
0.000000
  0
VERTEX
  8
LAYER-2
 10
11.444625
 20
14.724314
 30
0.000000
  0
VERTEX
  8
LAYER-2
 10
11.448091
 20
14.762244
 30
0.000000
  0
VERTEX
  8
LAYER-2
 10
11.426506
 20
14.791517
 30
0.000000
  0
VERTEX
  8
LAYER-2
 10
11.419120
 20
14.793884
 30
0.000000
  0
SEQEND
  8
LAYER-2
  0
POLYLINE
  8
LAYER-2
 66
  1
 70
  1
 62
  7
 10
7.922663
 20
5.773198
 30
0.000000
  0
VERTEX
  8
LAYER-2
 10
7.922663
 20
5.773198
 30
0.000000
  0
VERTEX
  8
LAYER-2
 10
8.067218
 20
5.424211
 30
0.000000
  0
VERTEX
  8
LAYER-2
 10
10.645988
 20
6.428704
 30
0.000000
  0
VERTEX
  8
LAYER-2
 10
10.506085
 20
6.787886
 30
0.000000
  0
SEQEND
  8
LAYER-2
  0
POLYLINE
  8
LAYER-2
  6
LTYPE01
 66
  1
 70
  0
 62
  0
  6
LTYPE01
 10
10.506085
 20
6.787886
 30
0.000000
  0
VERTEX
  8
LAYER-2
  6
LTYPE01
 10
10.506085
 20
6.787886
 30
0.000000
  0
VERTEX
  8
LAYER-2
  6
LTYPE01
 10
7.927002
 20
5.774935
 30
0.000000
  0
SEQEND
  8
LAYER-2
  0
POLYLINE
  8
LAYER-2
  6
LTYPE01
 66
  1
 70
  0
 62
  0
  6
LTYPE01
 10
7.927002
 20
5.774935
 30
0.000000
  0
VERTEX
  8
LAYER-2
  6
LTYPE01
 10
7.927002
 20
5.774935
 30
0.000000
  0
VERTEX
  8
LAYER-2
  6
LTYPE01
 10
8.071559
 20
5.425947
 30
0.000000
  0
SEQEND
  8
LAYER-2
  0
POLYLINE
  8
LAYER-2
  6
LTYPE01
 66
  1
 70
  0
 62
  0
  6
LTYPE01
 10
8.071559
 20
5.425947
 30
0.000000
  0
VERTEX
  8
LAYER-2
  6
LTYPE01
 10
8.071559
 20
5.425947
 30
0.000000
  0
VERTEX
  8
LAYER-2
  6
LTYPE01
 10
10.645988
 20
6.428704
 30
0.000000
  0
SEQEND
  8
LAYER-2
  0
TEXT
  8
LAYER-2
 62
  0
 10
11.250000
 20
6.796692
 30
0.000000
 40
0.250000
  1
45  or 90  curve
 72
  5
 11
13.694445
 21
6.796692
 31
0.000000
  0
TEXT
  8
LAYER-2
 62
  0
 10
3.694445
 20
6.796692
 30
0.000000
 40
0.250000
  1
Desired angle 
 72
  5
 11
6.083334
 21
6.796692
 31
0.000000
  0
TEXT
  8
LAYER-2
 62
  0
 10
11.222222
 20
5.991136
 30
0.000000
 40
0.250000
  1
Straight track
 72
  5
 11
13.333334
 21
5.991136
 31
0.000000
  0
CIRCLE
  8
LAYER-2
 62
  0
 10
7.922937
 20
5.778987
 30
0.000000
 40
0.107314
  0
CIRCLE
  8
LAYER-2
 62
  0
 10
8.077261
 20
5.427641
 30
0.000000
 40
0.107314
  0
TEXT
  8
LAYER-2
 62
  0
 10
8.777778
 20
4.630025
 30
0.000000
 40
0.250000
  1
Mark the cut here
 72
  5
 11
11.500000
 21
4.630025
 31
0.000000
  0
POLYLINE
  8
LAYER-2
  6
LTYPE05
 66
  1
 70
  0
 62
  0
  6
LTYPE05
 10
4.159721
 20
5.140315
 30
0.000000
  0
VERTEX
  8
LAYER-2
  6
LTYPE05
 10
4.159721
 20
5.140315
 30
0.000000
  0
VERTEX
  8
LAYER-2
  6
LTYPE05
 10
11.194449
 20
5.140315
 30
0.000000
  0
SEQEND
  8
LAYER-2
  0
POLYLINE
  8
LAYER-2
  6
LTYPE05
 66
  1
 70
  0
 62
  0
  6
LTYPE05
 10
4.152777
 20
3.897261
 30
0.000000
  0
VERTEX
  8
LAYER-2
  6
LTYPE05
 10
4.152777
 20
3.897261
 30
0.000000
  0
VERTEX
  8
LAYER-2
  6
LTYPE05
 10
8.067218
 20
5.424211
 30
0.000000
  0
SEQEND
  8
LAYER-2
  0
TEXT
  8
LAYER-2
 62
  0
 10
2.444445
 20
5.685581
 30
0.000000
 40
0.250000
  1
axis #1
 72
  5
 11
3.777778
 21
5.685581
 31
0.000000
  0
TEXT
  8
LAYER-2
 62
  0
 10
2.444445
 20
4.463359
 30
0.000000
 40
0.250000
  1
axis #2
 72
  5
 11
3.777778
 21
4.463359
 31
0.000000
  0
ARC
  8
LAYER-2
 62
  0
  6
LTYPE05
 10
7.354169
 20
5.511843
 30
0.000000
 40
1.616180
 50
22.713783
 51
179.687988
  0
POLYLINE
  8
LAYER-2
 66
  1
 70
  0
 62
  0
 10
11.097223
 20
7.018914
 30
0.000000
  0
VERTEX
  8
LAYER-2
 10
11.097223
 20
7.018914
 30
0.000000
  0
VERTEX
  8
LAYER-2
 10
10.346853
 20
7.281366
 30
0.000000
  0
SEQEND
  8
LAYER-2
  0
POLYLINE
  8
LAYER-2
 66
  1
 70
  1
 62
  0
  0
VERTEX
  8
LAYER-2
 10
10.328272
 20
7.287866
 30
0.000000
  0
VERTEX
  8
LAYER-2
 10
10.486886
 20
7.320671
 30
0.000000
  0
VERTEX
  8
LAYER-2
 10
10.459373
 20
7.242010
 30
0.000000
  0
VERTEX
  8
LAYER-2
 10
10.431859
 20
7.163350
 30
0.000000
  0
VERTEX
  8
LAYER-2
 10
10.328272
 20
7.287866
 30
0.000000
  0
SEQEND
  8
LAYER-2
  0
POLYLINE
  8
LAYER-2
 66
  1
 70
  0
 62
  0
 10
5.756944
 20
6.918094
 30
0.000000
  0
VERTEX
  8
LAYER-2
 10
5.756944
 20
6.918094
 30
0.000000
  0
VERTEX
  8
LAYER-2
 10
6.157357
 20
6.644477
 30
0.000000
  0
SEQEND
  8
LAYER-2
  0
POLYLINE
  8
LAYER-2
 66
  1
 70
  1
 62
  0
  0
VERTEX
  8
LAYER-2
 10
6.173610
 20
6.633370
 30
0.000000
  0
VERTEX
  8
LAYER-2
 10
6.011921
 20
6.642926
 30
0.000000
  0
VERTEX
  8
LAYER-2
 10
6.058937
 20
6.711729
 30
0.000000
  0
VERTEX
  8
LAYER-2
 10
6.105953
 20
6.780533
 30
0.000000
  0
VERTEX
  8
LAYER-2
 10
6.173610
 20
6.633370
 30
0.000000
  0
SEQEND
  8
LAYER-2
  0
POLYLINE
  8
LAYER-2
 66
  1
 70
  0
 62
  0
 10
11.097226
 20
6.178633
 30
0.000000
  0
VERTEX
  8
LAYER-2
 10
11.097226
 20
6.178633
 30
0.000000
  0
VERTEX
  8
LAYER-2
 10
10.532569
 20
6.366855
 30
0.000000
  0
SEQEND
  8
LAYER-2
  0
POLYLINE
  8
LAYER-2
 66
  1
 70
  1
 62
  0
  0
VERTEX
  8
LAYER-2
 10
10.513894
 20
6.373081
 30
0.000000
  0
VERTEX
  8
LAYER-2
 10
10.672009
 20
6.408217
 30
0.000000
  0
VERTEX
  8
LAYER-2
 10
10.645655
 20
6.329159
 30
0.000000
  0
VERTEX
  8
LAYER-2
 10
10.619302
 20
6.250102
 30
0.000000
  0
VERTEX
  8
LAYER-2
 10
10.513894
 20
6.373081
 30
0.000000
  0
SEQEND
  8
LAYER-2
  0
POLYLINE
  8
LAYER-2
 66
  1
 70
  0
 62
  0
 10
8.659726
 20
4.800037
 30
0.000000
  0
VERTEX
  8
LAYER-2
 10
8.659726
 20
4.800037
 30
0.000000
  0
VERTEX
  8
LAYER-2
 10
8.152629
 20
5.320658
 30
0.000000
  0
SEQEND
  8
LAYER-2
  0
POLYLINE
  8
LAYER-2
 66
  1
 70
  1
 62
  0
  0
VERTEX
  8
LAYER-2
 10
8.138894
 20
5.334759
 30
0.000000
  0
VERTEX
  8
LAYER-2
 10
8.295498
 20
5.293411
 30
0.000000
  0
VERTEX
  8
LAYER-2
 10
8.235803
 20
5.235267
 30
0.000000
  0
VERTEX
  8
LAYER-2
 10
8.176107
 20
5.177122
 30
0.000000
  0
VERTEX
  8
LAYER-2
 10
8.138894
 20
5.334759
 30
0.000000
  0
SEQEND
  8
LAYER-2
  0
POLYLINE
  8
LAYER-2
 66
  1
 70
  0
 62
  0
 10
3.694443
 20
5.761965
 30
0.000000
  0
VERTEX
  8
LAYER-2
 10
3.694443
 20
5.761965
 30
0.000000
  0
VERTEX
  8
LAYER-2
 10
4.154758
 20
5.155991
 30
0.000000
  0
SEQEND
  8
LAYER-2
  0
POLYLINE
  8
LAYER-2
 66
  1
 70
  1
 62
  0
  0
VERTEX
  8
LAYER-2
 10
4.166666
 20
5.140315
 30
0.000000
  0
VERTEX
  8
LAYER-2
 10
4.016294
 20
5.200504
 30
0.000000
  0
VERTEX
  8
LAYER-2
 10
4.082653
 20
5.250912
 30
0.000000
  0
VERTEX
  8
LAYER-2
 10
4.149011
 20
5.301320
 30
0.000000
  0
VERTEX
  8
LAYER-2
 10
4.166666
 20
5.140315
 30
0.000000
  0
SEQEND
  8
LAYER-2
  0
POLYLINE
  8
LAYER-2
 66
  1
 70
  0
 62
  0
 10
3.645832
 20
4.525853
 30
0.000000
  0
VERTEX
  8
LAYER-2
 10
3.645832
 20
4.525853
 30
0.000000
  0
VERTEX
  8
LAYER-2
 10
4.215371
 20
3.946023
 30
0.000000
  0
SEQEND
  8
LAYER-2
  0
POLYLINE
  8
LAYER-2
 66
  1
 70
  1
 62
  0
  0
VERTEX
  8
LAYER-2
 10
4.229165
 20
3.931980
 30
0.000000
  0
VERTEX
  8
LAYER-2
 10
4.072388
 20
3.972668
 30
0.000000
  0
VERTEX
  8
LAYER-2
 10
4.131838
 20
4.031064
 30
0.000000
  0
VERTEX
  8
LAYER-2
 10
4.191289
 20
4.089459
 30
0.000000
  0
VERTEX
  8
LAYER-2
 10
4.229165
 20
3.931980
 30
0.000000
  0
SEQEND
  8
LAYER-2
  0
ARC
  8
LAYER-2
 62
  0
 10
6.654517
 20
8.834761
 30
0.000000
 40
3.691552
 50
270.000000
 51
315.000000
  0
ARC
  8
LAYER-2
 62
  0
 10
6.654517
 20
8.834761
 30
0.000000
 40
3.313810
 50
270.000000
 51
315.000000
  0
POLYLINE
  8
LAYER-2
 66
  1
 70
  0
 62
  0
 10
6.654517
 20
5.143209
 30
0.000000
  0
VERTEX
  8
LAYER-2
 10
6.654517
 20
5.143209
 30
0.000000
  0
VERTEX
  8
LAYER-2
 10
4.654517
 20
5.143209
 30
0.000000
  0
SEQEND
  8
LAYER-2
  0
POLYLINE
  8
LAYER-2
 66
  1
 70
  0
 62
  0
 10
6.654517
 20
5.520950
 30
0.000000
  0
VERTEX
  8
LAYER-2
 10
6.654517
 20
5.520950
 30
0.000000
  0
VERTEX
  8
LAYER-2
 10
4.654517
 20
5.520950
 30
0.000000
  0
SEQEND
  8
LAYER-2
  0
POLYLINE
  8
LAYER-2
 66
  1
 70
  0
 62
  0
 10
9.264843
 20
6.224438
 30
0.000000
  0
VERTEX
  8
LAYER-2
 10
9.264843
 20
6.224438
 30
0.000000
  0
VERTEX
  8
LAYER-2
 10
10.328272
 20
7.287866
 30
0.000000
  0
SEQEND
  8
LAYER-2
  0
POLYLINE
  8
LAYER-2
 66
  1
 70
  0
 62
  0
 10
8.997741
 20
6.491543
 30
0.000000
  0
VERTEX
  8
LAYER-2
 10
8.997741
 20
6.491543
 30
0.000000
  0
VERTEX
  8
LAYER-2
 10
10.061167
 20
7.554970
 30
0.000000
  0
SEQEND
  8
LAYER-2
  0
POLYLINE
  8
LAYER-2
  6
LTYPE05
 66
  1
 70
  0
 62
  0
  6
LTYPE05
 10
10.645988
 20
6.428704
 30
0.000000
  0
VERTEX
  8
LAYER-2
  6
LTYPE05
 10
10.645988
 20
6.428704
 30
0.000000
  0
VERTEX
  8
LAYER-2
  6
LTYPE05
 10
11.268608
 20
6.670863
 30
0.000000
  0
SEQEND
  8
LAYER-2
  0
TEXT
  8
LAYER-2
 62
  0
 10
11.555556
 20
7.046692
 30
0.000000
 40
0.125000
  1
o
 72
  5
 11
11.777778
 21
7.046692
 31
0.000000
  0
TEXT
  8
LAYER-2
 62
  0
 10
12.500000
 20
7.018914
 30
0.000000
 40
0.125000
  1
o
 72
  5
 11
12.722222
 21
7.018914
 31
0.000000
  0
ARC
  8
LAYER-2
 62
  0
 10
7.413828
 20
-7.236386
 30
0.000000
 40
10.005340
 50
58.144440
 51
126.727356
  0
POLYLINE
  8
LAYER-2
 66
  1
 70
  0
 62
  0
 10
1.284501
 20
0.756743
 30
0.000000
  0
VERTEX
  8
LAYER-2
 10
1.284501
 20
0.756743
 30
0.000000
  0
VERTEX
  8
LAYER-2
 10
1.294874
 20
0.837282
 30
0.000000
  0
SEQEND
  8
LAYER-2
  0
POLYLINE
  8
LAYER-2
 66
  1
 70
  0
 62
  0
 10
1.371161
 20
0.642019
 30
0.000000
  0
VERTEX
  8
LAYER-2
 10
1.371161
 20
0.642019
 30
0.000000
  0
VERTEX
  8
LAYER-2
 10
1.451704
 20
0.631644
 30
0.000000
  0
SEQEND
  8
LAYER-2
  0
POLYLINE
  8
LAYER-2
 66
  1
 70
  0
 62
  0
 10
1.192700
 20
0.698712
 30
0.000000
  0
VERTEX
  8
LAYER-2
 10
1.192700
 20
0.698712
 30
0.000000
  0
VERTEX
  8
LAYER-2
 10
1.257189
 20
0.748488
 30
0.000000
  0
SEQEND
  8
LAYER-2
  0
POLYLINE
  8
LAYER-2
 66
  1
 70
  0
 62
  0
 10
1.314323
 20
0.741131
 30
0.000000
  0
VERTEX
  8
LAYER-2
 10
1.314323
 20
0.741131
 30
0.000000
  0
VERTEX
  8
LAYER-2
 10
1.364099
 20
0.676639
 30
0.000000
  0
SEQEND
  8
LAYER-2
  0
POLYLINE
  8
LAYER-2
 66
  1
 70
  0
 62
  0
 10
1.356742
 20
0.619507
 30
0.000000
  0
VERTEX
  8
LAYER-2
 10
1.356742
 20
0.619507
 30
0.000000
  0
VERTEX
  8
LAYER-2
 10
1.292253
 20
0.569731
 30
0.000000
  0
SEQEND
  8
LAYER-2
  0
POLYLINE
  8
LAYER-2
 66
  1
 70
  0
 62
  0
 10
1.235120
 20
0.577087
 30
0.000000
  0
VERTEX
  8
LAYER-2
 10
1.235120
 20
0.577087
 30
0.000000
  0
VERTEX
  8
LAYER-2
 10
1.185343
 20
0.641580
 30
0.000000
  0
SEQEND
  8
LAYER-2
  0
ARC
  8
LAYER-2
 62
  0
 10
1.217589
 20
0.666467
 30
0.000000
 40
0.040734
 50
127.662506
 51
217.662506
  0
ARC
  8
LAYER-2
 62
  0
 10
1.267365
 20
0.601978
 30
0.000000
 40
0.040734
 50
217.662506
 51
307.662506
  0
ARC
  8
LAYER-2
 62
  0
 10
1.331854
 20
0.651754
 30
0.000000
 40
0.040734
 50
307.662506
 51
37.662498
  0
ARC
  8
LAYER-2
 62
  0
 10
1.282077
 20
0.716242
 30
0.000000
 40
0.040734
 50
37.662498
 51
127.662506
  0
POLYLINE
  8
LAYER-2
 66
  1
 70
  0
 62
  0
 10
1.442663
 20
0.697844
 30
0.000000
  0
VERTEX
  8
LAYER-2
 10
1.442663
 20
0.697844
 30
0.000000
  0
VERTEX
  8
LAYER-2
 10
1.549429
 20
0.780251
 30
0.000000
  0
SEQEND
  8
LAYER-2
  0
POLYLINE
  8
LAYER-2
 66
  1
 70
  0
 62
  0
 10
1.579287
 20
0.776406
 30
0.000000
  0
VERTEX
  8
LAYER-2
 10
1.579287
 20
0.776406
 30
0.000000
  0
VERTEX
  8
LAYER-2
 10
1.605302
 20
0.742703
 30
0.000000
  0
SEQEND
  8
LAYER-2
  0
POLYLINE
  8
LAYER-2
 66
  1
 70
  0
 62
  0
 10
1.601456
 20
0.712847
 30
0.000000
  0
VERTEX
  8
LAYER-2
 10
1.601456
 20
0.712847
 30
0.000000
  0
VERTEX
  8
LAYER-2
 10
1.494690
 20
0.630437
 30
0.000000
  0
SEQEND
  8
LAYER-2
  0
POLYLINE
  8
LAYER-2
 66
  1
 70
  0
 62
  0
 10
1.464833
 20
0.634282
 30
0.000000
  0
VERTEX
  8
LAYER-2
 10
1.464833
 20
0.634282
 30
0.000000
  0
VERTEX
  8
LAYER-2
 10
1.438818
 20
0.667987
 30
0.000000
  0
SEQEND
  8
LAYER-2
  0
ARC
  8
LAYER-2
 62
  0
 10
1.455669
 20
0.680995
 30
0.000000
 40
0.021287
 50
127.662506
 51
217.662506
  0
ARC
  8
LAYER-2
 62
  0
 10
1.481684
 20
0.647290
 30
0.000000
 40
0.021287
 50
217.662506
 51
307.662506
  0
ARC
  8
LAYER-2
 62
  0
 10
1.588450
 20
0.729696
 30
0.000000
 40
0.021287
 50
307.662506
 51
37.662498
  0
ARC
  8
LAYER-2
 62
  0
 10
1.562435
 20
0.763401
 30
0.000000
 40
0.021287
 50
37.662498
 51
127.662506
  0
POLYLINE
  8
LAYER-2
 66
  1
 70
  0
 62
  0
 10
1.305016
 20
0.877609
 30
0.000000
  0
VERTEX
  8
LAYER-2
 10
1.305016
 20
0.877609
 30
0.000000
  0
VERTEX
  8
LAYER-2
 10
1.411781
 20
0.960017
 30
0.000000
  0
SEQEND
  8
LAYER-2
  0
POLYLINE
  8
LAYER-2
 66
  1
 70
  0
 62
  0
 10
1.441638
 20
0.956172
 30
0.000000
  0
VERTEX
  8
LAYER-2
 10
1.441638
 20
0.956172
 30
0.000000
  0
VERTEX
  8
LAYER-2
 10
1.467653
 20
0.922467
 30
0.000000
  0
SEQEND
  8
LAYER-2
  0
POLYLINE
  8
LAYER-2
 66
  1
 70
  0
 62
  0
 10
1.463808
 20
0.892609
 30
0.000000
  0
VERTEX
  8
LAYER-2
 10
1.463808
 20
0.892609
 30
0.000000
  0
VERTEX
  8
LAYER-2
 10
1.357043
 20
0.810203
 30
0.000000
  0
SEQEND
  8
LAYER-2
  0
POLYLINE
  8
LAYER-2
 66
  1
 70
  0
 62
  0
 10
1.327185
 20
0.814046
 30
0.000000
  0
VERTEX
  8
LAYER-2
 10
1.327185
 20
0.814046
 30
0.000000
  0
VERTEX
  8
LAYER-2
 10
1.301170
 20
0.847751
 30
0.000000
  0
SEQEND
  8
LAYER-2
  0
ARC
  8
LAYER-2
 62
  0
 10
1.318022
 20
0.860758
 30
0.000000
 40
0.021287
 50
127.662506
 51
217.662506
  0
ARC
  8
LAYER-2
 62
  0
 10
1.344036
 20
0.827053
 30
0.000000
 40
0.021287
 50
217.662506
 51
307.662506
  0
ARC
  8
LAYER-2
 62
  0
 10
1.450802
 20
0.909459
 30
0.000000
 40
0.021287
 50
307.662506
 51
37.662498
  0
ARC
  8
LAYER-2
 62
  0
 10
1.424787
 20
0.943164
 30
0.000000
 40
0.021287
 50
37.662498
 51
127.662506
  0
POLYLINE
  8
LAYER-2
 66
  1
 70
  0
 62
  0
 10
1.331555
 20
0.809038
 30
0.000000
  0
VERTEX
  8
LAYER-2
 10
1.331555
 20
0.809038
 30
0.000000
  0
VERTEX
  8
LAYER-2
 10
1.470713
 20
0.916446
 30
0.000000
  0
SEQEND
  8
LAYER-2
  0
POLYLINE
  8
LAYER-2
 66
  1
 70
  0
 62
  0
 10
1.528443
 20
0.909012
 30
0.000000
  0
VERTEX
  8
LAYER-2
 10
1.528443
 20
0.909012
 30
0.000000
  0
VERTEX
  8
LAYER-2
 10
1.578741
 20
0.843845
 30
0.000000
  0
SEQEND
  8
LAYER-2
  0
POLYLINE
  8
LAYER-2
 66
  1
 70
  0
 62
  0
 10
1.571306
 20
0.786114
 30
0.000000
  0
VERTEX
  8
LAYER-2
 10
1.571306
 20
0.786114
 30
0.000000
  0
VERTEX
  8
LAYER-2
 10
1.432149
 20
0.678706
 30
0.000000
  0
SEQEND
  8
LAYER-2
  0
POLYLINE
  8
LAYER-2
 66
  1
 70
  0
 62
  0
 10
1.374419
 20
0.686140
 30
0.000000
  0
VERTEX
  8
LAYER-2
 10
1.374419
 20
0.686140
 30
0.000000
  0
VERTEX
  8
LAYER-2
 10
1.324121
 20
0.751307
 30
0.000000
  0
SEQEND
  8
LAYER-2
  0
ARC
  8
LAYER-2
 62
  0
 10
1.356703
 20
0.776455
 30
0.000000
 40
0.041159
 50
127.662506
 51
217.662506
  0
ARC
  8
LAYER-2
 62
  0
 10
1.407001
 20
0.711288
 30
0.000000
 40
0.041159
 50
217.662506
 51
307.662506
  0
ARC
  8
LAYER-2
 62
  0
 10
1.546159
 20
0.818697
 30
0.000000
 40
0.041159
 50
307.662506
 51
37.662498
  0
ARC
  8
LAYER-2
 62
  0
 10
1.495861
 20
0.883864
 30
0.000000
 40
0.041159
 50
37.662498
 51
127.662506
  0
POLYLINE
  8
LAYER-2
 66
  1
 70
  0
 62
  0
 10
9.489419
 20
2.472324
 30
0.000000
  0
VERTEX
  8
LAYER-2
 10
9.489419
 20
2.472324
 30
0.000000
  0
VERTEX
  8
LAYER-2
 10
9.620891
 20
2.442242
 30
0.000000
  0
SEQEND
  8
LAYER-2
  0
POLYLINE
  8
LAYER-2
 66
  1
 70
  0
 62
  0
 10
9.636894
 20
2.416743
 30
0.000000
  0
VERTEX
  8
LAYER-2
 10
9.636894
 20
2.416743
 30
0.000000
  0
VERTEX
  8
LAYER-2
 10
9.627398
 20
2.375244
 30
0.000000
  0
SEQEND
  8
LAYER-2
  0
POLYLINE
  8
LAYER-2
 66
  1
 70
  0
 62
  0
 10
9.601900
 20
2.359241
 30
0.000000
  0
VERTEX
  8
LAYER-2
 10
9.601900
 20
2.359241
 30
0.000000
  0
VERTEX
  8
LAYER-2
 10
9.470428
 20
2.389323
 30
0.000000
  0
SEQEND
  8
LAYER-2
  0
POLYLINE
  8
LAYER-2
 66
  1
 70
  0
 62
  0
 10
9.454425
 20
2.414822
 30
0.000000
  0
VERTEX
  8
LAYER-2
 10
9.454425
 20
2.414822
 30
0.000000
  0
VERTEX
  8
LAYER-2
 10
9.463921
 20
2.456321
 30
0.000000
  0
SEQEND
  8
LAYER-2
  0
ARC
  8
LAYER-2
 62
  0
 10
9.484671
 20
2.451574
 30
0.000000
 40
0.021287
 50
77.112213
 51
167.112183
  0
ARC
  8
LAYER-2
 62
  0
 10
9.475176
 20
2.410073
 30
0.000000
 40
0.021287
 50
167.112183
 51
257.112183
  0
ARC
  8
LAYER-2
 62
  0
 10
9.606647
 20
2.379991
 30
0.000000
 40
0.021287
 50
257.112183
 51
347.112213
  0
ARC
  8
LAYER-2
 62
  0
 10
9.616143
 20
2.421492
 30
0.000000
 40
0.021287
 50
347.112213
 51
77.112213
  0
POLYLINE
  8
LAYER-2
 66
  1
 70
  0
 62
  0
 10
9.503735
 20
2.624690
 30
0.000000
  0
VERTEX
  8
LAYER-2
 10
9.503735
 20
2.624690
 30
0.000000
  0
VERTEX
  8
LAYER-2
 10
9.675096
 20
2.585481
 30
0.000000
  0
SEQEND
  8
LAYER-2
  0
POLYLINE
  8
LAYER-2
 66
  1
 70
  0
 62
  0
 10
9.706038
 20
2.536180
 30
0.000000
  0
VERTEX
  8
LAYER-2
 10
9.706038
 20
2.536180
 30
0.000000
  0
VERTEX
  8
LAYER-2
 10
9.687678
 20
2.455939
 30
0.000000
  0
SEQEND
  8
LAYER-2
  0
POLYLINE
  8
LAYER-2
 66
  1
 70
  0
 62
  0
 10
9.638376
 20
2.424998
 30
0.000000
  0
VERTEX
  8
LAYER-2
 10
9.638376
 20
2.424998
 30
0.000000
  0
VERTEX
  8
LAYER-2
 10
9.467016
 20
2.464206
 30
0.000000
  0
SEQEND
  8
LAYER-2
  0
POLYLINE
  8
LAYER-2
 66
  1
 70
  0
 62
  0
 10
9.436074
 20
2.513507
 30
0.000000
  0
VERTEX
  8
LAYER-2
 10
9.436074
 20
2.513507
 30
0.000000
  0
VERTEX
  8
LAYER-2
 10
9.454433
 20
2.593750
 30
0.000000
  0
SEQEND
  8
LAYER-2
  0
ARC
  8
LAYER-2
 62
  0
 10
9.494555
 20
2.584571
 30
0.000000
 40
0.041159
 50
77.112213
 51
167.112183
  0
ARC
  8
LAYER-2
 62
  0
 10
9.476195
 20
2.504327
 30
0.000000
 40
0.041159
 50
167.112183
 51
257.112183
  0
ARC
  8
LAYER-2
 62
  0
 10
9.647556
 20
2.465118
 30
0.000000
 40
0.041159
 50
257.112183
 51
347.112213
  0
ARC
  8
LAYER-2
 62
  0
 10
9.665916
 20
2.545361
 30
0.000000
 40
0.041159
 50
347.112213
 51
77.112213
  0
POLYLINE
  8
LAYER-2
 66
  1
 70
  1
 62
  0
  0
VERTEX
  8
LAYER-2
 10
0.750260
 20
0.954547
 30
0.000000
  0
VERTEX
  8
LAYER-2
 10
0.873345
 20
1.048574
 30
0.000000
  0
VERTEX
  8
LAYER-2
 10
1.518338
 20
0.204246
 30
0.000000
  0
VERTEX
  8
LAYER-2
 10
1.395253
 20
0.110218
 30
0.000000
  0
SEQEND
  8
LAYER-2
  0
LINE
  8
LAYER-2
 62
  0
 10
12.823287
 20
1.640640
 30
0.000000
 11
14.163167
 21
0.762770
 31
0.000000
  0
LINE
  8
LAYER-2
 62
  0
 10
12.731951
 20
1.501229
 30
0.000000
 11
13.932417
 21
0.714703
 31
0.000000
  0
LINE
  8
LAYER-2
 62
  0
 10
12.823287
 20
1.640640
 30
0.000000
 11
12.731951
 21
1.501229
 31
0.000000
  0
LINE
  8
LAYER-2
 62
  0
 10
14.163167
 20
0.762770
 30
0.000000
 11
13.757216
 21
0.143177
 31
0.000000
  0
LINE
  8
LAYER-2
 62
  0
 10
13.932417
 20
0.714703
 30
0.000000
 11
13.709144
 21
0.373925
 31
0.000000
  0
LINE
  8
LAYER-2
 62
  0
 10
13.757216
 20
0.143177
 30
0.000000
 11
12.417336
 21
1.021047
 31
0.000000
  0
LINE
  8
LAYER-2
 62
  0
 10
13.709144
 20
0.373925
 30
0.000000
 11
12.508675
 21
1.160456
 31
0.000000
  0
LINE
  8
LAYER-2
 62
  0
 10
12.417336
 20
1.021047
 30
0.000000
 11
12.508675
 21
1.160456
 31
0.000000
  0
POLYLINE
  8
LAYER-2
 66
  1
 70
  0
 62
  0
 10
12.752223
 20
1.321906
 30
0.000000
  0
VERTEX
  8
LAYER-2
 10
12.752223
 20
1.321906
 30
0.000000
  0
VERTEX
  8
LAYER-2
 10
12.899261
 20
1.225567
 30
0.000000
  0
SEQEND
  8
LAYER-2
  0
POLYLINE
  8
LAYER-2
 66
  1
 70
  0
 62
  0
 10
12.911132
 20
1.168586
 30
0.000000
  0
VERTEX
  8
LAYER-2
 10
12.911132
 20
1.168586
 30
0.000000
  0
VERTEX
  8
LAYER-2
 10
12.866019
 20
1.099728
 30
0.000000
  0
SEQEND
  8
LAYER-2
  0
POLYLINE
  8
LAYER-2
 66
  1
 70
  0
 62
  0
 10
12.809035
 20
1.087857
 30
0.000000
  0
VERTEX
  8
LAYER-2
 10
12.809035
 20
1.087857
 30
0.000000
  0
VERTEX
  8
LAYER-2
 10
12.661997
 20
1.184196
 30
0.000000
  0
SEQEND
  8
LAYER-2
  0
POLYLINE
  8
LAYER-2
 66
  1
 70
  0
 62
  0
 10
12.650124
 20
1.241177
 30
0.000000
  0
VERTEX
  8
LAYER-2
 10
12.650124
 20
1.241177
 30
0.000000
  0
VERTEX
  8
LAYER-2
 10
12.695239
 20
1.310035
 30
0.000000
  0
SEQEND
  8
LAYER-2
  0
ARC
  8
LAYER-2
 62
  0
 10
12.729667
 20
1.287477
 30
0.000000
 40
0.041159
 50
56.767792
 51
146.767792
  0
ARC
  8
LAYER-2
 62
  0
 10
12.684553
 20
1.218623
 30
0.000000
 40
0.041159
 50
146.767792
 51
236.767822
  0
ARC
  8
LAYER-2
 62
  0
 10
12.831590
 20
1.122286
 30
0.000000
 40
0.041159
 50
236.767822
 51
326.767792
  0
ARC
  8
LAYER-2
 62
  0
 10
12.876705
 20
1.191140
 30
0.000000
 40
0.041159
 50
326.767792
 51
56.767792
  0
POLYLINE
  8
LAYER-2
 66
  1
 70
  0
 62
  0
 10
12.892375
 20
1.131571
 30
0.000000
  0
VERTEX
  8
LAYER-2
 10
12.892375
 20
1.131571
 30
0.000000
  0
VERTEX
  8
LAYER-2
 10
13.458159
 20
0.871574
 30
0.000000
  0
SEQEND
  8
LAYER-2
  0
POLYLINE
  8
LAYER-2
 66
  1
 70
  0
 62
  0
 10
12.889837
 20
1.127696
 30
0.000000
  0
VERTEX
  8
LAYER-2
 10
12.889837
 20
1.127696
 30
0.000000
  0
VERTEX
  8
LAYER-2
 10
13.361745
 20
0.724423
 30
0.000000
  0
SEQEND
  8
LAYER-2
  0
POLYLINE
  8
LAYER-2
 66
  1
 70
  0
 62
  0
 10
12.942264
 20
1.213996
 30
0.000000
  0
VERTEX
  8
LAYER-2
 10
12.942264
 20
1.213996
 30
0.000000
  0
VERTEX
  8
LAYER-2
 10
12.790034
 20
0.981645
 30
0.000000
  0
SEQEND
  8
LAYER-2
  0
POLYLINE
  8
LAYER-2
  6
LTYPE06
 66
  1
 70
  0
 62
  0
  6
LTYPE06
 10
12.892856
 20
1.130137
 30
0.000000
  0
VERTEX
  8
LAYER-2
  6
LTYPE06
 10
12.892856
 20
1.130137
 30
0.000000
  0
VERTEX
  8
LAYER-2
  6
LTYPE06
 10
13.806761
 20
0.531360
 30
0.000000
  0
SEQEND
  8
LAYER-2
  0
TEXT
  8
LAYER-2
 62
  0
 10
0.138889
 20
2.824470
 30
0.000000
 40
0.291667
  1
SPECIAL CURVES
 72
  5
 11
3.638889
 21
2.824470
 31
0.000000
  0
TEXT
  8
LAYER-2
 62
  0
 10
3.638889
 20
0.546692
 30
0.000000
 40
0.250000
  1
Mobilflex can bend any radius to match any design
 72
  5
 11
11.388889
 21
0.546692
 31
0.000000
  0
TEXT
  8
LAYER-2
 62
  0
 10
3.638889
 20
0.157803
 30
0.000000
 40
0.250000
  1
( Please specify radius and length on drawings )
 72
  5
 11
11.111111
 21
0.157803
 31
0.000000
  0
POLYLINE
  8
LAYER-2
 66
  1
 70
  0
 62
  0
 10
4.996620
 20
2.399736
 30
0.000000
  0
VERTEX
  8
LAYER-2
 10
4.996620
 20
2.399736
 30
0.000000
  0
VERTEX
  8
LAYER-2
 10
5.127579
 20
2.431978
 30
0.000000
  0
SEQEND
  8
LAYER-2
  0
POLYLINE
  8
LAYER-2
 66
  1
 70
  0
 62
  0
 10
5.153337
 20
2.416397
 30
0.000000
  0
VERTEX
  8
LAYER-2
 10
5.153337
 20
2.416397
 30
0.000000
  0
VERTEX
  8
LAYER-2
 10
5.163516
 20
2.375056
 30
0.000000
  0
SEQEND
  8
LAYER-2
  0
POLYLINE
  8
LAYER-2
 66
  1
 70
  0
 62
  0
 10
5.147935
 20
2.349297
 30
0.000000
  0
VERTEX
  8
LAYER-2
 10
5.147935
 20
2.349297
 30
0.000000
  0
VERTEX
  8
LAYER-2
 10
5.016975
 20
2.317056
 30
0.000000
  0
SEQEND
  8
LAYER-2
  0
POLYLINE
  8
LAYER-2
 66
  1
 70
  0
 62
  0
 10
4.991218
 20
2.332637
 30
0.000000
  0
VERTEX
  8
LAYER-2
 10
4.991218
 20
2.332637
 30
0.000000
  0
VERTEX
  8
LAYER-2
 10
4.981039
 20
2.373979
 30
0.000000
  0
SEQEND
  8
LAYER-2
  0
ARC
  8
LAYER-2
 62
  0
 10
5.001709
 20
2.379067
 30
0.000000
 40
0.021287
 50
103.831116
 51
193.831116
  0
ARC
  8
LAYER-2
 62
  0
 10
5.011887
 20
2.337724
 30
0.000000
 40
0.021287
 50
193.831116
 51
283.831116
  0
ARC
  8
LAYER-2
 62
  0
 10
5.142846
 20
2.369966
 30
0.000000
 40
0.021287
 50
283.831116
 51
13.831116
  0
ARC
  8
LAYER-2
 62
  0
 10
5.132668
 20
2.411309
 30
0.000000
 40
0.021287
 50
13.831116
 51
103.831116
  0
POLYLINE
  8
LAYER-2
 66
  1
 70
  0
 62
  0
 10
4.940902
 20
2.542270
 30
0.000000
  0
VERTEX
  8
LAYER-2
 10
4.940902
 20
2.542270
 30
0.000000
  0
VERTEX
  8
LAYER-2
 10
5.111593
 20
2.584295
 30
0.000000
  0
SEQEND
  8
LAYER-2
  0
POLYLINE
  8
LAYER-2
 66
  1
 70
  0
 62
  0
 10
5.161397
 20
2.554170
 30
0.000000
  0
VERTEX
  8
LAYER-2
 10
5.161397
 20
2.554170
 30
0.000000
  0
VERTEX
  8
LAYER-2
 10
5.181076
 20
2.474240
 30
0.000000
  0
SEQEND
  8
LAYER-2
  0
POLYLINE
  8
LAYER-2
 66
  1
 70
  0
 62
  0
 10
5.150949
 20
2.424437
 30
0.000000
  0
VERTEX
  8
LAYER-2
 10
5.150949
 20
2.424437
 30
0.000000
  0
VERTEX
  8
LAYER-2
 10
4.980259
 20
2.382412
 30
0.000000
  0
SEQEND
  8
LAYER-2
  0
POLYLINE
  8
LAYER-2
 66
  1
 70
  0
 62
  0
 10
4.930454
 20
2.412538
 30
0.000000
  0
VERTEX
  8
LAYER-2
 10
4.930454
 20
2.412538
 30
0.000000
  0
VERTEX
  8
LAYER-2
 10
4.910775
 20
2.492467
 30
0.000000
  0
SEQEND
  8
LAYER-2
  0
ARC
  8
LAYER-2
 62
  0
 10
4.950741
 20
2.502306
 30
0.000000
 40
0.041159
 50
103.831116
 51
193.831116
  0
ARC
  8
LAYER-2
 62
  0
 10
4.970419
 20
2.422379
 30
0.000000
 40
0.041159
 50
193.831116
 51
283.831116
  0
ARC
  8
LAYER-2
 62
  0
 10
5.141110
 20
2.464401
 30
0.000000
 40
0.041159
 50
283.831116
 51
13.831116
  0
ARC
  8
LAYER-2
 62
  0
 10
5.121432
 20
2.544328
 30
0.000000
 40
0.041159
 50
13.831116
 51
103.831116
  0
ARC
  8
LAYER-2
 62
  0
 10
3.027560
 20
14.414622
 30
0.000000
 40
0.107387
 50
326.825317
 51
24.856018
  0
POLYLINE
  8
LAYER-2
 66
  1
 70
  0
 62
  0
 10
3.293326
 20
14.459751
 30
0.000000
  0
VERTEX
  8
LAYER-2
 10
3.293326
 20
14.459751
 30
0.000000
  0
VERTEX
  8
LAYER-2
 10
3.124999
 20
14.459761
 30
0.000000
  0
SEQEND
  8
LAYER-2
  0
ARC
  8
LAYER-2
 62
  0
 10
3.293326
 20
14.494751
 30
0.000000
 40
0.035000
 50
270.000000
 51
0.000000
  0
POLYLINE
  8
LAYER-2
 66
  1
 70
  0
 62
  0
 10
3.328327
 20
15.986591
 30
0.000000
  0
VERTEX
  8
LAYER-2
 10
3.328327
 20
15.986591
 30
0.000000
  0
VERTEX
  8
LAYER-2
 10
3.328327
 20
14.494751
 30
0.000000
  0
SEQEND
  8
LAYER-2
  0
ARC
  8
LAYER-2
 62
  0
 10
3.293326
 20
15.986591
 30
0.000000
 40
0.035000
 50
0.000000
 51
90.000000
  0
POLYLINE
  8
LAYER-2
 66
  1
 70
  0
 62
  0
 10
3.285955
 20
16.021589
 30
0.000000
  0
VERTEX
  8
LAYER-2
 10
3.285955
 20
16.021589
 30
0.000000
  0
VERTEX
  8
LAYER-2
 10
3.293326
 20
16.021589
 30
0.000000
  0
SEQEND
  8
LAYER-2
  0
ARC
  8
LAYER-2
 62
  0
 10
3.285955
 20
15.986591
 30
0.000000
 40
0.035000
 50
90.000000
 51
180.000000
  0
POLYLINE
  8
LAYER-2
 66
  1
 70
  0
 62
  0
 10
3.250956
 20
15.979896
 30
0.000000
  0
VERTEX
  8
LAYER-2
 10
3.250956
 20
15.979896
 30
0.000000
  0
VERTEX
  8
LAYER-2
 10
3.250956
 20
15.986591
 30
0.000000
  0
SEQEND
  8
LAYER-2
  0
ARC
  8
LAYER-2
 62
  0
 10
3.215955
 20
15.979896
 30
0.000000
 40
0.035000
 50
270.000000
 51
0.000000
  0
POLYLINE
  8
LAYER-2
 66
  1
 70
  0
 62
  0
 10
3.124199
 20
15.944895
 30
0.000000
  0
VERTEX
  8
LAYER-2
 10
3.124199
 20
15.944895
 30
0.000000
  0
VERTEX
  8
LAYER-2
 10
3.215955
 20
15.944895
 30
0.000000
  0
SEQEND
  8
LAYER-2
  0
ARC
  8
LAYER-2
 62
  0
 10
3.124199
 20
15.979896
 30
0.000000
 40
0.035000
 50
180.000000
 51
270.000000
  0
POLYLINE
  8
LAYER-2
 66
  1
 70
  0
 62
  0
 10
3.089199
 20
15.986591
 30
0.000000
  0
VERTEX
  8
LAYER-2
 10
3.089199
 20
15.986591
 30
0.000000
  0
VERTEX
  8
LAYER-2
 10
3.089199
 20
15.979896
 30
0.000000
  0
SEQEND
  8
LAYER-2
  0
ARC
  8
LAYER-2
 62
  0
 10
3.054199
 20
15.986591
 30
0.000000
 40
0.035000
 50
0.000000
 51
90.000000
  0
POLYLINE
  8
LAYER-2
 66
  1
 70
  0
 62
  0
 10
2.280232
 20
16.021589
 30
0.000000
  0
VERTEX
  8
LAYER-2
 10
2.280232
 20
16.021589
 30
0.000000
  0
VERTEX
  8
LAYER-2
 10
3.054199
 20
16.021589
 30
0.000000
  0
SEQEND
  8
LAYER-2
  0
ARC
  8
LAYER-2
 62
  0
 10
2.280232
 20
15.986591
 30
0.000000
 40
0.035000
 50
90.000000
 51
180.000000
  0
POLYLINE
  8
LAYER-2
 66
  1
 70
  0
 62
  0
 10
2.245232
 20
15.979896
 30
0.000000
  0
VERTEX
  8
LAYER-2
 10
2.245232
 20
15.979896
 30
0.000000
  0
VERTEX
  8
LAYER-2
 10
2.245232
 20
15.986591
 30
0.000000
  0
SEQEND
  8
LAYER-2
  0
ARC
  8
LAYER-2
 62
  0
 10
2.210233
 20
15.979896
 30
0.000000
 40
0.035000
 50
270.000000
 51
0.000000
  0
POLYLINE
  8
LAYER-2
 66
  1
 70
  0
 62
  0
 10
2.118467
 20
15.944895
 30
0.000000
  0
VERTEX
  8
LAYER-2
 10
2.118467
 20
15.944895
 30
0.000000
  0
VERTEX
  8
LAYER-2
 10
2.210233
 20
15.944895
 30
0.000000
  0
SEQEND
  8
LAYER-2
  0
ARC
  8
LAYER-2
 62
  0
 10
2.118467
 20
15.979896
 30
0.000000
 40
0.035000
 50
180.000000
 51
270.000000
  0
POLYLINE
  8
LAYER-2
 66
  1
 70
  0
 62
  0
 10
2.083468
 20
15.986591
 30
0.000000
  0
VERTEX
  8
LAYER-2
 10
2.083468
 20
15.986591
 30
0.000000
  0
VERTEX
  8
LAYER-2
 10
2.083468
 20
15.979896
 30
0.000000
  0
SEQEND
  8
LAYER-2
  0
ARC
  8
LAYER-2
 62
  0
 10
2.048467
 20
15.986591
 30
0.000000
 40
0.035000
 50
0.000000
 51
90.000000
  0
POLYLINE
  8
LAYER-2
 66
  1
 70
  0
 62
  0
 10
2.048137
 20
16.021589
 30
0.000000
  0
VERTEX
  8
LAYER-2
 10
2.048137
 20
16.021589
 30
0.000000
  0
VERTEX
  8
LAYER-2
 10
2.048467
 20
16.021589
 30
0.000000
  0
SEQEND
  8
LAYER-2
  0
ARC
  8
LAYER-2
 62
  0
 10
2.048137
 20
15.986591
 30
0.000000
 40
0.035000
 50
90.000000
 51
180.000000
  0
POLYLINE
  8
LAYER-2
 66
  1
 70
  0
 62
  0
 10
2.013137
 20
15.986591
 30
0.000000
  0
VERTEX
  8
LAYER-2
 10
2.013137
 20
15.986591
 30
0.000000
  0
VERTEX
  8
LAYER-2
 10
2.013137
 20
14.494751
 30
0.000000
  0
SEQEND
  8
LAYER-2
  0
ARC
  8
LAYER-2
 62
  0
 10
2.048137
 20
14.494751
 30
0.000000
 40
0.035000
 50
180.000000
 51
270.000000
  0
POLYLINE
  8
LAYER-2
 66
  1
 70
  0
 62
  0
 10
2.048137
 20
14.459751
 30
0.000000
  0
VERTEX
  8
LAYER-2
 10
2.048137
 20
14.459751
 30
0.000000
  0
VERTEX
  8
LAYER-2
 10
2.216364
 20
14.459759
 30
0.000000
  0
SEQEND
  8
LAYER-2
  0
ARC
  8
LAYER-2
 62
  0
 10
2.313803
 20
14.414622
 30
0.000000
 40
0.107387
 50
155.143982
 51
213.174698
  0
ARC
  8
LAYER-2
 62
  0
 10
2.248838
 20
14.372152
 30
0.000000
 40
0.029771
 50
213.178543
 51
33.178799
  0
ARC
  8
LAYER-2
 62
  0
 10
2.313803
 20
14.414622
 30
0.000000
 40
0.047844
 50
327.054993
 51
213.169800
  0
ARC
  8
LAYER-2
 62
  0
 10
2.379082
 20
14.372272
 30
0.000000
 40
0.029968
 50
146.983093
 51
326.983093
  0
ARC
  8
LAYER-2
 62
  0
 10
2.313803
 20
14.414622
 30
0.000000
 40
0.107781
 50
327.014923
 51
24.759079
  0
POLYLINE
  8
LAYER-2
 66
  1
 70
  0
 62
  0
 10
2.442158
 20
14.459751
 30
0.000000
  0
VERTEX
  8
LAYER-2
 10
2.442158
 20
14.459751
 30
0.000000
  0
VERTEX
  8
LAYER-2
 10
2.411676
 20
14.459759
 30
0.000000
  0
SEQEND
  8
LAYER-2
  0
POLYLINE
  8
LAYER-2
 66
  1
 70
  0
 62
  0
 10
2.442158
 20
14.578281
 30
0.000000
  0
VERTEX
  8
LAYER-2
 10
2.442158
 20
14.578281
 30
0.000000
  0
VERTEX
  8
LAYER-2
 10
2.442158
 20
14.459751
 30
0.000000
  0
SEQEND
  8
LAYER-2
  0
POLYLINE
  8
LAYER-2
 66
  1
 70
  0
 62
  0
 10
2.122151
 20
14.679386
 30
0.000000
  0
VERTEX
  8
LAYER-2
 10
2.122151
 20
14.679386
 30
0.000000
  0
VERTEX
  8
LAYER-2
 10
2.442158
 20
14.578281
 30
0.000000
  0
SEQEND
  8
LAYER-2
  0
POLYLINE
  8
LAYER-2
 66
  1
 70
  0
 62
  0
 10
2.122151
 20
14.679386
 30
0.000000
  0
VERTEX
  8
LAYER-2
 10
2.122151
 20
14.679386
 30
0.000000
  0
VERTEX
  8
LAYER-2
 10
2.122151
 20
14.800793
 30
0.000000
  0
SEQEND
  8
LAYER-2
  0
ARC
  8
LAYER-2
 62
  0
 10
2.087152
 20
14.800793
 30
0.000000
 40
0.035000
 50
0.000000
 51
84.851196
  0
POLYLINE
  8
LAYER-2
 66
  1
 70
  0
 62
  0
 10
2.083468
 20
14.836266
 30
0.000000
  0
VERTEX
  8
LAYER-2
 10
2.083468
 20
14.836266
 30
0.000000
  0
VERTEX
  8
LAYER-2
 10
2.090293
 20
14.835653
 30
0.000000
  0
SEQEND
  8
LAYER-2
  0
POLYLINE
  8
LAYER-2
 66
  1
 70
  0
 62
  0
 10
2.083468
 20
14.836266
 30
0.000000
  0
VERTEX
  8
LAYER-2
 10
2.083468
 20
14.836266
 30
0.000000
  0
VERTEX
  8
LAYER-2
 10
2.083468
 20
15.833198
 30
0.000000
  0
SEQEND
  8
LAYER-2
  0
ARC
  8
LAYER-2
 62
  0
 10
2.118467
 20
15.833198
 30
0.000000
 40
0.035000
 50
90.000000
 51
180.000000
  0
POLYLINE
  8
LAYER-2
 66
  1
 70
  0
 62
  0
 10
2.118467
 20
15.868198
 30
0.000000
  0
VERTEX
  8
LAYER-2
 10
2.118467
 20
15.868198
 30
0.000000
  0
VERTEX
  8
LAYER-2
 10
2.210233
 20
15.868198
 30
0.000000
  0
SEQEND
  8
LAYER-2
  0
ARC
  8
LAYER-2
 62
  0
 10
2.210233
 20
15.833198
 30
0.000000
 40
0.035000
 50
0.000000
 51
90.000000
  0
POLYLINE
  8
LAYER-2
 66
  1
 70
  0
 62
  0
 10
2.245232
 20
15.833198
 30
0.000000
  0
VERTEX
  8
LAYER-2
 10
2.245232
 20
15.833198
 30
0.000000
  0
VERTEX
  8
LAYER-2
 10
2.245232
 20
15.826499
 30
0.000000
  0
SEQEND
  8
LAYER-2
  0
ARC
  8
LAYER-2
 62
  0
 10
2.280232
 20
15.826499
 30
0.000000
 40
0.035000
 50
180.000000
 51
270.000000
  0
POLYLINE
  8
LAYER-2
 66
  1
 70
  0
 62
  0
 10
2.280232
 20
15.791499
 30
0.000000
  0
VERTEX
  8
LAYER-2
 10
2.280232
 20
15.791499
 30
0.000000
  0
VERTEX
  8
LAYER-2
 10
2.344788
 20
15.791499
 30
0.000000
  0
SEQEND
  8
LAYER-2
  0
ARC
  8
LAYER-2
 62
  0
 10
2.344788
 20
15.811500
 30
0.000000
 40
0.020000
 50
270.000000
 51
0.000000
  0
POLYLINE
  8
LAYER-2
 66
  1
 70
  0
 62
  0
 10
2.364787
 20
15.827281
 30
0.000000
  0
VERTEX
  8
LAYER-2
 10
2.364787
 20
15.827281
 30
0.000000
  0
VERTEX
  8
LAYER-2
 10
2.364787
 20
15.811500
 30
0.000000
  0
SEQEND
  8
LAYER-2
  0
ARC
  8
LAYER-2
 62
  0
 10
2.344788
 20
15.827281
 30
0.000000
 40
0.020000
 50
0.000000
 51
90.000000
  0
POLYLINE
  8
LAYER-2
 66
  1
 70
  0
 62
  0
 10
2.342594
 20
15.847280
 30
0.000000
  0
VERTEX
  8
LAYER-2
 10
2.342594
 20
15.847280
 30
0.000000
  0
VERTEX
  8
LAYER-2
 10
2.344788
 20
15.847280
 30
0.000000
  0
SEQEND
  8
LAYER-2
  0
ARC
  8
LAYER-2
 62
  0
 10
2.342594
 20
15.867279
 30
0.000000
 40
0.020000
 50
180.000000
 51
270.000000
  0
POLYLINE
  8
LAYER-2
 66
  1
 70
  0
 62
  0
 10
2.322595
 20
15.909895
 30
0.000000
  0
VERTEX
  8
LAYER-2
 10
2.322595
 20
15.909895
 30
0.000000
  0
VERTEX
  8
LAYER-2
 10
2.322595
 20
15.867279
 30
0.000000
  0
SEQEND
  8
LAYER-2
  0
ARC
  8
LAYER-2
 62
  0
 10
2.357594
 20
15.909895
 30
0.000000
 40
0.035000
 50
90.000000
 51
180.000000
  0
POLYLINE
  8
LAYER-2
 66
  1
 70
  0
 62
  0
 10
2.357594
 20
15.944895
 30
0.000000
  0
VERTEX
  8
LAYER-2
 10
2.357594
 20
15.944895
 30
0.000000
  0
VERTEX
  8
LAYER-2
 10
2.976837
 20
15.944895
 30
0.000000
  0
SEQEND
  8
LAYER-2
  0
ARC
  8
LAYER-2
 62
  0
 10
2.976837
 20
15.909895
 30
0.000000
 40
0.035000
 50
0.000000
 51
90.000000
  0
POLYLINE
  8
LAYER-2
 66
  1
 70
  0
 62
  0
 10
3.011837
 20
15.909895
 30
0.000000
  0
VERTEX
  8
LAYER-2
 10
3.011837
 20
15.909895
 30
0.000000
  0
VERTEX
  8
LAYER-2
 10
3.011837
 20
15.867279
 30
0.000000
  0
SEQEND
  8
LAYER-2
  0
ARC
  8
LAYER-2
 62
  0
 10
2.991838
 20
15.867279
 30
0.000000
 40
0.020000
 50
270.000000
 51
0.000000
  0
POLYLINE
  8
LAYER-2
 66
  1
 70
  0
 62
  0
 10
2.991838
 20
15.847280
 30
0.000000
  0
VERTEX
  8
LAYER-2
 10
2.991838
 20
15.847280
 30
0.000000
  0
VERTEX
  8
LAYER-2
 10
2.989636
 20
15.847280
 30
0.000000
  0
SEQEND
  8
LAYER-2
  0
ARC
  8
LAYER-2
 62
  0
 10
2.989636
 20
15.827281
 30
0.000000
 40
0.020000
 50
90.000000
 51
180.000000
  0
POLYLINE
  8
LAYER-2
 66
  1
 70
  0
 62
  0
 10
2.969637
 20
15.827281
 30
0.000000
  0
VERTEX
  8
LAYER-2
 10
2.969637
 20
15.827281
 30
0.000000
  0
VERTEX
  8
LAYER-2
 10
2.969637
 20
15.811500
 30
0.000000
  0
SEQEND
  8
LAYER-2
  0
ARC
  8
LAYER-2
 62
  0
 10
2.989636
 20
15.811500
 30
0.000000
 40
0.020000
 50
180.000000
 51
270.000000
  0
POLYLINE
  8
LAYER-2
 66
  1
 70
  0
 62
  0
 10
3.054199
 20
15.791499
 30
0.000000
  0
VERTEX
  8
LAYER-2
 10
3.054199
 20
15.791499
 30
0.000000
  0
VERTEX
  8
LAYER-2
 10
2.989636
 20
15.791499
 30
0.000000
  0
SEQEND
  8
LAYER-2
  0
ARC
  8
LAYER-2
 62
  0
 10
3.054199
 20
15.826499
 30
0.000000
 40
0.035000
 50
270.000000
 51
0.000000
  0
POLYLINE
  8
LAYER-2
 66
  1
 70
  0
 62
  0
 10
3.089199
 20
15.833198
 30
0.000000
  0
VERTEX
  8
LAYER-2
 10
3.089199
 20
15.833198
 30
0.000000
  0
VERTEX
  8
LAYER-2
 10
3.089199
 20
15.826499
 30
0.000000
  0
SEQEND
  8
LAYER-2
  0
ARC
  8
LAYER-2
 62
  0
 10
3.124199
 20
15.833198
 30
0.000000
 40
0.035000
 50
90.000000
 51
180.000000
  0
POLYLINE
  8
LAYER-2
 66
  1
 70
  0
 62
  0
 10
3.124199
 20
15.868198
 30
0.000000
  0
VERTEX
  8
LAYER-2
 10
3.124199
 20
15.868198
 30
0.000000
  0
VERTEX
  8
LAYER-2
 10
3.215955
 20
15.868198
 30
0.000000
  0
SEQEND
  8
LAYER-2
  0
ARC
  8
LAYER-2
 62
  0
 10
3.215955
 20
15.833198
 30
0.000000
 40
0.035000
 50
0.000000
 51
90.000000
  0
POLYLINE
  8
LAYER-2
 66
  1
 70
  0
 62
  0
 10
3.250956
 20
14.836266
 30
0.000000
  0
VERTEX
  8
LAYER-2
 10
3.250956
 20
14.836266
 30
0.000000
  0
VERTEX
  8
LAYER-2
 10
3.250956
 20
15.833198
 30
0.000000
  0
SEQEND
  8
LAYER-2
  0
POLYLINE
  8
LAYER-2
 66
  1
 70
  0
 62
  0
 10
3.250956
 20
14.836266
 30
0.000000
  0
VERTEX
  8
LAYER-2
 10
3.250956
 20
14.836266
 30
0.000000
  0
VERTEX
  8
LAYER-2
 10
3.240881
 20
14.835436
 30
0.000000
  0
SEQEND
  8
LAYER-2
  0
ARC
  8
LAYER-2
 62
  0
 10
3.243762
 20
14.800554
 30
0.000000
 40
0.035000
 50
94.722626
 51
180.000000
  0
POLYLINE
  8
LAYER-2
 66
  1
 70
  0
 62
  0
 10
3.208763
 20
14.679386
 30
0.000000
  0
VERTEX
  8
LAYER-2
 10
3.208763
 20
14.679386
 30
0.000000
  0
VERTEX
  8
LAYER-2
 10
3.208763
 20
14.800554
 30
0.000000
  0
SEQEND
  8
LAYER-2
  0
POLYLINE
  8
LAYER-2
 66
  1
 70
  0
 62
  0
 10
2.899307
 20
14.578281
 30
0.000000
  0
VERTEX
  8
LAYER-2
 10
2.899307
 20
14.578281
 30
0.000000
  0
VERTEX
  8
LAYER-2
 10
3.208763
 20
14.679386
 30
0.000000
  0
SEQEND
  8
LAYER-2
  0
POLYLINE
  8
LAYER-2
 66
  1
 70
  0
 62
  0
 10
2.899307
 20
14.578281
 30
0.000000
  0
VERTEX
  8
LAYER-2
 10
2.899307
 20
14.578281
 30
0.000000
  0
VERTEX
  8
LAYER-2
 10
2.899307
 20
14.459751
 30
0.000000
  0
SEQEND
  8
LAYER-2
  0
POLYLINE
  8
LAYER-2
 66
  1
 70
  0
 62
  0
 10
2.929687
 20
14.459761
 30
0.000000
  0
VERTEX
  8
LAYER-2
 10
2.929687
 20
14.459761
 30
0.000000
  0
VERTEX
  8
LAYER-2
 10
2.899307
 20
14.459751
 30
0.000000
  0
SEQEND
  8
LAYER-2
  0
ARC
  8
LAYER-2
 62
  0
 10
3.027560
 20
14.414622
 30
0.000000
 40
0.107781
 50
155.240906
 51
212.985077
  0
ARC
  8
LAYER-2
 62
  0
 10
2.962281
 20
14.372272
 30
0.000000
 40
0.029968
 50
213.016891
 51
33.016964
  0
ARC
  8
LAYER-2
 62
  0
 10
3.027560
 20
14.414622
 30
0.000000
 40
0.047844
 50
326.830200
 51
212.945007
  0
ARC
  8
LAYER-2
 62
  0
 10
3.092525
 20
14.372152
 30
0.000000
 40
0.029771
 50
146.821594
 51
326.821320
  0
POLYLINE
  8
LAYER-2
 66
  1
 70
  0
 62
  7
 10
2.471429
 20
14.710968
 30
0.000000
  0
VERTEX
  8
LAYER-2
 10
2.471429
 20
14.710968
 30
0.000000
  0
VERTEX
  8
LAYER-2
 10
2.458076
 20
14.777518
 30
0.000000
  0
VERTEX
  8
LAYER-2
 10
2.420050
 20
14.833937
 30
0.000000
  0
VERTEX
  8
LAYER-2
 10
2.363141
 20
14.871635
 30
0.000000
  0
VERTEX
  8
LAYER-2
 10
2.296012
 20
14.884872
 30
0.000000
  0
VERTEX
  8
LAYER-2
 10
2.228884
 20
14.871635
 30
0.000000
  0
VERTEX
  8
LAYER-2
 10
2.171975
 20
14.833937
 30
0.000000
  0
VERTEX
  8
LAYER-2
 10
2.133949
 20
14.777518
 30
0.000000
  0
VERTEX
  8
LAYER-2
 10
2.120596
 20
14.710968
 30
0.000000
  0
VERTEX
  8
LAYER-2
 10
2.133949
 20
14.644416
 30
0.000000
  0
VERTEX
  8
LAYER-2
 10
2.171975
 20
14.587997
 30
0.000000
  0
VERTEX
  8
LAYER-2
 10
2.228884
 20
14.550300
 30
0.000000
  0
VERTEX
  8
LAYER-2
 10
2.296012
 20
14.537062
 30
0.000000
  0
VERTEX
  8
LAYER-2
 10
2.363141
 20
14.550300
 30
0.000000
  0
VERTEX
  8
LAYER-2
 10
2.420050
 20
14.587997
 30
0.000000
  0
VERTEX
  8
LAYER-2
 10
2.458076
 20
14.644416
 30
0.000000
  0
VERTEX
  8
LAYER-2
 10
2.471429
 20
14.710968
 30
0.000000
  0
SEQEND
  8
LAYER-2
  0
POLYLINE
  8
LAYER-2
 66
  1
 70
  0
 62
  7
 10
3.202612
 20
14.718645
 30
0.000000
  0
VERTEX
  8
LAYER-2
 10
3.202612
 20
14.718645
 30
0.000000
  0
VERTEX
  8
LAYER-2
 10
3.189260
 20
14.785195
 30
0.000000
  0
VERTEX
  8
LAYER-2
 10
3.151234
 20
14.841614
 30
0.000000
  0
VERTEX
  8
LAYER-2
 10
3.094325
 20
14.879311
 30
0.000000
  0
VERTEX
  8
LAYER-2
 10
3.027196
 20
14.892549
 30
0.000000
  0
VERTEX
  8
LAYER-2
 10
2.960067
 20
14.879311
 30
0.000000
  0
VERTEX
  8
LAYER-2
 10
2.903159
 20
14.841614
 30
0.000000
  0
VERTEX
  8
LAYER-2
 10
2.865133
 20
14.785195
 30
0.000000
  0
VERTEX
  8
LAYER-2
 10
2.851780
 20
14.718645
 30
0.000000
  0
VERTEX
  8
LAYER-2
 10
2.865133
 20
14.652095
 30
0.000000
  0
VERTEX
  8
LAYER-2
 10
2.903159
 20
14.595674
 30
0.000000
  0
VERTEX
  8
LAYER-2
 10
2.960067
 20
14.557977
 30
0.000000
  0
VERTEX
  8
LAYER-2
 10
3.027196
 20
14.544739
 30
0.000000
  0
VERTEX
  8
LAYER-2
 10
3.094325
 20
14.557977
 30
0.000000
  0
VERTEX
  8
LAYER-2
 10
3.151234
 20
14.595674
 30
0.000000
  0
VERTEX
  8
LAYER-2
 10
3.189260
 20
14.652095
 30
0.000000
  0
VERTEX
  8
LAYER-2
 10
3.202612
 20
14.718645
 30
0.000000
  0
SEQEND
  8
LAYER-2
  0
POLYLINE
  8
LAYER-2
 66
  1
 70
  0
 62
  0
 10
9.071656
 20
12.186107
 30
0.000000
  0
VERTEX
  8
LAYER-2
 10
9.071656
 20
12.186107
 30
0.000000
  0
VERTEX
  8
LAYER-2
 10
8.834702
 20
12.176531
 30
0.000000
  0
VERTEX
  8
LAYER-2
 10
8.601979
 20
12.142010
 30
0.000000
  0
VERTEX
  8
LAYER-2
 10
8.373759
 20
12.084845
 30
0.000000
  0
VERTEX
  8
LAYER-2
 10
8.152243
 20
12.005585
 30
0.000000
  0
VERTEX
  8
LAYER-2
 10
7.939562
 20
11.904994
 30
0.000000
  0
VERTEX
  8
LAYER-2
 10
7.737764
 20
11.784042
 30
0.000000
  0
VERTEX
  8
LAYER-2
 10
7.548794
 20
11.643891
 30
0.000000
  0
VERTEX
  8
LAYER-2
 10
7.374470
 20
11.485893
 30
0.000000
  0
VERTEX
  8
LAYER-2
 10
7.216473
 20
11.311570
 30
0.000000
  0
VERTEX
  8
LAYER-2
 10
7.076324
 20
11.122601
 30
0.000000
  0
VERTEX
  8
LAYER-2
 10
6.955371
 20
10.920803
 30
0.000000
  0
VERTEX
  8
LAYER-2
 10
6.854780
 20
10.708122
 30
0.000000
  0
VERTEX
  8
LAYER-2
 10
6.775520
 20
10.486604
 30
0.000000
  0
VERTEX
  8
LAYER-2
 10
6.718354
 20
10.258386
 30
0.000000
  0
VERTEX
  8
LAYER-2
 10
6.683833
 20
10.025664
 30
0.000000
  0
VERTEX
  8
LAYER-2
 10
6.674255
 20
9.788709
 30
0.000000
  0
SEQEND
  8
LAYER-2
  0
POLYLINE
  8
LAYER-2
 66
  1
 70
  0
 62
  0
 10
9.071656
 20
11.942304
 30
0.000000
  0
VERTEX
  8
LAYER-2
 10
9.071656
 20
11.942304
 30
0.000000
  0
VERTEX
  8
LAYER-2
 10
8.858598
 20
11.933902
 30
0.000000
  0
VERTEX
  8
LAYER-2
 10
8.649542
 20
11.902891
 30
0.000000
  0
VERTEX
  8
LAYER-2
 10
8.444532
 20
11.851540
 30
0.000000
  0
VERTEX
  8
LAYER-2
 10
8.245542
 20
11.780340
 30
0.000000
  0
VERTEX
  8
LAYER-2
 10
8.054490
 20
11.689979
 30
0.000000
  0
VERTEX
  8
LAYER-2
 10
7.873214
 20
11.581326
 30
0.000000
  0
VERTEX
  8
LAYER-2
 10
7.703462
 20
11.455429
 30
0.000000
  0
VERTEX
  8
LAYER-2
 10
7.546867
 20
11.313499
 30
0.000000
  0
VERTEX
  8
LAYER-2
 10
7.404936
 20
11.156904
 30
0.000000
  0
VERTEX
  8
LAYER-2
 10
7.279038
 20
10.987150
 30
0.000000
  0
VERTEX
  8
LAYER-2
 10
7.170386
 20
10.805874
 30
0.000000
  0
VERTEX
  8
LAYER-2
 10
7.080026
 20
10.614822
 30
0.000000
  0
VERTEX
  8
LAYER-2
 10
7.008826
 20
10.415833
 30
0.000000
  0
VERTEX
  8
LAYER-2
 10
6.957474
 20
10.210823
 30
0.000000
  0
VERTEX
  8
LAYER-2
 10
6.926463
 20
10.001767
 30
0.000000
  0
VERTEX
  8
LAYER-2
 10
6.918059
 20
9.788709
 30
0.000000
  0
SEQEND
  8
LAYER-2
  0
POLYLINE
  8
LAYER-2
 66
  1
 70
  0
 62
  0
 10
6.674255
 20
9.788709
 30
0.000000
  0
VERTEX
  8
LAYER-2
 10
6.674255
 20
9.788709
 30
0.000000
  0
VERTEX
  8
LAYER-2
 10
6.674255
 20
8.650959
 30
0.000000
  0
SEQEND
  8
LAYER-2
  0
POLYLINE
  8
LAYER-2
 66
  1
 70
  0
 62
  0
 10
6.918059
 20
9.788709
 30
0.000000
  0
VERTEX
  8
LAYER-2
 10
6.918059
 20
9.788709
 30
0.000000
  0
VERTEX
  8
LAYER-2
 10
6.918059
 20
8.650959
 30
0.000000
  0
SEQEND
  8
LAYER-2
  0
POLYLINE
  8
LAYER-2
 66
  1
 70
  0
 62
  0
 10
9.071655
 20
12.186106
 30
0.000000
  0
VERTEX
  8
LAYER-2
 10
9.071655
 20
12.186106
 30
0.000000
  0
VERTEX
  8
LAYER-2
 10
10.209406
 20
12.186106
 30
0.000000
  0
SEQEND
  8
LAYER-2
  0
POLYLINE
  8
LAYER-2
 66
  1
 70
  0
 62
  0
 10
9.071655
 20
11.942304
 30
0.000000
  0
VERTEX
  8
LAYER-2
 10
9.071655
 20
11.942304
 30
0.000000
  0
VERTEX
  8
LAYER-2
 10
10.209406
 20
11.942304
 30
0.000000
  0
SEQEND
  8
LAYER-2
  0
POLYLINE
  8
LAYER-2
 66
  1
 70
  0
 62
  0
 10
10.209406
 20
11.942304
 30
0.000000
  0
VERTEX
  8
LAYER-2
 10
10.209406
 20
11.942304
 30
0.000000
  0
VERTEX
  8
LAYER-2
 10
10.209406
 20
12.186106
 30
0.000000
  0
SEQEND
  8
LAYER-2
  0
POLYLINE
  8
LAYER-2
 66
  1
 70
  0
 62
  0
 10
6.918059
 20
9.788709
 30
0.000000
  0
VERTEX
  8
LAYER-2
 10
6.918059
 20
9.788709
 30
0.000000
  0
VERTEX
  8
LAYER-2
 10
9.071655
 20
9.788709
 30
0.000000
  0
SEQEND
  8
LAYER-2
  0
POLYLINE
  8
LAYER-2
 66
  1
 70
  0
 62
  0
 10
9.071655
 20
11.942304
 30
0.000000
  0
VERTEX
  8
LAYER-2
 10
9.071655
 20
11.942304
 30
0.000000
  0
VERTEX
  8
LAYER-2
 10
9.071655
 20
9.788709
 30
0.000000
  0
SEQEND
  8
LAYER-2
  0
POLYLINE
  8
LAYER-2
 66
  1
 70
  0
 62
  0
 10
7.856149
 20
9.788709
 30
0.000000
  0
VERTEX
  8
LAYER-2
 10
7.856149
 20
9.788709
 30
0.000000
  0
VERTEX
  8
LAYER-2
 10
7.856149
 20
9.788709
 30
0.000000
  0
SEQEND
  8
LAYER-2
  0
POLYLINE
  8
LAYER-2
 66
  1
 70
  0
 62
  0
 10
9.071655
 20
11.004217
 30
0.000000
  0
VERTEX
  8
LAYER-2
 10
9.071655
 20
11.004217
 30
0.000000
  0
VERTEX
  8
LAYER-2
 10
9.071655
 20
11.004217
 30
0.000000
  0
SEQEND
  8
LAYER-2
  0
ARC
  8
LAYER-2
 62
  0
 10
9.071655
 20
9.788709
 30
0.000000
 40
1.251797
 50
90.000000
 51
180.000000
  0
POLYLINE
  8
LAYER-2
 66
  1
 70
  1
 62
  0
  0
VERTEX
  8
LAYER-2
 10
7.819858
 20
9.788709
 30
0.000000
  0
VERTEX
  8
LAYER-2
 10
7.903192
 20
9.927598
 30
0.000000
  0
VERTEX
  8
LAYER-2
 10
7.819859
 20
9.927598
 30
0.000000
  0
VERTEX
  8
LAYER-2
 10
7.736526
 20
9.927598
 30
0.000000
  0
VERTEX
  8
LAYER-2
 10
7.819858
 20
9.788709
 30
0.000000
  0
SEQEND
  8
LAYER-2
  0
POLYLINE
  8
LAYER-2
 66
  1
 70
  1
 62
  0
  0
VERTEX
  8
LAYER-2
 10
9.071655
 20
11.040506
 30
0.000000
  0
VERTEX
  8
LAYER-2
 10
8.932766
 20
11.123839
 30
0.000000
  0
VERTEX
  8
LAYER-2
 10
8.932766
 20
11.040506
 30
0.000000
  0
VERTEX
  8
LAYER-2
 10
8.932766
 20
10.957173
 30
0.000000
  0
VERTEX
  8
LAYER-2
 10
9.071655
 20
11.040506
 30
0.000000
  0
SEQEND
  8
LAYER-2
  0
TEXT
  8
LAYER-2
 62
  0
 10
8.089240
 20
10.623026
 30
0.000000
 40
0.250000
  1
90.0°
  0
POLYLINE
  8
LAYER-2
 66
  1
 70
  0
 62
  0
 10
6.674255
 20
8.650959
 30
0.000000
  0
VERTEX
  8
LAYER-2
 10
6.674255
 20
8.650959
 30
0.000000
  0
VERTEX
  8
LAYER-2
 10
6.918059
 20
8.650959
 30
0.000000
  0
SEQEND
  8
LAYER-2
  0
POLYLINE
  8
LAYER-2
 66
  1
 70
  0
 62
  0
 10
3.300438
 20
10.957767
 30
0.000000
  0
VERTEX
  8
LAYER-2
 10
3.300438
 20
10.957767
 30
0.000000
  0
VERTEX
  8
LAYER-2
 10
3.063484
 20
10.948192
 30
0.000000
  0
VERTEX
  8
LAYER-2
 10
2.830760
 20
10.913671
 30
0.000000
  0
VERTEX
  8
LAYER-2
 10
2.602541
 20
10.856505
 30
0.000000
  0
VERTEX
  8
LAYER-2
 10
2.381025
 20
10.777245
 30
0.000000
  0
VERTEX
  8
LAYER-2
 10
2.168344
 20
10.676655
 30
0.000000
  0
VERTEX
  8
LAYER-2
 10
1.966546
 20
10.555702
 30
0.000000
  0
VERTEX
  8
LAYER-2
 10
1.777576
 20
10.415552
 30
0.000000
  0
VERTEX
  8
LAYER-2
 10
1.605221
 20
10.255586
 30
0.000000
  0
SEQEND
  8
LAYER-2
  0
POLYLINE
  8
LAYER-2
 66
  1
 70
  0
 62
  0
 10
3.300438
 20
10.713965
 30
0.000000
  0
VERTEX
  8
LAYER-2
 10
3.300438
 20
10.713965
 30
0.000000
  0
VERTEX
  8
LAYER-2
 10
3.087381
 20
10.705562
 30
0.000000
  0
VERTEX
  8
LAYER-2
 10
2.878324
 20
10.674553
 30
0.000000
  0
VERTEX
  8
LAYER-2
 10
2.673314
 20
10.623200
 30
0.000000
  0
VERTEX
  8
LAYER-2
 10
2.474324
 20
10.552000
 30
0.000000
  0
VERTEX
  8
LAYER-2
 10
2.283272
 20
10.461639
 30
0.000000
  0
VERTEX
  8
LAYER-2
 10
2.101996
 20
10.352987
 30
0.000000
  0
VERTEX
  8
LAYER-2
 10
1.932243
 20
10.227089
 30
0.000000
  0
VERTEX
  8
LAYER-2
 10
1.777616
 20
10.083191
 30
0.000000
  0
SEQEND
  8
LAYER-2
  0
POLYLINE
  8
LAYER-2
 66
  1
 70
  0
 62
  0
 10
3.300438
 20
10.957767
 30
0.000000
  0
VERTEX
  8
LAYER-2
 10
3.300438
 20
10.957767
 30
0.000000
  0
VERTEX
  8
LAYER-2
 10
5.332132
 20
10.957767
 30
0.000000
  0
SEQEND
  8
LAYER-2
  0
POLYLINE
  8
LAYER-2
 66
  1
 70
  0
 62
  0
 10
3.300438
 20
10.713961
 30
0.000000
  0
VERTEX
  8
LAYER-2
 10
3.300438
 20
10.713961
 30
0.000000
  0
VERTEX
  8
LAYER-2
 10
5.332132
 20
10.713961
 30
0.000000
  0
SEQEND
  8
LAYER-2
  0
POLYLINE
  8
LAYER-2
 66
  1
 70
  0
 62
  0
 10
5.332132
 20
10.713961
 30
0.000000
  0
VERTEX
  8
LAYER-2
 10
5.332132
 20
10.713961
 30
0.000000
  0
VERTEX
  8
LAYER-2
 10
5.332132
 20
10.957767
 30
0.000000
  0
SEQEND
  8
LAYER-2
  0
POLYLINE
  8
LAYER-2
 66
  1
 70
  0
 62
  0
 10
1.777530
 20
10.083040
 30
0.000000
  0
VERTEX
  8
LAYER-2
 10
1.777530
 20
10.083040
 30
0.000000
  0
VERTEX
  8
LAYER-2
 10
0.340905
 20
8.646417
 30
0.000000
  0
SEQEND
  8
LAYER-2
  0
POLYLINE
  8
LAYER-2
 66
  1
 70
  0
 62
  0
 10
1.605134
 20
10.255438
 30
0.000000
  0
VERTEX
  8
LAYER-2
 10
1.605134
 20
10.255438
 30
0.000000
  0
VERTEX
  8
LAYER-2
 10
0.168509
 20
8.818814
 30
0.000000
  0
SEQEND
  8
LAYER-2
  0
POLYLINE
  8
LAYER-2
 66
  1
 70
  0
 62
  0
 10
0.168509
 20
8.818814
 30
0.000000
  0
VERTEX
  8
LAYER-2
 10
0.168509
 20
8.818814
 30
0.000000
  0
VERTEX
  8
LAYER-2
 10
0.340905
 20
8.646417
 30
0.000000
  0
SEQEND
  8
LAYER-2
  0
POLYLINE
  8
LAYER-2
 66
  1
 70
  0
 62
  0
 10
11.319984
 20
10.440979
 30
0.000000
  0
VERTEX
  8
LAYER-2
 10
11.319984
 20
10.440979
 30
0.000000
  0
VERTEX
  8
LAYER-2
 10
11.320484
 20
8.651395
 30
0.000000
  0
SEQEND
  8
LAYER-2
  0
POLYLINE
  8
LAYER-2
 66
  1
 70
  0
 62
  0
 10
11.563697
 20
10.440979
 30
0.000000
  0
VERTEX
  8
LAYER-2
 10
11.563697
 20
10.440979
 30
0.000000
  0
VERTEX
  8
LAYER-2
 10
11.564288
 20
8.651395
 30
0.000000
  0
SEQEND
  8
LAYER-2
  0
POLYLINE
  8
LAYER-2
 66
  1
 70
  0
 62
  0
 10
13.066049
 20
12.187046
 30
0.000000
  0
VERTEX
  8
LAYER-2
 10
13.066049
 20
12.187046
 30
0.000000
  0
VERTEX
  8
LAYER-2
 10
14.855632
 20
12.186545
 30
0.000000
  0
SEQEND
  8
LAYER-2
  0
POLYLINE
  8
LAYER-2
 66
  1
 70
  0
 62
  0
 10
13.066049
 20
11.943331
 30
0.000000
  0
VERTEX
  8
LAYER-2
 10
13.066049
 20
11.943331
 30
0.000000
  0
VERTEX
  8
LAYER-2
 10
14.855632
 20
11.942741
 30
0.000000
  0
SEQEND
  8
LAYER-2
  0
POLYLINE
  8
LAYER-2
 66
  1
 70
  0
 62
  0
 10
14.855632
 20
11.942741
 30
0.000000
  0
VERTEX
  8
LAYER-2
 10
14.855632
 20
11.942741
 30
0.000000
  0
VERTEX
  8
LAYER-2
 10
14.855632
 20
12.186545
 30
0.000000
  0
SEQEND
  8
LAYER-2
  0
POLYLINE
  8
LAYER-2
 66
  1
 70
  0
 62
  0
 10
13.066049
 20
11.943331
 30
0.000000
  0
VERTEX
  8
LAYER-2
 10
13.066049
 20
11.943331
 30
0.000000
  0
VERTEX
  8
LAYER-2
 10
12.916824
 20
11.938065
 30
0.000000
  0
VERTEX
  8
LAYER-2
 10
12.770986
 20
11.916433
 30
0.000000
  0
VERTEX
  8
LAYER-2
 10
12.627971
 20
11.880609
 30
0.000000
  0
VERTEX
  8
LAYER-2
 10
12.489155
 20
11.830940
 30
0.000000
  0
VERTEX
  8
LAYER-2
 10
12.355876
 20
11.767904
 30
0.000000
  0
VERTEX
  8
LAYER-2
 10
12.229418
 20
11.692108
 30
0.000000
  0
VERTEX
  8
LAYER-2
 10
12.110998
 20
11.604282
 30
0.000000
  0
VERTEX
  8
LAYER-2
 10
12.001757
 20
11.505271
 30
0.000000
  0
VERTEX
  8
LAYER-2
 10
11.902746
 20
11.396030
 30
0.000000
  0
VERTEX
  8
LAYER-2
 10
11.814920
 20
11.277610
 30
0.000000
  0
VERTEX
  8
LAYER-2
 10
11.739125
 20
11.151152
 30
0.000000
  0
VERTEX
  8
LAYER-2
 10
11.676088
 20
11.017873
 30
0.000000
  0
VERTEX
  8
LAYER-2
 10
11.626420
 20
10.879058
 30
0.000000
  0
VERTEX
  8
LAYER-2
 10
11.590597
 20
10.736042
 30
0.000000
  0
VERTEX
  8
LAYER-2
 10
11.568963
 20
10.590204
 30
0.000000
  0
VERTEX
  8
LAYER-2
 10
11.563697
 20
10.440979
 30
0.000000
  0
SEQEND
  8
LAYER-2
  0
POLYLINE
  8
LAYER-2
 66
  1
 70
  0
 62
  0
 10
13.066049
 20
12.187042
 30
0.000000
  0
VERTEX
  8
LAYER-2
 10
13.066049
 20
12.187042
 30
0.000000
  0
VERTEX
  8
LAYER-2
 10
12.892936
 20
12.180603
 30
0.000000
  0
VERTEX
  8
LAYER-2
 10
12.723441
 20
12.155462
 30
0.000000
  0
VERTEX
  8
LAYER-2
 10
12.557226
 20
12.113826
 30
0.000000
  0
VERTEX
  8
LAYER-2
 10
12.395891
 20
12.056101
 30
0.000000
  0
VERTEX
  8
LAYER-2
 10
12.240992
 20
11.982839
 30
0.000000
  0
VERTEX
  8
LAYER-2
 10
12.094020
 20
11.894747
 30
0.000000
  0
VERTEX
  8
LAYER-2
 10
11.956390
 20
11.792674
 30
0.000000
  0
VERTEX
  8
LAYER-2
 10
11.829428
 20
11.677601
 30
0.000000
  0
VERTEX
  8
LAYER-2
 10
11.714355
 20
11.550639
 30
0.000000
  0
VERTEX
  8
LAYER-2
 10
11.612282
 20
11.413009
 30
0.000000
  0
VERTEX
  8
LAYER-2
 10
11.524190
 20
11.266036
 30
0.000000
  0
VERTEX
  8
LAYER-2
 10
11.450928
 20
11.111137
 30
0.000000
  0
VERTEX
  8
LAYER-2
 10
11.393202
 20
10.949803
 30
0.000000
  0
VERTEX
  8
LAYER-2
 10
11.351568
 20
10.783587
 30
0.000000
  0
VERTEX
  8
LAYER-2
 10
11.326425
 20
10.614093
 30
0.000000
  0
VERTEX
  8
LAYER-2
 10
11.319986
 20
10.440979
 30
0.000000
  0
SEQEND
  8
LAYER-2
  0
POLYLINE
  8
LAYER-2
 66
  1
 70
  0
 62
  0
 10
11.563697
 20
10.440979
 30
0.000000
  0
VERTEX
  8
LAYER-2
 10
11.563697
 20
10.440979
 30
0.000000
  0
VERTEX
  8
LAYER-2
 10
13.066049
 20
10.440979
 30
0.000000
  0
SEQEND
  8
LAYER-2
  0
POLYLINE
  8
LAYER-2
 66
  1
 70
  0
 62
  0
 10
13.066049
 20
11.943332
 30
0.000000
  0
VERTEX
  8
LAYER-2
 10
13.066049
 20
11.943332
 30
0.000000
  0
VERTEX
  8
LAYER-2
 10
13.066049
 20
10.440979
 30
0.000000
  0
SEQEND
  8
LAYER-2
  0
POLYLINE
  8
LAYER-2
 66
  1
 70
  0
 62
  0
 10
12.147658
 20
10.440979
 30
0.000000
  0
VERTEX
  8
LAYER-2
 10
12.147658
 20
10.440979
 30
0.000000
  0
VERTEX
  8
LAYER-2
 10
12.147658
 20
10.440979
 30
0.000000
  0
SEQEND
  8
LAYER-2
  0
POLYLINE
  8
LAYER-2
 66
  1
 70
  0
 62
  0
 10
13.066049
 20
11.359370
 30
0.000000
  0
VERTEX
  8
LAYER-2
 10
13.066049
 20
11.359370
 30
0.000000
  0
VERTEX
  8
LAYER-2
 10
13.066049
 20
11.359370
 30
0.000000
  0
SEQEND
  8
LAYER-2
  0
ARC
  8
LAYER-2
 62
  0
 10
13.066049
 20
10.440979
 30
0.000000
 40
0.973707
 50
90.000000
 51
180.000000
  0
POLYLINE
  8
LAYER-2
 66
  1
 70
  1
 62
  0
  0
VERTEX
  8
LAYER-2
 10
12.092342
 20
10.440979
 30
0.000000
  0
VERTEX
  8
LAYER-2
 10
12.175676
 20
10.579868
 30
0.000000
  0
VERTEX
  8
LAYER-2
 10
12.092343
 20
10.579868
 30
0.000000
  0
VERTEX
  8
LAYER-2
 10
12.009009
 20
10.579868
 30
0.000000
  0
VERTEX
  8
LAYER-2
 10
12.092342
 20
10.440979
 30
0.000000
  0
SEQEND
  8
LAYER-2
  0
POLYLINE
  8
LAYER-2
 66
  1
 70
  1
 62
  0
  0
VERTEX
  8
LAYER-2
 10
13.066049
 20
11.414686
 30
0.000000
  0
VERTEX
  8
LAYER-2
 10
12.927160
 20
11.498020
 30
0.000000
  0
VERTEX
  8
LAYER-2
 10
12.927160
 20
11.414686
 30
0.000000
  0
VERTEX
  8
LAYER-2
 10
12.927160
 20
11.331353
 30
0.000000
  0
VERTEX
  8
LAYER-2
 10
13.066049
 20
11.414686
 30
0.000000
  0
SEQEND
  8
LAYER-2
  0
TEXT
  8
LAYER-2
 62
  0
 10
12.274279
 20
11.071844
 30
0.000000
 40
0.250000
  1
90.0°
  0
POLYLINE
  8
LAYER-2
 66
  1
 70
  0
 62
  0
 10
11.320484
 20
8.651395
 30
0.000000
  0
VERTEX
  8
LAYER-2
 10
11.320484
 20
8.651395
 30
0.000000
  0
VERTEX
  8
LAYER-2
 10
11.564288
 20
8.651395
 30
0.000000
  0
SEQEND
  8
LAYER-2
  0
TEXT
  8
LAYER-2
 62
  0
 10
0.083334
 20
17.102247
 30
0.000000
 40
0.291667
  1
TRACK
 72
  5
 11
1.583334
 21
17.102247
 31
0.000000
  0
LINE
  8
LAYER-2
 62
  0
 10
0.989584
 20
14.479435
 30
0.000000
 11
0.989584
 21
16.001906
 31
0.000000
  0
LINE
  8
LAYER-2
 62
  0
 10
1.923137
 20
14.459751
 30
0.000000
 11
0.739584
 21
14.459751
 31
0.000000
  0
LINE
  8
LAYER-2
 62
  0
 10
1.923137
 20
16.021589
 30
0.000000
 11
0.739584
 21
16.021589
 31
0.000000
  0
LINE
  8
LAYER-2
 62
  0
 10
0.989584
 20
15.251550
 30
0.000000
 11
0.989584
 21
14.459751
 31
0.000000
  0
POLYLINE
  8
LAYER-2
 66
  1
 70
  1
 62
  0
  0
VERTEX
  8
LAYER-2
 10
0.989584
 20
14.459751
 30
0.000000
  0
VERTEX
  8
LAYER-2
 10
1.072918
 20
14.598640
 30
0.000000
  0
VERTEX
  8
LAYER-2
 10
0.989585
 20
14.598640
 30
0.000000
  0
VERTEX
  8
LAYER-2
 10
0.906251
 20
14.598640
 30
0.000000
  0
VERTEX
  8
LAYER-2
 10
0.989584
 20
14.459751
 30
0.000000
  0
SEQEND
  8
LAYER-2
  0
POLYLINE
  8
LAYER-2
 66
  1
 70
  1
 62
  0
  0
VERTEX
  8
LAYER-2
 10
0.989584
 20
16.021589
 30
0.000000
  0
VERTEX
  8
LAYER-2
 10
1.072917
 20
15.882701
 30
0.000000
  0
VERTEX
  8
LAYER-2
 10
0.989583
 20
15.882701
 30
0.000000
  0
VERTEX
  8
LAYER-2
 10
0.906250
 20
15.882702
 30
0.000000
  0
VERTEX
  8
LAYER-2
 10
0.989584
 20
16.021589
 30
0.000000
  0
SEQEND
  8
LAYER-2
  0
TEXT
  8
LAYER-2
 62
  0
 10
0.908137
 20
15.426175
 30
0.000000
 40
0.250000
  1
1-9/16"
  0
TEXT
  8
LAYER-2
 62
  0
 10
0.083334
 20
12.268914
 30
0.000000
 40
0.291667
  1
STANDARD CURVES
 72
  5
 11
4.083334
 21
12.268914
 31
0.000000
  0
TEXT
  8
LAYER-2
 62
  0
 10
1.805556
 20
9.324470
 30
0.000000
 40
0.250000
  1
45  -  14" (356mm)
 72
  5
 11
4.777778
 21
9.324470
 31
0.000000
  0
TEXT
  8
LAYER-2
 62
  0
 10
1.805556
 20
8.935581
 30
0.000000
 40
0.250000
  1
Radius
 72
  5
 11
3.055556
 21
8.935581
 31
0.000000
  0
TEXT
  8
LAYER-2
 62
  0
 10
2.194445
 20
9.491136
 30
0.000000
 40
0.125000
  1
o
 72
  5
 11
2.416667
 21
9.491136
 31
0.000000
  0
TEXT
  8
LAYER-2
 62
  0
 10
7.222222
 20
9.324470
 30
0.000000
 40
0.250000
  1
90  -  14" (356mm)
 72
  5
 11
10.194445
 21
9.324470
 31
0.000000
  0
TEXT
  8
LAYER-2
 62
  0
 10
7.222222
 20
8.935581
 30
0.000000
 40
0.250000
  1
Radius
 72
  5
 11
8.472222
 21
8.935581
 31
0.000000
  0
TEXT
  8
LAYER-2
 62
  0
 10
7.611111
 20
9.491136
 30
0.000000
 40
0.125000
  1
o
 72
  5
 11
7.833334
 21
9.491136
 31
0.000000
  0
TEXT
  8
LAYER-2
 62
  0
 10
11.861111
 20
9.324470
 30
0.000000
 40
0.250000
  1
90  -  10" (254mm)
 72
  5
 11
14.833334
 21
9.324470
 31
0.000000
  0
TEXT
  8
LAYER-2
 62
  0
 10
11.861111
 20
8.935581
 30
0.000000
 40
0.250000
  1
Radius
 72
  5
 11
13.111111
 21
8.935581
 31
0.000000
  0
TEXT
  8
LAYER-2
 62
  0
 10
12.250000
 20
9.491136
 30
0.000000
 40
0.125000
  1
o
 72
  5
 11
12.472222
 21
9.491136
 31
0.000000
  0
TEXT
  8
LAYER-2
 62
  0
 10
0.083334
 20
7.630025
 30
0.000000
 40
0.291667
  1
SITE CUT AT ANY ANGLE
 72
  5
 11
5.027778
 21
7.630025
 31
0.000000
  0
TEXT
  8
LAYER-2
 62
  0
 10
2.194445
 20
16.046692
 30
0.000000
 40
0.250000
  1
(33mm)
 72
  5
 11
3.555556
 21
16.046692
 31
0.000000
  0
TEXT
  8
LAYER-2
 62
  0
 10
0.583334
 20
14.852247
 30
0.000000
 40
0.250000
  1
(40mm)
 72
  5
 11
1.944445
 21
14.852247
 31
0.000000
  0
POLYLINE
  8
LAYER-2
 66
  1
 70
  0
 62
  0
 10
6.892237
 20
14.739065
 30
0.000000
  0
VERTEX
  8
LAYER-2
 10
6.892237
 20
14.739065
 30
0.000000
  0
VERTEX
  8
LAYER-2
 10
6.350043
 20
14.884345
 30
0.000000
  0
SEQEND
  8
LAYER-2
  0
ARC
  8
LAYER-2
 62
  0
 10
6.888428
 20
14.724850
 30
0.000000
 40
0.014718
 50
0.000000
 51
74.998535
  0
POLYLINE
  8
LAYER-2
 66
  1
 70
  0
 62
  0
 10
7.070695
 20
14.679954
 30
0.000000
  0
VERTEX
  8
LAYER-2
 10
7.070695
 20
14.679954
 30
0.000000
  0
VERTEX
  8
LAYER-2
 10
7.070695
 20
13.258362
 30
0.000000
  0
SEQEND
  8
LAYER-2
  0
POLYLINE
  8
LAYER-2
 66
  1
 70
  0
 62
  0
 10
6.167256
 20
14.914144
 30
0.000000
  0
VERTEX
  8
LAYER-2
 10
6.167256
 20
14.914144
 30
0.000000
  0
VERTEX
  8
LAYER-2
 10
6.167256
 20
13.492550
 30
0.000000
  0
SEQEND
  8
LAYER-2
  0
ARC
  8
LAYER-2
 62
  0
 10
6.181974
 20
14.914144
 30
0.000000
 40
0.014718
 50
75.001892
 51
180.000000
  0
POLYLINE
  8
LAYER-2
 66
  1
 70
  0
 62
  0
 10
6.226390
 20
14.749959
 30
0.000000
  0
VERTEX
  8
LAYER-2
 10
6.226390
 20
14.749959
 30
0.000000
  0
VERTEX
  8
LAYER-2
 10
6.226390
 20
13.825119
 30
0.000000
  0
SEQEND
  8
LAYER-2
  0
ARC
  8
LAYER-2
 62
  0
 10
6.241108
 20
13.825119
 30
0.000000
 40
0.014718
 50
180.000000
 51
225.000000
  0
POLYLINE
  8
LAYER-2
 66
  1
 70
  0
 62
  0
 10
6.389008
 20
14.784029
 30
0.000000
  0
VERTEX
  8
LAYER-2
 10
6.389008
 20
14.784029
 30
0.000000
  0
VERTEX
  8
LAYER-2
 10
6.389008
 20
14.718270
 30
0.000000
  0
SEQEND
  8
LAYER-2
  0
ARC
  8
LAYER-2
 62
  0
 10
6.403726
 20
14.784029
 30
0.000000
 40
0.014718
 50
75.001892
 51
180.000000
  0
POLYLINE
  8
LAYER-2
 66
  1
 70
  0
 62
  0
 10
6.412004
 20
14.664629
 30
0.000000
  0
VERTEX
  8
LAYER-2
 10
6.412004
 20
14.664629
 30
0.000000
  0
VERTEX
  8
LAYER-2
 10
6.412004
 20
14.695168
 30
0.000000
  0
SEQEND
  8
LAYER-2
  0
ARC
  8
LAYER-2
 62
  0
 10
6.400966
 20
14.695168
 30
0.000000
 40
0.011038
 50
0.000000
 51
75.001312
  0
ARC
  8
LAYER-2
 62
  0
 10
6.397287
 20
14.664629
 30
0.000000
 40
0.014718
 50
255.001907
 51
0.000000
  0
POLYLINE
  8
LAYER-2
 66
  1
 70
  0
 62
  0
 10
6.817730
 20
14.580539
 30
0.000000
  0
VERTEX
  8
LAYER-2
 10
6.817730
 20
14.580539
 30
0.000000
  0
VERTEX
  8
LAYER-2
 10
6.817730
 20
14.548028
 30
0.000000
  0
SEQEND
  8
LAYER-2
  0
ARC
  8
LAYER-2
 62
  0
 10
6.828768
 20
14.580539
 30
0.000000
 40
0.011038
 50
75.001312
 51
180.000000
  0
POLYLINE
  8
LAYER-2
 66
  1
 70
  0
 62
  0
 10
6.848939
 20
14.668677
 30
0.000000
  0
VERTEX
  8
LAYER-2
 10
6.848939
 20
14.668677
 30
0.000000
  0
VERTEX
  8
LAYER-2
 10
6.848939
 20
14.600947
 30
0.000000
  0
SEQEND
  8
LAYER-2
  0
ARC
  8
LAYER-2
 62
  0
 10
6.837901
 20
14.600947
 30
0.000000
 40
0.011038
 50
255.001312
 51
0.000000
  0
ARC
  8
LAYER-2
 62
  0
 10
6.834222
 20
14.668677
 30
0.000000
 40
0.014718
 50
0.000000
 51
74.998535
  0
POLYLINE
  8
LAYER-2
 66
  1
 70
  0
 62
  0
 10
7.016487
 20
14.546143
 30
0.000000
  0
VERTEX
  8
LAYER-2
 10
7.016487
 20
14.546143
 30
0.000000
  0
VERTEX
  8
LAYER-2
 10
7.016487
 20
13.621705
 30
0.000000
  0
SEQEND
  8
LAYER-2
  0
ARC
  8
LAYER-2
 62
  0
 10
7.001768
 20
14.546143
 30
0.000000
 40
0.014718
 50
0.000000
 51
75.001892
  0
POLYLINE
  8
LAYER-2
 66
  1
 70
  0
 62
  0
 10
6.251029
 20
13.649834
 30
0.000000
  0
VERTEX
  8
LAYER-2
 10
6.251029
 20
13.649834
 30
0.000000
  0
VERTEX
  8
LAYER-2
 10
6.251029
 20
13.788288
 30
0.000000
  0
SEQEND
  8
LAYER-2
  0
POLYLINE
  8
LAYER-2
 66
  1
 70
  0
 62
  0
 10
6.983635
 20
13.465862
 30
0.000000
  0
VERTEX
  8
LAYER-2
 10
6.983635
 20
13.465862
 30
0.000000
  0
VERTEX
  8
LAYER-2
 10
6.983635
 20
13.590315
 30
0.000000
  0
SEQEND
  8
LAYER-2
  0
ARC
  8
LAYER-2
 62
  0
 10
6.998353
 20
13.590315
 30
0.000000
 40
0.014718
 50
104.998108
 51
180.000000
  0
POLYLINE
  8
LAYER-2
 66
  1
 70
  0
 62
  0
 10
6.467854
 20
13.500831
 30
0.000000
  0
VERTEX
  8
LAYER-2
 10
6.467854
 20
13.500831
 30
0.000000
  0
VERTEX
  8
LAYER-2
 10
6.467854
 20
13.419892
 30
0.000000
  0
SEQEND
  8
LAYER-2
  0
POLYLINE
  8
LAYER-2
 66
  1
 70
  0
 62
  0
 10
6.775021
 20
13.424861
 30
0.000000
  0
VERTEX
  8
LAYER-2
 10
6.775021
 20
13.424861
 30
0.000000
  0
VERTEX
  8
LAYER-2
 10
6.775021
 20
13.329700
 30
0.000000
  0
SEQEND
  8
LAYER-2
  0
POLYLINE
  8
LAYER-2
 66
  1
 70
  0
 62
  0
 10
6.407534
 20
14.798245
 30
0.000000
  0
VERTEX
  8
LAYER-2
 10
6.407534
 20
14.798245
 30
0.000000
  0
VERTEX
  8
LAYER-2
 10
6.838031
 20
14.682895
 30
0.000000
  0
SEQEND
  8
LAYER-2
  0
POLYLINE
  8
LAYER-2
 66
  1
 70
  0
 62
  0
 10
6.251029
 20
13.649835
 30
0.000000
  0
VERTEX
  8
LAYER-2
 10
6.251029
 20
13.649835
 30
0.000000
  0
VERTEX
  8
LAYER-2
 10
6.270717
 20
13.585976
 30
0.000000
  0
VERTEX
  8
LAYER-2
 10
6.315916
 20
13.533446
 30
0.000000
  0
VERTEX
  8
LAYER-2
 10
6.364369
 20
13.505285
 30
0.000000
  0
SEQEND
  8
LAYER-2
  0
POLYLINE
  8
LAYER-2
 66
  1
 70
  0
 62
  0
 10
6.364370
 20
13.505284
 30
0.000000
  0
VERTEX
  8
LAYER-2
 10
6.364370
 20
13.505284
 30
0.000000
  0
VERTEX
  8
LAYER-2
 10
6.411979
 20
13.508151
 30
0.000000
  0
VERTEX
  8
LAYER-2
 10
6.443214
 20
13.531565
 30
0.000000
  0
SEQEND
  8
LAYER-2
  0
POLYLINE
  8
LAYER-2
 66
  1
 70
  0
 62
  0
 10
6.888362
 20
13.373875
 30
0.000000
  0
VERTEX
  8
LAYER-2
 10
6.888362
 20
13.373875
 30
0.000000
  0
VERTEX
  8
LAYER-2
 10
6.927006
 20
13.389054
 30
0.000000
  0
VERTEX
  8
LAYER-2
 10
6.959471
 20
13.416800
 30
0.000000
  0
VERTEX
  8
LAYER-2
 10
6.978847
 20
13.454858
 30
0.000000
  0
VERTEX
  8
LAYER-2
 10
6.983635
 20
13.465862
 30
0.000000
  0
SEQEND
  8
LAYER-2
  0
POLYLINE
  8
LAYER-2
 66
  1
 70
  0
 62
  0
 10
6.799660
 20
13.439580
 30
0.000000
  0
VERTEX
  8
LAYER-2
 10
6.799660
 20
13.439580
 30
0.000000
  0
VERTEX
  8
LAYER-2
 10
6.819426
 20
13.407469
 30
0.000000
  0
VERTEX
  8
LAYER-2
 10
6.852547
 20
13.384301
 30
0.000000
  0
VERTEX
  8
LAYER-2
 10
6.888362
 20
13.373875
 30
0.000000
  0
SEQEND
  8
LAYER-2
  0
POLYLINE
  8
LAYER-2
 66
  1
 70
  0
 62
  0
 10
6.432127
 20
13.309815
 30
0.000000
  0
VERTEX
  8
LAYER-2
 10
6.432127
 20
13.309815
 30
0.000000
  0
VERTEX
  8
LAYER-2
 10
6.448161
 20
13.339127
 30
0.000000
  0
VERTEX
  8
LAYER-2
 10
6.454328
 20
13.371279
 30
0.000000
  0
VERTEX
  8
LAYER-2
 10
6.447721
 20
13.403344
 30
0.000000
  0
VERTEX
  8
LAYER-2
 10
6.447858
 20
13.405411
 30
0.000000
  0
SEQEND
  8
LAYER-2
  0
POLYLINE
  8
LAYER-2
 66
  1
 70
  0
 62
  0
 10
6.400096
 20
13.349236
 30
0.000000
  0
VERTEX
  8
LAYER-2
 10
6.400096
 20
13.349236
 30
0.000000
  0
VERTEX
  8
LAYER-2
 10
6.409051
 20
13.385896
 30
0.000000
  0
VERTEX
  8
LAYER-2
 10
6.392244
 20
13.418151
 30
0.000000
  0
VERTEX
  8
LAYER-2
 10
6.381289
 20
13.423905
 30
0.000000
  0
SEQEND
  8
LAYER-2
  0
POLYLINE
  8
LAYER-2
 66
  1
 70
  0
 62
  0
 10
6.309066
 20
13.443257
 30
0.000000
  0
VERTEX
  8
LAYER-2
 10
6.309066
 20
13.443257
 30
0.000000
  0
VERTEX
  8
LAYER-2
 10
6.298155
 20
13.403964
 30
0.000000
  0
VERTEX
  8
LAYER-2
 10
6.305684
 20
13.362419
 30
0.000000
  0
VERTEX
  8
LAYER-2
 10
6.324946
 20
13.331167
 30
0.000000
  0
SEQEND
  8
LAYER-2
  0
POLYLINE
  8
LAYER-2
 66
  1
 70
  0
 62
  0
 10
6.443214
 20
13.531566
 30
0.000000
  0
VERTEX
  8
LAYER-2
 10
6.443214
 20
13.531566
 30
0.000000
  0
VERTEX
  8
LAYER-2
 10
6.463543
 20
13.511237
 30
0.000000
  0
SEQEND
  8
LAYER-2
  0
ARC
  8
LAYER-2
 62
  0
 10
6.453136
 20
13.500831
 30
0.000000
 40
0.014718
 50
0.000000
 51
45.000000
  0
POLYLINE
  8
LAYER-2
 66
  1
 70
  0
 62
  0
 10
6.799661
 20
13.439580
 30
0.000000
  0
VERTEX
  8
LAYER-2
 10
6.799661
 20
13.439580
 30
0.000000
  0
VERTEX
  8
LAYER-2
 10
6.789739
 20
13.439580
 30
0.000000
  0
SEQEND
  8
LAYER-2
  0
ARC
  8
LAYER-2
 62
  0
 10
6.789739
 20
13.424861
 30
0.000000
 40
0.014718
 50
90.000000
 51
180.000000
  0
POLYLINE
  8
LAYER-2
 66
  1
 70
  0
 62
  0
 10
6.246718
 20
13.798694
 30
0.000000
  0
VERTEX
  8
LAYER-2
 10
6.246718
 20
13.798694
 30
0.000000
  0
VERTEX
  8
LAYER-2
 10
6.230701
 20
13.814713
 30
0.000000
  0
SEQEND
  8
LAYER-2
  0
ARC
  8
LAYER-2
 62
  0
 10
6.236311
 20
13.788288
 30
0.000000
 40
0.014718
 50
0.000000
 51
45.000000
  0
POLYLINE
  8
LAYER-2
 66
  1
 70
  0
 62
  0
 10
6.324946
 20
13.331167
 30
0.000000
  0
VERTEX
  8
LAYER-2
 10
6.324946
 20
13.331167
 30
0.000000
  0
VERTEX
  8
LAYER-2
 10
6.353122
 20
13.332481
 30
0.000000
  0
VERTEX
  8
LAYER-2
 10
6.359441
 20
13.355396
 30
0.000000
  0
SEQEND
  8
LAYER-2
  0
POLYLINE
  8
LAYER-2
 66
  1
 70
  0
 62
  0
 10
6.215482
 20
14.920402
 30
0.000000
  0
VERTEX
  8
LAYER-2
 10
6.215482
 20
14.920402
 30
0.000000
  0
VERTEX
  8
LAYER-2
 10
6.185783
 20
14.928360
 30
0.000000
  0
SEQEND
  8
LAYER-2
  0
ARC
  8
LAYER-2
 62
  0
 10
6.211672
 20
14.906186
 30
0.000000
 40
0.014718
 50
0.000000
 51
74.998535
  0
POLYLINE
  8
LAYER-2
 66
  1
 70
  0
 62
  0
 10
6.226390
 20
14.858076
 30
0.000000
  0
VERTEX
  8
LAYER-2
 10
6.226390
 20
14.858076
 30
0.000000
  0
VERTEX
  8
LAYER-2
 10
6.226390
 20
14.906186
 30
0.000000
  0
SEQEND
  8
LAYER-2
  0
ARC
  8
LAYER-2
 62
  0
 10
6.241108
 20
14.858076
 30
0.000000
 40
0.014718
 50
180.000000
 51
254.998535
  0
POLYLINE
  8
LAYER-2
 66
  1
 70
  0
 62
  0
 10
7.059786
 20
14.694171
 30
0.000000
  0
VERTEX
  8
LAYER-2
 10
7.059786
 20
14.694171
 30
0.000000
  0
VERTEX
  8
LAYER-2
 10
7.035014
 20
14.700809
 30
0.000000
  0
SEQEND
  8
LAYER-2
  0
ARC
  8
LAYER-2
 62
  0
 10
7.031205
 20
14.686591
 30
0.000000
 40
0.014718
 50
75.001892
 51
180.000000
  0
ARC
  8
LAYER-2
 62
  0
 10
7.055978
 20
14.679954
 30
0.000000
 40
0.014718
 50
0.000000
 51
75.001892
  0
POLYLINE
  8
LAYER-2
 66
  1
 70
  0
 62
  0
 10
7.016487
 20
14.686591
 30
0.000000
  0
VERTEX
  8
LAYER-2
 10
7.016487
 20
14.686591
 30
0.000000
  0
VERTEX
  8
LAYER-2
 10
7.016487
 20
14.654258
 30
0.000000
  0
SEQEND
  8
LAYER-2
  0
POLYLINE
  8
LAYER-2
 66
  1
 70
  0
 62
  0
 10
6.312989
 20
14.823578
 30
0.000000
  0
VERTEX
  8
LAYER-2
 10
6.312989
 20
14.823578
 30
0.000000
  0
VERTEX
  8
LAYER-2
 10
6.237299
 20
14.843860
 30
0.000000
  0
SEQEND
  8
LAYER-2
  0
ARC
  8
LAYER-2
 62
  0
 10
6.316799
 20
14.837794
 30
0.000000
 40
0.014718
 50
254.998535
 51
0.000000
  0
POLYLINE
  8
LAYER-2
 66
  1
 70
  0
 62
  0
 10
6.331517
 20
14.870129
 30
0.000000
  0
VERTEX
  8
LAYER-2
 10
6.331517
 20
14.870129
 30
0.000000
  0
VERTEX
  8
LAYER-2
 10
6.331517
 20
14.837794
 30
0.000000
  0
SEQEND
  8
LAYER-2
  0
ARC
  8
LAYER-2
 62
  0
 10
6.346235
 20
14.870129
 30
0.000000
 40
0.014718
 50
75.001892
 51
180.000000
  0
POLYLINE
  8
LAYER-2
 66
  1
 70
  0
 62
  0
 10
6.244918
 20
14.764177
 30
0.000000
  0
VERTEX
  8
LAYER-2
 10
6.244918
 20
14.764177
 30
0.000000
  0
VERTEX
  8
LAYER-2
 10
6.320608
 20
14.743893
 30
0.000000
  0
SEQEND
  8
LAYER-2
  0
ARC
  8
LAYER-2
 62
  0
 10
6.241108
 20
14.749959
 30
0.000000
 40
0.014718
 50
74.998535
 51
180.000000
  0
POLYLINE
  8
LAYER-2
 66
  1
 70
  0
 62
  0
 10
6.331517
 20
14.729677
 30
0.000000
  0
VERTEX
  8
LAYER-2
 10
6.331517
 20
14.729677
 30
0.000000
  0
VERTEX
  8
LAYER-2
 10
6.331517
 20
14.678307
 30
0.000000
  0
SEQEND
  8
LAYER-2
  0
ARC
  8
LAYER-2
 62
  0
 10
6.316799
 20
14.729677
 30
0.000000
 40
0.014718
 50
0.000000
 51
74.998535
  0
POLYLINE
  8
LAYER-2
 66
  1
 70
  0
 62
  0
 10
6.342426
 20
14.664090
 30
0.000000
  0
VERTEX
  8
LAYER-2
 10
6.342426
 20
14.664090
 30
0.000000
  0
VERTEX
  8
LAYER-2
 10
6.393478
 20
14.650411
 30
0.000000
  0
SEQEND
  8
LAYER-2
  0
ARC
  8
LAYER-2
 62
  0
 10
6.346235
 20
14.678307
 30
0.000000
 40
0.014718
 50
180.000000
 51
255.001907
  0
POLYLINE
  8
LAYER-2
 66
  1
 70
  0
 62
  0
 10
6.828639
 20
14.533810
 30
0.000000
  0
VERTEX
  8
LAYER-2
 10
6.828639
 20
14.533810
 30
0.000000
  0
VERTEX
  8
LAYER-2
 10
6.884619
 20
14.518811
 30
0.000000
  0
SEQEND
  8
LAYER-2
  0
ARC
  8
LAYER-2
 62
  0
 10
6.832447
 20
14.548028
 30
0.000000
 40
0.014718
 50
180.000000
 51
255.001907
  0
POLYLINE
  8
LAYER-2
 66
  1
 70
  0
 62
  0
 10
6.903146
 20
14.676741
 30
0.000000
  0
VERTEX
  8
LAYER-2
 10
6.903146
 20
14.676741
 30
0.000000
  0
VERTEX
  8
LAYER-2
 10
6.903146
 20
14.724850
 30
0.000000
  0
SEQEND
  8
LAYER-2
  0
ARC
  8
LAYER-2
 62
  0
 10
6.917863
 20
14.676741
 30
0.000000
 40
0.014718
 50
180.000000
 51
254.998535
  0
POLYLINE
  8
LAYER-2
 66
  1
 70
  0
 62
  0
 10
6.997960
 20
14.640042
 30
0.000000
  0
VERTEX
  8
LAYER-2
 10
6.997960
 20
14.640042
 30
0.000000
  0
VERTEX
  8
LAYER-2
 10
6.914054
 20
14.662525
 30
0.000000
  0
SEQEND
  8
LAYER-2
  0
ARC
  8
LAYER-2
 62
  0
 10
7.001768
 20
14.654258
 30
0.000000
 40
0.014718
 50
254.998535
 51
0.000000
  0
POLYLINE
  8
LAYER-2
 66
  1
 70
  0
 62
  0
 10
6.921672
 20
14.582840
 30
0.000000
  0
VERTEX
  8
LAYER-2
 10
6.921672
 20
14.582840
 30
0.000000
  0
VERTEX
  8
LAYER-2
 10
7.005578
 20
14.560359
 30
0.000000
  0
SEQEND
  8
LAYER-2
  0
ARC
  8
LAYER-2
 62
  0
 10
6.917863
 20
14.568624
 30
0.000000
 40
0.014718
 50
75.001892
 51
180.000000
  0
POLYLINE
  8
LAYER-2
 66
  1
 70
  0
 62
  0
 10
6.903146
 20
14.533027
 30
0.000000
  0
VERTEX
  8
LAYER-2
 10
6.903146
 20
14.533027
 30
0.000000
  0
VERTEX
  8
LAYER-2
 10
6.903146
 20
14.568624
 30
0.000000
  0
SEQEND
  8
LAYER-2
  0
ARC
  8
LAYER-2
 62
  0
 10
6.888428
 20
14.533027
 30
0.000000
 40
0.014718
 50
255.001907
 51
0.000000
  0
POLYLINE
  8
LAYER-2
 66
  1
 70
  0
 62
  0
 10
6.835044
 20
14.590285
 30
0.000000
  0
VERTEX
  8
LAYER-2
 10
6.835044
 20
14.590285
 30
0.000000
  0
VERTEX
  8
LAYER-2
 10
6.831624
 20
14.591202
 30
0.000000
  0
SEQEND
  8
LAYER-2
  0
POLYLINE
  8
LAYER-2
 66
  1
 70
  0
 62
  0
 10
6.932317
 20
13.276260
 30
0.000000
  0
VERTEX
  8
LAYER-2
 10
6.932317
 20
13.276260
 30
0.000000
  0
VERTEX
  8
LAYER-2
 10
7.052168
 20
13.244145
 30
0.000000
  0
SEQEND
  8
LAYER-2
  0
ARC
  8
LAYER-2
 62
  0
 10
7.055978
 20
13.258362
 30
0.000000
 40
0.014718
 50
255.001907
 51
0.000000
  0
POLYLINE
  8
LAYER-2
 66
  1
 70
  0
 62
  0
 10
6.309067
 20
13.443259
 30
0.000000
  0
VERTEX
  8
LAYER-2
 10
6.309067
 20
13.443259
 30
0.000000
  0
VERTEX
  8
LAYER-2
 10
6.178164
 20
13.478333
 30
0.000000
  0
SEQEND
  8
LAYER-2
  0
ARC
  8
LAYER-2
 62
  0
 10
6.181974
 20
13.492550
 30
0.000000
 40
0.014718
 50
180.000000
 51
254.998535
  0
POLYLINE
  8
LAYER-2
 66
  1
 70
  0
 62
  0
 10
7.005578
 20
13.607488
 30
0.000000
  0
VERTEX
  8
LAYER-2
 10
7.005578
 20
13.607488
 30
0.000000
  0
VERTEX
  8
LAYER-2
 10
6.994543
 20
13.604531
 30
0.000000
  0
SEQEND
  8
LAYER-2
  0
ARC
  8
LAYER-2
 62
  0
 10
7.001768
 20
13.621705
 30
0.000000
 40
0.014718
 50
284.998108
 51
0.000000
  0
POLYLINE
  8
LAYER-2
 66
  1
 70
  0
 62
  0
 10
6.448024
 20
13.406026
 30
0.000000
  0
VERTEX
  8
LAYER-2
 10
6.448024
 20
13.406026
 30
0.000000
  0
VERTEX
  8
LAYER-2
 10
6.449326
 20
13.405676
 30
0.000000
  0
SEQEND
  8
LAYER-2
  0
ARC
  8
LAYER-2
 62
  0
 10
6.453136
 20
13.419892
 30
0.000000
 40
0.014718
 50
254.998535
 51
0.000000
  0
POLYLINE
  8
LAYER-2
 66
  1
 70
  0
 62
  0
 10
6.381289
 20
13.423906
 30
0.000000
  0
VERTEX
  8
LAYER-2
 10
6.381289
 20
13.423906
 30
0.000000
  0
VERTEX
  8
LAYER-2
 10
6.375804
 20
13.425376
 30
0.000000
  0
SEQEND
  8
LAYER-2
  0
ARC
  8
LAYER-2
 62
  0
 10
6.397475
 20
13.392518
 30
0.000000
 40
0.053796
 50
167.036560
 51
225.834183
  0
ARC
  8
LAYER-2
 62
  0
 10
6.371975
 20
13.397901
 30
0.000000
 40
0.027742
 50
82.065369
 51
166.055542
  0
POLYLINE
  8
LAYER-2
 66
  1
 70
  0
 62
  0
 10
6.916477
 20
13.180261
 30
0.000000
  0
VERTEX
  8
LAYER-2
 10
6.916477
 20
13.180261
 30
0.000000
  0
VERTEX
  8
LAYER-2
 10
6.932510
 20
13.209573
 30
0.000000
  0
VERTEX
  8
LAYER-2
 10
6.938677
 20
13.241725
 30
0.000000
  0
VERTEX
  8
LAYER-2
 10
6.932070
 20
13.273788
 30
0.000000
  0
VERTEX
  8
LAYER-2
 10
6.932208
 20
13.275855
 30
0.000000
  0
SEQEND
  8
LAYER-2
  0
POLYLINE
  8
LAYER-2
 66
  1
 70
  0
 62
  0
 10
6.884444
 20
13.219682
 30
0.000000
  0
VERTEX
  8
LAYER-2
 10
6.884444
 20
13.219682
 30
0.000000
  0
VERTEX
  8
LAYER-2
 10
6.893400
 20
13.256343
 30
0.000000
  0
VERTEX
  8
LAYER-2
 10
6.876593
 20
13.288598
 30
0.000000
  0
VERTEX
  8
LAYER-2
 10
6.865638
 20
13.294352
 30
0.000000
  0
SEQEND
  8
LAYER-2
  0
POLYLINE
  8
LAYER-2
 66
  1
 70
  0
 62
  0
 10
6.793415
 20
13.313704
 30
0.000000
  0
VERTEX
  8
LAYER-2
 10
6.793415
 20
13.313704
 30
0.000000
  0
VERTEX
  8
LAYER-2
 10
6.782505
 20
13.274410
 30
0.000000
  0
VERTEX
  8
LAYER-2
 10
6.790033
 20
13.232866
 30
0.000000
  0
VERTEX
  8
LAYER-2
 10
6.809296
 20
13.201614
 30
0.000000
  0
SEQEND
  8
LAYER-2
  0
POLYLINE
  8
LAYER-2
 66
  1
 70
  0
 62
  0
 10
6.809296
 20
13.201614
 30
0.000000
  0
VERTEX
  8
LAYER-2
 10
6.809296
 20
13.201614
 30
0.000000
  0
VERTEX
  8
LAYER-2
 10
6.837472
 20
13.202928
 30
0.000000
  0
VERTEX
  8
LAYER-2
 10
6.843791
 20
13.225843
 30
0.000000
  0
SEQEND
  8
LAYER-2
  0
POLYLINE
  8
LAYER-2
 66
  1
 70
  0
 62
  0
 10
6.793415
 20
13.313476
 30
0.000000
  0
VERTEX
  8
LAYER-2
 10
6.793415
 20
13.313476
 30
0.000000
  0
VERTEX
  8
LAYER-2
 10
6.785929
 20
13.315483
 30
0.000000
  0
SEQEND
  8
LAYER-2
  0
ARC
  8
LAYER-2
 62
  0
 10
6.789739
 20
13.329700
 30
0.000000
 40
0.014718
 50
180.000000
 51
254.998535
  0
POLYLINE
  8
LAYER-2
 66
  1
 70
  0
 62
  0
 10
6.397190
 20
14.707608
 30
0.000000
  0
VERTEX
  8
LAYER-2
 10
6.397190
 20
14.707608
 30
0.000000
  0
VERTEX
  8
LAYER-2
 10
6.403823
 20
14.705831
 30
0.000000
  0
SEQEND
  8
LAYER-2
  0
ARC
  8
LAYER-2
 62
  0
 10
6.400046
 20
14.718270
 30
0.000000
 40
0.011038
 50
180.000000
 51
255.001312
  0
ARC
  8
LAYER-2
 62
  0
 10
6.421833
 20
13.334175
 30
0.000000
 40
0.026446
 50
145.282684
 51
292.906250
  0
ARC
  8
LAYER-2
 62
  0
 10
6.906158
 20
13.204599
 30
0.000000
 40
0.026437
 50
145.213287
 51
292.975922
  0
POLYLINE
  8
LAYER-2
 66
  1
 70
  0
 62
  0
 10
7.067410
 20
14.688989
 30
0.000000
  0
VERTEX
  8
LAYER-2
 10
7.067410
 20
14.688989
 30
0.000000
  0
VERTEX
  8
LAYER-2
 10
9.812212
 20
15.424455
 30
0.000000
  0
SEQEND
  8
LAYER-2
  0
POLYLINE
  8
LAYER-2
 66
  1
 70
  0
 62
  0
 10
7.059558
 20
13.243324
 30
0.000000
  0
VERTEX
  8
LAYER-2
 10
7.059558
 20
13.243324
 30
0.000000
  0
VERTEX
  8
LAYER-2
 10
9.815498
 20
13.981776
 30
0.000000
  0
SEQEND
  8
LAYER-2
  0
POLYLINE
  8
LAYER-2
 66
  1
 70
  0
 62
  0
 10
7.026352
 20
14.700733
 30
0.000000
  0
VERTEX
  8
LAYER-2
 10
7.026352
 20
14.700733
 30
0.000000
  0
VERTEX
  8
LAYER-2
 10
9.770360
 20
15.435988
 30
0.000000
  0
SEQEND
  8
LAYER-2
  0
POLYLINE
  8
LAYER-2
 66
  1
 70
  0
 62
  0
 10
6.898809
 20
14.734958
 30
0.000000
  0
VERTEX
  8
LAYER-2
 10
6.898809
 20
14.734958
 30
0.000000
  0
VERTEX
  8
LAYER-2
 10
9.642917
 20
15.470239
 30
0.000000
  0
SEQEND
  8
LAYER-2
  0
POLYLINE
  8
LAYER-2
 66
  1
 70
  0
 62
  0
 10
6.339366
 20
14.884345
 30
0.000000
  0
VERTEX
  8
LAYER-2
 10
6.339366
 20
14.884345
 30
0.000000
  0
VERTEX
  8
LAYER-2
 10
9.084242
 20
15.619832
 30
0.000000
  0
SEQEND
  8
LAYER-2
  0
POLYLINE
  8
LAYER-2
 66
  1
 70
  0
 62
  0
 10
6.224517
 20
14.914653
 30
0.000000
  0
VERTEX
  8
LAYER-2
 10
6.224517
 20
14.914653
 30
0.000000
  0
VERTEX
  8
LAYER-2
 10
8.970651
 20
15.650475
 30
0.000000
  0
SEQEND
  8
LAYER-2
  0
POLYLINE
  8
LAYER-2
 66
  1
 70
  0
 62
  0
 10
6.175926
 20
14.927538
 30
0.000000
  0
VERTEX
  8
LAYER-2
 10
6.175926
 20
14.927538
 30
0.000000
  0
VERTEX
  8
LAYER-2
 10
8.921922
 20
15.663325
 30
0.000000
  0
SEQEND
  8
LAYER-2
  0
POLYLINE
  8
LAYER-2
 66
  1
 70
  0
 62
  0
 10
6.404605
 20
14.652130
 30
0.000000
  0
VERTEX
  8
LAYER-2
 10
6.404605
 20
14.652130
 30
0.000000
  0
VERTEX
  8
LAYER-2
 10
6.677068
 20
14.725138
 30
0.000000
  0
SEQEND
  8
LAYER-2
  0
POLYLINE
  8
LAYER-2
 66
  1
 70
  0
 62
  0
 10
6.409572
 20
14.703366
 30
0.000000
  0
VERTEX
  8
LAYER-2
 10
6.409572
 20
14.703366
 30
0.000000
  0
VERTEX
  8
LAYER-2
 10
6.585132
 20
14.750407
 30
0.000000
  0
SEQEND
  8
LAYER-2
  0
POLYLINE
  8
LAYER-2
 66
  1
 70
  0
 62
  0
 10
6.389008
 20
14.715805
 30
0.000000
  0
VERTEX
  8
LAYER-2
 10
6.389008
 20
14.715805
 30
0.000000
  0
VERTEX
  8
LAYER-2
 10
6.551075
 20
14.759233
 30
0.000000
  0
SEQEND
  8
LAYER-2
  0
POLYLINE
  8
LAYER-2
 66
  1
 70
  0
 62
  0
 10
6.890826
 20
14.518244
 30
0.000000
  0
VERTEX
  8
LAYER-2
 10
6.890826
 20
14.518244
 30
0.000000
  0
VERTEX
  8
LAYER-2
 10
7.015239
 20
14.551581
 30
0.000000
  0
SEQEND
  8
LAYER-2
  0
POLYLINE
  8
LAYER-2
 66
  1
 70
  0
 62
  0
 10
6.249387
 20
13.795677
 30
0.000000
  0
VERTEX
  8
LAYER-2
 10
6.249387
 20
13.795677
 30
0.000000
  0
VERTEX
  8
LAYER-2
 10
7.017342
 20
14.001450
 30
0.000000
  0
SEQEND
  8
LAYER-2
  0
POLYLINE
  8
LAYER-2
 66
  1
 70
  0
 62
  0
 10
6.228032
 20
13.819372
 30
0.000000
  0
VERTEX
  8
LAYER-2
 10
6.228032
 20
13.819372
 30
0.000000
  0
VERTEX
  8
LAYER-2
 10
7.017586
 20
14.030930
 30
0.000000
  0
SEQEND
  8
LAYER-2
  0
POLYLINE
  8
LAYER-2
 66
  1
 70
  0
 62
  0
 10
6.443214
 20
13.531566
 30
0.000000
  0
VERTEX
  8
LAYER-2
 10
6.443214
 20
13.531566
 30
0.000000
  0
VERTEX
  8
LAYER-2
 10
7.016482
 20
13.685172
 30
0.000000
  0
SEQEND
  8
LAYER-2
  0
POLYLINE
  8
LAYER-2
 66
  1
 70
  0
 62
  0
 10
6.466212
 20
13.507399
 30
0.000000
  0
VERTEX
  8
LAYER-2
 10
6.466212
 20
13.507399
 30
0.000000
  0
VERTEX
  8
LAYER-2
 10
7.015440
 20
13.654565
 30
0.000000
  0
SEQEND
  8
LAYER-2
  0
POLYLINE
  8
LAYER-2
 66
  1
 70
  0
 62
  0
 10
6.459633
 20
13.406575
 30
0.000000
  0
VERTEX
  8
LAYER-2
 10
6.459633
 20
13.406575
 30
0.000000
  0
VERTEX
  8
LAYER-2
 10
6.984094
 20
13.547103
 30
0.000000
  0
SEQEND
  8
LAYER-2
  0
POLYLINE
  8
LAYER-2
 66
  1
 70
  0
 62
  0
 10
6.429665
 20
13.308994
 30
0.000000
  0
VERTEX
  8
LAYER-2
 10
6.429665
 20
13.308994
 30
0.000000
  0
VERTEX
  8
LAYER-2
 10
6.774884
 20
13.401495
 30
0.000000
  0
SEQEND
  8
LAYER-2
  0
POLYLINE
  8
LAYER-2
 66
  1
 70
  0
 62
  0
 10
6.359993
 20
13.353928
 30
0.000000
  0
VERTEX
  8
LAYER-2
 10
6.359993
 20
13.353928
 30
0.000000
  0
VERTEX
  8
LAYER-2
 10
6.409566
 20
13.367213
 30
0.000000
  0
SEQEND
  8
LAYER-2
  0
POLYLINE
  8
LAYER-2
 66
  1
 70
  0
 62
  0
 10
6.916477
 20
13.180261
 30
0.000000
  0
VERTEX
  8
LAYER-2
 10
6.916477
 20
13.180261
 30
0.000000
  0
VERTEX
  8
LAYER-2
 10
9.675060
 20
13.919417
 30
0.000000
  0
SEQEND
  8
LAYER-2
  0
POLYLINE
  8
LAYER-2
 66
  1
 70
  0
 62
  0
 10
6.345481
 20
13.324597
 30
0.000000
  0
VERTEX
  8
LAYER-2
 10
6.345481
 20
13.324597
 30
0.000000
  0
VERTEX
  8
LAYER-2
 10
6.394743
 20
13.337797
 30
0.000000
  0
SEQEND
  8
LAYER-2
  0
POLYLINE
  8
LAYER-2
 66
  1
 70
  0
 62
  0
 10
6.843790
 20
13.225841
 30
0.000000
  0
VERTEX
  8
LAYER-2
 10
6.843790
 20
13.225841
 30
0.000000
  0
VERTEX
  8
LAYER-2
 10
6.894112
 20
13.239325
 30
0.000000
  0
SEQEND
  8
LAYER-2
  0
POLYLINE
  8
LAYER-2
 66
  1
 70
  0
 62
  0
 10
6.829229
 20
13.194833
 30
0.000000
  0
VERTEX
  8
LAYER-2
 10
6.829229
 20
13.194833
 30
0.000000
  0
VERTEX
  8
LAYER-2
 10
6.880150
 20
13.208476
 30
0.000000
  0
SEQEND
  8
LAYER-2
  0
POLYLINE
  8
LAYER-2
 66
  1
 70
  0
 62
  0
 10
6.821836
 20
14.590229
 30
0.000000
  0
VERTEX
  8
LAYER-2
 10
6.821836
 20
14.590229
 30
0.000000
  0
VERTEX
  8
LAYER-2
 10
6.848767
 20
14.597444
 30
0.000000
  0
SEQEND
  8
LAYER-2
  0
POLYLINE
  8
LAYER-2
 66
  1
 70
  0
 62
  0
 10
9.815498
 20
13.981776
 30
0.000000
  0
VERTEX
  8
LAYER-2
 10
9.815498
 20
13.981776
 30
0.000000
  0
VERTEX
  8
LAYER-2
 10
9.815498
 20
15.414641
 30
0.000000
  0
SEQEND
  8
LAYER-2
  0
POLYLINE
  8
LAYER-2
 66
  1
 70
  0
 62
  0
 10
9.674527
 20
13.919946
 30
0.000000
  0
VERTEX
  8
LAYER-2
 10
9.674527
 20
13.919946
 30
0.000000
  0
VERTEX
  8
LAYER-2
 10
9.690702
 20
13.949166
 30
0.000000
  0
VERTEX
  8
LAYER-2
 10
9.693453
 20
13.949170
 30
0.000000
  0
SEQEND
  8
LAYER-2
  0
POLYLINE
  8
LAYER-2
 66
  1
 70
  0
 62
  0
 10
9.635401
 20
15.474192
 30
0.000000
  0
VERTEX
  8
LAYER-2
 10
9.635401
 20
15.474192
 30
0.000000
  0
VERTEX
  8
LAYER-2
 10
9.091860
 20
15.619832
 30
0.000000
  0
SEQEND
  8
LAYER-2
  0
ARC
  8
LAYER-2
 62
  0
 10
9.088052
 20
15.605615
 30
0.000000
 40
0.014718
 50
75.001892
 51
104.998108
  0
ARC
  8
LAYER-2
 62
  0
 10
9.631592
 20
15.459975
 30
0.000000
 40
0.014718
 50
0.000000
 51
75.001892
  0
ARC
  8
LAYER-2
 62
  0
 10
9.800780
 20
15.414641
 30
0.000000
 40
0.014718
 50
0.000000
 51
74.998535
  0
POLYLINE
  8
LAYER-2
 66
  1
 70
  0
 62
  0
 10
9.646310
 20
15.459975
 30
0.000000
  0
VERTEX
  8
LAYER-2
 10
9.646310
 20
15.459975
 30
0.000000
  0
VERTEX
  8
LAYER-2
 10
9.646310
 20
15.413969
 30
0.000000
  0
SEQEND
  8
LAYER-2
  0
POLYLINE
  8
LAYER-2
 66
  1
 70
  0
 62
  0
 10
9.804591
 20
15.428857
 30
0.000000
  0
VERTEX
  8
LAYER-2
 10
9.804591
 20
15.428857
 30
0.000000
  0
VERTEX
  8
LAYER-2
 10
9.777980
 20
15.435988
 30
0.000000
  0
SEQEND
  8
LAYER-2
  0
ARC
  8
LAYER-2
 62
  0
 10
9.774171
 20
15.421770
 30
0.000000
 40
0.014718
 50
74.998535
 51
105.001465
  0
POLYLINE
  8
LAYER-2
 66
  1
 70
  0
 62
  0
 10
8.929543
 20
15.663325
 30
0.000000
  0
VERTEX
  8
LAYER-2
 10
8.929543
 20
15.663325
 30
0.000000
  0
VERTEX
  8
LAYER-2
 10
8.963164
 20
15.654316
 30
0.000000
  0
SEQEND
  8
LAYER-2
  0
ARC
  8
LAYER-2
 62
  0
 10
8.925734
 20
15.649109
 30
0.000000
 40
0.014718
 50
74.998535
 51
105.001465
  0
POLYLINE
  8
LAYER-2
 66
  1
 70
  0
 62
  0
 10
8.974070
 20
15.640099
 30
0.000000
  0
VERTEX
  8
LAYER-2
 10
8.974070
 20
15.640099
 30
0.000000
  0
VERTEX
  8
LAYER-2
 10
8.974070
 20
15.597383
 30
0.000000
  0
SEQEND
  8
LAYER-2
  0
ARC
  8
LAYER-2
 62
  0
 10
8.959352
 20
15.640099
 30
0.000000
 40
0.014718
 50
0.000000
 51
74.998535
  0
ARC
  8
LAYER-2
 62
  0
 10
9.661029
 20
15.413969
 30
0.000000
 40
0.014718
 50
180.000000
 51
217.500793
  0
POLYLINE
  8
LAYER-2
 66
  1
 70
  0
 62
  0
 10
6.906187
 20
14.667781
 30
0.000000
  0
VERTEX
  8
LAYER-2
 10
6.906187
 20
14.667781
 30
0.000000
  0
VERTEX
  8
LAYER-2
 10
7.026541
 20
14.700029
 30
0.000000
  0
SEQEND
  8
LAYER-2
  0
ARC
  8
LAYER-2
 62
  0
 10
8.988788
 20
15.597383
 30
0.000000
 40
0.014718
 50
180.000000
 51
201.578766
  0
POLYLINE
  8
LAYER-2
 66
  1
 70
  0
 62
  0
 10
6.229432
 20
14.849118
 30
0.000000
  0
VERTEX
  8
LAYER-2
 10
6.229432
 20
14.849118
 30
0.000000
  0
VERTEX
  8
LAYER-2
 10
6.333982
 20
14.877131
 30
0.000000
  0
SEQEND
  8
LAYER-2
  0
POLYLINE
  8
LAYER-2
 66
  1
 70
  0
 62
  0
 10
11.932492
 20
16.108156
 30
0.000000
  0
VERTEX
  8
LAYER-2
 10
11.932492
 20
16.108156
 30
0.000000
  0
VERTEX
  8
LAYER-2
 10
11.390295
 20
16.253435
 30
0.000000
  0
SEQEND
  8
LAYER-2
  0
ARC
  8
LAYER-2
 62
  0
 10
11.928682
 20
16.093940
 30
0.000000
 40
0.014718
 50
0.000000
 51
74.998535
  0
POLYLINE
  8
LAYER-2
 66
  1
 70
  0
 62
  0
 10
12.110948
 20
16.049045
 30
0.000000
  0
VERTEX
  8
LAYER-2
 10
12.110948
 20
16.049045
 30
0.000000
  0
VERTEX
  8
LAYER-2
 10
12.110948
 20
14.627452
 30
0.000000
  0
SEQEND
  8
LAYER-2
  0
POLYLINE
  8
LAYER-2
 66
  1
 70
  0
 62
  0
 10
11.207509
 20
15.779780
 30
0.000000
  0
VERTEX
  8
LAYER-2
 10
11.207509
 20
15.779780
 30
0.000000
  0
VERTEX
  8
LAYER-2
 10
11.207509
 20
14.861640
 30
0.000000
  0
SEQEND
  8
LAYER-2
  0
ARC
  8
LAYER-2
 62
  0
 10
11.222227
 20
16.283234
 30
0.000000
 40
0.014718
 50
75.001892
 51
180.000000
  0
POLYLINE
  8
LAYER-2
 66
  1
 70
  0
 62
  0
 10
11.266643
 20
15.795625
 30
0.000000
  0
VERTEX
  8
LAYER-2
 10
11.266643
 20
15.795625
 30
0.000000
  0
VERTEX
  8
LAYER-2
 10
11.266643
 20
15.194209
 30
0.000000
  0
SEQEND
  8
LAYER-2
  0
ARC
  8
LAYER-2
 62
  0
 10
11.281361
 20
15.194209
 30
0.000000
 40
0.014718
 50
180.000000
 51
225.000000
  0
ARC
  8
LAYER-2
 62
  0
 10
11.443977
 20
16.153119
 30
0.000000
 40
0.014718
 50
75.001907
 51
127.495239
  0
POLYLINE
  8
LAYER-2
 66
  1
 70
  0
 62
  0
 10
11.857982
 20
15.949629
 30
0.000000
  0
VERTEX
  8
LAYER-2
 10
11.857982
 20
15.949629
 30
0.000000
  0
VERTEX
  8
LAYER-2
 10
11.857982
 20
15.917118
 30
0.000000
  0
SEQEND
  8
LAYER-2
  0
ARC
  8
LAYER-2
 62
  0
 10
11.869021
 20
15.949629
 30
0.000000
 40
0.011038
 50
155.840973
 51
180.000000
  0
POLYLINE
  8
LAYER-2
 66
  1
 70
  0
 62
  0
 10
11.446143
 20
16.167775
 30
0.000000
  0
VERTEX
  8
LAYER-2
 10
11.446143
 20
16.167775
 30
0.000000
  0
VERTEX
  8
LAYER-2
 10
10.483305
 20
15.909785
 30
0.000000
  0
SEQEND
  8
LAYER-2
  0
POLYLINE
  8
LAYER-2
 66
  1
 70
  0
 62
  0
 10
11.446143
 20
16.167775
 30
0.000000
  0
VERTEX
  8
LAYER-2
 10
11.446143
 20
16.167775
 30
0.000000
  0
VERTEX
  8
LAYER-2
 10
11.878285
 20
16.051985
 30
0.000000
  0
SEQEND
  8
LAYER-2
  0
ARC
  8
LAYER-2
 62
  0
 10
11.874475
 20
16.037769
 30
0.000000
 40
0.014718
 50
0.000000
 51
74.998535
  0
POLYLINE
  8
LAYER-2
 66
  1
 70
  0
 62
  0
 10
11.889193
 20
16.037769
 30
0.000000
  0
VERTEX
  8
LAYER-2
 10
11.889193
 20
16.037769
 30
0.000000
  0
VERTEX
  8
LAYER-2
 10
11.889193
 20
15.970037
 30
0.000000
  0
SEQEND
  8
LAYER-2
  0
ARC
  8
LAYER-2
 62
  0
 10
11.878155
 20
15.970037
 30
0.000000
 40
0.011038
 50
307.497528
 51
0.000000
  0
POLYLINE
  8
LAYER-2
 66
  1
 70
  0
 62
  0
 10
11.884875
 20
15.961280
 30
0.000000
  0
VERTEX
  8
LAYER-2
 10
11.884875
 20
15.961280
 30
0.000000
  0
VERTEX
  8
LAYER-2
 10
10.929188
 20
15.705205
 30
0.000000
  0
SEQEND
  8
LAYER-2
  0
POLYLINE
  8
LAYER-2
 66
  1
 70
  0
 62
  0
 10
10.929188
 20
15.705205
 30
0.000000
  0
VERTEX
  8
LAYER-2
 10
10.929188
 20
15.705205
 30
0.000000
  0
VERTEX
  8
LAYER-2
 10
10.483305
 20
15.824680
 30
0.000000
  0
SEQEND
  8
LAYER-2
  0
POLYLINE
  8
LAYER-2
 66
  1
 70
  0
 62
  0
 10
10.483305
 20
15.909785
 30
0.000000
  0
VERTEX
  8
LAYER-2
 10
10.483305
 20
15.909785
 30
0.000000
  0
VERTEX
  8
LAYER-2
 10
10.483305
 20
15.824680
 30
0.000000
  0
SEQEND
  8
LAYER-2
  0
POLYLINE
  8
LAYER-2
 66
  1
 70
  0
 62
  0
 10
12.056741
 20
15.915232
 30
0.000000
  0
VERTEX
  8
LAYER-2
 10
12.056741
 20
15.915232
 30
0.000000
  0
VERTEX
  8
LAYER-2
 10
12.056741
 20
14.990794
 30
0.000000
  0
SEQEND
  8
LAYER-2
  0
ARC
  8
LAYER-2
 62
  0
 10
12.042024
 20
15.915232
 30
0.000000
 40
0.014718
 50
0.000000
 51
75.001892
  0
POLYLINE
  8
LAYER-2
 66
  1
 70
  0
 62
  0
 10
11.291281
 20
15.018924
 30
0.000000
  0
VERTEX
  8
LAYER-2
 10
11.291281
 20
15.018924
 30
0.000000
  0
VERTEX
  8
LAYER-2
 10
11.291281
 20
15.157377
 30
0.000000
  0
SEQEND
  8
LAYER-2
  0
POLYLINE
  8
LAYER-2
 66
  1
 70
  0
 62
  0
 10
12.023888
 20
14.834951
 30
0.000000
  0
VERTEX
  8
LAYER-2
 10
12.023888
 20
14.834951
 30
0.000000
  0
VERTEX
  8
LAYER-2
 10
12.023888
 20
14.959405
 30
0.000000
  0
SEQEND
  8
LAYER-2
  0
ARC
  8
LAYER-2
 62
  0
 10
12.038606
 20
14.959405
 30
0.000000
 40
0.014718
 50
104.998108
 51
180.000000
  0
POLYLINE
  8
LAYER-2
 66
  1
 70
  0
 62
  0
 10
11.508106
 20
14.869921
 30
0.000000
  0
VERTEX
  8
LAYER-2
 10
11.508106
 20
14.869921
 30
0.000000
  0
VERTEX
  8
LAYER-2
 10
11.508106
 20
14.788981
 30
0.000000
  0
SEQEND
  8
LAYER-2
  0
POLYLINE
  8
LAYER-2
 66
  1
 70
  0
 62
  0
 10
11.815277
 20
14.793950
 30
0.000000
  0
VERTEX
  8
LAYER-2
 10
11.815277
 20
14.793950
 30
0.000000
  0
VERTEX
  8
LAYER-2
 10
11.815277
 20
14.698788
 30
0.000000
  0
SEQEND
  8
LAYER-2
  0
POLYLINE
  8
LAYER-2
 66
  1
 70
  0
 62
  0
 10
11.291281
 20
15.018924
 30
0.000000
  0
VERTEX
  8
LAYER-2
 10
11.291281
 20
15.018924
 30
0.000000
  0
VERTEX
  8
LAYER-2
 10
11.310969
 20
14.955066
 30
0.000000
  0
VERTEX
  8
LAYER-2
 10
11.356169
 20
14.902537
 30
0.000000
  0
VERTEX
  8
LAYER-2
 10
11.404621
 20
14.874376
 30
0.000000
  0
SEQEND
  8
LAYER-2
  0
POLYLINE
  8
LAYER-2
 66
  1
 70
  0
 62
  0
 10
11.404621
 20
14.874373
 30
0.000000
  0
VERTEX
  8
LAYER-2
 10
11.404621
 20
14.874373
 30
0.000000
  0
VERTEX
  8
LAYER-2
 10
11.452231
 20
14.877240
 30
0.000000
  0
VERTEX
  8
LAYER-2
 10
11.483466
 20
14.900655
 30
0.000000
  0
SEQEND
  8
LAYER-2
  0
POLYLINE
  8
LAYER-2
 66
  1
 70
  0
 62
  0
 10
11.928618
 20
14.742964
 30
0.000000
  0
VERTEX
  8
LAYER-2
 10
11.928618
 20
14.742964
 30
0.000000
  0
VERTEX
  8
LAYER-2
 10
11.967261
 20
14.758143
 30
0.000000
  0
VERTEX
  8
LAYER-2
 10
11.999726
 20
14.785889
 30
0.000000
  0
VERTEX
  8
LAYER-2
 10
12.019103
 20
14.823947
 30
0.000000
  0
VERTEX
  8
LAYER-2
 10
12.023888
 20
14.834951
 30
0.000000
  0
SEQEND
  8
LAYER-2
  0
POLYLINE
  8
LAYER-2
 66
  1
 70
  0
 62
  0
 10
11.839918
 20
14.808670
 30
0.000000
  0
VERTEX
  8
LAYER-2
 10
11.839918
 20
14.808670
 30
0.000000
  0
VERTEX
  8
LAYER-2
 10
11.859682
 20
14.776559
 30
0.000000
  0
VERTEX
  8
LAYER-2
 10
11.892803
 20
14.753391
 30
0.000000
  0
VERTEX
  8
LAYER-2
 10
11.928618
 20
14.742966
 30
0.000000
  0
SEQEND
  8
LAYER-2
  0
POLYLINE
  8
LAYER-2
 66
  1
 70
  0
 62
  0
 10
11.472380
 20
14.678904
 30
0.000000
  0
VERTEX
  8
LAYER-2
 10
11.472380
 20
14.678904
 30
0.000000
  0
VERTEX
  8
LAYER-2
 10
11.488413
 20
14.708216
 30
0.000000
  0
VERTEX
  8
LAYER-2
 10
11.494579
 20
14.740368
 30
0.000000
  0
VERTEX
  8
LAYER-2
 10
11.487972
 20
14.772432
 30
0.000000
  0
VERTEX
  8
LAYER-2
 10
11.488111
 20
14.774499
 30
0.000000
  0
SEQEND
  8
LAYER-2
  0
POLYLINE
  8
LAYER-2
 66
  1
 70
  0
 62
  0
 10
11.349319
 20
14.812347
 30
0.000000
  0
VERTEX
  8
LAYER-2
 10
11.349319
 20
14.812347
 30
0.000000
  0
VERTEX
  8
LAYER-2
 10
11.344424
 20
14.806832
 30
0.000000
  0
VERTEX
  8
LAYER-2
 10
11.342061
 20
14.799152
 30
0.000000
  0
VERTEX
  8
LAYER-2
 10
11.340275
 20
14.791317
 30
0.000000
  0
VERTEX
  8
LAYER-2
 10
11.339077
 20
14.783373
 30
0.000000
  0
VERTEX
  8
LAYER-2
 10
11.338470
 20
14.775360
 30
0.000000
  0
VERTEX
  8
LAYER-2
 10
11.340439
 20
14.773390
 30
0.000000
  0
SEQEND
  8
LAYER-2
  0
POLYLINE
  8
LAYER-2
 66
  1
 70
  0
 62
  0
 10
11.483467
 20
14.900655
 30
0.000000
  0
VERTEX
  8
LAYER-2
 10
11.483467
 20
14.900655
 30
0.000000
  0
VERTEX
  8
LAYER-2
 10
11.503794
 20
14.880329
 30
0.000000
  0
SEQEND
  8
LAYER-2
  0
ARC
  8
LAYER-2
 62
  0
 10
11.493389
 20
14.869921
 30
0.000000
 40
0.014718
 50
0.000000
 51
45.000000
  0
POLYLINE
  8
LAYER-2
 66
  1
 70
  0
 62
  0
 10
11.839916
 20
14.808668
 30
0.000000
  0
VERTEX
  8
LAYER-2
 10
11.839916
 20
14.808668
 30
0.000000
  0
VERTEX
  8
LAYER-2
 10
11.829995
 20
14.808668
 30
0.000000
  0
SEQEND
  8
LAYER-2
  0
ARC
  8
LAYER-2
 62
  0
 10
11.829995
 20
14.793950
 30
0.000000
 40
0.014718
 50
90.000000
 51
180.000000
  0
POLYLINE
  8
LAYER-2
 66
  1
 70
  0
 62
  0
 10
11.286970
 20
15.167784
 30
0.000000
  0
VERTEX
  8
LAYER-2
 10
11.286970
 20
15.167784
 30
0.000000
  0
VERTEX
  8
LAYER-2
 10
11.270955
 20
15.183801
 30
0.000000
  0
SEQEND
  8
LAYER-2
  0
ARC
  8
LAYER-2
 62
  0
 10
11.276564
 20
15.157377
 30
0.000000
 40
0.014718
 50
0.000000
 51
45.000000
  0
POLYLINE
  8
LAYER-2
 66
  1
 70
  0
 62
  0
 10
11.363264
 20
14.702586
 30
0.000000
  0
VERTEX
  8
LAYER-2
 10
11.363264
 20
14.702586
 30
0.000000
  0
VERTEX
  8
LAYER-2
 10
11.391044
 20
14.699636
 30
0.000000
  0
VERTEX
  8
LAYER-2
 10
11.401778
 20
14.712563
 30
0.000000
  0
SEQEND
  8
LAYER-2
  0
POLYLINE
  8
LAYER-2
 66
  1
 70
  0
 62
  0
 10
11.255734
 20
16.289491
 30
0.000000
  0
VERTEX
  8
LAYER-2
 10
11.255734
 20
16.289491
 30
0.000000
  0
VERTEX
  8
LAYER-2
 10
11.226035
 20
16.297450
 30
0.000000
  0
SEQEND
  8
LAYER-2
  0
ARC
  8
LAYER-2
 62
  0
 10
11.251925
 20
16.275275
 30
0.000000
 40
0.014718
 50
0.000000
 51
74.998535
  0
POLYLINE
  8
LAYER-2
 66
  1
 70
  0
 62
  0
 10
11.266643
 20
16.227166
 30
0.000000
  0
VERTEX
  8
LAYER-2
 10
11.266643
 20
16.227166
 30
0.000000
  0
VERTEX
  8
LAYER-2
 10
11.266643
 20
16.275275
 30
0.000000
  0
SEQEND
  8
LAYER-2
  0
ARC
  8
LAYER-2
 62
  0
 10
11.281361
 20
16.227166
 30
0.000000
 40
0.014718
 50
180.000000
 51
254.998535
  0
POLYLINE
  8
LAYER-2
 66
  1
 70
  0
 62
  0
 10
12.100039
 20
16.063261
 30
0.000000
  0
VERTEX
  8
LAYER-2
 10
12.100039
 20
16.063261
 30
0.000000
  0
VERTEX
  8
LAYER-2
 10
12.075267
 20
16.069899
 30
0.000000
  0
SEQEND
  8
LAYER-2
  0
ARC
  8
LAYER-2
 62
  0
 10
12.071459
 20
16.055681
 30
0.000000
 40
0.014718
 50
75.001892
 51
180.000000
  0
ARC
  8
LAYER-2
 62
  0
 10
12.096230
 20
16.049045
 30
0.000000
 40
0.014718
 50
0.000000
 51
75.001892
  0
POLYLINE
  8
LAYER-2
 66
  1
 70
  0
 62
  0
 10
12.056741
 20
16.055681
 30
0.000000
  0
VERTEX
  8
LAYER-2
 10
12.056741
 20
16.055681
 30
0.000000
  0
VERTEX
  8
LAYER-2
 10
12.056741
 20
16.023348
 30
0.000000
  0
SEQEND
  8
LAYER-2
  0
POLYLINE
  8
LAYER-2
 66
  1
 70
  0
 62
  0
 10
11.353242
 20
16.192668
 30
0.000000
  0
VERTEX
  8
LAYER-2
 10
11.353242
 20
16.192668
 30
0.000000
  0
VERTEX
  8
LAYER-2
 10
11.277551
 20
16.212950
 30
0.000000
  0
SEQEND
  8
LAYER-2
  0
ARC
  8
LAYER-2
 62
  0
 10
11.357051
 20
16.206884
 30
0.000000
 40
0.014718
 50
254.998535
 51
0.000000
  0
POLYLINE
  8
LAYER-2
 66
  1
 70
  0
 62
  0
 10
11.371769
 20
16.239219
 30
0.000000
  0
VERTEX
  8
LAYER-2
 10
11.371769
 20
16.239219
 30
0.000000
  0
VERTEX
  8
LAYER-2
 10
11.371769
 20
16.206884
 30
0.000000
  0
SEQEND
  8
LAYER-2
  0
ARC
  8
LAYER-2
 62
  0
 10
11.386487
 20
16.239219
 30
0.000000
 40
0.014718
 50
75.001892
 51
180.000000
  0
POLYLINE
  8
LAYER-2
 66
  1
 70
  0
 62
  0
 10
11.285169
 20
16.133267
 30
0.000000
  0
VERTEX
  8
LAYER-2
 10
11.285169
 20
16.133267
 30
0.000000
  0
VERTEX
  8
LAYER-2
 10
11.301259
 20
16.128955
 30
0.000000
  0
SEQEND
  8
LAYER-2
  0
ARC
  8
LAYER-2
 62
  0
 10
11.281361
 20
16.119049
 30
0.000000
 40
0.014718
 50
74.998535
 51
180.000000
  0
POLYLINE
  8
LAYER-2
 66
  1
 70
  0
 62
  0
 10
11.868892
 20
15.902900
 30
0.000000
  0
VERTEX
  8
LAYER-2
 10
11.868892
 20
15.902900
 30
0.000000
  0
VERTEX
  8
LAYER-2
 10
11.924873
 20
15.887900
 30
0.000000
  0
SEQEND
  8
LAYER-2
  0
ARC
  8
LAYER-2
 62
  0
 10
11.872700
 20
15.917118
 30
0.000000
 40
0.014718
 50
180.000000
 51
255.001907
  0
POLYLINE
  8
LAYER-2
 66
  1
 70
  0
 62
  0
 10
11.943400
 20
16.045831
 30
0.000000
  0
VERTEX
  8
LAYER-2
 10
11.943400
 20
16.045831
 30
0.000000
  0
VERTEX
  8
LAYER-2
 10
11.943400
 20
16.093940
 30
0.000000
  0
SEQEND
  8
LAYER-2
  0
ARC
  8
LAYER-2
 62
  0
 10
11.958119
 20
16.045831
 30
0.000000
 40
0.014718
 50
180.000000
 51
254.998535
  0
POLYLINE
  8
LAYER-2
 66
  1
 70
  0
 62
  0
 10
12.038211
 20
16.009132
 30
0.000000
  0
VERTEX
  8
LAYER-2
 10
12.038211
 20
16.009132
 30
0.000000
  0
VERTEX
  8
LAYER-2
 10
11.954308
 20
16.031615
 30
0.000000
  0
SEQEND
  8
LAYER-2
  0
ARC
  8
LAYER-2
 62
  0
 10
12.042024
 20
16.023348
 30
0.000000
 40
0.014718
 50
254.998535
 51
0.000000
  0
POLYLINE
  8
LAYER-2
 66
  1
 70
  0
 62
  0
 10
11.961927
 20
15.951930
 30
0.000000
  0
VERTEX
  8
LAYER-2
 10
11.961927
 20
15.951930
 30
0.000000
  0
VERTEX
  8
LAYER-2
 10
12.045832
 20
15.929448
 30
0.000000
  0
SEQEND
  8
LAYER-2
  0
ARC
  8
LAYER-2
 62
  0
 10
11.958119
 20
15.937714
 30
0.000000
 40
0.014718
 50
75.001892
 51
180.000000
  0
POLYLINE
  8
LAYER-2
 66
  1
 70
  0
 62
  0
 10
11.943400
 20
15.902117
 30
0.000000
  0
VERTEX
  8
LAYER-2
 10
11.943400
 20
15.902117
 30
0.000000
  0
VERTEX
  8
LAYER-2
 10
11.943400
 20
15.937714
 30
0.000000
  0
SEQEND
  8
LAYER-2
  0
ARC
  8
LAYER-2
 62
  0
 10
11.928682
 20
15.902117
 30
0.000000
 40
0.014718
 50
255.001907
 51
0.000000
  0
POLYLINE
  8
LAYER-2
 66
  1
 70
  0
 62
  0
 10
11.972570
 20
14.645350
 30
0.000000
  0
VERTEX
  8
LAYER-2
 10
11.972570
 20
14.645350
 30
0.000000
  0
VERTEX
  8
LAYER-2
 10
12.092421
 20
14.613234
 30
0.000000
  0
SEQEND
  8
LAYER-2
  0
ARC
  8
LAYER-2
 62
  0
 10
12.096230
 20
14.627452
 30
0.000000
 40
0.014718
 50
255.001907
 51
0.000000
  0
POLYLINE
  8
LAYER-2
 66
  1
 70
  0
 62
  0
 10
11.349319
 20
14.812347
 30
0.000000
  0
VERTEX
  8
LAYER-2
 10
11.349319
 20
14.812347
 30
0.000000
  0
VERTEX
  8
LAYER-2
 10
11.218419
 20
14.847422
 30
0.000000
  0
SEQEND
  8
LAYER-2
  0
ARC
  8
LAYER-2
 62
  0
 10
11.222227
 20
14.861640
 30
0.000000
 40
0.014718
 50
180.000000
 51
254.998535
  0
POLYLINE
  8
LAYER-2
 66
  1
 70
  0
 62
  0
 10
12.045832
 20
14.976578
 30
0.000000
  0
VERTEX
  8
LAYER-2
 10
12.045832
 20
14.976578
 30
0.000000
  0
VERTEX
  8
LAYER-2
 10
12.034797
 20
14.973623
 30
0.000000
  0
SEQEND
  8
LAYER-2
  0
ARC
  8
LAYER-2
 62
  0
 10
12.042024
 20
14.990794
 30
0.000000
 40
0.014718
 50
284.998108
 51
0.000000
  0
POLYLINE
  8
LAYER-2
 66
  1
 70
  0
 62
  0
 10
11.488274
 20
14.775116
 30
0.000000
  0
VERTEX
  8
LAYER-2
 10
11.488274
 20
14.775116
 30
0.000000
  0
VERTEX
  8
LAYER-2
 10
11.489580
 20
14.774767
 30
0.000000
  0
SEQEND
  8
LAYER-2
  0
ARC
  8
LAYER-2
 62
  0
 10
11.493389
 20
14.788981
 30
0.000000
 40
0.014718
 50
254.998535
 51
0.000000
  0
POLYLINE
  8
LAYER-2
 66
  1
 70
  0
 62
  0
 10
11.413639
 20
14.795112
 30
0.000000
  0
VERTEX
  8
LAYER-2
 10
11.413639
 20
14.795112
 30
0.000000
  0
VERTEX
  8
LAYER-2
 10
11.419045
 20
14.793664
 30
0.000000
  0
SEQEND
  8
LAYER-2
  0
POLYLINE
  8
LAYER-2
 66
  1
 70
  0
 62
  0
 10
11.956732
 20
14.549350
 30
0.000000
  0
VERTEX
  8
LAYER-2
 10
11.956732
 20
14.549350
 30
0.000000
  0
VERTEX
  8
LAYER-2
 10
11.972764
 20
14.578664
 30
0.000000
  0
VERTEX
  8
LAYER-2
 10
11.978931
 20
14.610816
 30
0.000000
  0
VERTEX
  8
LAYER-2
 10
11.972324
 20
14.642880
 30
0.000000
  0
VERTEX
  8
LAYER-2
 10
11.972462
 20
14.644947
 30
0.000000
  0
SEQEND
  8
LAYER-2
  0
POLYLINE
  8
LAYER-2
 66
  1
 70
  0
 62
  0
 10
11.924700
 20
14.588771
 30
0.000000
  0
VERTEX
  8
LAYER-2
 10
11.924700
 20
14.588771
 30
0.000000
  0
VERTEX
  8
LAYER-2
 10
11.933654
 20
14.625431
 30
0.000000
  0
VERTEX
  8
LAYER-2
 10
11.916847
 20
14.657686
 30
0.000000
  0
VERTEX
  8
LAYER-2
 10
11.905893
 20
14.663440
 30
0.000000
  0
SEQEND
  8
LAYER-2
  0
POLYLINE
  8
LAYER-2
 66
  1
 70
  0
 62
  0
 10
11.833671
 20
14.682795
 30
0.000000
  0
VERTEX
  8
LAYER-2
 10
11.833671
 20
14.682795
 30
0.000000
  0
VERTEX
  8
LAYER-2
 10
11.828760
 20
14.677234
 30
0.000000
  0
VERTEX
  8
LAYER-2
 10
11.826388
 20
14.669505
 30
0.000000
  0
VERTEX
  8
LAYER-2
 10
11.824601
 20
14.661621
 30
0.000000
  0
VERTEX
  8
LAYER-2
 10
11.823407
 20
14.653627
 30
0.000000
  0
VERTEX
  8
LAYER-2
 10
11.824782
 20
14.643597
 30
0.000000
  0
SEQEND
  8
LAYER-2
  0
POLYLINE
  8
LAYER-2
 66
  1
 70
  0
 62
  0
 10
11.846855
 20
14.574171
 30
0.000000
  0
VERTEX
  8
LAYER-2
 10
11.846855
 20
14.574171
 30
0.000000
  0
VERTEX
  8
LAYER-2
 10
11.874257
 20
14.569322
 30
0.000000
  0
VERTEX
  8
LAYER-2
 10
11.886245
 20
14.584429
 30
0.000000
  0
SEQEND
  8
LAYER-2
  0
POLYLINE
  8
LAYER-2
 66
  1
 70
  0
 62
  0
 10
11.833671
 20
14.682565
 30
0.000000
  0
VERTEX
  8
LAYER-2
 10
11.833671
 20
14.682565
 30
0.000000
  0
VERTEX
  8
LAYER-2
 10
11.826183
 20
14.684574
 30
0.000000
  0
SEQEND
  8
LAYER-2
  0
ARC
  8
LAYER-2
 62
  0
 10
11.829995
 20
14.698788
 30
0.000000
 40
0.014718
 50
180.000000
 51
254.998535
  0
ARC
  8
LAYER-2
 62
  0
 10
11.462089
 20
14.703266
 30
0.000000
 40
0.026446
 50
145.282684
 51
292.906250
  0
ARC
  8
LAYER-2
 62
  0
 10
11.946411
 20
14.573690
 30
0.000000
 40
0.026437
 50
145.214844
 51
292.973877
  0
POLYLINE
  8
LAYER-2
 66
  1
 70
  0
 62
  0
 10
12.107659
 20
16.058078
 30
0.000000
  0
VERTEX
  8
LAYER-2
 10
12.107659
 20
16.058078
 30
0.000000
  0
VERTEX
  8
LAYER-2
 10
14.852459
 20
16.793545
 30
0.000000
  0
SEQEND
  8
LAYER-2
  0
POLYLINE
  8
LAYER-2
 66
  1
 70
  0
 62
  0
 10
12.099809
 20
14.612415
 30
0.000000
  0
VERTEX
  8
LAYER-2
 10
12.099809
 20
14.612415
 30
0.000000
  0
VERTEX
  8
LAYER-2
 10
14.855747
 20
15.350866
 30
0.000000
  0
SEQEND
  8
LAYER-2
  0
POLYLINE
  8
LAYER-2
 66
  1
 70
  0
 62
  0
 10
12.066604
 20
16.069823
 30
0.000000
  0
VERTEX
  8
LAYER-2
 10
12.066604
 20
16.069823
 30
0.000000
  0
VERTEX
  8
LAYER-2
 10
14.810610
 20
16.805077
 30
0.000000
  0
SEQEND
  8
LAYER-2
  0
POLYLINE
  8
LAYER-2
 66
  1
 70
  0
 62
  0
 10
11.939063
 20
16.104048
 30
0.000000
  0
VERTEX
  8
LAYER-2
 10
11.939063
 20
16.104048
 30
0.000000
  0
VERTEX
  8
LAYER-2
 10
14.683165
 20
16.839328
 30
0.000000
  0
SEQEND
  8
LAYER-2
  0
POLYLINE
  8
LAYER-2
 66
  1
 70
  0
 62
  0
 10
11.379621
 20
16.253435
 30
0.000000
  0
VERTEX
  8
LAYER-2
 10
11.379621
 20
16.253435
 30
0.000000
  0
VERTEX
  8
LAYER-2
 10
14.124490
 20
16.988922
 30
0.000000
  0
SEQEND
  8
LAYER-2
  0
POLYLINE
  8
LAYER-2
 66
  1
 70
  0
 62
  0
 10
11.264771
 20
16.283742
 30
0.000000
  0
VERTEX
  8
LAYER-2
 10
11.264771
 20
16.283742
 30
0.000000
  0
VERTEX
  8
LAYER-2
 10
14.010898
 20
17.019569
 30
0.000000
  0
SEQEND
  8
LAYER-2
  0
POLYLINE
  8
LAYER-2
 66
  1
 70
  0
 62
  0
 10
11.216179
 20
16.296627
 30
0.000000
  0
VERTEX
  8
LAYER-2
 10
11.216179
 20
16.296627
 30
0.000000
  0
VERTEX
  8
LAYER-2
 10
13.962168
 20
17.032416
 30
0.000000
  0
SEQEND
  8
LAYER-2
  0
POLYLINE
  8
LAYER-2
 66
  1
 70
  0
 62
  0
 10
11.931079
 20
15.887334
 30
0.000000
  0
VERTEX
  8
LAYER-2
 10
11.931079
 20
15.887334
 30
0.000000
  0
VERTEX
  8
LAYER-2
 10
12.055490
 20
15.920671
 30
0.000000
  0
SEQEND
  8
LAYER-2
  0
POLYLINE
  8
LAYER-2
 66
  1
 70
  0
 62
  0
 10
11.289639
 20
15.164766
 30
0.000000
  0
VERTEX
  8
LAYER-2
 10
11.289639
 20
15.164766
 30
0.000000
  0
VERTEX
  8
LAYER-2
 10
12.057595
 20
15.370539
 30
0.000000
  0
SEQEND
  8
LAYER-2
  0
POLYLINE
  8
LAYER-2
 66
  1
 70
  0
 62
  0
 10
11.268285
 20
15.188461
 30
0.000000
  0
VERTEX
  8
LAYER-2
 10
11.268285
 20
15.188461
 30
0.000000
  0
VERTEX
  8
LAYER-2
 10
12.057837
 20
15.400021
 30
0.000000
  0
SEQEND
  8
LAYER-2
  0
POLYLINE
  8
LAYER-2
 66
  1
 70
  0
 62
  0
 10
11.483467
 20
14.900655
 30
0.000000
  0
VERTEX
  8
LAYER-2
 10
11.483467
 20
14.900655
 30
0.000000
  0
VERTEX
  8
LAYER-2
 10
12.056734
 20
15.054260
 30
0.000000
  0
SEQEND
  8
LAYER-2
  0
POLYLINE
  8
LAYER-2
 66
  1
 70
  0
 62
  0
 10
11.506465
 20
14.876489
 30
0.000000
  0
VERTEX
  8
LAYER-2
 10
11.506465
 20
14.876489
 30
0.000000
  0
VERTEX
  8
LAYER-2
 10
12.055692
 20
15.023655
 30
0.000000
  0
SEQEND
  8
LAYER-2
  0
POLYLINE
  8
LAYER-2
 66
  1
 70
  0
 62
  0
 10
11.499885
 20
14.775665
 30
0.000000
  0
VERTEX
  8
LAYER-2
 10
11.499885
 20
14.775665
 30
0.000000
  0
VERTEX
  8
LAYER-2
 10
12.024348
 20
14.916192
 30
0.000000
  0
SEQEND
  8
LAYER-2
  0
POLYLINE
  8
LAYER-2
 66
  1
 70
  0
 62
  0
 10
11.469918
 20
14.678084
 30
0.000000
  0
VERTEX
  8
LAYER-2
 10
11.469918
 20
14.678084
 30
0.000000
  0
VERTEX
  8
LAYER-2
 10
11.815137
 20
14.770584
 30
0.000000
  0
SEQEND
  8
LAYER-2
  0
POLYLINE
  8
LAYER-2
 66
  1
 70
  0
 62
  0
 10
11.956730
 20
14.549350
 30
0.000000
  0
VERTEX
  8
LAYER-2
 10
11.956730
 20
14.549350
 30
0.000000
  0
VERTEX
  8
LAYER-2
 10
14.715307
 20
15.288508
 30
0.000000
  0
SEQEND
  8
LAYER-2
  0
POLYLINE
  8
LAYER-2
 66
  1
 70
  0
 62
  0
 10
11.385732
 20
14.693685
 30
0.000000
  0
VERTEX
  8
LAYER-2
 10
11.385732
 20
14.693685
 30
0.000000
  0
VERTEX
  8
LAYER-2
 10
11.434996
 20
14.706887
 30
0.000000
  0
SEQEND
  8
LAYER-2
  0
POLYLINE
  8
LAYER-2
 66
  1
 70
  0
 62
  0
 10
11.869484
 20
14.563921
 30
0.000000
  0
VERTEX
  8
LAYER-2
 10
11.869484
 20
14.563921
 30
0.000000
  0
VERTEX
  8
LAYER-2
 10
11.920403
 20
14.577564
 30
0.000000
  0
SEQEND
  8
LAYER-2
  0
POLYLINE
  8
LAYER-2
 66
  1
 70
  0
 62
  0
 10
14.855747
 20
15.350866
 30
0.000000
  0
VERTEX
  8
LAYER-2
 10
14.855747
 20
15.350866
 30
0.000000
  0
VERTEX
  8
LAYER-2
 10
14.855747
 20
16.783730
 30
0.000000
  0
SEQEND
  8
LAYER-2
  0
POLYLINE
  8
LAYER-2
 66
  1
 70
  0
 62
  0
 10
14.714774
 20
15.289037
 30
0.000000
  0
VERTEX
  8
LAYER-2
 10
14.714774
 20
15.289037
 30
0.000000
  0
VERTEX
  8
LAYER-2
 10
14.730949
 20
15.318256
 30
0.000000
  0
VERTEX
  8
LAYER-2
 10
14.733700
 20
15.318259
 30
0.000000
  0
SEQEND
  8
LAYER-2
  0
POLYLINE
  8
LAYER-2
 66
  1
 70
  0
 62
  0
 10
14.675647
 20
16.843282
 30
0.000000
  0
VERTEX
  8
LAYER-2
 10
14.675647
 20
16.843282
 30
0.000000
  0
VERTEX
  8
LAYER-2
 10
14.132107
 20
16.988922
 30
0.000000
  0
SEQEND
  8
LAYER-2
  0
ARC
  8
LAYER-2
 62
  0
 10
14.128298
 20
16.974706
 30
0.000000
 40
0.014718
 50
75.001892
 51
104.998108
  0
ARC
  8
LAYER-2
 62
  0
 10
14.671839
 20
16.829064
 30
0.000000
 40
0.014718
 50
0.000000
 51
75.001892
  0
ARC
  8
LAYER-2
 62
  0
 10
14.841029
 20
16.783730
 30
0.000000
 40
0.014718
 50
0.000000
 51
74.998535
  0
POLYLINE
  8
LAYER-2
 66
  1
 70
  0
 62
  0
 10
14.686557
 20
16.829064
 30
0.000000
  0
VERTEX
  8
LAYER-2
 10
14.686557
 20
16.829064
 30
0.000000
  0
VERTEX
  8
LAYER-2
 10
14.686557
 20
16.783059
 30
0.000000
  0
SEQEND
  8
LAYER-2
  0
POLYLINE
  8
LAYER-2
 66
  1
 70
  0
 62
  0
 10
14.844837
 20
16.797947
 30
0.000000
  0
VERTEX
  8
LAYER-2
 10
14.844837
 20
16.797947
 30
0.000000
  0
VERTEX
  8
LAYER-2
 10
14.818225
 20
16.805077
 30
0.000000
  0
SEQEND
  8
LAYER-2
  0
ARC
  8
LAYER-2
 62
  0
 10
14.814418
 20
16.790861
 30
0.000000
 40
0.014718
 50
74.998535
 51
105.001465
  0
POLYLINE
  8
LAYER-2
 66
  1
 70
  0
 62
  0
 10
13.969791
 20
17.032416
 30
0.000000
  0
VERTEX
  8
LAYER-2
 10
13.969791
 20
17.032416
 30
0.000000
  0
VERTEX
  8
LAYER-2
 10
14.003413
 20
17.023407
 30
0.000000
  0
SEQEND
  8
LAYER-2
  0
ARC
  8
LAYER-2
 62
  0
 10
13.965981
 20
17.018199
 30
0.000000
 40
0.014718
 50
74.998535
 51
105.001465
  0
POLYLINE
  8
LAYER-2
 66
  1
 70
  0
 62
  0
 10
14.014318
 20
17.009191
 30
0.000000
  0
VERTEX
  8
LAYER-2
 10
14.014318
 20
17.009191
 30
0.000000
  0
VERTEX
  8
LAYER-2
 10
14.014318
 20
16.966475
 30
0.000000
  0
SEQEND
  8
LAYER-2
  0
ARC
  8
LAYER-2
 62
  0
 10
13.999600
 20
17.009191
 30
0.000000
 40
0.014718
 50
0.000000
 51
74.998535
  0
ARC
  8
LAYER-2
 62
  0
 10
14.701275
 20
16.783059
 30
0.000000
 40
0.014718
 50
180.000000
 51
217.500793
  0
POLYLINE
  8
LAYER-2
 66
  1
 70
  0
 62
  0
 10
11.946440
 20
16.036870
 30
0.000000
  0
VERTEX
  8
LAYER-2
 10
11.946440
 20
16.036870
 30
0.000000
  0
VERTEX
  8
LAYER-2
 10
12.066795
 20
16.069119
 30
0.000000
  0
SEQEND
  8
LAYER-2
  0
ARC
  8
LAYER-2
 62
  0
 10
14.029034
 20
16.966475
 30
0.000000
 40
0.014718
 50
180.000000
 51
201.578766
  0
POLYLINE
  8
LAYER-2
 66
  1
 70
  0
 62
  0
 10
11.269686
 20
16.218207
 30
0.000000
  0
VERTEX
  8
LAYER-2
 10
11.269686
 20
16.218207
 30
0.000000
  0
VERTEX
  8
LAYER-2
 10
11.374235
 20
16.246221
 30
0.000000
  0
SEQEND
  8
LAYER-2
  0
POLYLINE
  8
LAYER-2
 66
  1
 70
  0
 62
  0
 10
10.498427
 20
14.513923
 30
0.000000
  0
VERTEX
  8
LAYER-2
 10
10.498427
 20
14.513923
 30
0.000000
  0
VERTEX
  8
LAYER-2
 10
10.480978
 20
14.535377
 30
0.000000
  0
VERTEX
  8
LAYER-2
 10
10.457086
 20
14.538074
 30
0.000000
  0
VERTEX
  8
LAYER-2
 10
10.440749
 20
14.520435
 30
0.000000
  0
VERTEX
  8
LAYER-2
 10
10.441535
 20
14.492791
 30
0.000000
  0
VERTEX
  8
LAYER-2
 10
10.458984
 20
14.471337
 30
0.000000
  0
VERTEX
  8
LAYER-2
 10
10.482877
 20
14.468640
 30
0.000000
  0
VERTEX
  8
LAYER-2
 10
10.499214
 20
14.486281
 30
0.000000
  0
VERTEX
  8
LAYER-2
 10
10.498427
 20
14.513923
 30
0.000000
  0
SEQEND
  8
LAYER-2
  0
POLYLINE
  8
LAYER-2
 66
  1
 70
  0
 62
  0
 10
11.886153
 20
16.046727
 30
0.000000
  0
VERTEX
  8
LAYER-2
 10
11.886153
 20
16.046727
 30
0.000000
  0
VERTEX
  8
LAYER-2
 10
10.929188
 20
15.790310
 30
0.000000
  0
SEQEND
  8
LAYER-2
  0
POLYLINE
  8
LAYER-2
 66
  1
 70
  0
 62
  0
 10
10.929188
 20
15.790310
 30
0.000000
  0
VERTEX
  8
LAYER-2
 10
10.929188
 20
15.790310
 30
0.000000
  0
VERTEX
  8
LAYER-2
 10
10.929188
 20
15.705205
 30
0.000000
  0
SEQEND
  8
LAYER-2
  0
POLYLINE
  8
LAYER-2
 66
  1
 70
  0
 62
  0
 10
10.929188
 20
15.790310
 30
0.000000
  0
VERTEX
  8
LAYER-2
 10
10.929188
 20
15.790310
 30
0.000000
  0
VERTEX
  8
LAYER-2
 10
10.483305
 20
15.909785
 30
0.000000
  0
SEQEND
  8
LAYER-2
  0
POLYLINE
  8
LAYER-2
 66
  1
 70
  0
 62
  0
 10
11.207509
 20
16.283234
 30
0.000000
  0
VERTEX
  8
LAYER-2
 10
11.207509
 20
16.283234
 30
0.000000
  0
VERTEX
  8
LAYER-2
 10
11.207509
 20
16.103834
 30
0.000000
  0
SEQEND
  8
LAYER-2
  0
ARC
  8
LAYER-2
 62
  0
 10
11.411669
 20
14.763572
 30
0.000000
 40
0.031603
 50
86.422852
 51
133.433594
  0
POLYLINE
  8
LAYER-2
 66
  1
 70
  0
 62
  0
 10
11.906113
 20
14.664051
 30
0.000000
  0
VERTEX
  8
LAYER-2
 10
11.906113
 20
14.664051
 30
0.000000
  0
VERTEX
  8
LAYER-2
 10
11.898212
 20
14.666167
 30
0.000000
  0
SEQEND
  8
LAYER-2
  0
ARC
  8
LAYER-2
 62
  0
 10
11.896211
 20
14.634737
 30
0.000000
 40
0.031493
 50
86.356384
 51
135.645996
  0
POLYLINE
  8
LAYER-2
 66
  1
 70
  0
 62
  0
 10
6.865366
 20
13.294209
 30
0.000000
  0
VERTEX
  8
LAYER-2
 10
6.865366
 20
13.294209
 30
0.000000
  0
VERTEX
  8
LAYER-2
 10
6.859881
 20
13.295679
 30
0.000000
  0
SEQEND
  8
LAYER-2
  0
ARC
  8
LAYER-2
 62
  0
 10
6.881552
 20
13.262821
 30
0.000000
 40
0.053796
 50
167.036560
 51
225.834183
  0
ARC
  8
LAYER-2
 62
  0
 10
6.856052
 20
13.268204
 30
0.000000
 40
0.027742
 50
82.065369
 51
166.055542
  0
TEXT
  8
LAYER-2
 62
  0
 10
12.111111
 20
13.824470
 30
0.000000
 40
0.250000
  1
Joint pins
 72
  5
 11
13.722222
 21
13.824470
 31
0.000000
  0
TEXT
  8
LAYER-2
 62
  0
 10
7.777778
 20
16.296692
 30
0.000000
 40
0.250000
  1
Alignment flat bar
 72
  5
 11
10.555556
 21
16.296692
 31
0.000000
  0
POLYLINE
  8
LAYER-2
 66
  1
 70
  0
 62
  0
 10
10.423068
 20
16.342416
 30
0.000000
  0
VERTEX
  8
LAYER-2
 10
10.423068
 20
16.342416
 30
0.000000
  0
VERTEX
  8
LAYER-2
 10
10.759616
 20
16.005868
 30
0.000000
  0
SEQEND
  8
LAYER-2
  0
POLYLINE
  8
LAYER-2
 66
  1
 70
  1
 62
  0
  0
VERTEX
  8
LAYER-2
 10
10.773536
 20
15.991948
 30
0.000000
  0
VERTEX
  8
LAYER-2
 10
10.616401
 20
16.031231
 30
0.000000
  0
VERTEX
  8
LAYER-2
 10
10.675326
 20
16.090157
 30
0.000000
  0
VERTEX
  8
LAYER-2
 10
10.734251
 20
16.149083
 30
0.000000
  0
VERTEX
  8
LAYER-2
 10
10.773536
 20
15.991948
 30
0.000000
  0
SEQEND
  8
LAYER-2
  0
POLYLINE
  8
LAYER-2
 66
  1
 70
  0
 62
  0
 10
12.045602
 20
13.980007
 30
0.000000
  0
VERTEX
  8
LAYER-2
 10
12.045602
 20
13.980007
 30
0.000000
  0
VERTEX
  8
LAYER-2
 10
11.499249
 20
14.454939
 30
0.000000
  0
SEQEND
  8
LAYER-2
  0
POLYLINE
  8
LAYER-2
 66
  1
 70
  1
 62
  0
  0
VERTEX
  8
LAYER-2
 10
11.484392
 20
14.467853
 30
0.000000
  0
VERTEX
  8
LAYER-2
 10
11.643885
 20
14.439628
 30
0.000000
  0
VERTEX
  8
LAYER-2
 10
11.589214
 20
14.376736
 30
0.000000
  0
VERTEX
  8
LAYER-2
 10
11.534543
 20
14.313843
 30
0.000000
  0
VERTEX
  8
LAYER-2
 10
11.484392
 20
14.467853
 30
0.000000
  0
SEQEND
  8
LAYER-2
  0
POLYLINE
  8
LAYER-2
 66
  1
 70
  0
 62
  0
 10
6.799661
 20
13.439580
 30
0.000000
  0
VERTEX
  8
LAYER-2
 10
6.799661
 20
13.439580
 30
0.000000
  0
VERTEX
  8
LAYER-2
 10
6.983101
 20
13.488731
 30
0.000000
  0
SEQEND
  8
LAYER-2
  0
POLYLINE
  8
LAYER-2
 66
  1
 70
  0
 62
  0
 10
10.657206
 20
17.890752
 30
0.000000
  0
VERTEX
  8
LAYER-2
 10
10.657206
 20
17.890752
 30
0.000000
  0
VERTEX
  8
LAYER-2
 10
10.752137
 20
17.902264
 30
0.000000
  0
VERTEX
  8
LAYER-2
 10
10.845312
 20
17.930528
 30
0.000000
  0
VERTEX
  8
LAYER-2
 10
10.931182
 20
17.976427
 30
0.000000
  0
VERTEX
  8
LAYER-2
 10
11.006449
 20
18.038196
 30
0.000000
  0
VERTEX
  8
LAYER-2
 10
11.068219
 20
18.113463
 30
0.000000
  0
VERTEX
  8
LAYER-2
 10
11.114117
 20
18.199334
 30
0.000000
  0
VERTEX
  8
LAYER-2
 10
11.142381
 20
18.292508
 30
0.000000
  0
VERTEX
  8
LAYER-2
 10
11.151925
 20
18.389408
 30
0.000000
  0
VERTEX
  8
LAYER-2
 10
11.142381
 20
18.486306
 30
0.000000
  0
VERTEX
  8
LAYER-2
 10
11.114117
 20
18.579481
 30
0.000000
  0
VERTEX
  8
LAYER-2
 10
11.068219
 20
18.665351
 30
0.000000
  0
VERTEX
  8
LAYER-2
 10
11.006449
 20
18.740618
 30
0.000000
  0
VERTEX
  8
LAYER-2
 10
10.931182
 20
18.802387
 30
0.000000
  0
VERTEX
  8
LAYER-2
 10
10.845312
 20
18.848287
 30
0.000000
  0
VERTEX
  8
LAYER-2
 10
10.752137
 20
18.876550
 30
0.000000
  0
VERTEX
  8
LAYER-2
 10
10.657206
 20
18.884125
 30
0.000000
  0
SEQEND
  8
LAYER-2
  0
POLYLINE
  8
LAYER-2
 66
  1
 70
  0
 62
  0
 10
10.657206
 20
18.884125
 30
0.000000
  0
VERTEX
  8
LAYER-2
 10
10.657206
 20
18.884125
 30
0.000000
  0
VERTEX
  8
LAYER-2
 10
3.502579
 20
18.884125
 30
0.000000
  0
SEQEND
  8
LAYER-2
  0
POLYLINE
  8
LAYER-2
 66
  1
 70
  0
 62
  0
 10
3.502579
 20
18.884125
 30
0.000000
  0
VERTEX
  8
LAYER-2
 10
3.502579
 20
18.884125
 30
0.000000
  0
VERTEX
  8
LAYER-2
 10
3.502579
 20
17.890754
 30
0.000000
  0
SEQEND
  8
LAYER-2
  0
POLYLINE
  8
LAYER-2
 66
  1
 70
  0
 62
  0
 10
10.657206
 20
17.890754
 30
0.000000
  0
VERTEX
  8
LAYER-2
 10
10.657206
 20
17.890754
 30
0.000000
  0
VERTEX
  8
LAYER-2
 10
3.502579
 20
17.890754
 30
0.000000
  0
SEQEND
  8
LAYER-2
  0
TEXT
  8
LAYER-2
 62
  0
 10
7.027778
 20
19.491136
 30
0.000000
 40
0.645833
  1
MobilFlex
 72
  5
 11
11.250000
 21
19.491136
 31
0.000000
  0
POLYLINE
  8
LAYER-2
 66
  1
 70
  1
 62
  0
  0
VERTEX
  8
LAYER-2
 10
3.505514
 20
20.490523
 30
0.000000
  0
VERTEX
  8
LAYER-2
 10
3.969838
 20
20.490523
 30
0.000000
  0
VERTEX
  8
LAYER-2
 10
3.969838
 20
19.481347
 30
0.000000
  0
VERTEX
  8
LAYER-2
 10
3.505514
 20
19.481347
 30
0.000000
  0
SEQEND
  8
LAYER-2
  0
POLYLINE
  8
LAYER-2
 66
  1
 70
  1
 62
  0
  0
VERTEX
  8
LAYER-2
 10
4.115573
 20
20.490523
 30
0.000000
  0
VERTEX
  8
LAYER-2
 10
4.579897
 20
20.490523
 30
0.000000
  0
VERTEX
  8
LAYER-2
 10
4.579897
 20
19.481347
 30
0.000000
  0
VERTEX
  8
LAYER-2
 10
4.115573
 20
19.481347
 30
0.000000
  0
SEQEND
  8
LAYER-2
  0
POLYLINE
  8
LAYER-2
 66
  1
 70
  1
 62
  0
  0
VERTEX
  8
LAYER-2
 10
4.701909
 20
20.490523
 30
0.000000
  0
VERTEX
  8
LAYER-2
 10
5.166233
 20
20.490523
 30
0.000000
  0
VERTEX
  8
LAYER-2
 10
5.166233
 20
19.481347
 30
0.000000
  0
VERTEX
  8
LAYER-2
 10
4.701909
 20
19.481347
 30
0.000000
  0
SEQEND
  8
LAYER-2
  0
POLYLINE
  8
LAYER-2
 66
  1
 70
  1
 62
  0
  0
VERTEX
  8
LAYER-2
 10
5.295023
 20
20.490523
 30
0.000000
  0
VERTEX
  8
LAYER-2
 10
5.759346
 20
20.490523
 30
0.000000
  0
VERTEX
  8
LAYER-2
 10
5.759346
 20
19.481347
 30
0.000000
  0
VERTEX
  8
LAYER-2
 10
5.295023
 20
19.481347
 30
0.000000
  0
SEQEND
  8
LAYER-2
  0
POLYLINE
  8
LAYER-2
 66
  1
 70
  1
 62
  0
  0
VERTEX
  8
LAYER-2
 10
5.913556
 20
20.482880
 30
0.000000
  0
VERTEX
  8
LAYER-2
 10
6.646474
 20
20.482880
 30
0.000000
  0
VERTEX
  8
LAYER-2
 10
6.646474
 20
20.213437
 30
0.000000
  0
VERTEX
  8
LAYER-2
 10
5.913556
 20
20.213437
 30
0.000000
  0
SEQEND
  8
LAYER-2
  0
POLYLINE
  8
LAYER-2
 66
  1
 70
  1
 62
  0
  0
VERTEX
  8
LAYER-2
 10
5.912709
 20
20.038891
 30
0.000000
  0
VERTEX
  8
LAYER-2
 10
6.514296
 20
20.038891
 30
0.000000
  0
VERTEX
  8
LAYER-2
 10
6.514296
 20
19.777074
 30
0.000000
  0
VERTEX
  8
LAYER-2
 10
5.912709
 20
19.777074
 30
0.000000
  0
SEQEND
  8
LAYER-2
  0
POLYLINE
  8
LAYER-2
 66
  1
 70
  1
 62
  0
  0
VERTEX
  8
LAYER-2
 10
3.505514
 20
19.316140
 30
0.000000
  0
VERTEX
  8
LAYER-2
 10
11.154986
 20
19.316140
 30
0.000000
  0
VERTEX
  8
LAYER-2
 10
11.154986
 20
19.231410
 30
0.000000
  0
VERTEX
  8
LAYER-2
 10
3.505514
 20
19.231410
 30
0.000000
  0
SEQEND
  8
LAYER-2
  0
TEXT
  8
LAYER-2
 62
  7
 10
3.944445
 20
18.130025
 30
0.000000
 40
0.375000
  1
Track and curves
 72
  5
 11
8.194445
 21
18.130025
 31
0.000000
  0
POLYLINE
  8
LAYER-2
 66
  1
 70
  0
 62
  0
 10
1.411186
 20
10.068433
 30
0.000000
  0
VERTEX
  8
LAYER-2
 10
1.411186
 20
10.068433
 30
0.000000
  0
VERTEX
  8
LAYER-2
 10
1.411186
 20
10.068433
 30
0.000000
  0
SEQEND
  8
LAYER-2
  0
POLYLINE
  8
LAYER-2
 66
  1
 70
  0
 62
  0
 10
0.886011
 20
10.957767
 30
0.000000
  0
VERTEX
  8
LAYER-2
 10
0.886011
 20
10.957767
 30
0.000000
  0
VERTEX
  8
LAYER-2
 10
0.886011
 20
10.957767
 30
0.000000
  0
SEQEND
  8
LAYER-2
  0
ARC
  8
LAYER-2
 62
  0
 10
2.300521
 20
10.957767
 30
0.000000
 40
1.375210
 50
180.000000
 51
225.000000
  0
ARC
  8
LAYER-2
 62
  0
 10
2.300521
 20
10.957767
 30
0.000000
 40
1.375210
 50
161.620728
 51
180.000000
  0
POLYLINE
  8
LAYER-2
 66
  1
 70
  1
 62
  0
  0
VERTEX
  8
LAYER-2
 10
1.328100
 20
9.985346
 30
0.000000
  0
VERTEX
  8
LAYER-2
 10
1.288817
 20
10.142481
 30
0.000000
  0
VERTEX
  8
LAYER-2
 10
1.229891
 20
10.083556
 30
0.000000
  0
VERTEX
  8
LAYER-2
 10
1.170966
 20
10.024631
 30
0.000000
  0
VERTEX
  8
LAYER-2
 10
1.328100
 20
9.985346
 30
0.000000
  0
SEQEND
  8
LAYER-2
  0
POLYLINE
  8
LAYER-2
 66
  1
 70
  1
 62
  0
  0
VERTEX
  8
LAYER-2
 10
0.925309
 20
10.957767
 30
0.000000
  0
VERTEX
  8
LAYER-2
 10
0.841977
 20
10.818878
 30
0.000000
  0
VERTEX
  8
LAYER-2
 10
0.925310
 20
10.818878
 30
0.000000
  0
VERTEX
  8
LAYER-2
 10
1.008643
 20
10.818878
 30
0.000000
  0
VERTEX
  8
LAYER-2
 10
0.925309
 20
10.957767
 30
0.000000
  0
SEQEND
  8
LAYER-2
  0
TEXT
  8
LAYER-2
 62
  0
 10
0.927822
 20
11.371057
 30
0.000000
 40
0.250000
  1
45.0°
  0
POLYLINE
  8
LAYER-2
 66
  1
 70
  0
 62
  0
 10
2.540953
 20
10.957767
 30
0.000000
  0
VERTEX
  8
LAYER-2
 10
2.540953
 20
10.957767
 30
0.000000
  0
VERTEX
  8
LAYER-2
 10
0.576389
 20
10.957767
 30
0.000000
  0
SEQEND
  8
LAYER-2
  0
POLYLINE
  8
LAYER-2
 66
  1
 70
  0
 62
  0
 10
11.444726
 20
14.724257
 30
0.000000
  0
VERTEX
  8
LAYER-2
 10
11.444726
 20
14.724257
 30
0.000000
  0
VERTEX
  8
LAYER-2
 10
11.440350
 20
14.718326
 30
0.000000
  0
SEQEND
  8
LAYER-2
  0
POLYLINE
  8
LAYER-2
 66
  1
 70
  0
 62
  0
 10
11.163199
 20
14.791484
 30
0.000000
  0
VERTEX
  8
LAYER-2
 10
11.163199
 20
14.791484
 30
0.000000
  0
VERTEX
  8
LAYER-2
 10
11.163199
 20
14.790616
 30
0.000000
  0
SEQEND
  8
LAYER-2
  0
POLYLINE
  8
LAYER-2
 66
  1
 70
  0
 62
  0
 10
10.942208
 20
14.406745
 30
0.000000
  0
VERTEX
  8
LAYER-2
 10
10.942208
 20
14.406745
 30
0.000000
  0
VERTEX
  8
LAYER-2
 10
11.902199
 20
14.664303
 30
0.000000
  0
SEQEND
  8
LAYER-2
  0
ARC
  8
LAYER-2
 62
  0
 10
10.961811
 20
14.374817
 30
0.000000
 40
0.037466
 50
121.547974
 51
283.694336
  0
POLYLINE
  8
LAYER-2
 66
  1
 70
  0
 62
  0
 10
11.927878
 20
14.594896
 30
0.000000
  0
VERTEX
  8
LAYER-2
 10
11.927878
 20
14.594896
 30
0.000000
  0
VERTEX
  8
LAYER-2
 10
10.970680
 20
14.338416
 30
0.000000
  0
SEQEND
  8
LAYER-2
  0
POLYLINE
  8
LAYER-2
 66
  1
 70
  0
 62
  0
 10
11.927778
 20
14.594954
 30
0.000000
  0
VERTEX
  8
LAYER-2
 10
11.927778
 20
14.594954
 30
0.000000
  0
VERTEX
  8
LAYER-2
 10
11.931245
 20
14.632884
 30
0.000000
  0
VERTEX
  8
LAYER-2
 10
11.909659
 20
14.662157
 30
0.000000
  0
VERTEX
  8
LAYER-2
 10
11.902273
 20
14.664524
 30
0.000000
  0
SEQEND
  8
LAYER-2
  0
POLYLINE
  8
LAYER-2
 66
  1
 70
  0
 62
  0
 10
10.981581
 20
14.384562
 30
0.000000
  0
VERTEX
  8
LAYER-2
 10
10.981581
 20
14.384562
 30
0.000000
  0
VERTEX
  8
LAYER-2
 10
10.964132
 20
14.406016
 30
0.000000
  0
VERTEX
  8
LAYER-2
 10
10.940240
 20
14.408713
 30
0.000000
  0
VERTEX
  8
LAYER-2
 10
10.923903
 20
14.391074
 30
0.000000
  0
VERTEX
  8
LAYER-2
 10
10.924689
 20
14.363430
 30
0.000000
  0
VERTEX
  8
LAYER-2
 10
10.942138
 20
14.341977
 30
0.000000
  0
VERTEX
  8
LAYER-2
 10
10.966031
 20
14.339279
 30
0.000000
  0
VERTEX
  8
LAYER-2
 10
10.982368
 20
14.356920
 30
0.000000
  0
VERTEX
  8
LAYER-2
 10
10.981581
 20
14.384562
 30
0.000000
  0
SEQEND
  8
LAYER-2
  0
POLYLINE
  8
LAYER-2
  6
LTYPE01
 66
  1
 70
  0
 62
  0
  6
LTYPE01
 10
11.446143
 20
16.167775
 30
0.000000
  0
VERTEX
  8
LAYER-2
  6
LTYPE01
 10
11.446143
 20
16.167775
 30
0.000000
  0
VERTEX
  8
LAYER-2
  6
LTYPE01
 10
12.401342
 20
16.423720
 30
0.000000
  0
SEQEND
  8
LAYER-2
  0
POLYLINE
  8
LAYER-2
  6
LTYPE01
 66
  1
 70
  0
 62
  0
  6
LTYPE01
 10
11.886153
 20
16.046727
 30
0.000000
  0
VERTEX
  8
LAYER-2
  6
LTYPE01
 10
11.886153
 20
16.046727
 30
0.000000
  0
VERTEX
  8
LAYER-2
  6
LTYPE01
 10
12.847227
 20
16.304247
 30
0.000000
  0
SEQEND
  8
LAYER-2
  0
POLYLINE
  8
LAYER-2
  6
LTYPE01
 66
  1
 70
  0
 62
  0
  6
LTYPE01
 10
11.884875
 20
15.961280
 30
0.000000
  0
VERTEX
  8
LAYER-2
  6
LTYPE01
 10
11.884875
 20
15.961280
 30
0.000000
  0
VERTEX
  8
LAYER-2
  6
LTYPE01
 10
12.847227
 20
16.219140
 30
0.000000
  0
SEQEND
  8
LAYER-2
  0
POLYLINE
  8
LAYER-2
  6
LTYPE01
 66
  1
 70
  0
 62
  0
  6
LTYPE01
 10
12.847227
 20
16.219140
 30
0.000000
  0
VERTEX
  8
LAYER-2
  6
LTYPE01
 10
12.847227
 20
16.219140
 30
0.000000
  0
VERTEX
  8
LAYER-2
  6
LTYPE01
 10
12.847227
 20
16.304247
 30
0.000000
  0
SEQEND
  8
LAYER-2
  0
POLYLINE
  8
LAYER-2
  6
LTYPE01
 66
  1
 70
  0
 62
  0
  6
LTYPE01
 10
12.847227
 20
16.304247
 30
0.000000
  0
VERTEX
  8
LAYER-2
  6
LTYPE01
 10
12.847227
 20
16.304247
 30
0.000000
  0
VERTEX
  8
LAYER-2
  6
LTYPE01
 10
12.401342
 20
16.423720
 30
0.000000
  0
SEQEND
  8
LAYER-2
  0
POLYLINE
  8
LAYER-2
  6
LTYPE01
 66
  1
 70
  0
 62
  0
  6
LTYPE01
 10
11.902273
 20
14.664524
 30
0.000000
  0
VERTEX
  8
LAYER-2
  6
LTYPE01
 10
11.902273
 20
14.664524
 30
0.000000
  0
VERTEX
  8
LAYER-2
  6
LTYPE01
 10
12.861115
 20
14.921444
 30
0.000000
  0
SEQEND
  8
LAYER-2
  0
POLYLINE
  8
LAYER-2
  6
LTYPE01
 66
  1
 70
  0
 62
  0
  6
LTYPE01
 10
11.927778
 20
14.594954
 30
0.000000
  0
VERTEX
  8
LAYER-2
  6
LTYPE01
 10
11.927778
 20
14.594954
 30
0.000000
  0
VERTEX
  8
LAYER-2
  6
LTYPE01
 10
12.887157
 20
14.852019
 30
0.000000
  0
SEQEND
  8
LAYER-2
  0
ARC
  8
LAYER-2
 62
  0
  6
LTYPE01
 10
12.862690
 20
14.882438
 30
0.000000
 40
0.039039
 50
308.811371
 51
92.311340
  0
POLYLINE
  8
LAYER-2
 66
  1
 70
  0
 62
  0
 10
3.165670
 20
15.551483
 30
0.000000
  0
VERTEX
  8
LAYER-2
 10
3.165670
 20
15.551483
 30
0.000000
  0
VERTEX
  8
LAYER-2
 10
3.153399
 20
15.595834
 30
0.000000
  0
VERTEX
  8
LAYER-2
 10
3.124060
 20
15.631763
 30
0.000000
  0
VERTEX
  8
LAYER-2
 10
3.080151
 20
15.655769
 30
0.000000
  0
VERTEX
  8
LAYER-2
 10
3.028357
 20
15.664200
 30
0.000000
  0
VERTEX
  8
LAYER-2
 10
2.976563
 20
15.655769
 30
0.000000
  0
VERTEX
  8
LAYER-2
 10
2.932654
 20
15.631763
 30
0.000000
  0
VERTEX
  8
LAYER-2
 10
2.903315
 20
15.595834
 30
0.000000
  0
VERTEX
  8
LAYER-2
 10
2.894981
 20
15.551483
 30
0.000000
  0
SEQEND
  8
LAYER-2
  0
POLYLINE
  8
LAYER-2
 66
  1
 70
  0
 62
  0
 10
2.894977
 20
15.551483
 30
0.000000
  0
VERTEX
  8
LAYER-2
 10
2.894977
 20
15.551483
 30
0.000000
  0
VERTEX
  8
LAYER-2
 10
2.894977
 20
14.660475
 30
0.000000
  0
SEQEND
  8
LAYER-2
  0
POLYLINE
  8
LAYER-2
 66
  1
 70
  0
 62
  0
 10
3.165669
 20
15.551483
 30
0.000000
  0
VERTEX
  8
LAYER-2
 10
3.165669
 20
15.551483
 30
0.000000
  0
VERTEX
  8
LAYER-2
 10
3.165669
 20
14.660475
 30
0.000000
  0
SEQEND
  8
LAYER-2
  0
POLYLINE
  8
LAYER-2
 66
  1
 70
  0
 62
  0
 10
2.894981
 20
14.660475
 30
0.000000
  0
VERTEX
  8
LAYER-2
 10
2.894981
 20
14.660475
 30
0.000000
  0
VERTEX
  8
LAYER-2
 10
2.903315
 20
14.620063
 30
0.000000
  0
VERTEX
  8
LAYER-2
 10
2.932654
 20
14.584134
 30
0.000000
  0
VERTEX
  8
LAYER-2
 10
2.976563
 20
14.560128
 30
0.000000
  0
VERTEX
  8
LAYER-2
 10
3.028357
 20
14.551697
 30
0.000000
  0
VERTEX
  8
LAYER-2
 10
3.080151
 20
14.560128
 30
0.000000
  0
VERTEX
  8
LAYER-2
 10
3.124060
 20
14.584134
 30
0.000000
  0
VERTEX
  8
LAYER-2
 10
3.153399
 20
14.620063
 30
0.000000
  0
VERTEX
  8
LAYER-2
 10
3.165670
 20
14.660475
 30
0.000000
  0
SEQEND
  8
LAYER-2
  0
POLYLINE
  8
LAYER-2
 66
  1
 70
  0
 62
  0
 10
2.427160
 20
15.550832
 30
0.000000
  0
VERTEX
  8
LAYER-2
 10
2.427160
 20
15.550832
 30
0.000000
  0
VERTEX
  8
LAYER-2
 10
2.414888
 20
15.595415
 30
0.000000
  0
VERTEX
  8
LAYER-2
 10
2.385544
 20
15.631544
 30
0.000000
  0
VERTEX
  8
LAYER-2
 10
2.341629
 20
15.655684
 30
0.000000
  0
VERTEX
  8
LAYER-2
 10
2.289827
 20
15.664161
 30
0.000000
  0
VERTEX
  8
LAYER-2
 10
2.238026
 20
15.655684
 30
0.000000
  0
VERTEX
  8
LAYER-2
 10
2.194110
 20
15.631544
 30
0.000000
  0
VERTEX
  8
LAYER-2
 10
2.164767
 20
15.595415
 30
0.000000
  0
VERTEX
  8
LAYER-2
 10
2.156431
 20
15.550832
 30
0.000000
  0
SEQEND
  8
LAYER-2
  0
POLYLINE
  8
LAYER-2
 66
  1
 70
  0
 62
  0
 10
2.156432
 20
15.550832
 30
0.000000
  0
VERTEX
  8
LAYER-2
 10
2.156432
 20
15.550832
 30
0.000000
  0
VERTEX
  8
LAYER-2
 10
2.156432
 20
14.654880
 30
0.000000
  0
SEQEND
  8
LAYER-2
  0
POLYLINE
  8
LAYER-2
 66
  1
 70
  0
 62
  0
 10
2.427171
 20
15.550832
 30
0.000000
  0
VERTEX
  8
LAYER-2
 10
2.427171
 20
15.550832
 30
0.000000
  0
VERTEX
  8
LAYER-2
 10
2.427171
 20
14.654880
 30
0.000000
  0
SEQEND
  8
LAYER-2
  0
POLYLINE
  8
LAYER-2
 66
  1
 70
  0
 62
  0
 10
2.156431
 20
14.654880
 30
0.000000
  0
VERTEX
  8
LAYER-2
 10
2.156431
 20
14.654880
 30
0.000000
  0
VERTEX
  8
LAYER-2
 10
2.164767
 20
14.614232
 30
0.000000
  0
VERTEX
  8
LAYER-2
 10
2.194110
 20
14.578105
 30
0.000000
  0
VERTEX
  8
LAYER-2
 10
2.238026
 20
14.553964
 30
0.000000
  0
VERTEX
  8
LAYER-2
 10
2.289827
 20
14.545486
 30
0.000000
  0
VERTEX
  8
LAYER-2
 10
2.341629
 20
14.553964
 30
0.000000
  0
VERTEX
  8
LAYER-2
 10
2.385544
 20
14.578105
 30
0.000000
  0
VERTEX
  8
LAYER-2
 10
2.414888
 20
14.614232
 30
0.000000
  0
VERTEX
  8
LAYER-2
 10
2.427160
 20
14.654880
 30
0.000000
  0
SEQEND
  8
LAYER-2
  0
POLYLINE
  8
LAYER-2
 66
  1
 70
  1
 62
  0
  0
VERTEX
  8
LAYER-2
 10
2.427471
 20
15.307861
 30
0.000000
  0
VERTEX
  8
LAYER-2
 10
2.894656
 20
15.307861
 30
0.000000
  0
VERTEX
  8
LAYER-2
 10
2.894656
 20
14.859887
 30
0.000000
  0
VERTEX
  8
LAYER-2
 10
2.427471
 20
14.859887
 30
0.000000
  0
SEQEND
  8
LAYER-2
  0
LINE
  8
LAYER-2
 62
  0
 10
3.465276
 20
14.569414
 30
0.000000
 11
3.465276
 21
15.642546
 31
0.000000
  0
LINE
  8
LAYER-2
 62
  0
 10
3.155325
 20
14.549728
 30
0.000000
 11
3.715276
 21
14.549728
 31
0.000000
  0
LINE
  8
LAYER-2
 62
  0
 10
3.155325
 20
15.662231
 30
0.000000
 11
3.715276
 21
15.662231
 31
0.000000
  0
LINE
  8
LAYER-2
 62
  0
 10
3.465276
 20
15.366136
 30
0.000000
 11
3.465276
 21
14.549728
 31
0.000000
  0
POLYLINE
  8
LAYER-2
 66
  1
 70
  1
 62
  0
  0
VERTEX
  8
LAYER-2
 10
3.465276
 20
14.549728
 30
0.000000
  0
VERTEX
  8
LAYER-2
 10
3.548610
 20
14.688617
 30
0.000000
  0
VERTEX
  8
LAYER-2
 10
3.465277
 20
14.688617
 30
0.000000
  0
VERTEX
  8
LAYER-2
 10
3.381943
 20
14.688619
 30
0.000000
  0
VERTEX
  8
LAYER-2
 10
3.465276
 20
14.549728
 30
0.000000
  0
SEQEND
  8
LAYER-2
  0
POLYLINE
  8
LAYER-2
 66
  1
 70
  1
 62
  0
  0
VERTEX
  8
LAYER-2
 10
3.465276
 20
15.662231
 30
0.000000
  0
VERTEX
  8
LAYER-2
 10
3.548609
 20
15.523343
 30
0.000000
  0
VERTEX
  8
LAYER-2
 10
3.465276
 20
15.523343
 30
0.000000
  0
VERTEX
  8
LAYER-2
 10
3.381943
 20
15.523343
 30
0.000000
  0
VERTEX
  8
LAYER-2
 10
3.465276
 20
15.662231
 30
0.000000
  0
SEQEND
  8
LAYER-2
  0
TEXT
  8
LAYER-2
 62
  0
 10
3.737586
 20
15.190559
 30
0.000000
 40
0.250000
  1
 
 50
90.000000
  0
TEXT
  8
LAYER-2
 62
  0
 10
3.805556
 20
15.324470
 30
0.000000
 40
0.208333
  1
Roller
 72
  5
 11
4.666667
 21
15.324470
 31
0.000000
  0
TEXT
  8
LAYER-2
 62
  0
 10
3.805556
 20
15.018914
 30
0.000000
 40
0.208333
  1
1-1/8" ¯
 72
  5
 11
5.027778
 21
15.018914
 31
0.000000
  0
TEXT
  8
LAYER-2
 62
  0
 10
3.805556
 20
14.713359
 30
0.000000
 40
0.208333
  1
(29mm)
 72
  5
 11
4.888889
 21
14.713359
 31
0.000000
  0
TEXT
  8
LAYER-2
 62
  0
 10
2.500000
 20
13.991136
 30
0.000000
 40
0.208333
  1
1"
 72
  5
 11
2.916667
 21
13.991136
 31
0.000000
  0
TEXT
  8
LAYER-2
 62
  0
 10
2.166667
 20
13.546692
 30
0.000000
 40
0.208333
  1
(25mm)
 72
  5
 11
3.250000
 21
13.546692
 31
0.000000
  0
POLYLINE
  8
LAYER-2
 66
  1
 70
  0
 62
  0
 10
2.179407
 20
13.880025
 30
0.000000
  0
VERTEX
  8
LAYER-2
 10
2.179407
 20
13.880025
 30
0.000000
  0
VERTEX
  8
LAYER-2
 10
3.153926
 20
13.880025
 30
0.000000
  0
SEQEND
  8
LAYER-2
  0
POLYLINE
  8
LAYER-2
 66
  1
 70
  1
 62
  0
  0
VERTEX
  8
LAYER-2
 10
2.159722
 20
13.880025
 30
0.000000
  0
VERTEX
  8
LAYER-2
 10
2.298612
 20
13.796693
 30
0.000000
  0
VERTEX
  8
LAYER-2
 10
2.298611
 20
13.880026
 30
0.000000
  0
VERTEX
  8
LAYER-2
 10
2.298611
 20
13.963359
 30
0.000000
  0
VERTEX
  8
LAYER-2
 10
2.159722
 20
13.880025
 30
0.000000
  0
SEQEND
  8
LAYER-2
  0
POLYLINE
  8
LAYER-2
 66
  1
 70
  1
 62
  0
  0
VERTEX
  8
LAYER-2
 10
3.173611
 20
13.880025
 30
0.000000
  0
VERTEX
  8
LAYER-2
 10
3.034722
 20
13.796691
 30
0.000000
  0
VERTEX
  8
LAYER-2
 10
3.034722
 20
13.880024
 30
0.000000
  0
VERTEX
  8
LAYER-2
 10
3.034722
 20
13.963358
 30
0.000000
  0
VERTEX
  8
LAYER-2
 10
3.173611
 20
13.880025
 30
0.000000
  0
SEQEND
  8
LAYER-2
  0
POLYLINE
  8
LAYER-2
 66
  1
 70
  0
 62
  0
 10
3.173611
 20
13.817525
 30
0.000000
  0
VERTEX
  8
LAYER-2
 10
3.173611
 20
13.817525
 30
0.000000
  0
VERTEX
  8
LAYER-2
 10
3.173611
 20
14.421692
 30
0.000000
  0
SEQEND
  8
LAYER-2
  0
POLYLINE
  8
LAYER-2
 66
  1
 70
  0
 62
  0
 10
2.159722
 20
13.810581
 30
0.000000
  0
VERTEX
  8
LAYER-2
 10
2.159722
 20
13.810581
 30
0.000000
  0
VERTEX
  8
LAYER-2
 10
2.159722
 20
14.428636
 30
0.000000
  0
SEQEND
  8
LAYER-2
  0
LINE
  8
LAYER-2
 62
  0
 10
2.032822
 20
16.505025
 30
0.000000
 11
3.308641
 21
16.505025
 31
0.000000
  0
LINE
  8
LAYER-2
 62
  0
 10
2.013137
 20
16.111591
 30
0.000000
 11
2.013137
 21
16.755025
 31
0.000000
  0
LINE
  8
LAYER-2
 62
  0
 10
3.328327
 20
16.111591
 30
0.000000
 11
3.328327
 21
16.755025
 31
0.000000
  0
POLYLINE
  8
LAYER-2
 66
  1
 70
  1
 62
  0
  0
VERTEX
  8
LAYER-2
 10
2.013137
 20
16.505025
 30
0.000000
  0
VERTEX
  8
LAYER-2
 10
2.152026
 20
16.421692
 30
0.000000
  0
VERTEX
  8
LAYER-2
 10
2.152026
 20
16.505025
 30
0.000000
  0
VERTEX
  8
LAYER-2
 10
2.152025
 20
16.588359
 30
0.000000
  0
VERTEX
  8
LAYER-2
 10
2.013137
 20
16.505025
 30
0.000000
  0
SEQEND
  8
LAYER-2
  0
POLYLINE
  8
LAYER-2
 66
  1
 70
  1
 62
  0
  0
VERTEX
  8
LAYER-2
 10
3.328327
 20
16.505025
 30
0.000000
  0
VERTEX
  8
LAYER-2
 10
3.189438
 20
16.421692
 30
0.000000
  0
VERTEX
  8
LAYER-2
 10
3.189438
 20
16.505025
 30
0.000000
  0
VERTEX
  8
LAYER-2
 10
3.189437
 20
16.588359
 30
0.000000
  0
VERTEX
  8
LAYER-2
 10
3.328327
 20
16.505025
 30
0.000000
  0
SEQEND
  8
LAYER-2
  0
TEXT
  8
LAYER-2
 62
  0
 10
2.479003
 20
16.764758
 30
0.000000
 40
0.250000
  1
1-5/16"
  0
TEXT
  8
LAYER-2
 62
  0
 10
2.333334
 20
13.241136
 30
0.000000
 40
0.208333
  1
Roller
 72
  5
 11
3.194445
 21
13.241136
 31
0.000000
  0
ENDSEC
  0
EOF
