  0
SECTION
  2
HEADER
999
MacDraft 5.0\0
  9
$ACADVER
  1
AC1006
  9
$CLAYER
  8
LAYER-1
  9
$EXTMIN
 10
0.000000
 20
0.000000
  9
$EXTMAX
 10
7.000792
 20
9.910207
  9
$FASTZOOM
 70
0
  9
$FILLMODE
 70
1
  0
ENDSEC
  0
SECTION
  2
TABLES
  0
TABLE
  2
LTYPE
 70
16
  0
LTYPE
  2
CONTINUOUS
 70
64
  3
Solid Line
 72
65
 73
0
 40
0.000000
  0
LTYPE
  2
LTYPE01
 70
64
  3
CUSTOM
 72
65
 73
2
 40
0.072727
 49
0.054545
 49
-0.018182
  0
LTYPE
  2
LTYPE02
 70
64
  3
CUSTOM
 72
65
 73
2
 40
0.127273
 49
0.109091
 49
-0.018182
  0
LTYPE
  2
LTYPE03
 70
64
  3
CUSTOM
 72
65
 73
2
 40
0.245455
 49
0.218182
 49
-0.027273
  0
LTYPE
  2
LTYPE04
 70
64
  3
CUSTOM
 72
65
 73
2
 40
0.472727
 49
0.436364
 49
-0.036364
  0
LTYPE
  2
LTYPE05
 70
64
  3
CUSTOM
 72
65
 73
4
 40
0.100000
 49
0.054545
 49
-0.018182
 49
0.009091
 49
-0.018182
  0
LTYPE
  2
LTYPE06
 70
64
  3
CUSTOM
 72
65
 73
4
 40
0.154545
 49
0.109091
 49
-0.018182
 49
0.009091
 49
-0.018182
  0
LTYPE
  2
LTYPE07
 70
64
  3
CUSTOM
 72
65
 73
4
 40
0.290909
 49
0.218182
 49
-0.027273
 49
0.018182
 49
-0.027273
  0
LTYPE
  2
LTYPE08
 70
64
  3
CUSTOM
 72
65
 73
4
 40
0.527273
 49
0.436364
 49
-0.036364
 49
0.018182
 49
-0.036364
  0
LTYPE
  2
LTYPE09
 70
64
  3
CUSTOM
 72
65
 73
6
 40
0.127273
 49
0.054545
 49
-0.018182
 49
0.009091
 49
-0.018182
 49
0.009091
 49
-0.018182
  0
LTYPE
  2
LTYPE10
 70
64
  3
CUSTOM
 72
65
 73
6
 40
0.181818
 49
0.109091
 49
-0.018182
 49
0.009091
 49
-0.018182
 49
0.009091
 49
-0.018182
  0
LTYPE
  2
LTYPE11
 70
64
  3
CUSTOM
 72
65
 73
6
 40
0.327273
 49
0.218182
 49
-0.027273
 49
0.018182
 49
-0.018182
 49
0.018182
 49
-0.027273
  0
LTYPE
  2
LTYPE12
 70
64
  3
CUSTOM
 72
65
 73
6
 40
0.563636
 49
0.436364
 49
-0.036364
 49
0.018182
 49
-0.018182
 49
0.018182
 49
-0.036364
  0
LTYPE
  2
LTYPE13
 70
64
  3
CUSTOM
 72
65
 73
8
 40
0.209091
 49
0.109091
 49
-0.018182
 49
0.009091
 49
-0.018182
 49
0.009091
 49
-0.018182
 49
0.009091
 49
-0.018182
  0
LTYPE
  2
LTYPE14
 70
64
  3
CUSTOM
 72
65
 73
8
 40
0.363636
 49
0.218182
 49
-0.027273
 49
0.018182
 49
-0.018182
 49
0.018182
 49
-0.018182
 49
0.018182
 49
-0.027273
  0
LTYPE
  2
LTYPE15
 70
64
  3
CUSTOM
 72
65
 73
8
 40
0.618182
 49
0.436364
 49
-0.036364
 49
0.018182
 49
-0.027273
 49
0.018182
 49
-0.027273
 49
0.018182
 49
-0.036364
  0
ENDTAB
  0
TABLE
  2
LAYER
 70
2
  0
LAYER
  2
LAYER-1
 70
0
 62
7
  6
CONTINUOUS
  0
LAYER
  2
LAYER-2
 70
0
 62
7
  6
CONTINUOUS
  0
ENDTAB
  0
ENDSEC
  0
SECTION
  2
BLOCKS
  0
ENDSEC
  0
SECTION
  2
ENTITIES
  0
ARC
  8
LAYER-1
 62
  7
 10
4.847444
 20
8.844004
 30
0.000000
 40
0.254425
 50
270.000000
 51
90.000000
  0
POLYLINE
  8
LAYER-1
 66
  1
 70
  0
 62
  7
 10
4.847444
 20
9.098429
 30
0.000000
  0
VERTEX
  8
LAYER-1
 10
4.847444
 20
9.098429
 30
0.000000
  0
VERTEX
  8
LAYER-1
 10
1.182523
 20
9.098429
 30
0.000000
  0
SEQEND
  8
LAYER-1
  0
POLYLINE
  8
LAYER-1
 66
  1
 70
  0
 62
  7
 10
1.182523
 20
9.098429
 30
0.000000
  0
VERTEX
  8
LAYER-1
 10
1.182523
 20
9.098429
 30
0.000000
  0
VERTEX
  8
LAYER-1
 10
1.182523
 20
8.589580
 30
0.000000
  0
SEQEND
  8
LAYER-1
  0
POLYLINE
  8
LAYER-1
 66
  1
 70
  0
 62
  7
 10
4.847444
 20
8.589580
 30
0.000000
  0
VERTEX
  8
LAYER-1
 10
4.847444
 20
8.589580
 30
0.000000
  0
VERTEX
  8
LAYER-1
 10
1.182523
 20
8.589580
 30
0.000000
  0
SEQEND
  8
LAYER-1
  0
TEXT
  8
LAYER-1
 62
  7
 10
3.196337
 20
9.188182
 30
0.000000
 40
0.327273
  1
MobilFlex
 72
  5
 11
6.396337
 21
9.188182
 31
0.000000
  0
POLYLINE
  8
LAYER-1
 66
  1
 70
  1
 62
  7
  0
VERTEX
  8
LAYER-1
 10
1.184026
 20
9.909116
 30
0.000000
  0
VERTEX
  8
LAYER-1
 10
1.421873
 20
9.909116
 30
0.000000
  0
VERTEX
  8
LAYER-1
 10
1.421873
 20
9.392172
 30
0.000000
  0
VERTEX
  8
LAYER-1
 10
1.184026
 20
9.392172
 30
0.000000
  0
SEQEND
  8
LAYER-1
  0
POLYLINE
  8
LAYER-1
 66
  1
 70
  1
 62
  7
  0
VERTEX
  8
LAYER-1
 10
1.496526
 20
9.909116
 30
0.000000
  0
VERTEX
  8
LAYER-1
 10
1.734373
 20
9.909116
 30
0.000000
  0
VERTEX
  8
LAYER-1
 10
1.734373
 20
9.392172
 30
0.000000
  0
VERTEX
  8
LAYER-1
 10
1.496526
 20
9.392172
 30
0.000000
  0
SEQEND
  8
LAYER-1
  0
POLYLINE
  8
LAYER-1
 66
  1
 70
  1
 62
  7
  0
VERTEX
  8
LAYER-1
 10
1.796873
 20
9.909116
 30
0.000000
  0
VERTEX
  8
LAYER-1
 10
2.034720
 20
9.909116
 30
0.000000
  0
VERTEX
  8
LAYER-1
 10
2.034720
 20
9.392172
 30
0.000000
  0
VERTEX
  8
LAYER-1
 10
1.796873
 20
9.392172
 30
0.000000
  0
SEQEND
  8
LAYER-1
  0
POLYLINE
  8
LAYER-1
 66
  1
 70
  1
 62
  7
  0
VERTEX
  8
LAYER-1
 10
2.100693
 20
9.909116
 30
0.000000
  0
VERTEX
  8
LAYER-1
 10
2.338540
 20
9.909116
 30
0.000000
  0
VERTEX
  8
LAYER-1
 10
2.338540
 20
9.392172
 30
0.000000
  0
VERTEX
  8
LAYER-1
 10
2.100693
 20
9.392172
 30
0.000000
  0
SEQEND
  8
LAYER-1
  0
POLYLINE
  8
LAYER-1
 66
  1
 70
  1
 62
  7
  0
VERTEX
  8
LAYER-1
 10
2.417533
 20
9.905201
 30
0.000000
  0
VERTEX
  8
LAYER-1
 10
2.792967
 20
9.905201
 30
0.000000
  0
VERTEX
  8
LAYER-1
 10
2.792967
 20
9.767181
 30
0.000000
  0
VERTEX
  8
LAYER-1
 10
2.417533
 20
9.767181
 30
0.000000
  0
SEQEND
  8
LAYER-1
  0
POLYLINE
  8
LAYER-1
 66
  1
 70
  1
 62
  7
  0
VERTEX
  8
LAYER-1
 10
2.417099
 20
9.677771
 30
0.000000
  0
VERTEX
  8
LAYER-1
 10
2.725259
 20
9.677771
 30
0.000000
  0
VERTEX
  8
LAYER-1
 10
2.725259
 20
9.543657
 30
0.000000
  0
VERTEX
  8
LAYER-1
 10
2.417099
 20
9.543657
 30
0.000000
  0
SEQEND
  8
LAYER-1
  0
POLYLINE
  8
LAYER-1
 66
  1
 70
  1
 62
  7
  0
VERTEX
  8
LAYER-1
 10
1.184026
 20
9.307546
 30
0.000000
  0
VERTEX
  8
LAYER-1
 10
5.102429
 20
9.307546
 30
0.000000
  0
VERTEX
  8
LAYER-1
 10
5.102429
 20
9.264143
 30
0.000000
  0
VERTEX
  8
LAYER-1
 10
1.184026
 20
9.264143
 30
0.000000
  0
SEQEND
  8
LAYER-1
  0
TEXT
  8
LAYER-1
 62
  7
 10
0.241792
 20
3.979092
 30
0.000000
 40
0.122727
  1
Load requirements are greater when the closure is in the stacked position.
 72
  5
 11
8.441792
 21
3.979092
 31
0.000000
  0
TEXT
  8
LAYER-1
 62
  7
 10
0.241792
 20
3.542728
 30
0.000000
 40
0.122727
  1
The support structure must be able to carry the weight of a fully stacked closure.
 72
  5
 11
9.123610
 21
3.542728
 31
0.000000
  0
TEXT
  8
LAYER-1
 62
  7
 10
1.605428
 20
8.524546
 30
0.000000
 40
0.184091
  1
Weight
 72
  5
 11
2.896337
 21
8.524546
 31
0.000000
  0
TEXT
  8
LAYER-1
 62
  7
 10
2.896337
 20
8.524546
 30
0.000000
 40
0.184091
  1
  
 72
  5
 11
3.141792
 21
8.524546
 31
0.000000
  0
TEXT
  8
LAYER-1
 62
  7
 10
3.141792
 20
8.524546
 30
0.000000
 40
0.102273
  1
(FOLDING CLOSURES)
 72
  5
 11
5.378156
 21
8.524546
 31
0.000000
  0
TEXT
  8
LAYER-1
 62
  7
 10
0.250883
 20
3.124546
 30
0.000000
 40
0.122727
  1
Stacked linear weight
 72
  5
 11
2.850883
 21
3.124546
 31
0.000000
  0
TEXT
  8
LAYER-1
 62
  7
 10
2.850883
 20
3.124546
 30
0.000000
 40
0.122727
  1
  =  Weight per surface of closure x Height of closure x 8
 72
  5
 11
9.078156
 21
3.124546
 31
0.000000
  0
TEXT
  8
LAYER-1
 62
  7
 10
0.250883
 20
2.551819
 30
0.000000
 40
0.122727
  1
Example: Folding closure Royal model, 15' wide x 10' high
 72
  5
 11
6.650883
 21
2.551819
 31
0.000000
  0
TEXT
  8
LAYER-1
 62
  7
 10
0.250883
 20
1.379092
 30
0.000000
 40
0.122727
  1
Stacked linear weight = 2,40 lb / sq. ft x 10' high x 8 = 
 72
  5
 11
6.241792
 21
1.379092
 31
0.000000
  0
TEXT
  8
LAYER-1
 62
  7
 10
6.241792
 20
1.379092
 30
0.000000
 40
0.088636
  1
+/-
 72
  5
 11
6.487246
 21
1.379092
 31
0.000000
  0
TEXT
  8
LAYER-1
 62
  7
 10
6.487246
 20
1.379092
 30
0.000000
 40
0.122727
  1
192 lb / lin.ft inside pocket
 72
  5
 11
9.405428
 21
1.379092
 31
0.000000
  0
TEXT
  8
LAYER-1
 62
  7
 10
0.250883
 20
0.942728
 30
0.000000
 40
0.122727
  1
This is an approximation of the actual stacked linear weight calculated with the total
 72
  5
 11
9.441792
 21
0.942728
 31
0.000000
  0
TEXT
  8
LAYER-1
 62
  7
 10
0.250883
 20
0.506364
 30
0.000000
 40
0.122727
  1
weight of the curtain divided by the amount of stacking.
 72
  5
 11
6.341792
 21
0.506364
 31
0.000000
  0
TEXT
  8
LAYER-1
 62
  7
 10
0.250883
 20
0.070001
 30
0.000000
 40
0.122727
  1
Total weight: 15' x 10' x 2,40 lb / sq.ft = 360 lb
 72
  5
 11
5.314519
 21
0.070001
 31
0.000000
  0
TEXT
  8
LAYER-1
 62
  7
 10
0.250883
 20
-0.366363
 30
0.000000
 40
0.122727
  1
Lenght of stack: 15' x 1,15" / ft + 3x 3" per post = 26" / 12 = 2,2'
 72
  5
 11
7.269065
 21
-0.366363
 31
0.000000
  0
TEXT
  8
LAYER-1
 62
  7
 10
0.250883
 20
-0.802727
 30
0.000000
 40
0.122727
  1
Stacked linear weight: 360 lb / 2,2' = 164 lb / lin.ft
 72
  5
 11
5.714519
 21
-0.802727
 31
0.000000
  0
POLYLINE
  8
LAYER-1
 66
  1
 70
  0
 62
  7
 40
0.018182
 41
0.018182
 10
6.277779
 20
7.563562
 30
0.000000
  0
VERTEX
  8
LAYER-1
 10
6.277779
 20
7.563562
 30
0.000000
  0
VERTEX
  8
LAYER-1
 10
0.055554
 20
7.563562
 30
0.000000
  0
SEQEND
  8
LAYER-1
  0
POLYLINE
  8
LAYER-1
 66
  1
 70
  0
 62
  7
 40
0.018182
 41
0.018182
 10
6.277779
 20
7.563562
 30
0.000000
  0
VERTEX
  8
LAYER-1
 10
6.277779
 20
7.563562
 30
0.000000
  0
VERTEX
  8
LAYER-1
 10
6.277779
 20
4.823976
 30
0.000000
  0
SEQEND
  8
LAYER-1
  0
POLYLINE
  8
LAYER-1
 66
  1
 70
  0
 62
  7
 40
0.018182
 41
0.018182
 10
6.277779
 20
4.823976
 30
0.000000
  0
VERTEX
  8
LAYER-1
 10
6.277779
 20
4.823976
 30
0.000000
  0
VERTEX
  8
LAYER-1
 10
0.055554
 20
4.823976
 30
0.000000
  0
SEQEND
  8
LAYER-1
  0
POLYLINE
  8
LAYER-1
 66
  1
 70
  0
 62
  7
 40
0.018182
 41
0.018182
 10
0.055554
 20
4.823976
 30
0.000000
  0
VERTEX
  8
LAYER-1
 10
0.055554
 20
4.823976
 30
0.000000
  0
VERTEX
  8
LAYER-1
 10
0.055554
 20
7.563562
 30
0.000000
  0
SEQEND
  8
LAYER-1
  0
TEXT
  8
LAYER-1
 62
  7
 10
0.432701
 20
7.060910
 30
0.000000
 40
0.122727
  1
ROYAL
 72
  5
 11
1.314519
 21
7.060910
 31
0.000000
  0
POLYLINE
  8
LAYER-1
 66
  1
 70
  0
 62
  7
 10
0.062499
 20
7.164150
 30
0.000000
  0
VERTEX
  8
LAYER-1
 10
0.062499
 20
7.164150
 30
0.000000
  0
VERTEX
  8
LAYER-1
 10
6.277779
 20
7.164150
 30
0.000000
  0
SEQEND
  8
LAYER-1
  0
TEXT
  8
LAYER-1
 62
  7
 10
2.850883
 20
7.442728
 30
0.000000
 40
0.143182
  1
WEIGHT PER SURFACE OF CLOSURE
 72
  5
 11
8.123610
 21
7.442728
 31
0.000000
  0
TEXT
  8
LAYER-1
 62
  7
 10
0.432701
 20
7.442728
 30
0.000000
 40
0.143182
  1
MODEL
 72
  5
 11
1.523610
 21
7.442728
 31
0.000000
  0
POLYLINE
  8
LAYER-1
 66
  1
 70
  0
 62
  7
 10
0.062499
 20
6.774151
 30
0.000000
  0
VERTEX
  8
LAYER-1
 10
0.062499
 20
6.774151
 30
0.000000
  0
VERTEX
  8
LAYER-1
 10
6.277779
 20
6.774151
 30
0.000000
  0
SEQEND
  8
LAYER-1
  0
POLYLINE
  8
LAYER-1
 66
  1
 70
  0
 62
  7
 10
0.062499
 20
6.384151
 30
0.000000
  0
VERTEX
  8
LAYER-1
 10
0.062499
 20
6.384151
 30
0.000000
  0
VERTEX
  8
LAYER-1
 10
6.277779
 20
6.384151
 30
0.000000
  0
SEQEND
  8
LAYER-1
  0
POLYLINE
  8
LAYER-1
 66
  1
 70
  0
 62
  7
 10
0.062499
 20
5.994151
 30
0.000000
  0
VERTEX
  8
LAYER-1
 10
0.062499
 20
5.994151
 30
0.000000
  0
VERTEX
  8
LAYER-1
 10
6.277779
 20
5.994151
 30
0.000000
  0
SEQEND
  8
LAYER-1
  0
POLYLINE
  8
LAYER-1
 66
  1
 70
  0
 62
  7
 10
0.062499
 20
5.604150
 30
0.000000
  0
VERTEX
  8
LAYER-1
 10
0.062499
 20
5.604150
 30
0.000000
  0
VERTEX
  8
LAYER-1
 10
6.277779
 20
5.604150
 30
0.000000
  0
SEQEND
  8
LAYER-1
  0
POLYLINE
  8
LAYER-1
 66
  1
 70
  0
 62
  7
 10
0.062499
 20
5.214150
 30
0.000000
  0
VERTEX
  8
LAYER-1
 10
0.062499
 20
5.214150
 30
0.000000
  0
VERTEX
  8
LAYER-1
 10
6.277779
 20
5.214150
 30
0.000000
  0
SEQEND
  8
LAYER-1
  0
TEXT
  8
LAYER-1
 62
  7
 10
0.432701
 20
6.679092
 30
0.000000
 40
0.122727
  1
IMPACT
 72
  5
 11
1.405428
 21
6.679092
 31
0.000000
  0
TEXT
  8
LAYER-1
 62
  7
 10
0.432701
 20
6.297273
 30
0.000000
 40
0.122727
  1
GLOBAL
 72
  5
 11
1.459974
 21
6.297273
 31
0.000000
  0
TEXT
  8
LAYER-1
 62
  7
 10
0.432701
 20
5.915455
 30
0.000000
 40
0.122727
  1
AEROFLEX
 72
  5
 11
1.787246
 21
5.915455
 31
0.000000
  0
TEXT
  8
LAYER-1
 62
  7
 10
0.432701
 20
5.533637
 30
0.000000
 40
0.122727
  1
CONCEPT
 72
  5
 11
1.669065
 21
5.533637
 31
0.000000
  0
TEXT
  8
LAYER-1
 62
  7
 10
0.432701
 20
5.151819
 30
0.000000
 40
0.122727
  1
SYSTEM S-12, S-525
 72
  5
 11
2.878156
 21
5.151819
 31
0.000000
  0
TEXT
  8
LAYER-1
 62
  7
 10
0.432701
 20
4.770001
 30
0.000000
 40
0.122727
  1
SYSTEM S-126
 72
  5
 11
2.214519
 21
4.770001
 31
0.000000
  0
TEXT
  8
LAYER-1
 62
  7
 10
3.123610
 20
7.051819
 30
0.000000
 40
0.122727
  1
2,40 lb / sq.ft  = 11,7 kg / m
 72
  5
 11
6.205428
 21
7.051819
 31
0.000000
  0
TEXT
  8
LAYER-1
 62
  7
 10
6.205428
 20
7.106364
 30
0.000000
 40
0.088636
  1
2
 72
  5
 11
6.350883
 21
7.106364
 31
0.000000
  0
TEXT
  8
LAYER-1
 62
  7
 10
6.205428
 20
6.715455
 30
0.000000
 40
0.088636
  1
2
 72
  5
 11
6.350883
 21
6.715455
 31
0.000000
  0
TEXT
  8
LAYER-1
 62
  7
 10
3.114519
 20
6.670001
 30
0.000000
 40
0.122727
  1
1,75 lb / sq.ft  =   8,5 kg / m
 72
  5
 11
6.205428
 21
6.670001
 31
0.000000
  0
TEXT
  8
LAYER-1
 62
  7
 10
6.205428
 20
6.333637
 30
0.000000
 40
0.088636
  1
2
 72
  5
 11
6.350883
 21
6.333637
 31
0.000000
  0
TEXT
  8
LAYER-1
 62
  7
 10
3.123610
 20
6.279092
 30
0.000000
 40
0.122727
  1
2,15 lb / sq.ft  = 10,5 kg / m
 72
  5
 11
6.205428
 21
6.279092
 31
0.000000
  0
TEXT
  8
LAYER-1
 62
  7
 10
6.205428
 20
5.951819
 30
0.000000
 40
0.088636
  1
2
 72
  5
 11
6.350883
 21
5.951819
 31
0.000000
  0
TEXT
  8
LAYER-1
 62
  7
 10
3.114519
 20
5.906364
 30
0.000000
 40
0.122727
  1
1,90 lb / sq.ft  =   9,3 kg / m
 72
  5
 11
6.205428
 21
5.906364
 31
0.000000
  0
TEXT
  8
LAYER-1
 62
  7
 10
6.205428
 20
5.570001
 30
0.000000
 40
0.088636
  1
2
 72
  5
 11
6.350883
 21
5.570001
 31
0.000000
  0
TEXT
  8
LAYER-1
 62
  7
 10
3.114519
 20
5.524546
 30
0.000000
 40
0.122727
  1
1,55 lb / sq.ft  =   7,6 kg / m
 72
  5
 11
6.205428
 21
5.524546
 31
0.000000
  0
TEXT
  8
LAYER-1
 62
  7
 10
6.205428
 20
5.197273
 30
0.000000
 40
0.088636
  1
2
 72
  5
 11
6.350883
 21
5.197273
 31
0.000000
  0
TEXT
  8
LAYER-1
 62
  7
 10
3.114519
 20
5.142728
 30
0.000000
 40
0.122727
  1
1,25 lb / sq.ft  =   6,1 kg / m
 72
  5
 11
6.205428
 21
5.142728
 31
0.000000
  0
TEXT
  8
LAYER-1
 62
  7
 10
6.205428
 20
4.797273
 30
0.000000
 40
0.088636
  1
2
 72
  5
 11
6.350883
 21
4.797273
 31
0.000000
  0
TEXT
  8
LAYER-1
 62
  7
 10
3.114519
 20
4.751819
 30
0.000000
 40
0.122727
  1
1,15 lb / sq.ft  =   5,6 kg / m
 72
  5
 11
6.205428
 21
4.751819
 31
0.000000
  0
POLYLINE
  8
LAYER-2
 66
  1
 70
  1
 62
  7
 10
183.747763
 20
69.292791
 30
0.000000
  0
VERTEX
  8
LAYER-2
 10
183.747763
 20
69.292791
 30
0.000000
  0
VERTEX
  8
LAYER-2
 10
184.558594
 20
69.292791
 30
0.000000
  0
VERTEX
  8
LAYER-2
 10
184.558594
 20
70.610653
 30
0.000000
  0
VERTEX
  8
LAYER-2
 10
183.747763
 20
70.610653
 30
0.000000
  0
SEQEND
  8
LAYER-2
  0
POLYLINE
  8
LAYER-2
 66
  1
 70
  1
 62
  7
 10
183.747763
 20
73.145028
 30
0.000000
  0
VERTEX
  8
LAYER-2
 10
183.747763
 20
73.145028
 30
0.000000
  0
VERTEX
  8
LAYER-2
 10
184.558594
 20
73.145028
 30
0.000000
  0
VERTEX
  8
LAYER-2
 10
184.558594
 20
71.827131
 30
0.000000
  0
VERTEX
  8
LAYER-2
 10
183.747763
 20
71.827131
 30
0.000000
  0
SEQEND
  8
LAYER-2
  0
POLYLINE
  8
LAYER-2
 66
  1
 70
  1
 62
  7
 10
178.527042
 20
69.292791
 30
0.000000
  0
VERTEX
  8
LAYER-2
 10
178.527042
 20
69.292791
 30
0.000000
  0
VERTEX
  8
LAYER-2
 10
179.337873
 20
69.292791
 30
0.000000
  0
VERTEX
  8
LAYER-2
 10
179.337873
 20
70.610653
 30
0.000000
  0
VERTEX
  8
LAYER-2
 10
178.527042
 20
70.610653
 30
0.000000
  0
SEQEND
  8
LAYER-2
  0
POLYLINE
  8
LAYER-2
 66
  1
 70
  1
 62
  7
 10
178.527042
 20
73.145028
 30
0.000000
  0
VERTEX
  8
LAYER-2
 10
178.527042
 20
73.145028
 30
0.000000
  0
VERTEX
  8
LAYER-2
 10
179.337873
 20
73.145028
 30
0.000000
  0
VERTEX
  8
LAYER-2
 10
179.337873
 20
71.827131
 30
0.000000
  0
VERTEX
  8
LAYER-2
 10
178.527042
 20
71.827131
 30
0.000000
  0
SEQEND
  8
LAYER-2
  0
POLYLINE
  8
LAYER-2
  6
LTYPE05
 66
  1
 70
  0
 62
  7
  6
LTYPE05
 10
178.202859
 20
71.228942
 30
0.000000
  0
VERTEX
  8
LAYER-2
  6
LTYPE05
 10
178.202859
 20
71.228942
 30
0.000000
  0
VERTEX
  8
LAYER-2
  6
LTYPE05
 10
196.271875
 20
71.233256
 30
0.000000
  0
SEQEND
  8
LAYER-2
  0
POLYLINE
  8
LAYER-2
 66
  1
 70
  0
 62
  7
 10
177.354918
 20
71.826882
 30
0.000000
  0
VERTEX
  8
LAYER-2
 10
177.354918
 20
71.826882
 30
0.000000
  0
VERTEX
  8
LAYER-2
 10
177.507227
 20
71.826882
 30
0.000000
  0
SEQEND
  8
LAYER-2
  0
POLYLINE
  8
LAYER-2
 66
  1
 70
  0
 62
  7
 10
177.507227
 20
70.610405
 30
0.000000
  0
VERTEX
  8
LAYER-2
 10
177.507227
 20
70.610405
 30
0.000000
  0
VERTEX
  8
LAYER-2
 10
177.354918
 20
70.610405
 30
0.000000
  0
SEQEND
  8
LAYER-2
  0
POLYLINE
  8
LAYER-2
 66
  1
 70
  0
 62
  7
 10
177.354918
 20
70.610405
 30
0.000000
  0
VERTEX
  8
LAYER-2
 10
177.354918
 20
70.610405
 30
0.000000
  0
VERTEX
  8
LAYER-2
 10
177.354918
 20
71.826882
 30
0.000000
  0
SEQEND
  8
LAYER-2
  0
CIRCLE
  8
LAYER-2
 62
  7
 10
184.152965
 20
72.739471
 30
0.000000
 40
0.126717
  0
CIRCLE
  8
LAYER-2
 62
  7
 10
184.152965
 20
69.698189
 30
0.000000
 40
0.126717
  0
CIRCLE
  8
LAYER-2
 62
  7
 10
178.932244
 20
72.739471
 30
0.000000
 40
0.126717
  0
CIRCLE
  8
LAYER-2
 62
  7
 10
178.932244
 20
69.698189
 30
0.000000
 40
0.126717
  0
POLYLINE
  8
LAYER-2
 66
  1
 70
  0
 62
  7
 10
184.858114
 20
70.692898
 30
0.000000
  0
VERTEX
  8
LAYER-2
 10
184.858114
 20
70.692898
 30
0.000000
  0
VERTEX
  8
LAYER-2
 10
184.991246
 20
70.945419
 30
0.000000
  0
SEQEND
  8
LAYER-2
  0
POLYLINE
  8
LAYER-2
 66
  1
 70
  0
 62
  7
 10
184.755700
 20
70.711896
 30
0.000000
  0
VERTEX
  8
LAYER-2
 10
184.755700
 20
70.711896
 30
0.000000
  0
VERTEX
  8
LAYER-2
 10
184.858114
 20
70.692898
 30
0.000000
  0
SEQEND
  8
LAYER-2
  0
POLYLINE
  8
LAYER-2
 66
  1
 70
  0
 62
  7
 10
184.749734
 20
71.416690
 30
0.000000
  0
VERTEX
  8
LAYER-2
 10
184.749734
 20
71.416690
 30
0.000000
  0
VERTEX
  8
LAYER-2
 10
184.749734
 20
71.720827
 30
0.000000
  0
SEQEND
  8
LAYER-2
  0
POLYLINE
  8
LAYER-2
 66
  1
 70
  0
 62
  7
 10
184.852219
 20
71.739773
 30
0.000000
  0
VERTEX
  8
LAYER-2
 10
184.852219
 20
71.739773
 30
0.000000
  0
VERTEX
  8
LAYER-2
 10
184.985281
 20
71.487305
 30
0.000000
  0
SEQEND
  8
LAYER-2
  0
POLYLINE
  8
LAYER-2
 66
  1
 70
  0
 62
  7
 10
184.749734
 20
71.720827
 30
0.000000
  0
VERTEX
  8
LAYER-2
 10
184.749734
 20
71.720827
 30
0.000000
  0
VERTEX
  8
LAYER-2
 10
184.852219
 20
71.739773
 30
0.000000
  0
SEQEND
  8
LAYER-2
  0
CIRCLE
  8
LAYER-2
 62
  7
 10
174.530735
 20
71.241246
 30
0.000000
 40
0.362911
  0
POLYLINE
  8
LAYER-2
  6
LTYPE01
 66
  1
 70
  0
 62
  7
  6
LTYPE01
 10
172.083398
 20
66.146822
 30
0.000000
  0
VERTEX
  8
LAYER-2
  6
LTYPE01
 10
172.083398
 20
66.146822
 30
0.000000
  0
VERTEX
  8
LAYER-2
  6
LTYPE01
 10
172.083398
 20
77.035174
 30
0.000000
  0
SEQEND
  8
LAYER-2
  0
POLYLINE
  8
LAYER-2
 66
  1
 70
  0
 62
  7
 10
170.957156
 20
80.289169
 30
0.000000
  0
VERTEX
  8
LAYER-2
 10
170.957156
 20
80.289169
 30
0.000000
  0
VERTEX
  8
LAYER-2
 10
170.957156
 20
80.289169
 30
0.000000
  0
SEQEND
  8
LAYER-2
  0
POLYLINE
  8
LAYER-2
  6
LTYPE01
 66
  1
 70
  0
 62
  7
  6
LTYPE01
 10
170.957156
 20
66.146822
 30
0.000000
  0
VERTEX
  8
LAYER-2
  6
LTYPE01
 10
170.957156
 20
66.146822
 30
0.000000
  0
VERTEX
  8
LAYER-2
  6
LTYPE01
 10
170.957156
 20
77.045259
 30
0.000000
  0
SEQEND
  8
LAYER-2
  0
POLYLINE
  8
LAYER-2
 66
  1
 70
  1
 62
  7
 10
170.957156
 20
77.045259
 30
0.000000
  0
VERTEX
  8
LAYER-2
 10
170.957156
 20
77.045259
 30
0.000000
  0
VERTEX
  8
LAYER-2
 10
196.271875
 20
77.090163
 30
0.000000
  0
VERTEX
  8
LAYER-2
 10
196.271875
 20
66.191726
 30
0.000000
  0
VERTEX
  8
LAYER-2
 10
170.957156
 20
66.146822
 30
0.000000
  0
VERTEX
  8
LAYER-2
 10
170.957156
 20
62.892880
 30
0.000000
  0
VERTEX
  8
LAYER-2
 10
199.511168
 20
62.892880
 30
0.000000
  0
VERTEX
  8
LAYER-2
 10
199.511168
 20
80.257919
 30
0.000000
  0
VERTEX
  8
LAYER-2
 10
170.957156
 20
80.257919
 30
0.000000
  0
SEQEND
  8
LAYER-2
  0
POLYLINE
  8
LAYER-2
 66
  1
 70
  1
 62
  7
  0
VERTEX
  8
LAYER-2
 10
170.962021
 20
77.040270
 30
0.000000
  0
VERTEX
  8
LAYER-2
 10
170.962021
 20
75.913867
 30
0.000000
  0
VERTEX
  8
LAYER-2
 10
160.063335
 20
75.913867
 30
0.000000
  0
VERTEX
  8
LAYER-2
 10
160.063335
 20
77.040270
 30
0.000000
  0
SEQEND
  8
LAYER-2
  0
POLYLINE
  8
LAYER-2
 66
  1
 70
  0
 62
  7
 10
196.774023
 20
77.129723
 30
0.000000
  0
VERTEX
  8
LAYER-2
 10
196.774023
 20
77.129723
 30
0.000000
  0
VERTEX
  8
LAYER-2
 10
204.757351
 20
77.129723
 30
0.000000
  0
SEQEND
  8
LAYER-2
  0
POLYLINE
  8
LAYER-2
 66
  1
 70
  0
 62
  7
 10
196.820845
 20
66.203853
 30
0.000000
  0
VERTEX
  8
LAYER-2
 10
196.820845
 20
66.203853
 30
0.000000
  0
VERTEX
  8
LAYER-2
 10
204.651545
 20
66.203853
 30
0.000000
  0
SEQEND
  8
LAYER-2
  0
POLYLINE
  8
LAYER-2
 66
  1
 70
  0
 62
  7
 10
202.111808
 20
77.083647
 30
0.000000
  0
VERTEX
  8
LAYER-2
 10
202.111808
 20
77.083647
 30
0.000000
  0
VERTEX
  8
LAYER-2
 10
202.111808
 20
66.223526
 30
0.000000
  0
SEQEND
  8
LAYER-2
  0
POLYLINE
  8
LAYER-2
 66
  1
 70
  1
 62
  7
  0
VERTEX
  8
LAYER-2
 10
202.111808
 20
77.103320
 30
0.000000
  0
VERTEX
  8
LAYER-2
 10
201.239080
 20
75.648775
 30
0.000000
  0
VERTEX
  8
LAYER-2
 10
202.111808
 20
75.648775
 30
0.000000
  0
VERTEX
  8
LAYER-2
 10
202.984535
 20
75.648775
 30
0.000000
  0
VERTEX
  8
LAYER-2
 10
202.111808
 20
77.103320
 30
0.000000
  0
SEQEND
  8
LAYER-2
  0
POLYLINE
  8
LAYER-2
 66
  1
 70
  1
 62
  7
  0
VERTEX
  8
LAYER-2
 10
202.111808
 20
66.203853
 30
0.000000
  0
VERTEX
  8
LAYER-2
 10
201.239080
 20
67.658398
 30
0.000000
  0
VERTEX
  8
LAYER-2
 10
202.111808
 20
67.658398
 30
0.000000
  0
VERTEX
  8
LAYER-2
 10
202.984535
 20
67.658398
 30
0.000000
  0
VERTEX
  8
LAYER-2
 10
202.111808
 20
66.203853
 30
0.000000
  0
SEQEND
  8
LAYER-2
  0
TEXT
  8
LAYER-2
 62
  7
 10
214.282795
 20
66.530930
 30
0.000000
 40
3.927273
  1
10"
 72
  5
 11
227.373704
 21
66.530930
 31
0.000000
  0
TEXT
  8
LAYER-2
 62
  7
 10
207.010067
 20
57.221839
 30
0.000000
 40
3.927273
  1
254mm
 72
  5
 11
234.355522
 21
57.221839
 31
0.000000
  0
POLYLINE
  8
LAYER-2
 66
  1
 70
  0
 62
  7
 10
177.507227
 20
71.422603
 30
0.000000
  0
VERTEX
  8
LAYER-2
 10
177.507227
 20
71.422603
 30
0.000000
  0
VERTEX
  8
LAYER-2
 10
177.507227
 20
71.017951
 30
0.000000
  0
SEQEND
  8
LAYER-2
  0
POLYLINE
  8
LAYER-2
 66
  1
 70
  0
 62
  7
 10
184.755700
 20
71.421609
 30
0.000000
  0
VERTEX
  8
LAYER-2
 10
184.755700
 20
71.421609
 30
0.000000
  0
VERTEX
  8
LAYER-2
 10
177.507227
 20
71.422603
 30
0.000000
  0
VERTEX
  8
LAYER-2
 10
177.507227
 20
71.827131
 30
0.000000
  0
VERTEX
  8
LAYER-2
 10
184.804173
 20
71.827131
 30
0.000000
  0
SEQEND
  8
LAYER-2
  0
POLYLINE
  8
LAYER-2
 66
  1
 70
  0
 62
  7
 10
184.794567
 20
71.822266
 30
0.000000
  0
VERTEX
  8
LAYER-2
 10
184.794567
 20
71.822266
 30
0.000000
  0
VERTEX
  8
LAYER-2
 10
191.290696
 20
75.240021
 30
0.000000
  0
VERTEX
  8
LAYER-2
 10
191.469957
 20
74.899343
 30
0.000000
  0
VERTEX
  8
LAYER-2
 10
184.985281
 20
71.487305
 30
0.000000
  0
SEQEND
  8
LAYER-2
  0
POLYLINE
  8
LAYER-2
 66
  1
 70
  0
 62
  7
 10
184.755700
 20
70.711896
 30
0.000000
  0
VERTEX
  8
LAYER-2
 10
184.755700
 20
70.711896
 30
0.000000
  0
VERTEX
  8
LAYER-2
 10
184.755700
 20
71.016104
 30
0.000000
  0
VERTEX
  8
LAYER-2
 10
177.507227
 20
71.017702
 30
0.000000
  0
VERTEX
  8
LAYER-2
 10
177.507227
 20
70.610653
 30
0.000000
  0
VERTEX
  8
LAYER-2
 10
184.800977
 20
70.610653
 30
0.000000
  0
SEQEND
  8
LAYER-2
  0
POLYLINE
  8
LAYER-2
 66
  1
 70
  0
 62
  7
 10
184.800977
 20
70.610653
 30
0.000000
  0
VERTEX
  8
LAYER-2
 10
184.800977
 20
70.610653
 30
0.000000
  0
VERTEX
  8
LAYER-2
 10
191.296662
 20
67.192827
 30
0.000000
  0
VERTEX
  8
LAYER-2
 10
191.475923
 20
67.533381
 30
0.000000
  0
VERTEX
  8
LAYER-2
 10
184.991246
 20
70.945419
 30
0.000000
  0
SEQEND
  8
LAYER-2
  0
POLYLINE
  8
LAYER-2
 66
  1
 70
  0
 62
  7
 10
175.381286
 20
72.260138
 30
0.000000
  0
VERTEX
  8
LAYER-2
 10
175.381286
 20
72.260138
 30
0.000000
  0
VERTEX
  8
LAYER-2
 10
177.719070
 20
72.260138
 30
0.000000
  0
SEQEND
  8
LAYER-2
  0
POLYLINE
  8
LAYER-2
 66
  1
 70
  0
 62
  7
 10
178.222408
 20
71.756783
 30
0.000000
  0
VERTEX
  8
LAYER-2
 10
178.222408
 20
71.756783
 30
0.000000
  0
VERTEX
  8
LAYER-2
 10
178.222408
 20
70.750018
 30
0.000000
  0
SEQEND
  8
LAYER-2
  0
POLYLINE
  8
LAYER-2
 66
  1
 70
  0
 62
  7
 10
177.719070
 20
70.246662
 30
0.000000
  0
VERTEX
  8
LAYER-2
 10
177.719070
 20
70.246662
 30
0.000000
  0
VERTEX
  8
LAYER-2
 10
175.381286
 20
70.246662
 30
0.000000
  0
SEQEND
  8
LAYER-2
  0
POLYLINE
  8
LAYER-2
 66
  1
 70
  0
 62
  7
 10
174.877930
 20
70.750018
 30
0.000000
  0
VERTEX
  8
LAYER-2
 10
174.877930
 20
70.750018
 30
0.000000
  0
VERTEX
  8
LAYER-2
 10
174.877930
 20
71.756783
 30
0.000000
  0
SEQEND
  8
LAYER-2
  0
ARC
  8
LAYER-2
 62
  7
 10
175.381286
 20
71.756783
 30
0.000000
 40
0.503351
 50
90.000000
 51
180.000000
  0
ARC
  8
LAYER-2
 62
  7
 10
175.381286
 20
70.750018
 30
0.000000
 40
0.503351
 50
180.000000
 51
270.000000
  0
ARC
  8
LAYER-2
 62
  7
 10
177.719070
 20
70.750018
 30
0.000000
 40
0.503351
 50
270.000000
 51
0.000000
  0
ARC
  8
LAYER-2
 62
  7
 10
177.719070
 20
71.756783
 30
0.000000
 40
0.503351
 50
0.000000
 51
90.000000
  0
POLYLINE
  8
LAYER-2
 66
  1
 70
  1
 62
  7
 10
178.598455
 20
66.870987
 30
0.000000
  0
VERTEX
  8
LAYER-2
 10
178.598455
 20
66.870987
 30
0.000000
  0
VERTEX
  8
LAYER-2
 10
178.598455
 20
66.481587
 30
0.000000
  0
VERTEX
  8
LAYER-2
 10
178.319425
 20
66.682440
 30
0.000000
  0
VERTEX
  8
LAYER-2
 10
178.039045
 20
66.481587
 30
0.000000
  0
VERTEX
  8
LAYER-2
 10
178.039045
 20
66.870987
 30
0.000000
  0
VERTEX
  8
LAYER-2
 10
178.242525
 20
66.870987
 30
0.000000
  0
VERTEX
  8
LAYER-2
 10
178.242525
 20
73.747283
 30
0.000000
  0
VERTEX
  8
LAYER-2
 10
178.037074
 20
73.747283
 30
0.000000
  0
VERTEX
  8
LAYER-2
 10
178.037074
 20
74.137038
 30
0.000000
  0
VERTEX
  8
LAYER-2
 10
178.317454
 20
73.935884
 30
0.000000
  0
VERTEX
  8
LAYER-2
 10
178.597177
 20
74.137038
 30
0.000000
  0
VERTEX
  8
LAYER-2
 10
178.597177
 20
73.747283
 30
0.000000
  0
VERTEX
  8
LAYER-2
 10
178.393679
 20
73.747283
 30
0.000000
  0
VERTEX
  8
LAYER-2
 10
178.393679
 20
66.870987
 30
0.000000
  0
SEQEND
  8
LAYER-2
  0
LINE
  8
LAYER-2
 62
  7
 10
172.103072
 20
82.647283
 30
0.000000
 11
196.252184
 21
82.647283
 31
0.000000
  0
LINE
  8
LAYER-2
 62
  7
 10
172.083398
 20
79.035174
 30
0.000000
 11
172.083398
 21
86.647283
 31
0.000000
  0
LINE
  8
LAYER-2
 62
  7
 10
196.271875
 20
79.090163
 30
0.000000
 11
196.271875
 21
86.647283
 31
0.000000
  0
POLYLINE
  8
LAYER-2
 66
  1
 70
  1
 62
  7
  0
VERTEX
  8
LAYER-2
 10
172.083398
 20
82.647283
 30
0.000000
  0
VERTEX
  8
LAYER-2
 10
173.537944
 20
81.774574
 30
0.000000
  0
VERTEX
  8
LAYER-2
 10
173.537944
 20
82.647301
 30
0.000000
  0
VERTEX
  8
LAYER-2
 10
173.537944
 20
83.520028
 30
0.000000
  0
VERTEX
  8
LAYER-2
 10
172.083398
 20
82.647283
 30
0.000000
  0
SEQEND
  8
LAYER-2
  0
POLYLINE
  8
LAYER-2
 66
  1
 70
  1
 62
  7
  0
VERTEX
  8
LAYER-2
 10
196.271875
 20
82.647283
 30
0.000000
  0
VERTEX
  8
LAYER-2
 10
194.817330
 20
81.774538
 30
0.000000
  0
VERTEX
  8
LAYER-2
 10
194.817330
 20
82.647266
 30
0.000000
  0
VERTEX
  8
LAYER-2
 10
194.817330
 20
83.519993
 30
0.000000
  0
VERTEX
  8
LAYER-2
 10
196.271875
 20
82.647283
 30
0.000000
  0
SEQEND
  8
LAYER-2
  0
TEXT
  8
LAYER-2
 62
  7
 10
184.579137
 20
86.831854
 30
0.000000
 40
2.618182
  1
 
  0
POLYLINE
  8
LAYER-2
 66
  1
 70
  0
 62
  7
 10
14.057848
 20
72.230629
 30
0.000000
  0
VERTEX
  8
LAYER-2
 10
14.057848
 20
72.230629
 30
0.000000
  0
VERTEX
  8
LAYER-2
 10
16.395730
 20
72.230629
 30
0.000000
  0
SEQEND
  8
LAYER-2
  0
POLYLINE
  8
LAYER-2
 66
  1
 70
  0
 62
  7
 10
16.899086
 20
71.727290
 30
0.000000
  0
VERTEX
  8
LAYER-2
 10
16.899086
 20
71.727290
 30
0.000000
  0
VERTEX
  8
LAYER-2
 10
16.899086
 20
70.720579
 30
0.000000
  0
SEQEND
  8
LAYER-2
  0
POLYLINE
  8
LAYER-2
 66
  1
 70
  0
 62
  7
 10
16.395730
 20
70.217223
 30
0.000000
  0
VERTEX
  8
LAYER-2
 10
16.395730
 20
70.217223
 30
0.000000
  0
VERTEX
  8
LAYER-2
 10
14.057848
 20
70.217223
 30
0.000000
  0
SEQEND
  8
LAYER-2
  0
POLYLINE
  8
LAYER-2
 66
  1
 70
  0
 62
  7
 10
13.554497
 20
70.720579
 30
0.000000
  0
VERTEX
  8
LAYER-2
 10
13.554497
 20
70.720579
 30
0.000000
  0
VERTEX
  8
LAYER-2
 10
13.554497
 20
71.727290
 30
0.000000
  0
SEQEND
  8
LAYER-2
  0
ARC
  8
LAYER-2
 62
  7
 10
14.057848
 20
71.727290
 30
0.000000
 40
0.503352
 50
90.000000
 51
180.000000
  0
ARC
  8
LAYER-2
 62
  7
 10
14.057848
 20
70.720579
 30
0.000000
 40
0.503352
 50
180.000000
 51
270.000000
  0
ARC
  8
LAYER-2
 62
  7
 10
16.395730
 20
70.720579
 30
0.000000
 40
0.503352
 50
270.000000
 51
0.000000
  0
ARC
  8
LAYER-2
 62
  7
 10
16.395730
 20
71.727290
 30
0.000000
 40
0.503352
 50
0.000000
 51
90.000000
  0
CIRCLE
  8
LAYER-2
 62
  7
 10
17.278884
 20
71.211754
 30
0.000000
 40
0.362911
  0
POLYLINE
  8
LAYER-2
 66
  1
 70
  0
 62
  7
 10
10.596542
 20
72.271325
 30
0.000000
  0
VERTEX
  8
LAYER-2
 10
10.596542
 20
72.271325
 30
0.000000
  0
VERTEX
  8
LAYER-2
 10
11.445131
 20
72.271325
 30
0.000000
  0
SEQEND
  8
LAYER-2
  0
POLYLINE
  8
LAYER-2
 66
  1
 70
  0
 62
  7
 10
11.869429
 20
71.847017
 30
0.000000
  0
VERTEX
  8
LAYER-2
 10
11.869429
 20
71.847017
 30
0.000000
  0
VERTEX
  8
LAYER-2
 10
11.869429
 20
70.692312
 30
0.000000
  0
SEQEND
  8
LAYER-2
  0
POLYLINE
  8
LAYER-2
 66
  1
 70
  0
 62
  7
 10
11.445131
 20
70.268004
 30
0.000000
  0
VERTEX
  8
LAYER-2
 10
11.445131
 20
70.268004
 30
0.000000
  0
VERTEX
  8
LAYER-2
 10
10.596542
 20
70.268004
 30
0.000000
  0
SEQEND
  8
LAYER-2
  0
POLYLINE
  8
LAYER-2
 66
  1
 70
  0
 62
  7
 10
10.172239
 20
70.692312
 30
0.000000
  0
VERTEX
  8
LAYER-2
 10
10.172239
 20
70.692312
 30
0.000000
  0
VERTEX
  8
LAYER-2
 10
10.172239
 20
71.847017
 30
0.000000
  0
SEQEND
  8
LAYER-2
  0
ARC
  8
LAYER-2
 62
  7
 10
10.596542
 20
71.847017
 30
0.000000
 40
0.424300
 50
270.000000
 51
0.000000
  0
ARC
  8
LAYER-2
 62
  7
 10
10.596542
 20
70.692312
 30
0.000000
 40
0.424300
 50
0.000000
 51
90.000000
  0
ARC
  8
LAYER-2
 62
  7
 10
11.445131
 20
70.692312
 30
0.000000
 40
0.424300
 50
90.000000
 51
180.000000
  0
ARC
  8
LAYER-2
 62
  7
 10
11.445131
 20
71.847017
 30
0.000000
 40
0.424300
 50
180.000000
 51
270.000000
  0
POLYLINE
  8
LAYER-2
 66
  1
 70
  0
 62
  7
 10
12.798065
 20
70.062074
 30
0.000000
  0
VERTEX
  8
LAYER-2
 10
12.798065
 20
70.062074
 30
0.000000
  0
VERTEX
  8
LAYER-2
 10
12.343337
 20
70.062074
 30
0.000000
  0
SEQEND
  8
LAYER-2
  0
POLYLINE
  8
LAYER-2
 66
  1
 70
  0
 62
  7
 10
12.343337
 20
70.062074
 30
0.000000
  0
VERTEX
  8
LAYER-2
 10
12.343337
 20
70.062074
 30
0.000000
  0
VERTEX
  8
LAYER-2
 10
11.600972
 20
70.257919
 30
0.000000
  0
SEQEND
  8
LAYER-2
  0
POLYLINE
  8
LAYER-2
 66
  1
 70
  0
 62
  7
 10
12.798065
 20
72.404137
 30
0.000000
  0
VERTEX
  8
LAYER-2
 10
12.798065
 20
72.404137
 30
0.000000
  0
VERTEX
  8
LAYER-2
 10
12.343337
 20
72.403995
 30
0.000000
  0
SEQEND
  8
LAYER-2
  0
POLYLINE
  8
LAYER-2
 66
  1
 70
  0
 62
  7
 10
12.343337
 20
72.403995
 30
0.000000
  0
VERTEX
  8
LAYER-2
 10
12.343337
 20
72.403995
 30
0.000000
  0
VERTEX
  8
LAYER-2
 10
11.713636
 20
72.223473
 30
0.000000
  0
SEQEND
  8
LAYER-2
  0
POLYLINE
  8
LAYER-2
 66
  1
 70
  0
 62
  7
 10
12.798065
 20
70.146076
 30
0.000000
  0
VERTEX
  8
LAYER-2
 10
12.798065
 20
70.146076
 30
0.000000
  0
VERTEX
  8
LAYER-2
 10
12.343337
 20
70.146058
 30
0.000000
  0
SEQEND
  8
LAYER-2
  0
POLYLINE
  8
LAYER-2
 66
  1
 70
  0
 62
  7
 10
12.369789
 20
70.162536
 30
0.000000
  0
VERTEX
  8
LAYER-2
 10
12.369789
 20
70.162536
 30
0.000000
  0
VERTEX
  8
LAYER-2
 10
11.627517
 20
70.358398
 30
0.000000
  0
SEQEND
  8
LAYER-2
  0
POLYLINE
  8
LAYER-2
 66
  1
 70
  0
 62
  7
 10
12.798096
 20
72.316175
 30
0.000000
  0
VERTEX
  8
LAYER-2
 10
12.798096
 20
72.316175
 30
0.000000
  0
VERTEX
  8
LAYER-2
 10
12.343337
 20
72.316016
 30
0.000000
  0
SEQEND
  8
LAYER-2
  0
POLYLINE
  8
LAYER-2
 66
  1
 70
  0
 62
  7
 10
12.373020
 20
72.300391
 30
0.000000
  0
VERTEX
  8
LAYER-2
 10
12.373020
 20
72.300391
 30
0.000000
  0
VERTEX
  8
LAYER-2
 10
11.743288
 20
72.119904
 30
0.000000
  0
SEQEND
  8
LAYER-2
  0
POLYLINE
  8
LAYER-2
 66
  1
 70
  0
 62
  7
 10
12.798065
 20
70.062074
 30
0.000000
  0
VERTEX
  8
LAYER-2
 10
12.798065
 20
70.062074
 30
0.000000
  0
VERTEX
  8
LAYER-2
 10
12.798065
 20
70.146076
 30
0.000000
  0
SEQEND
  8
LAYER-2
  0
POLYLINE
  8
LAYER-2
 66
  1
 70
  0
 62
  7
 10
12.798096
 20
72.316175
 30
0.000000
  0
VERTEX
  8
LAYER-2
 10
12.798096
 20
72.316175
 30
0.000000
  0
VERTEX
  8
LAYER-2
 10
12.798065
 20
72.404137
 30
0.000000
  0
SEQEND
  8
LAYER-2
  0
POLYLINE
  8
LAYER-2
 66
  1
 70
  1
 62
  7
 10
14.035090
 20
72.211204
 30
0.000000
  0
VERTEX
  8
LAYER-2
 10
14.035090
 20
72.211204
 30
0.000000
  0
VERTEX
  8
LAYER-2
 10
14.352570
 20
72.899041
 30
0.000000
  0
VERTEX
  8
LAYER-2
 10
16.151483
 20
72.899041
 30
0.000000
  0
VERTEX
  8
LAYER-2
 10
16.574774
 20
72.211204
 30
0.000000
  0
SEQEND
  8
LAYER-2
  0
POLYLINE
  8
LAYER-2
 66
  1
 70
  1
 62
  7
 10
16.521839
 20
70.200621
 30
0.000000
  0
VERTEX
  8
LAYER-2
 10
16.521839
 20
70.200621
 30
0.000000
  0
VERTEX
  8
LAYER-2
 10
16.204386
 20
69.512784
 30
0.000000
  0
VERTEX
  8
LAYER-2
 10
14.405473
 20
69.512784
 30
0.000000
  0
VERTEX
  8
LAYER-2
 10
13.982182
 20
70.200621
 30
0.000000
  0
SEQEND
  8
LAYER-2
  0
POLYLINE
  8
LAYER-2
 66
  1
 70
  0
 62
  7
 10
174.175533
 20
71.234996
 30
0.000000
  0
VERTEX
  8
LAYER-2
 10
174.175533
 20
71.234996
 30
0.000000
  0
VERTEX
  8
LAYER-2
 10
17.641792
 20
71.234996
 30
0.000000
  0
SEQEND
  8
LAYER-2
  0
POLYLINE
  8
LAYER-2
  6
LTYPE01
 66
  1
 70
  0
 62
  7
  6
LTYPE01
 10
171.646520
 20
75.880149
 30
0.000000
  0
VERTEX
  8
LAYER-2
  6
LTYPE01
 10
171.646520
 20
75.880149
 30
0.000000
  0
VERTEX
  8
LAYER-2
  6
LTYPE01
 10
160.551119
 20
73.829954
 30
0.000000
  0
VERTEX
  8
LAYER-2
  6
LTYPE01
 10
161.377823
 20
71.860991
 30
0.000000
  0
VERTEX
  8
LAYER-2
  6
LTYPE01
 10
162.572745
 20
70.091140
 30
0.000000
  0
VERTEX
  8
LAYER-2
  6
LTYPE01
 10
164.090004
 20
68.588406
 30
0.000000
  0
VERTEX
  8
LAYER-2
  6
LTYPE01
 10
165.871271
 20
67.410565
 30
0.000000
  0
VERTEX
  8
LAYER-2
  6
LTYPE01
 10
167.848100
 20
66.602859
 30
0.000000
  0
VERTEX
  8
LAYER-2
  6
LTYPE01
 10
169.944496
 20
66.196342
 30
0.000000
  0
VERTEX
  8
LAYER-2
  6
LTYPE01
 10
182.477113
 20
66.106712
 30
0.000000
  0
SEQEND
  8
LAYER-2
  0
TEXT
  8
LAYER-2
 62
  7
 10
177.046431
 20
80.203658
 30
0.000000
 40
3.927273
  1
26" - 662mm
 72
  5
 11
223.300977
 21
80.203658
 31
0.000000
  0
POLYLINE
  8
LAYER-2
 66
  1
 70
  1
 62
255
  0
VERTEX
  8
LAYER-2
 10
1.123839
 20
79.857724
 30
0.000000
  0
VERTEX
  8
LAYER-2
 10
10.177836
 20
79.857724
 30
0.000000
  0
VERTEX
  8
LAYER-2
 10
10.177836
 20
62.492596
 30
0.000000
  0
VERTEX
  8
LAYER-2
 10
1.123839
 20
62.492596
 30
0.000000
  0
SEQEND
  8
LAYER-2
  0
POLYLINE
  8
LAYER-2
 66
  1
 70
  0
 62
  7
 10
1.123839
 20
79.857724
 30
0.000000
  0
VERTEX
  8
LAYER-2
 10
1.123839
 20
79.857724
 30
0.000000
  0
VERTEX
  8
LAYER-2
 10
10.177836
 20
79.857724
 30
0.000000
  0
SEQEND
  8
LAYER-2
  0
POLYLINE
  8
LAYER-2
 66
  1
 70
  0
 62
  7
 10
10.177836
 20
79.857724
 30
0.000000
  0
VERTEX
  8
LAYER-2
 10
10.177836
 20
79.857724
 30
0.000000
  0
VERTEX
  8
LAYER-2
 10
10.177836
 20
62.492596
 30
0.000000
  0
SEQEND
  8
LAYER-2
  0
POLYLINE
  8
LAYER-2
 66
  1
 70
  0
 62
  7
 10
10.177836
 20
62.492596
 30
0.000000
  0
VERTEX
  8
LAYER-2
 10
10.177836
 20
62.492596
 30
0.000000
  0
VERTEX
  8
LAYER-2
 10
1.123839
 20
62.492596
 30
0.000000
  0
SEQEND
  8
LAYER-2
  0
POLYLINE
  8
LAYER-2
 66
  1
 70
  1
 62
 39
  0
VERTEX
  8
LAYER-2
 10
91.466122
 20
72.933612
 30
0.000000
  0
VERTEX
  8
LAYER-2
 10
91.466122
 20
72.564506
 30
0.000000
  0
VERTEX
  8
LAYER-2
 10
90.726154
 20
72.564506
 30
0.000000
  0
VERTEX
  8
LAYER-2
 10
90.726154
 20
72.933612
 30
0.000000
  0
SEQEND
  8
LAYER-2
  0
POLYLINE
  8
LAYER-2
 66
  1
 70
  0
 62
  7
 10
91.620188
 20
72.652663
 30
0.000000
  0
VERTEX
  8
LAYER-2
 10
91.620188
 20
72.652663
 30
0.000000
  0
VERTEX
  8
LAYER-2
 10
91.620188
 20
72.526119
 30
0.000000
  0
SEQEND
  8
LAYER-2
  0
POLYLINE
  8
LAYER-2
 66
  1
 70
  0
 62
  7
 10
91.556925
 20
72.462855
 30
0.000000
  0
VERTEX
  8
LAYER-2
 10
91.556925
 20
72.462855
 30
0.000000
  0
VERTEX
  8
LAYER-2
 10
90.616593
 20
72.462855
 30
0.000000
  0
SEQEND
  8
LAYER-2
  0
POLYLINE
  8
LAYER-2
 66
  1
 70
  0
 62
  7
 10
90.553320
 20
72.526119
 30
0.000000
  0
VERTEX
  8
LAYER-2
 10
90.553320
 20
72.526119
 30
0.000000
  0
VERTEX
  8
LAYER-2
 10
90.553320
 20
72.652663
 30
0.000000
  0
SEQEND
  8
LAYER-2
  0
POLYLINE
  8
LAYER-2
 66
  1
 70
  0
 62
  7
 10
90.616593
 20
72.715927
 30
0.000000
  0
VERTEX
  8
LAYER-2
 10
90.616593
 20
72.715927
 30
0.000000
  0
VERTEX
  8
LAYER-2
 10
91.556925
 20
72.715927
 30
0.000000
  0
SEQEND
  8
LAYER-2
  0
ARC
  8
LAYER-2
 62
  7
 10
91.556925
 20
72.652663
 30
0.000000
 40
0.063275
 50
0.000000
 51
90.000000
  0
ARC
  8
LAYER-2
 62
  7
 10
90.616593
 20
72.652663
 30
0.000000
 40
0.063275
 50
90.000000
 51
180.000000
  0
ARC
  8
LAYER-2
 62
  7
 10
90.616593
 20
72.526119
 30
0.000000
 40
0.063275
 50
180.000000
 51
270.000000
  0
ARC
  8
LAYER-2
 62
  7
 10
91.556925
 20
72.526119
 30
0.000000
 40
0.063275
 50
270.000000
 51
0.000000
  0
POLYLINE
  8
LAYER-2
 66
  1
 70
  0
 62
  7
 10
91.622514
 20
73.695721
 30
0.000000
  0
VERTEX
  8
LAYER-2
 10
91.622514
 20
73.695721
 30
0.000000
  0
VERTEX
  8
LAYER-2
 10
91.622514
 20
73.548828
 30
0.000000
  0
SEQEND
  8
LAYER-2
  0
POLYLINE
  8
LAYER-2
 66
  1
 70
  0
 62
  7
 10
91.549183
 20
73.475497
 30
0.000000
  0
VERTEX
  8
LAYER-2
 10
91.549183
 20
73.475497
 30
0.000000
  0
VERTEX
  8
LAYER-2
 10
90.629031
 20
73.475497
 30
0.000000
  0
SEQEND
  8
LAYER-2
  0
POLYLINE
  8
LAYER-2
 66
  1
 70
  0
 62
  7
 10
90.555708
 20
73.548828
 30
0.000000
  0
VERTEX
  8
LAYER-2
 10
90.555708
 20
73.548828
 30
0.000000
  0
VERTEX
  8
LAYER-2
 10
90.555708
 20
73.695721
 30
0.000000
  0
SEQEND
  8
LAYER-2
  0
POLYLINE
  8
LAYER-2
 66
  1
 70
  0
 62
  7
 10
90.629031
 20
73.769052
 30
0.000000
  0
VERTEX
  8
LAYER-2
 10
90.629031
 20
73.769052
 30
0.000000
  0
VERTEX
  8
LAYER-2
 10
91.549183
 20
73.769052
 30
0.000000
  0
SEQEND
  8
LAYER-2
  0
ARC
  8
LAYER-2
 62
  7
 10
91.549183
 20
73.695721
 30
0.000000
 40
0.073345
 50
0.000000
 51
90.000000
  0
ARC
  8
LAYER-2
 62
  7
 10
90.629031
 20
73.695721
 30
0.000000
 40
0.073345
 50
90.000000
 51
180.000000
  0
ARC
  8
LAYER-2
 62
  7
 10
90.629031
 20
73.548828
 30
0.000000
 40
0.073345
 50
180.000000
 51
270.000000
  0
ARC
  8
LAYER-2
 62
  7
 10
91.549183
 20
73.548828
 30
0.000000
 40
0.073345
 50
270.000000
 51
0.000000
  0
POLYLINE
  8
LAYER-2
 66
  1
 70
  1
 62
 39
 10
91.622532
 20
73.528249
 30
0.000000
  0
VERTEX
  8
LAYER-2
 10
91.622532
 20
73.528249
 30
0.000000
  0
VERTEX
  8
LAYER-2
 10
90.558612
 20
73.521200
 30
0.000000
  0
VERTEX
  8
LAYER-2
 10
90.678720
 20
72.875018
 30
0.000000
  0
VERTEX
  8
LAYER-2
 10
91.516504
 20
72.853906
 30
0.000000
  0
SEQEND
  8
LAYER-2
  0
POLYLINE
  8
LAYER-2
 66
  1
 70
  1
 62
 39
  0
VERTEX
  8
LAYER-2
 10
91.402823
 20
72.547230
 30
0.000000
  0
VERTEX
  8
LAYER-2
 10
91.402823
 20
72.143839
 30
0.000000
  0
VERTEX
  8
LAYER-2
 10
90.771271
 20
72.143839
 30
0.000000
  0
VERTEX
  8
LAYER-2
 10
90.771271
 20
72.547230
 30
0.000000
  0
SEQEND
  8
LAYER-2
  0
POLYLINE
  8
LAYER-2
 66
  1
 70
  0
 62
  7
 10
89.493395
 20
72.308736
 30
0.000000
  0
VERTEX
  8
LAYER-2
 10
89.493395
 20
72.308736
 30
0.000000
  0
VERTEX
  8
LAYER-2
 10
91.831232
 20
72.308736
 30
0.000000
  0
SEQEND
  8
LAYER-2
  0
POLYLINE
  8
LAYER-2
 66
  1
 70
  0
 62
  7
 10
92.334588
 20
71.805380
 30
0.000000
  0
VERTEX
  8
LAYER-2
 10
92.334588
 20
71.805380
 30
0.000000
  0
VERTEX
  8
LAYER-2
 10
92.334588
 20
70.798668
 30
0.000000
  0
SEQEND
  8
LAYER-2
  0
POLYLINE
  8
LAYER-2
 66
  1
 70
  0
 62
  7
 10
91.831232
 20
70.295312
 30
0.000000
  0
VERTEX
  8
LAYER-2
 10
91.831232
 20
70.295312
 30
0.000000
  0
VERTEX
  8
LAYER-2
 10
89.493395
 20
70.295312
 30
0.000000
  0
SEQEND
  8
LAYER-2
  0
POLYLINE
  8
LAYER-2
 66
  1
 70
  0
 62
  7
 10
88.990039
 20
70.798668
 30
0.000000
  0
VERTEX
  8
LAYER-2
 10
88.990039
 20
70.798668
 30
0.000000
  0
VERTEX
  8
LAYER-2
 10
88.990039
 20
71.805380
 30
0.000000
  0
SEQEND
  8
LAYER-2
  0
ARC
  8
LAYER-2
 62
  7
 10
89.493395
 20
71.805380
 30
0.000000
 40
0.503350
 50
90.000000
 51
180.000000
  0
ARC
  8
LAYER-2
 62
  7
 10
89.493395
 20
70.798668
 30
0.000000
 40
0.503350
 50
180.000000
 51
270.000000
  0
ARC
  8
LAYER-2
 62
  7
 10
91.831232
 20
70.798668
 30
0.000000
 40
0.503350
 50
270.000000
 51
0.000000
  0
ARC
  8
LAYER-2
 62
  7
 10
91.831232
 20
71.805380
 30
0.000000
 40
0.503350
 50
0.000000
 51
90.000000
  0
POLYLINE
  8
LAYER-2
 66
  1
 70
  0
 62
  7
 10
93.075320
 20
71.291868
 30
0.000000
  0
VERTEX
  8
LAYER-2
 10
93.075320
 20
71.291868
 30
0.000000
  0
VERTEX
  8
LAYER-2
 10
92.969034
 20
71.548491
 30
0.000000
  0
VERTEX
  8
LAYER-2
 10
92.712411
 20
71.654794
 30
0.000000
  0
VERTEX
  8
LAYER-2
 10
92.455788
 20
71.548491
 30
0.000000
  0
VERTEX
  8
LAYER-2
 10
92.349503
 20
71.291868
 30
0.000000
  0
VERTEX
  8
LAYER-2
 10
92.455788
 20
71.035263
 30
0.000000
  0
VERTEX
  8
LAYER-2
 10
92.712411
 20
70.928960
 30
0.000000
  0
VERTEX
  8
LAYER-2
 10
92.969034
 20
71.035263
 30
0.000000
  0
VERTEX
  8
LAYER-2
 10
93.075320
 20
71.291868
 30
0.000000
  0
SEQEND
  8
LAYER-2
  0
POLYLINE
  8
LAYER-2
 66
  1
 70
  0
 62
  7
 10
89.003800
 20
71.291868
 30
0.000000
  0
VERTEX
  8
LAYER-2
 10
89.003800
 20
71.291868
 30
0.000000
  0
VERTEX
  8
LAYER-2
 10
88.897514
 20
71.548491
 30
0.000000
  0
VERTEX
  8
LAYER-2
 10
88.640891
 20
71.654794
 30
0.000000
  0
VERTEX
  8
LAYER-2
 10
88.384268
 20
71.548491
 30
0.000000
  0
VERTEX
  8
LAYER-2
 10
88.277983
 20
71.291868
 30
0.000000
  0
VERTEX
  8
LAYER-2
 10
88.384268
 20
71.035263
 30
0.000000
  0
VERTEX
  8
LAYER-2
 10
88.640891
 20
70.928960
 30
0.000000
  0
VERTEX
  8
LAYER-2
 10
88.897514
 20
71.035263
 30
0.000000
  0
VERTEX
  8
LAYER-2
 10
89.003800
 20
71.291868
 30
0.000000
  0
SEQEND
  8
LAYER-2
  0
ENDSEC
  0
EOF
