  0
SECTION
  2
HEADER
999
MacDraft 5.0\0
  9
$ACADVER
  1
AC1006
  9
$CLAYER
  8
LAYER-2
  9
$EXTMIN
 10
0.000000
 20
0.000000
  9
$EXTMAX
 10
7.835914
 20
9.973665
  9
$FASTZOOM
 70
0
  9
$FILLMODE
 70
1
  0
ENDSEC
  0
SECTION
  2
TABLES
  0
TABLE
  2
LTYPE
 70
16
  0
LTYPE
  2
CONTINUOUS
 70
64
  3
Solid Line
 72
65
 73
0
 40
0.000000
  0
LTYPE
  2
LTYPE01
 70
64
  3
CUSTOM
 72
65
 73
2
 40
0.076923
 49
0.057692
 49
-0.019231
  0
LTYPE
  2
LTYPE02
 70
64
  3
CUSTOM
 72
65
 73
2
 40
0.134615
 49
0.115385
 49
-0.019231
  0
LTYPE
  2
LTYPE03
 70
64
  3
CUSTOM
 72
65
 73
2
 40
0.259615
 49
0.230769
 49
-0.028846
  0
LTYPE
  2
LTYPE04
 70
64
  3
CUSTOM
 72
65
 73
2
 40
0.500000
 49
0.461538
 49
-0.038462
  0
LTYPE
  2
LTYPE05
 70
64
  3
CUSTOM
 72
65
 73
4
 40
0.105769
 49
0.057692
 49
-0.019231
 49
0.009615
 49
-0.019231
  0
LTYPE
  2
LTYPE06
 70
64
  3
CUSTOM
 72
65
 73
4
 40
0.163462
 49
0.115385
 49
-0.019231
 49
0.009615
 49
-0.019231
  0
LTYPE
  2
LTYPE07
 70
64
  3
CUSTOM
 72
65
 73
4
 40
0.307692
 49
0.230769
 49
-0.028846
 49
0.019231
 49
-0.028846
  0
LTYPE
  2
LTYPE08
 70
64
  3
CUSTOM
 72
65
 73
4
 40
0.557692
 49
0.461538
 49
-0.038462
 49
0.019231
 49
-0.038462
  0
LTYPE
  2
LTYPE09
 70
64
  3
CUSTOM
 72
65
 73
6
 40
0.134615
 49
0.057692
 49
-0.019231
 49
0.009615
 49
-0.019231
 49
0.009615
 49
-0.019231
  0
LTYPE
  2
LTYPE10
 70
64
  3
CUSTOM
 72
65
 73
6
 40
0.192308
 49
0.115385
 49
-0.019231
 49
0.009615
 49
-0.019231
 49
0.009615
 49
-0.019231
  0
LTYPE
  2
LTYPE11
 70
64
  3
CUSTOM
 72
65
 73
6
 40
0.346154
 49
0.230769
 49
-0.028846
 49
0.019231
 49
-0.019231
 49
0.019231
 49
-0.028846
  0
LTYPE
  2
LTYPE12
 70
64
  3
CUSTOM
 72
65
 73
6
 40
0.596154
 49
0.461538
 49
-0.038462
 49
0.019231
 49
-0.019231
 49
0.019231
 49
-0.038462
  0
LTYPE
  2
LTYPE13
 70
64
  3
CUSTOM
 72
65
 73
8
 40
0.221154
 49
0.115385
 49
-0.019231
 49
0.009615
 49
-0.019231
 49
0.009615
 49
-0.019231
 49
0.009615
 49
-0.019231
  0
LTYPE
  2
LTYPE14
 70
64
  3
CUSTOM
 72
65
 73
8
 40
0.384615
 49
0.230769
 49
-0.028846
 49
0.019231
 49
-0.019231
 49
0.019231
 49
-0.019231
 49
0.019231
 49
-0.028846
  0
LTYPE
  2
LTYPE15
 70
64
  3
CUSTOM
 72
65
 73
8
 40
0.653846
 49
0.461538
 49
-0.038462
 49
0.019231
 49
-0.028846
 49
0.019231
 49
-0.028846
 49
0.019231
 49
-0.038462
  0
ENDTAB
  0
TABLE
  2
LAYER
 70
2
  0
LAYER
  2
LAYER-2
 70
0
 62
7
  6
CONTINUOUS
  0
LAYER
  2
LAYER-1
 70
0
 62
7
  6
CONTINUOUS
  0
ENDTAB
  0
ENDSEC
  0
SECTION
  2
BLOCKS
  0
ENDSEC
  0
SECTION
  2
ENTITIES
  0
ARC
  8
LAYER-2
 62
  7
 10
44.484971
 20
71.418016
 30
0.000000
 40
1.991465
 50
270.000000
 51
90.000000
  0
POLYLINE
  8
LAYER-2
 66
  1
 70
  0
 62
  7
 10
44.484971
 20
73.409480
 30
0.000000
  0
VERTEX
  8
LAYER-2
 10
44.484971
 20
73.409480
 30
0.000000
  0
VERTEX
  8
LAYER-2
 10
15.798504
 20
73.409480
 30
0.000000
  0
SEQEND
  8
LAYER-2
  0
POLYLINE
  8
LAYER-2
 66
  1
 70
  0
 62
  7
 10
15.798504
 20
73.409480
 30
0.000000
  0
VERTEX
  8
LAYER-2
 10
15.798504
 20
73.409480
 30
0.000000
  0
VERTEX
  8
LAYER-2
 10
15.798504
 20
69.426551
 30
0.000000
  0
SEQEND
  8
LAYER-2
  0
POLYLINE
  8
LAYER-2
 66
  1
 70
  0
 62
  7
 10
44.484971
 20
69.426551
 30
0.000000
  0
VERTEX
  8
LAYER-2
 10
44.484971
 20
69.426551
 30
0.000000
  0
VERTEX
  8
LAYER-2
 10
15.798504
 20
69.426551
 30
0.000000
  0
SEQEND
  8
LAYER-2
  0
TEXT
  8
LAYER-2
 62
  7
 10
31.721678
 20
74.019250
 30
0.000000
 40
2.538462
  1
MobilFlex
 72
  5
 11
55.029370
 21
74.019250
 31
0.000000
  0
POLYLINE
  8
LAYER-2
 66
  1
 70
  1
 62
  7
  0
VERTEX
  8
LAYER-2
 10
15.810270
 20
79.780086
 30
0.000000
  0
VERTEX
  8
LAYER-2
 10
17.671974
 20
79.780086
 30
0.000000
  0
VERTEX
  8
LAYER-2
 10
17.671974
 20
75.733793
 30
0.000000
  0
VERTEX
  8
LAYER-2
 10
15.810270
 20
75.733793
 30
0.000000
  0
SEQEND
  8
LAYER-2
  0
POLYLINE
  8
LAYER-2
 66
  1
 70
  1
 62
  7
  0
VERTEX
  8
LAYER-2
 10
18.256312
 20
79.780086
 30
0.000000
  0
VERTEX
  8
LAYER-2
 10
20.118009
 20
79.780086
 30
0.000000
  0
VERTEX
  8
LAYER-2
 10
20.118009
 20
75.733793
 30
0.000000
  0
VERTEX
  8
LAYER-2
 10
18.256312
 20
75.733793
 30
0.000000
  0
SEQEND
  8
LAYER-2
  0
POLYLINE
  8
LAYER-2
 66
  1
 70
  1
 62
  7
  0
VERTEX
  8
LAYER-2
 10
20.607213
 20
79.780086
 30
0.000000
  0
VERTEX
  8
LAYER-2
 10
22.468919
 20
79.780086
 30
0.000000
  0
VERTEX
  8
LAYER-2
 10
22.468919
 20
75.733793
 30
0.000000
  0
VERTEX
  8
LAYER-2
 10
20.607213
 20
75.733793
 30
0.000000
  0
SEQEND
  8
LAYER-2
  0
POLYLINE
  8
LAYER-2
 66
  1
 70
  1
 62
  7
  0
VERTEX
  8
LAYER-2
 10
22.985298
 20
79.780086
 30
0.000000
  0
VERTEX
  8
LAYER-2
 10
24.847001
 20
79.780086
 30
0.000000
  0
VERTEX
  8
LAYER-2
 10
24.847001
 20
75.733793
 30
0.000000
  0
VERTEX
  8
LAYER-2
 10
22.985298
 20
75.733793
 30
0.000000
  0
SEQEND
  8
LAYER-2
  0
POLYLINE
  8
LAYER-2
 66
  1
 70
  1
 62
  7
  0
VERTEX
  8
LAYER-2
 10
25.465313
 20
79.749437
 30
0.000000
  0
VERTEX
  8
LAYER-2
 10
28.403952
 20
79.749437
 30
0.000000
  0
VERTEX
  8
LAYER-2
 10
28.403952
 20
78.669110
 30
0.000000
  0
VERTEX
  8
LAYER-2
 10
25.465313
 20
78.669110
 30
0.000000
  0
SEQEND
  8
LAYER-2
  0
POLYLINE
  8
LAYER-2
 66
  1
 70
  1
 62
  7
  0
VERTEX
  8
LAYER-2
 10
25.461907
 20
77.969276
 30
0.000000
  0
VERTEX
  8
LAYER-2
 10
27.873962
 20
77.969276
 30
0.000000
  0
VERTEX
  8
LAYER-2
 10
27.873962
 20
76.919523
 30
0.000000
  0
VERTEX
  8
LAYER-2
 10
25.461907
 20
76.919523
 30
0.000000
  0
SEQEND
  8
LAYER-2
  0
POLYLINE
  8
LAYER-2
 66
  1
 70
  1
 62
  7
  0
VERTEX
  8
LAYER-2
 10
15.810270
 20
75.071392
 30
0.000000
  0
VERTEX
  8
LAYER-2
 10
46.480835
 20
75.071392
 30
0.000000
  0
VERTEX
  8
LAYER-2
 10
46.480835
 20
74.731661
 30
0.000000
  0
VERTEX
  8
LAYER-2
 10
15.810270
 20
74.731661
 30
0.000000
  0
SEQEND
  8
LAYER-2
  0
TEXT
  8
LAYER-2
 62
  7
 10
19.337062
 20
68.711557
 30
0.000000
 40
1.500000
  1
Chain hoist
 72
  5
 11
35.337062
 21
68.711557
 31
0.000000
  0
TEXT
  8
LAYER-2
 62
  7
 10
35.337062
 20
68.711557
 30
0.000000
 40
1.153846
  1
 (mounted onto shaft)
 72
  5
 11
57.798601
 21
68.711557
 31
0.000000
  0
TEXT
  8
LAYER-2
 62
  7
 10
2.106293
 20
62.942326
 30
0.000000
 40
1.326923
  1
Important:
 72
  5
 11
13.567831
 21
62.942326
 31
0.000000
  0
TEXT
  8
LAYER-2
 62
  7
 10
2.106293
 20
57.634634
 30
0.000000
 40
1.153846
  1
A. For the stabilization of the hoist box (point 4),
 72
  5
 11
48.875524
 21
57.634634
 31
0.000000
  0
TEXT
  8
LAYER-2
 62
  7
 10
2.106293
 20
55.096173
 30
0.000000
 40
1.153846
  1
    
 72
  5
 11
4.952447
 21
55.096173
 31
0.000000
  0
TEXT
  8
LAYER-2
 62
  7
 10
4.952447
 20
55.096173
 30
0.000000
 40
1.153846
  1
insert the 2x bolts
 72
  5
 11
23.952447
 21
55.096173
 31
0.000000
  0
TEXT
  8
LAYER-2
 62
  7
 10
23.952447
 20
55.096173
 30
0.000000
 40
1.153846
  1
 into the end plate 
 72
  5
 11
42.490908
 21
55.096173
 31
0.000000
  0
TEXT
  8
LAYER-2
 62
  7
 10
42.490908
 20
55.096173
 30
0.000000
 40
1.153846
  1
before
 72
  5
 11
49.490908
 21
55.096173
 31
0.000000
  0
TEXT
  8
LAYER-2
 62
  7
 10
2.106293
 20
52.557711
 30
0.000000
 40
1.153846
  1
    sliding the end plate onto the shaft. 
 72
  5
 11
42.029370
 21
52.557711
 31
0.000000
  0
TEXT
  8
LAYER-2
 62
  7
 10
2.106293
 20
49.788480
 30
0.000000
 40
1.153846
  1
B. If the lateral space for the chain hoist is less
 72
  5
 11
47.644755
 21
49.788480
 31
0.000000
  0
TEXT
  8
LAYER-2
 62
  7
 10
47.644755
 20
49.788480
 30
0.000000
 40
1.326923
  1
 
 72
  5
 11
48.721678
 21
49.788480
 31
0.000000
  0
TEXT
  8
LAYER-2
 62
  7
 10
48.721678
 20
49.788480
 30
0.000000
 40
1.153846
  1
than 
 72
  5
 11
54.029370
 21
49.788480
 31
0.000000
  0
TEXT
  8
LAYER-2
 62
  7
 10
2.106293
 20
46.788480
 30
0.000000
 40
1.153846
  1
    9" - 229mm, 
 72
  5
 11
17.337062
 21
46.788480
 31
0.000000
  0
TEXT
  8
LAYER-2
 62
  7
 10
17.337062
 20
46.788480
 30
0.000000
 40
1.153846
  1
install the chain hoist
 72
  5
 11
39.952447
 21
46.788480
 31
0.000000
  0
TEXT
  8
LAYER-2
 62
  7
 10
39.952447
 20
46.788480
 30
0.000000
 40
1.326923
  1
 
 72
  5
 11
41.029370
 21
46.788480
 31
0.000000
  0
TEXT
  8
LAYER-2
 62
  7
 10
41.029370
 20
46.788480
 30
0.000000
 40
1.153846
  1
on the shaft 
 72
  5
 11
53.567831
 21
46.788480
 31
0.000000
  0
TEXT
  8
LAYER-2
 62
  7
 10
53.567831
 20
46.788480
 30
0.000000
 40
1.153846
  1
before 
 72
  5
 11
61.183216
 21
46.788480
 31
0.000000
  0
TEXT
  8
LAYER-2
 62
  7
 10
2.106293
 20
44.019250
 30
0.000000
 40
1.153846
  1
    mounting the end plate and barrel to the support.
 72
  5
 11
55.567831
 21
44.019250
 31
0.000000
  0
TEXT
  8
LAYER-2
 62
  7
 10
2.106293
 20
38.711557
 30
0.000000
 40
1.326923
  1
Installation instructions:
 72
  5
 11
28.260139
 21
38.711557
 31
0.000000
  0
TEXT
  8
LAYER-2
 62
  7
 10
2.106293
 20
33.403865
 30
0.000000
 40
1.153846
  1
1. When the barrel is installed centered between
 72
  5
 11
49.337062
 21
33.403865
 31
0.000000
  0
TEXT
  8
LAYER-2
 62
  7
 10
2.106293
 20
30.865403
 30
0.000000
 40
1.153846
  1
    the end plates, the shaft on the chain hoist side
 72
  5
 11
50.952447
 21
30.865403
 31
0.000000
  0
TEXT
  8
LAYER-2
 62
  7
 10
2.106293
 20
28.326942
 30
0.000000
 40
1.153846
  1
    should exceed the end plate by 5 1/2" - 140mm.
 72
  5
 11
51.490908
 21
28.326942
 31
0.000000
  0
TEXT
  8
LAYER-2
 62
  7
 10
2.106293
 20
23.250019
 30
0.000000
 40
1.153846
  1
2. Preparation of the chain hoist:
 72
  5
 11
34.106293
 21
23.250019
 31
0.000000
  0
TEXT
  8
LAYER-2
 62
  7
 10
2.106293
 20
20.711557
 30
0.000000
 40
1.153846
  1
    a) Insert the chain into the hoist box
 72
  5
 11
39.721678
 21
20.711557
 31
0.000000
  0
TEXT
  8
LAYER-2
 62
  7
 10
2.106293
 20
18.173096
 30
0.000000
 40
1.153846
  1
        and roll it around the gear.
 72
  5
 11
33.029370
 21
18.173096
 31
0.000000
  0
TEXT
  8
LAYER-2
 62
  7
 10
2.106293
 20
15.634634
 30
0.000000
 40
1.153846
  1
    b) Open a chain link with a vise-grip to close
 72
  5
 11
47.644755
 21
15.634634
 31
0.000000
  0
TEXT
  8
LAYER-2
 62
  7
 10
2.106293
 20
13.096173
 30
0.000000
 40
1.153846
  1
        the chain loop. Close the chain link.
 72
  5
 11
41.875524
 21
13.096173
 31
0.000000
  0
TEXT
  8
LAYER-2
 62
  7
 10
2.106293
 20
8.019250
 30
0.000000
 40
1.153846
  1
3. Assembly of the chain hoist onto shaft:
 72
  5
 11
42.490908
 21
8.019250
 31
0.000000
  0
TEXT
  8
LAYER-2
 62
  7
 10
2.106293
 20
5.480788
 30
0.000000
 40
1.153846
  1
    a) Slide onto the shaft the first collar and 
 72
  5
 11
44.798601
 21
5.480788
 31
0.000000
  0
TEXT
  8
LAYER-2
 62
  7
 10
2.106293
 20
2.942326
 30
0.000000
 40
1.153846
  1
        tighten the set screw into the shaft's keyway.
 72
  5
 11
50.644755
 21
2.942326
 31
0.000000
  0
TEXT
  8
LAYER-2
 62
  7
 10
2.106293
 20
0.403865
 30
0.000000
 40
1.153846
  1
    b) Slide the hoist box onto the shaft.
 72
  5
 11
40.029370
 21
0.403865
 31
0.000000
  0
TEXT
  8
LAYER-2
 62
  7
 10
2.106293
 20
-2.134597
 30
0.000000
 40
1.153846
  1
    c) Slide onto the shaft the second collar and 
 72
  5
 11
48.260139
 21
-2.134597
 31
0.000000
  0
TEXT
  8
LAYER-2
 62
  7
 10
2.106293
 20
-4.673058
 30
0.000000
 40
1.153846
  1
        tighten the set screw into the shaft's keyway.
 72
  5
 11
50.644755
 21
-4.673058
 31
0.000000
  0
TEXT
  8
LAYER-2
 62
  7
 10
2.106293
 20
-9.749981
 30
0.000000
 40
1.153846
  1
4. Stabilization of the hoist box:
 72
  5
 11
32.875524
 21
-9.749981
 31
0.000000
  0
TEXT
  8
LAYER-2
 62
  7
 10
2.106293
 20
-12.288443
 30
0.000000
 40
1.153846
  1
    Use one or the other of the following options:
 72
  5
 11
48.490908
 21
-12.288443
 31
0.000000
  0
TEXT
  8
LAYER-2
 62
  7
 10
2.106293
 20
-14.826904
 30
0.000000
 40
1.153846
  1
    a) Attach the hoist box to the end plate with
 72
  5
 11
47.106293
 21
-14.826904
 31
0.000000
  0
TEXT
  8
LAYER-2
 62
  7
 10
2.106293
 20
-17.365366
 30
0.000000
 40
1.153846
  1
        2x 1/4" x 6" (6 x 152mm) bolts,
 72
  5
 11
37.106293
 21
-17.365366
 31
0.000000
  0
TEXT
  8
LAYER-2
 62
  7
 10
2.106293
 20
-19.903827
 30
0.000000
 40
1.153846
  1
        washers and lock nuts
 72
  5
 11
29.029370
 21
-19.903827
 31
0.000000
  0
TEXT
  8
LAYER-2
 62
  7
 10
2.106293
 20
-22.442289
 30
0.000000
 40
1.153846
  1
    or
 72
  5
 11
6.875524
 21
-22.442289
 31
0.000000
  0
TEXT
  8
LAYER-2
 62
  7
 10
2.106293
 20
-24.980750
 30
0.000000
 40
1.153846
  1
    b) Attach the hoist box to the wall with
 72
  5
 11
41.721678
 21
-24.980750
 31
0.000000
  0
TEXT
  8
LAYER-2
 62
  7
 10
2.106293
 20
-27.519212
 30
0.000000
 40
1.153846
  1
        the L-bracket.
 72
  5
 11
20.798601
 21
-27.519212
 31
0.000000
  0
POLYLINE
  8
LAYER-1
 66
  1
 70
  1
 62
  7
  0
VERTEX
  8
LAYER-1
 10
38.771928
 20
23.748779
 30
0.000000
  0
VERTEX
  8
LAYER-1
 10
52.771921
 20
23.748779
 30
0.000000
  0
VERTEX
  8
LAYER-1
 10
52.771921
 20
7.748775
 30
0.000000
  0
VERTEX
  8
LAYER-1
 10
38.771928
 20
7.748775
 30
0.000000
  0
SEQEND
  8
LAYER-1
  0
POLYLINE
  8
LAYER-1
 66
  1
 70
  1
 62
  7
  0
VERTEX
  8
LAYER-1
 10
42.396930
 20
19.871375
 30
0.000000
  0
VERTEX
  8
LAYER-1
 10
49.146930
 20
19.871375
 30
0.000000
  0
VERTEX
  8
LAYER-1
 10
49.146930
 20
10.171373
 30
0.000000
  0
VERTEX
  8
LAYER-1
 10
42.396930
 20
10.171373
 30
0.000000
  0
SEQEND
  8
LAYER-1
  0
POLYLINE
  8
LAYER-1
 66
  1
 70
  1
 62
255
  0
VERTEX
  8
LAYER-1
 10
52.771921
 20
26.826932
 30
0.000000
  0
VERTEX
  8
LAYER-1
 10
58.846943
 20
26.826932
 30
0.000000
  0
VERTEX
  8
LAYER-1
 10
58.846943
 20
1.711557
 30
0.000000
  0
VERTEX
  8
LAYER-1
 10
52.771921
 20
1.711557
 30
0.000000
  0
SEQEND
  8
LAYER-1
  0
CIRCLE
  8
LAYER-1
 62
  7
 10
51.521921
 20
22.248775
 30
0.000000
 40
0.281250
  0
CIRCLE
  8
LAYER-1
 62
  7
 10
51.771921
 20
15.748779
 30
0.000000
 40
0.195300
  0
CIRCLE
  8
LAYER-1
 62
  7
 10
51.771921
 20
9.123775
 30
0.000000
 40
0.195300
  0
CIRCLE
  8
LAYER-1
 62
  7
 10
48.641916
 20
18.799622
 30
0.000000
 40
0.153330
  0
CIRCLE
  8
LAYER-1
 62
  7
 10
42.899358
 20
18.799622
 30
0.000000
 40
0.153330
  0
CIRCLE
  8
LAYER-1
 62
  7
 10
48.640714
 20
14.371037
 30
0.000000
 40
0.153330
  0
CIRCLE
  8
LAYER-1
 62
  7
 10
42.900161
 20
14.371037
 30
0.000000
 40
0.153330
  0
CIRCLE
  8
LAYER-1
 62
  7
 10
48.768423
 20
12.460327
 30
0.000000
 40
0.153330
  0
CIRCLE
  8
LAYER-1
 62
  7
 10
42.769897
 20
12.460327
 30
0.000000
 40
0.153330
  0
CIRCLE
  8
LAYER-1
 62
  7
 10
48.809669
 20
11.318500
 30
0.000000
 40
0.153330
  0
CIRCLE
  8
LAYER-1
 62
  7
 10
47.961459
 20
10.398855
 30
0.000000
 40
0.153330
  0
CIRCLE
  8
LAYER-1
 62
  7
 10
42.759179
 20
11.318500
 30
0.000000
 40
0.153330
  0
CIRCLE
  8
LAYER-1
 62
  7
 10
43.607389
 20
10.398855
 30
0.000000
 40
0.153330
  0
CIRCLE
  8
LAYER-1
 62
  7
 10
45.769315
 20
16.749366
 30
0.000000
 40
0.554220
  0
ARC
  8
LAYER-1
 62
  7
 10
45.769315
 20
16.749366
 30
0.000000
 40
0.990294
 50
113.871765
 51
97.109253
  0
CIRCLE
  8
LAYER-1
 62
  7
 10
45.772052
 20
13.125019
 30
0.000000
 40
0.317187
  0
CIRCLE
  8
LAYER-1
 62
  7
 10
45.772052
 20
13.125019
 30
0.000000
 40
0.417984
  0
CIRCLE
  8
LAYER-1
 62
  7
 10
45.772052
 20
13.125019
 30
0.000000
 40
0.448154
  0
CIRCLE
  8
LAYER-1
 62
  7
 10
45.772052
 20
13.125019
 30
0.000000
 40
0.625991
  0
POLYLINE
  8
LAYER-1
 66
  1
 70
  1
 62
  7
 10
46.087811
 20
13.123709
 30
0.000000
  0
VERTEX
  8
LAYER-1
 10
46.087811
 20
13.123709
 30
0.000000
  0
VERTEX
  8
LAYER-1
 10
45.931073
 20
13.397808
 30
0.000000
  0
VERTEX
  8
LAYER-1
 10
45.615309
 20
13.399118
 30
0.000000
  0
VERTEX
  8
LAYER-1
 10
45.456308
 20
13.126324
 30
0.000000
  0
VERTEX
  8
LAYER-1
 10
45.613051
 20
12.852210
 30
0.000000
  0
VERTEX
  8
LAYER-1
 10
45.928810
 20
12.850905
 30
0.000000
  0
SEQEND
  8
LAYER-1
  0
CIRCLE
  8
LAYER-1
 62
  7
 10
45.772052
 20
13.125019
 30
0.000000
 40
0.246503
  0
POLYLINE
  8
LAYER-1
 66
  1
 70
  1
 62
255
 10
45.597083
 20
18.167828
 30
0.000000
  0
VERTEX
  8
LAYER-1
 10
45.597083
 20
18.167828
 30
0.000000
  0
VERTEX
  8
LAYER-1
 10
45.645555
 20
17.973943
 30
0.000000
  0
VERTEX
  8
LAYER-1
 10
45.589877
 20
17.906151
 30
0.000000
  0
VERTEX
  8
LAYER-1
 10
45.632287
 20
17.886066
 30
0.000000
  0
VERTEX
  8
LAYER-1
 10
45.607732
 20
17.852586
 30
0.000000
  0
VERTEX
  8
LAYER-1
 10
45.648423
 20
17.830782
 30
0.000000
  0
VERTEX
  8
LAYER-1
 10
45.623873
 20
17.797283
 30
0.000000
  0
VERTEX
  8
LAYER-1
 10
45.665250
 20
17.774278
 30
0.000000
  0
VERTEX
  8
LAYER-1
 10
45.638461
 20
17.737877
 30
0.000000
  0
VERTEX
  8
LAYER-1
 10
45.680866
 20
17.717792
 30
0.000000
  0
VERTEX
  8
LAYER-1
 10
45.656316
 20
17.684312
 30
0.000000
  0
VERTEX
  8
LAYER-1
 10
45.696500
 20
17.661307
 30
0.000000
  0
VERTEX
  8
LAYER-1
 10
45.667311
 20
17.624901
 30
0.000000
  0
VERTEX
  8
LAYER-1
 10
45.709717
 20
17.604816
 30
0.000000
  0
VERTEX
  8
LAYER-1
 10
45.686533
 20
17.568416
 30
0.000000
  0
VERTEX
  8
LAYER-1
 10
45.728948
 20
17.548316
 30
0.000000
  0
VERTEX
  8
LAYER-1
 10
45.711092
 20
17.525663
 30
0.000000
  0
VERTEX
  8
LAYER-1
 10
45.780809
 20
17.302101
 30
0.000000
  0
VERTEX
  8
LAYER-1
 10
45.773592
 20
17.292485
 30
0.000000
  0
VERTEX
  8
LAYER-1
 10
45.814979
 20
17.270682
 30
0.000000
  0
VERTEX
  8
LAYER-1
 10
45.790424
 20
17.237201
 30
0.000000
  0
VERTEX
  8
LAYER-1
 10
45.802439
 20
17.203533
 30
0.000000
  0
VERTEX
  8
LAYER-1
 10
45.576482
 20
17.153062
 30
0.000000
  0
VERTEX
  8
LAYER-1
 10
45.551584
 20
17.197017
 30
0.000000
  0
VERTEX
  8
LAYER-1
 10
45.513634
 20
17.214872
 30
0.000000
  0
VERTEX
  8
LAYER-1
 10
45.528400
 20
17.237201
 30
0.000000
  0
VERTEX
  8
LAYER-1
 10
45.461092
 20
17.463163
 30
0.000000
  0
VERTEX
  8
LAYER-1
 10
45.467637
 20
17.474807
 30
0.000000
  0
VERTEX
  8
LAYER-1
 10
45.427608
 20
17.492521
 30
0.000000
  0
VERTEX
  8
LAYER-1
 10
45.446322
 20
17.531151
 30
0.000000
  0
VERTEX
  8
LAYER-1
 10
45.408377
 20
17.549007
 30
0.000000
  0
VERTEX
  8
LAYER-1
 10
45.433105
 20
17.587642
 30
0.000000
  0
VERTEX
  8
LAYER-1
 10
45.395156
 20
17.605497
 30
0.000000
  0
VERTEX
  8
LAYER-1
 10
45.417480
 20
17.644127
 30
0.000000
  0
VERTEX
  8
LAYER-1
 10
45.379531
 20
17.661983
 30
0.000000
  0
VERTEX
  8
LAYER-1
 10
45.401855
 20
17.700613
 30
0.000000
  0
VERTEX
  8
LAYER-1
 10
45.363906
 20
17.718482
 30
0.000000
  0
VERTEX
  8
LAYER-1
 10
45.385029
 20
17.757118
 30
0.000000
  0
VERTEX
  8
LAYER-1
 10
45.347083
 20
17.774973
 30
0.000000
  0
VERTEX
  8
LAYER-1
 10
45.368892
 20
17.812401
 30
0.000000
  0
VERTEX
  8
LAYER-1
 10
45.330942
 20
17.830257
 30
0.000000
  0
VERTEX
  8
LAYER-1
 10
45.346567
 20
17.861507
 30
0.000000
  0
VERTEX
  8
LAYER-1
 10
45.271193
 20
17.855328
 30
0.000000
  0
VERTEX
  8
LAYER-1
 10
45.213154
 20
18.024973
 30
0.000000
  0
VERTEX
  8
LAYER-1
 10
45.318068
 20
18.103098
 30
0.000000
  0
VERTEX
  8
LAYER-1
 10
45.367342
 20
18.124211
 30
0.000000
  0
VERTEX
  8
LAYER-1
 10
45.429842
 20
18.145851
 30
0.000000
  0
VERTEX
  8
LAYER-1
 10
45.480323
 20
18.157874
 30
0.000000
  0
VERTEX
  8
LAYER-1
 10
45.530809
 20
18.165086
 30
0.000000
  0
SEQEND
  8
LAYER-1
  0
CIRCLE
  8
LAYER-1
 62
  7
 10
45.780128
 20
16.745953
 30
0.000000
 40
0.783094
  0
CIRCLE
  8
LAYER-1
 62
  7
 10
45.780123
 20
16.745953
 30
0.000000
 40
0.554220
  0
POLYLINE
  8
LAYER-1
 66
  1
 70
  1
 62
255
 10
45.780809
 20
17.302101
 30
0.000000
  0
VERTEX
  8
LAYER-1
 10
45.780809
 20
17.302101
 30
0.000000
  0
VERTEX
  8
LAYER-1
 10
45.773592
 20
17.292485
 30
0.000000
  0
VERTEX
  8
LAYER-1
 10
45.814979
 20
17.270682
 30
0.000000
  0
VERTEX
  8
LAYER-1
 10
45.790424
 20
17.237201
 30
0.000000
  0
VERTEX
  8
LAYER-1
 10
45.802439
 20
17.203533
 30
0.000000
  0
VERTEX
  8
LAYER-1
 10
45.576482
 20
17.153062
 30
0.000000
  0
VERTEX
  8
LAYER-1
 10
45.551584
 20
17.197017
 30
0.000000
  0
VERTEX
  8
LAYER-1
 10
45.513634
 20
17.214872
 30
0.000000
  0
VERTEX
  8
LAYER-1
 10
45.528400
 20
17.237201
 30
0.000000
  0
VERTEX
  8
LAYER-1
 10
45.564463
 20
17.256423
 30
0.000000
  0
VERTEX
  8
LAYER-1
 10
45.655809
 20
17.287673
 30
0.000000
  0
VERTEX
  8
LAYER-1
 10
45.715900
 20
17.299701
 30
0.000000
  0
SEQEND
  8
LAYER-1
  0
POLYLINE
  8
LAYER-1
 66
  1
 70
  0
 62
  7
 10
45.597083
 20
18.167828
 30
0.000000
  0
VERTEX
  8
LAYER-1
 10
45.597083
 20
18.167828
 30
0.000000
  0
VERTEX
  8
LAYER-1
 10
45.645555
 20
17.973943
 30
0.000000
  0
SEQEND
  8
LAYER-1
  0
POLYLINE
  8
LAYER-1
 66
  1
 70
  0
 62
  7
 10
45.373873
 20
17.920053
 30
0.000000
  0
VERTEX
  8
LAYER-1
 10
45.373873
 20
17.920053
 30
0.000000
  0
VERTEX
  8
LAYER-1
 10
45.645555
 20
17.973943
 30
0.000000
  0
SEQEND
  8
LAYER-1
  0
POLYLINE
  8
LAYER-1
 66
  1
 70
  0
 62
  7
 10
45.373873
 20
17.920053
 30
0.000000
  0
VERTEX
  8
LAYER-1
 10
45.373873
 20
17.920053
 30
0.000000
  0
VERTEX
  8
LAYER-1
 10
45.318068
 20
18.103098
 30
0.000000
  0
SEQEND
  8
LAYER-1
  0
POLYLINE
  8
LAYER-1
 66
  1
 70
  0
 62
  7
 10
45.318068
 20
18.103098
 30
0.000000
  0
VERTEX
  8
LAYER-1
 10
45.318068
 20
18.103098
 30
0.000000
  0
VERTEX
  8
LAYER-1
 10
45.213154
 20
18.024973
 30
0.000000
  0
SEQEND
  8
LAYER-1
  0
POLYLINE
  8
LAYER-1
 66
  1
 70
  0
 62
  7
 10
45.213154
 20
18.024973
 30
0.000000
  0
VERTEX
  8
LAYER-1
 10
45.213154
 20
18.024973
 30
0.000000
  0
VERTEX
  8
LAYER-1
 10
45.271193
 20
17.855328
 30
0.000000
  0
SEQEND
  8
LAYER-1
  0
POLYLINE
  8
LAYER-1
 66
  1
 70
  0
 62
  7
 10
45.271193
 20
17.855328
 30
0.000000
  0
VERTEX
  8
LAYER-1
 10
45.271193
 20
17.855328
 30
0.000000
  0
VERTEX
  8
LAYER-1
 10
45.373873
 20
17.920053
 30
0.000000
  0
SEQEND
  8
LAYER-1
  0
ARC
  8
LAYER-1
 62
  7
 10
45.592219
 20
17.555082
 30
0.000000
 40
0.612755
 50
89.545227
 51
116.577271
  0
POLYLINE
  8
LAYER-1
 66
  1
 70
  0
 62
  7
 10
45.640691
 20
17.740798
 30
0.000000
  0
VERTEX
  8
LAYER-1
 10
45.640691
 20
17.740798
 30
0.000000
  0
VERTEX
  8
LAYER-1
 10
45.665250
 20
17.774278
 30
0.000000
  0
SEQEND
  8
LAYER-1
  0
POLYLINE
  8
LAYER-1
 66
  1
 70
  0
 62
  7
 10
45.665250
 20
17.774278
 30
0.000000
  0
VERTEX
  8
LAYER-1
 10
45.665250
 20
17.774278
 30
0.000000
  0
VERTEX
  8
LAYER-1
 10
45.622836
 20
17.794363
 30
0.000000
  0
SEQEND
  8
LAYER-1
  0
POLYLINE
  8
LAYER-1
 66
  1
 70
  0
 62
  7
 10
45.385029
 20
17.757118
 30
0.000000
  0
VERTEX
  8
LAYER-1
 10
45.385029
 20
17.757118
 30
0.000000
  0
VERTEX
  8
LAYER-1
 10
45.363906
 20
17.718482
 30
0.000000
  0
SEQEND
  8
LAYER-1
  0
POLYLINE
  8
LAYER-1
 66
  1
 70
  0
 62
  7
 10
45.363906
 20
17.718482
 30
0.000000
  0
VERTEX
  8
LAYER-1
 10
45.363906
 20
17.718482
 30
0.000000
  0
VERTEX
  8
LAYER-1
 10
45.401855
 20
17.700613
 30
0.000000
  0
SEQEND
  8
LAYER-1
  0
ARC
  8
LAYER-1
 62
  7
 10
45.626446
 20
17.142203
 30
0.000000
 40
0.633264
 50
86.486847
 51
114.492737
  0
ARC
  8
LAYER-1
 62
  7
 10
45.611713
 20
17.183082
 30
0.000000
 40
0.558460
 50
87.025665
 51
112.072357
  0
POLYLINE
  8
LAYER-1
 66
  1
 70
  0
 62
  7
 10
45.656316
 20
17.684312
 30
0.000000
  0
VERTEX
  8
LAYER-1
 10
45.656316
 20
17.684312
 30
0.000000
  0
VERTEX
  8
LAYER-1
 10
45.680866
 20
17.717792
 30
0.000000
  0
SEQEND
  8
LAYER-1
  0
POLYLINE
  8
LAYER-1
 66
  1
 70
  0
 62
  7
 10
45.680866
 20
17.717792
 30
0.000000
  0
VERTEX
  8
LAYER-1
 10
45.680866
 20
17.717792
 30
0.000000
  0
VERTEX
  8
LAYER-1
 10
45.638461
 20
17.737877
 30
0.000000
  0
SEQEND
  8
LAYER-1
  0
POLYLINE
  8
LAYER-1
 66
  1
 70
  0
 62
  7
 10
45.401855
 20
17.700613
 30
0.000000
  0
VERTEX
  8
LAYER-1
 10
45.401855
 20
17.700613
 30
0.000000
  0
VERTEX
  8
LAYER-1
 10
45.379531
 20
17.661983
 30
0.000000
  0
SEQEND
  8
LAYER-1
  0
POLYLINE
  8
LAYER-1
 66
  1
 70
  0
 62
  7
 10
45.379531
 20
17.661983
 30
0.000000
  0
VERTEX
  8
LAYER-1
 10
45.379531
 20
17.661983
 30
0.000000
  0
VERTEX
  8
LAYER-1
 10
45.417480
 20
17.644127
 30
0.000000
  0
SEQEND
  8
LAYER-1
  0
ARC
  8
LAYER-1
 62
  7
 10
45.642062
 20
17.085825
 30
0.000000
 40
0.633148
 50
86.486206
 51
114.496735
  0
ARC
  8
LAYER-1
 62
  7
 10
45.627390
 20
17.126286
 30
0.000000
 40
0.558771
 50
87.032867
 51
112.065308
  0
POLYLINE
  8
LAYER-1
 66
  1
 70
  0
 62
  7
 10
45.685167
 20
17.571322
 30
0.000000
  0
VERTEX
  8
LAYER-1
 10
45.685167
 20
17.571322
 30
0.000000
  0
VERTEX
  8
LAYER-1
 10
45.709717
 20
17.604816
 30
0.000000
  0
SEQEND
  8
LAYER-1
  0
POLYLINE
  8
LAYER-1
 66
  1
 70
  0
 62
  7
 10
45.709717
 20
17.604816
 30
0.000000
  0
VERTEX
  8
LAYER-1
 10
45.709717
 20
17.604816
 30
0.000000
  0
VERTEX
  8
LAYER-1
 10
45.667311
 20
17.624901
 30
0.000000
  0
SEQEND
  8
LAYER-1
  0
POLYLINE
  8
LAYER-1
 66
  1
 70
  0
 62
  7
 10
45.433105
 20
17.587642
 30
0.000000
  0
VERTEX
  8
LAYER-1
 10
45.433105
 20
17.587642
 30
0.000000
  0
VERTEX
  8
LAYER-1
 10
45.408377
 20
17.549007
 30
0.000000
  0
SEQEND
  8
LAYER-1
  0
POLYLINE
  8
LAYER-1
 66
  1
 70
  0
 62
  7
 10
45.408377
 20
17.549007
 30
0.000000
  0
VERTEX
  8
LAYER-1
 10
45.408377
 20
17.549007
 30
0.000000
  0
VERTEX
  8
LAYER-1
 10
45.446322
 20
17.531151
 30
0.000000
  0
SEQEND
  8
LAYER-1
  0
ARC
  8
LAYER-1
 62
  7
 10
45.670997
 20
16.972450
 30
0.000000
 40
0.633552
 50
86.496094
 51
114.489319
  0
ARC
  8
LAYER-1
 62
  7
 10
45.656189
 20
17.013559
 30
0.000000
 40
0.558521
 50
87.026398
 51
112.071075
  0
POLYLINE
  8
LAYER-1
 66
  1
 70
  0
 62
  7
 10
45.711092
 20
17.525663
 30
0.000000
  0
VERTEX
  8
LAYER-1
 10
45.711092
 20
17.525663
 30
0.000000
  0
VERTEX
  8
LAYER-1
 10
45.728948
 20
17.548316
 30
0.000000
  0
SEQEND
  8
LAYER-1
  0
POLYLINE
  8
LAYER-1
 66
  1
 70
  0
 62
  7
 10
45.728948
 20
17.548316
 30
0.000000
  0
VERTEX
  8
LAYER-1
 10
45.728948
 20
17.548316
 30
0.000000
  0
VERTEX
  8
LAYER-1
 10
45.686533
 20
17.568416
 30
0.000000
  0
SEQEND
  8
LAYER-1
  0
POLYLINE
  8
LAYER-1
 66
  1
 70
  0
 62
  7
 10
45.446322
 20
17.531151
 30
0.000000
  0
VERTEX
  8
LAYER-1
 10
45.446322
 20
17.531151
 30
0.000000
  0
VERTEX
  8
LAYER-1
 10
45.427608
 20
17.492521
 30
0.000000
  0
SEQEND
  8
LAYER-1
  0
POLYLINE
  8
LAYER-1
 66
  1
 70
  0
 62
  7
 10
45.427608
 20
17.492521
 30
0.000000
  0
VERTEX
  8
LAYER-1
 10
45.427608
 20
17.492521
 30
0.000000
  0
VERTEX
  8
LAYER-1
 10
45.465553
 20
17.474666
 30
0.000000
  0
SEQEND
  8
LAYER-1
  0
ARC
  8
LAYER-1
 62
  7
 10
45.690186
 20
16.916105
 30
0.000000
 40
0.633408
 50
86.491486
 51
114.491028
  0
ARC
  8
LAYER-1
 62
  7
 10
45.707712
 20
16.843745
 30
0.000000
 40
0.675793
 50
96.759918
 51
110.997528
  0
POLYLINE
  8
LAYER-1
 66
  1
 70
  0
 62
  7
 10
45.623873
 20
17.797283
 30
0.000000
  0
VERTEX
  8
LAYER-1
 10
45.623873
 20
17.797283
 30
0.000000
  0
VERTEX
  8
LAYER-1
 10
45.648423
 20
17.830782
 30
0.000000
  0
SEQEND
  8
LAYER-1
  0
POLYLINE
  8
LAYER-1
 66
  1
 70
  0
 62
  7
 10
45.648423
 20
17.830782
 30
0.000000
  0
VERTEX
  8
LAYER-1
 10
45.648423
 20
17.830782
 30
0.000000
  0
VERTEX
  8
LAYER-1
 10
45.606009
 20
17.850868
 30
0.000000
  0
SEQEND
  8
LAYER-1
  0
POLYLINE
  8
LAYER-1
 66
  1
 70
  0
 62
  7
 10
45.368892
 20
17.812401
 30
0.000000
  0
VERTEX
  8
LAYER-1
 10
45.368892
 20
17.812401
 30
0.000000
  0
VERTEX
  8
LAYER-1
 10
45.347083
 20
17.774973
 30
0.000000
  0
SEQEND
  8
LAYER-1
  0
POLYLINE
  8
LAYER-1
 66
  1
 70
  0
 62
  7
 10
45.347083
 20
17.774973
 30
0.000000
  0
VERTEX
  8
LAYER-1
 10
45.347083
 20
17.774973
 30
0.000000
  0
VERTEX
  8
LAYER-1
 10
45.385029
 20
17.757118
 30
0.000000
  0
SEQEND
  8
LAYER-1
  0
ARC
  8
LAYER-1
 62
  7
 10
45.609704
 20
17.198416
 30
0.000000
 40
0.633552
 50
86.496094
 51
114.489319
  0
ARC
  8
LAYER-1
 62
  7
 10
45.594900
 20
17.239521
 30
0.000000
 40
0.558521
 50
87.026398
 51
112.071075
  0
POLYLINE
  8
LAYER-1
 66
  1
 70
  0
 62
  7
 10
45.607732
 20
17.852586
 30
0.000000
  0
VERTEX
  8
LAYER-1
 10
45.607732
 20
17.852586
 30
0.000000
  0
VERTEX
  8
LAYER-1
 10
45.632287
 20
17.886066
 30
0.000000
  0
SEQEND
  8
LAYER-1
  0
POLYLINE
  8
LAYER-1
 66
  1
 70
  0
 62
  7
 10
45.632287
 20
17.886066
 30
0.000000
  0
VERTEX
  8
LAYER-1
 10
45.632287
 20
17.886066
 30
0.000000
  0
VERTEX
  8
LAYER-1
 10
45.589877
 20
17.906151
 30
0.000000
  0
SEQEND
  8
LAYER-1
  0
POLYLINE
  8
LAYER-1
 66
  1
 70
  0
 62
  7
 10
45.346567
 20
17.861507
 30
0.000000
  0
VERTEX
  8
LAYER-1
 10
45.346567
 20
17.861507
 30
0.000000
  0
VERTEX
  8
LAYER-1
 10
45.330942
 20
17.830257
 30
0.000000
  0
SEQEND
  8
LAYER-1
  0
POLYLINE
  8
LAYER-1
 66
  1
 70
  0
 62
  7
 10
45.330942
 20
17.830257
 30
0.000000
  0
VERTEX
  8
LAYER-1
 10
45.330942
 20
17.830257
 30
0.000000
  0
VERTEX
  8
LAYER-1
 10
45.368892
 20
17.812401
 30
0.000000
  0
SEQEND
  8
LAYER-1
  0
ARC
  8
LAYER-1
 62
  7
 10
45.593562
 20
17.253700
 30
0.000000
 40
0.633552
 50
86.496094
 51
114.489319
  0
ARC
  8
LAYER-1
 62
  7
 10
45.578801
 20
17.294654
 30
0.000000
 40
0.558680
 50
87.031586
 51
112.069183
  0
POLYLINE
  8
LAYER-1
 66
  1
 70
  0
 62
  7
 10
45.589877
 20
17.906151
 30
0.000000
  0
VERTEX
  8
LAYER-1
 10
45.589877
 20
17.906151
 30
0.000000
  0
VERTEX
  8
LAYER-1
 10
45.645555
 20
17.973943
 30
0.000000
  0
SEQEND
  8
LAYER-1
  0
POLYLINE
  8
LAYER-1
 66
  1
 70
  0
 62
  7
 10
45.346567
 20
17.861507
 30
0.000000
  0
VERTEX
  8
LAYER-1
 10
45.346567
 20
17.861507
 30
0.000000
  0
VERTEX
  8
LAYER-1
 10
45.271193
 20
17.855328
 30
0.000000
  0
SEQEND
  8
LAYER-1
  0
ARC
  8
LAYER-1
 62
  7
 10
45.568829
 20
17.335520
 30
0.000000
 40
0.571020
 50
87.887787
 51
112.907104
  0
POLYLINE
  8
LAYER-1
 66
  1
 70
  0
 62
  7
 10
45.671945
 20
17.627826
 30
0.000000
  0
VERTEX
  8
LAYER-1
 10
45.671945
 20
17.627826
 30
0.000000
  0
VERTEX
  8
LAYER-1
 10
45.696500
 20
17.661307
 30
0.000000
  0
SEQEND
  8
LAYER-1
  0
POLYLINE
  8
LAYER-1
 66
  1
 70
  0
 62
  7
 10
45.696500
 20
17.661307
 30
0.000000
  0
VERTEX
  8
LAYER-1
 10
45.696500
 20
17.661307
 30
0.000000
  0
VERTEX
  8
LAYER-1
 10
45.654086
 20
17.681392
 30
0.000000
  0
SEQEND
  8
LAYER-1
  0
POLYLINE
  8
LAYER-1
 66
  1
 70
  0
 62
  7
 10
45.417480
 20
17.644127
 30
0.000000
  0
VERTEX
  8
LAYER-1
 10
45.417480
 20
17.644127
 30
0.000000
  0
VERTEX
  8
LAYER-1
 10
45.395156
 20
17.605497
 30
0.000000
  0
SEQEND
  8
LAYER-1
  0
POLYLINE
  8
LAYER-1
 66
  1
 70
  0
 62
  7
 10
45.395156
 20
17.605497
 30
0.000000
  0
VERTEX
  8
LAYER-1
 10
45.395156
 20
17.605497
 30
0.000000
  0
VERTEX
  8
LAYER-1
 10
45.433105
 20
17.587642
 30
0.000000
  0
SEQEND
  8
LAYER-1
  0
ARC
  8
LAYER-1
 62
  7
 10
45.657729
 20
17.029184
 30
0.000000
 40
0.633301
 50
86.490173
 51
114.494751
  0
ARC
  8
LAYER-1
 62
  7
 10
45.643015
 20
17.069895
 30
0.000000
 40
0.558680
 50
87.031586
 51
112.069183
  0
POLYLINE
  8
LAYER-1
 66
  1
 70
  0
 62
  7
 10
45.467637
 20
17.474807
 30
0.000000
  0
VERTEX
  8
LAYER-1
 10
45.467637
 20
17.474807
 30
0.000000
  0
VERTEX
  8
LAYER-1
 10
45.461092
 20
17.463163
 30
0.000000
  0
SEQEND
  8
LAYER-1
  0
ARC
  8
LAYER-1
 62
  7
 10
45.750756
 20
16.381503
 30
0.000000
 40
0.911270
 50
88.563934
 51
95.297668
  0
ARC
  8
LAYER-1
 62
  7
 10
45.776165
 20
16.638714
 30
0.000000
 40
0.633157
 50
86.485565
 51
114.496460
  0
ARC
  8
LAYER-1
 62
  7
 10
45.761507
 20
16.679115
 30
0.000000
 40
0.558833
 50
87.033569
 51
112.064056
  0
POLYLINE
  8
LAYER-1
 66
  1
 70
  0
 62
  7
 10
45.790424
 20
17.237201
 30
0.000000
  0
VERTEX
  8
LAYER-1
 10
45.790424
 20
17.237201
 30
0.000000
  0
VERTEX
  8
LAYER-1
 10
45.814979
 20
17.270682
 30
0.000000
  0
SEQEND
  8
LAYER-1
  0
POLYLINE
  8
LAYER-1
 66
  1
 70
  0
 62
  7
 10
45.814979
 20
17.270682
 30
0.000000
  0
VERTEX
  8
LAYER-1
 10
45.814979
 20
17.270682
 30
0.000000
  0
VERTEX
  8
LAYER-1
 10
45.772564
 20
17.290767
 30
0.000000
  0
SEQEND
  8
LAYER-1
  0
POLYLINE
  8
LAYER-1
 66
  1
 70
  0
 62
  7
 10
45.528400
 20
17.237201
 30
0.000000
  0
VERTEX
  8
LAYER-1
 10
45.528400
 20
17.237201
 30
0.000000
  0
VERTEX
  8
LAYER-1
 10
45.513634
 20
17.214872
 30
0.000000
  0
SEQEND
  8
LAYER-1
  0
POLYLINE
  8
LAYER-1
 66
  1
 70
  0
 62
  7
 10
45.513634
 20
17.214872
 30
0.000000
  0
VERTEX
  8
LAYER-1
 10
45.513634
 20
17.214872
 30
0.000000
  0
VERTEX
  8
LAYER-1
 10
45.551584
 20
17.197017
 30
0.000000
  0
SEQEND
  8
LAYER-1
  0
POLYLINE
  8
LAYER-1
 66
  1
 70
  0
 62
  7
 10
45.773592
 20
17.292485
 30
0.000000
  0
VERTEX
  8
LAYER-1
 10
45.773592
 20
17.292485
 30
0.000000
  0
VERTEX
  8
LAYER-1
 10
45.780809
 20
17.302101
 30
0.000000
  0
SEQEND
  8
LAYER-1
  0
POLYLINE
  8
LAYER-1
 66
  1
 70
  0
 62
  7
 10
45.790424
 20
17.237201
 30
0.000000
  0
VERTEX
  8
LAYER-1
 10
45.790424
 20
17.237201
 30
0.000000
  0
VERTEX
  8
LAYER-1
 10
45.802439
 20
17.203533
 30
0.000000
  0
SEQEND
  8
LAYER-1
  0
POLYLINE
  8
LAYER-1
 66
  1
 70
  0
 62
  7
 10
45.802439
 20
17.203533
 30
0.000000
  0
VERTEX
  8
LAYER-1
 10
45.802439
 20
17.203533
 30
0.000000
  0
VERTEX
  8
LAYER-1
 10
45.576482
 20
17.153062
 30
0.000000
  0
SEQEND
  8
LAYER-1
  0
POLYLINE
  8
LAYER-1
 66
  1
 70
  0
 62
  7
 10
45.576482
 20
17.153062
 30
0.000000
  0
VERTEX
  8
LAYER-1
 10
45.576482
 20
17.153062
 30
0.000000
  0
VERTEX
  8
LAYER-1
 10
45.551584
 20
17.197017
 30
0.000000
  0
SEQEND
  8
LAYER-1
  0
POLYLINE
  8
LAYER-1
 66
  1
 70
  1
 62
255
  0
VERTEX
  8
LAYER-1
 10
49.770024
 20
26.826932
 30
0.000000
  0
VERTEX
  8
LAYER-1
 10
52.770024
 20
26.826932
 30
0.000000
  0
VERTEX
  8
LAYER-1
 10
52.770024
 20
0.076932
 30
0.000000
  0
VERTEX
  8
LAYER-1
 10
49.770024
 20
0.076932
 30
0.000000
  0
SEQEND
  8
LAYER-1
  0
POLYLINE
  8
LAYER-1
 66
  1
 70
  0
 62
  7
 10
52.770024
 20
26.826932
 30
0.000000
  0
VERTEX
  8
LAYER-1
 10
52.770024
 20
26.826932
 30
0.000000
  0
VERTEX
  8
LAYER-1
 10
52.770024
 20
0.076932
 30
0.000000
  0
SEQEND
  8
LAYER-1
  0
POLYLINE
  8
LAYER-1
 66
  1
 70
  0
 62
  7
 10
49.770024
 20
26.826932
 30
0.000000
  0
VERTEX
  8
LAYER-1
 10
49.770024
 20
26.826932
 30
0.000000
  0
VERTEX
  8
LAYER-1
 10
49.770024
 20
0.076932
 30
0.000000
  0
SEQEND
  8
LAYER-1
  0
POLYLINE
  8
LAYER-1
 66
  1
 70
  0
 62
  7
 10
44.142836
 20
5.663875
 30
0.000000
  0
VERTEX
  8
LAYER-1
 10
44.142836
 20
5.663875
 30
0.000000
  0
VERTEX
  8
LAYER-1
 10
44.142874
 20
5.663875
 30
0.000000
  0
SEQEND
  8
LAYER-1
  0
POLYLINE
  8
LAYER-1
 66
  1
 70
  0
 62
  7
 10
44.472872
 20
5.333872
 30
0.000000
  0
VERTEX
  8
LAYER-1
 10
44.472872
 20
5.333872
 30
0.000000
  0
VERTEX
  8
LAYER-1
 10
44.472872
 20
4.433894
 30
0.000000
  0
SEQEND
  8
LAYER-1
  0
POLYLINE
  8
LAYER-1
 66
  1
 70
  0
 62
  7
 10
44.142874
 20
4.103891
 30
0.000000
  0
VERTEX
  8
LAYER-1
 10
44.142874
 20
4.103891
 30
0.000000
  0
VERTEX
  8
LAYER-1
 10
44.142836
 20
4.103891
 30
0.000000
  0
SEQEND
  8
LAYER-1
  0
POLYLINE
  8
LAYER-1
 66
  1
 70
  0
 62
  7
 10
43.812838
 20
4.433894
 30
0.000000
  0
VERTEX
  8
LAYER-1
 10
43.812838
 20
4.433894
 30
0.000000
  0
VERTEX
  8
LAYER-1
 10
43.812838
 20
5.333872
 30
0.000000
  0
SEQEND
  8
LAYER-1
  0
ARC
  8
LAYER-1
 62
  7
 10
44.142836
 20
5.333872
 30
0.000000
 40
0.329999
 50
90.000000
 51
180.000000
  0
ARC
  8
LAYER-1
 62
  7
 10
44.142836
 20
4.433894
 30
0.000000
 40
0.329999
 50
180.000000
 51
270.000000
  0
ARC
  8
LAYER-1
 62
  7
 10
44.142874
 20
4.433894
 30
0.000000
 40
0.329999
 50
270.000000
 51
0.000000
  0
ARC
  8
LAYER-1
 62
  7
 10
44.142874
 20
5.333872
 30
0.000000
 40
0.329999
 50
0.000000
 51
90.000000
  0
POLYLINE
  8
LAYER-1
 66
  1
 70
  0
 62
  7
 10
44.142836
 20
5.453857
 30
0.000000
  0
VERTEX
  8
LAYER-1
 10
44.142836
 20
5.453857
 30
0.000000
  0
VERTEX
  8
LAYER-1
 10
44.142874
 20
5.453857
 30
0.000000
  0
SEQEND
  8
LAYER-1
  0
POLYLINE
  8
LAYER-1
 66
  1
 70
  0
 62
  7
 10
44.337872
 20
5.258859
 30
0.000000
  0
VERTEX
  8
LAYER-1
 10
44.337872
 20
5.258859
 30
0.000000
  0
VERTEX
  8
LAYER-1
 10
44.337872
 20
4.463877
 30
0.000000
  0
SEQEND
  8
LAYER-1
  0
POLYLINE
  8
LAYER-1
 66
  1
 70
  0
 62
  7
 10
44.142874
 20
4.268879
 30
0.000000
  0
VERTEX
  8
LAYER-1
 10
44.142874
 20
4.268879
 30
0.000000
  0
VERTEX
  8
LAYER-1
 10
44.142836
 20
4.268879
 30
0.000000
  0
SEQEND
  8
LAYER-1
  0
POLYLINE
  8
LAYER-1
 66
  1
 70
  0
 62
  7
 10
43.947834
 20
4.463877
 30
0.000000
  0
VERTEX
  8
LAYER-1
 10
43.947834
 20
4.463877
 30
0.000000
  0
VERTEX
  8
LAYER-1
 10
43.947834
 20
5.258859
 30
0.000000
  0
SEQEND
  8
LAYER-1
  0
ARC
  8
LAYER-1
 62
  7
 10
44.142836
 20
5.258859
 30
0.000000
 40
0.195000
 50
90.000000
 51
180.000000
  0
ARC
  8
LAYER-1
 62
  7
 10
44.142836
 20
4.463877
 30
0.000000
 40
0.195000
 50
180.000000
 51
270.000000
  0
ARC
  8
LAYER-1
 62
  7
 10
44.142874
 20
4.463877
 30
0.000000
 40
0.195000
 50
270.000000
 51
0.000000
  0
ARC
  8
LAYER-1
 62
  7
 10
44.142874
 20
5.258859
 30
0.000000
 40
0.195000
 50
0.000000
 51
90.000000
  0
POLYLINE
  8
LAYER-1
 66
  1
 70
  0
 62
  7
 10
44.142836
 20
7.848774
 30
0.000000
  0
VERTEX
  8
LAYER-1
 10
44.142836
 20
7.848774
 30
0.000000
  0
VERTEX
  8
LAYER-1
 10
44.142874
 20
7.848774
 30
0.000000
  0
SEQEND
  8
LAYER-1
  0
POLYLINE
  8
LAYER-1
 66
  1
 70
  0
 62
  7
 10
44.472872
 20
7.518771
 30
0.000000
  0
VERTEX
  8
LAYER-1
 10
44.472872
 20
7.518771
 30
0.000000
  0
VERTEX
  8
LAYER-1
 10
44.472872
 20
6.618798
 30
0.000000
  0
SEQEND
  8
LAYER-1
  0
POLYLINE
  8
LAYER-1
 66
  1
 70
  0
 62
  7
 10
44.142874
 20
6.288795
 30
0.000000
  0
VERTEX
  8
LAYER-1
 10
44.142874
 20
6.288795
 30
0.000000
  0
VERTEX
  8
LAYER-1
 10
44.142836
 20
6.288795
 30
0.000000
  0
SEQEND
  8
LAYER-1
  0
POLYLINE
  8
LAYER-1
 66
  1
 70
  0
 62
  7
 10
43.812838
 20
6.618798
 30
0.000000
  0
VERTEX
  8
LAYER-1
 10
43.812838
 20
6.618798
 30
0.000000
  0
VERTEX
  8
LAYER-1
 10
43.812838
 20
7.518771
 30
0.000000
  0
SEQEND
  8
LAYER-1
  0
ARC
  8
LAYER-1
 62
  7
 10
44.142836
 20
7.518771
 30
0.000000
 40
0.329999
 50
90.000000
 51
180.000000
  0
ARC
  8
LAYER-1
 62
  7
 10
44.142836
 20
6.618798
 30
0.000000
 40
0.329999
 50
180.000000
 51
270.000000
  0
ARC
  8
LAYER-1
 62
  7
 10
44.142874
 20
6.618798
 30
0.000000
 40
0.329999
 50
270.000000
 51
0.000000
  0
ARC
  8
LAYER-1
 62
  7
 10
44.142874
 20
7.518771
 30
0.000000
 40
0.329999
 50
0.000000
 51
90.000000
  0
POLYLINE
  8
LAYER-1
 66
  1
 70
  0
 62
  7
 10
44.142836
 20
7.638803
 30
0.000000
  0
VERTEX
  8
LAYER-1
 10
44.142836
 20
7.638803
 30
0.000000
  0
VERTEX
  8
LAYER-1
 10
44.142874
 20
7.638803
 30
0.000000
  0
SEQEND
  8
LAYER-1
  0
POLYLINE
  8
LAYER-1
 66
  1
 70
  0
 62
  7
 10
44.337872
 20
7.443810
 30
0.000000
  0
VERTEX
  8
LAYER-1
 10
44.337872
 20
7.443810
 30
0.000000
  0
VERTEX
  8
LAYER-1
 10
44.337872
 20
6.648780
 30
0.000000
  0
SEQEND
  8
LAYER-1
  0
POLYLINE
  8
LAYER-1
 66
  1
 70
  0
 62
  7
 10
44.142874
 20
6.453782
 30
0.000000
  0
VERTEX
  8
LAYER-1
 10
44.142874
 20
6.453782
 30
0.000000
  0
VERTEX
  8
LAYER-1
 10
44.142836
 20
6.453782
 30
0.000000
  0
SEQEND
  8
LAYER-1
  0
POLYLINE
  8
LAYER-1
 66
  1
 70
  0
 62
  7
 10
43.947834
 20
6.648780
 30
0.000000
  0
VERTEX
  8
LAYER-1
 10
43.947834
 20
6.648780
 30
0.000000
  0
VERTEX
  8
LAYER-1
 10
43.947834
 20
7.443810
 30
0.000000
  0
SEQEND
  8
LAYER-1
  0
ARC
  8
LAYER-1
 62
  7
 10
44.142836
 20
7.443810
 30
0.000000
 40
0.195000
 50
90.000000
 51
180.000000
  0
ARC
  8
LAYER-1
 62
  7
 10
44.142836
 20
6.648780
 30
0.000000
 40
0.195000
 50
180.000000
 51
270.000000
  0
ARC
  8
LAYER-1
 62
  7
 10
44.142874
 20
6.648780
 30
0.000000
 40
0.195000
 50
270.000000
 51
0.000000
  0
ARC
  8
LAYER-1
 62
  7
 10
44.142874
 20
7.443810
 30
0.000000
 40
0.195000
 50
0.000000
 51
90.000000
  0
POLYLINE
  8
LAYER-1
 66
  1
 70
  1
 62
  7
  0
VERTEX
  8
LAYER-1
 10
44.067834
 20
6.543795
 30
0.000000
  0
VERTEX
  8
LAYER-1
 10
44.217872
 20
6.543795
 30
0.000000
  0
VERTEX
  8
LAYER-1
 10
44.217872
 20
5.253808
 30
0.000000
  0
VERTEX
  8
LAYER-1
 10
44.067834
 20
5.253808
 30
0.000000
  0
SEQEND
  8
LAYER-1
  0
POLYLINE
  8
LAYER-1
 66
  1
 70
  0
 62
  7
 10
44.123657
 20
9.965759
 30
0.000000
  0
VERTEX
  8
LAYER-1
 10
44.123657
 20
9.965759
 30
0.000000
  0
VERTEX
  8
LAYER-1
 10
44.162048
 20
9.965759
 30
0.000000
  0
SEQEND
  8
LAYER-1
  0
POLYLINE
  8
LAYER-1
 66
  1
 70
  0
 62
  7
 10
44.472872
 20
9.654940
 30
0.000000
  0
VERTEX
  8
LAYER-1
 10
44.472872
 20
9.654940
 30
0.000000
  0
VERTEX
  8
LAYER-1
 10
44.472872
 20
8.892667
 30
0.000000
  0
SEQEND
  8
LAYER-1
  0
POLYLINE
  8
LAYER-1
 66
  1
 70
  0
 62
  7
 10
44.162048
 20
8.581843
 30
0.000000
  0
VERTEX
  8
LAYER-1
 10
44.162048
 20
8.581843
 30
0.000000
  0
VERTEX
  8
LAYER-1
 10
44.123657
 20
8.581843
 30
0.000000
  0
SEQEND
  8
LAYER-1
  0
POLYLINE
  8
LAYER-1
 66
  1
 70
  0
 62
  7
 10
43.812838
 20
8.892667
 30
0.000000
  0
VERTEX
  8
LAYER-1
 10
43.812838
 20
8.892667
 30
0.000000
  0
VERTEX
  8
LAYER-1
 10
43.812838
 20
9.654940
 30
0.000000
  0
SEQEND
  8
LAYER-1
  0
ARC
  8
LAYER-1
 62
  7
 10
44.123657
 20
9.654940
 30
0.000000
 40
0.310821
 50
90.000000
 51
180.000000
  0
ARC
  8
LAYER-1
 62
  7
 10
44.123657
 20
8.892667
 30
0.000000
 40
0.310821
 50
180.000000
 51
270.000000
  0
ARC
  8
LAYER-1
 62
  7
 10
44.162048
 20
8.892667
 30
0.000000
 40
0.310821
 50
270.000000
 51
0.000000
  0
ARC
  8
LAYER-1
 62
  7
 10
44.162048
 20
9.654940
 30
0.000000
 40
0.310821
 50
0.000000
 51
90.000000
  0
POLYLINE
  8
LAYER-1
 66
  1
 70
  0
 62
  7
 10
44.131503
 20
9.779461
 30
0.000000
  0
VERTEX
  8
LAYER-1
 10
44.131503
 20
9.779461
 30
0.000000
  0
VERTEX
  8
LAYER-1
 10
44.154208
 20
9.779461
 30
0.000000
  0
SEQEND
  8
LAYER-1
  0
POLYLINE
  8
LAYER-1
 66
  1
 70
  0
 62
  7
 10
44.337872
 20
9.595792
 30
0.000000
  0
VERTEX
  8
LAYER-1
 10
44.337872
 20
9.595792
 30
0.000000
  0
VERTEX
  8
LAYER-1
 10
44.337872
 20
8.911861
 30
0.000000
  0
SEQEND
  8
LAYER-1
  0
POLYLINE
  8
LAYER-1
 66
  1
 70
  0
 62
  7
 10
44.154208
 20
8.728187
 30
0.000000
  0
VERTEX
  8
LAYER-1
 10
44.154208
 20
8.728187
 30
0.000000
  0
VERTEX
  8
LAYER-1
 10
44.131503
 20
8.728187
 30
0.000000
  0
SEQEND
  8
LAYER-1
  0
POLYLINE
  8
LAYER-1
 66
  1
 70
  0
 62
  7
 10
43.947834
 20
8.911861
 30
0.000000
  0
VERTEX
  8
LAYER-1
 10
43.947834
 20
8.911861
 30
0.000000
  0
VERTEX
  8
LAYER-1
 10
43.947834
 20
9.595792
 30
0.000000
  0
SEQEND
  8
LAYER-1
  0
ARC
  8
LAYER-1
 62
  7
 10
44.131503
 20
9.595792
 30
0.000000
 40
0.183667
 50
90.000000
 51
180.000000
  0
ARC
  8
LAYER-1
 62
  7
 10
44.131503
 20
8.911861
 30
0.000000
 40
0.183667
 50
180.000000
 51
270.000000
  0
ARC
  8
LAYER-1
 62
  7
 10
44.154208
 20
8.911861
 30
0.000000
 40
0.183667
 50
270.000000
 51
0.000000
  0
ARC
  8
LAYER-1
 62
  7
 10
44.154208
 20
9.595792
 30
0.000000
 40
0.183667
 50
0.000000
 51
90.000000
  0
POLYLINE
  8
LAYER-1
 66
  1
 70
  1
 62
  7
  0
VERTEX
  8
LAYER-1
 10
44.067834
 20
8.838778
 30
0.000000
  0
VERTEX
  8
LAYER-1
 10
44.217872
 20
8.838778
 30
0.000000
  0
VERTEX
  8
LAYER-1
 10
44.217872
 20
7.548791
 30
0.000000
  0
VERTEX
  8
LAYER-1
 10
44.067834
 20
7.548791
 30
0.000000
  0
SEQEND
  8
LAYER-1
  0
POLYLINE
  8
LAYER-1
 66
  1
 70
  1
 62
  7
  0
VERTEX
  8
LAYER-1
 10
44.067834
 20
10.178866
 30
0.000000
  0
VERTEX
  8
LAYER-1
 10
44.217872
 20
10.178866
 30
0.000000
  0
VERTEX
  8
LAYER-1
 10
44.217872
 20
9.608849
 30
0.000000
  0
VERTEX
  8
LAYER-1
 10
44.067834
 20
9.608849
 30
0.000000
  0
SEQEND
  8
LAYER-1
  0
POLYLINE
  8
LAYER-1
 66
  1
 70
  0
 62
  7
 10
44.123657
 20
3.485755
 30
0.000000
  0
VERTEX
  8
LAYER-1
 10
44.123657
 20
3.485755
 30
0.000000
  0
VERTEX
  8
LAYER-1
 10
44.162048
 20
3.485755
 30
0.000000
  0
SEQEND
  8
LAYER-1
  0
POLYLINE
  8
LAYER-1
 66
  1
 70
  0
 62
  7
 10
44.472872
 20
3.174927
 30
0.000000
  0
VERTEX
  8
LAYER-1
 10
44.472872
 20
3.174927
 30
0.000000
  0
VERTEX
  8
LAYER-1
 10
44.472872
 20
2.412654
 30
0.000000
  0
SEQEND
  8
LAYER-1
  0
POLYLINE
  8
LAYER-1
 66
  1
 70
  0
 62
  7
 10
44.162048
 20
2.101835
 30
0.000000
  0
VERTEX
  8
LAYER-1
 10
44.162048
 20
2.101835
 30
0.000000
  0
VERTEX
  8
LAYER-1
 10
44.123657
 20
2.101835
 30
0.000000
  0
SEQEND
  8
LAYER-1
  0
POLYLINE
  8
LAYER-1
 66
  1
 70
  0
 62
  7
 10
43.812838
 20
2.412654
 30
0.000000
  0
VERTEX
  8
LAYER-1
 10
43.812838
 20
2.412654
 30
0.000000
  0
VERTEX
  8
LAYER-1
 10
43.812838
 20
3.174927
 30
0.000000
  0
SEQEND
  8
LAYER-1
  0
ARC
  8
LAYER-1
 62
  7
 10
44.123657
 20
3.174927
 30
0.000000
 40
0.310821
 50
90.000000
 51
180.000000
  0
ARC
  8
LAYER-1
 62
  7
 10
44.123657
 20
2.412654
 30
0.000000
 40
0.310821
 50
180.000000
 51
270.000000
  0
ARC
  8
LAYER-1
 62
  7
 10
44.162048
 20
2.412654
 30
0.000000
 40
0.310821
 50
270.000000
 51
0.000000
  0
ARC
  8
LAYER-1
 62
  7
 10
44.162048
 20
3.174927
 30
0.000000
 40
0.310821
 50
0.000000
 51
90.000000
  0
POLYLINE
  8
LAYER-1
 66
  1
 70
  0
 62
  7
 10
44.131503
 20
3.299457
 30
0.000000
  0
VERTEX
  8
LAYER-1
 10
44.131503
 20
3.299457
 30
0.000000
  0
VERTEX
  8
LAYER-1
 10
44.154208
 20
3.299457
 30
0.000000
  0
SEQEND
  8
LAYER-1
  0
POLYLINE
  8
LAYER-1
 66
  1
 70
  0
 62
  7
 10
44.337872
 20
3.115779
 30
0.000000
  0
VERTEX
  8
LAYER-1
 10
44.337872
 20
3.115779
 30
0.000000
  0
VERTEX
  8
LAYER-1
 10
44.337872
 20
2.431847
 30
0.000000
  0
SEQEND
  8
LAYER-1
  0
POLYLINE
  8
LAYER-1
 66
  1
 70
  0
 62
  7
 10
44.154208
 20
2.248178
 30
0.000000
  0
VERTEX
  8
LAYER-1
 10
44.154208
 20
2.248178
 30
0.000000
  0
VERTEX
  8
LAYER-1
 10
44.131503
 20
2.248178
 30
0.000000
  0
SEQEND
  8
LAYER-1
  0
POLYLINE
  8
LAYER-1
 66
  1
 70
  0
 62
  7
 10
43.947834
 20
2.431847
 30
0.000000
  0
VERTEX
  8
LAYER-1
 10
43.947834
 20
2.431847
 30
0.000000
  0
VERTEX
  8
LAYER-1
 10
43.947834
 20
3.115779
 30
0.000000
  0
SEQEND
  8
LAYER-1
  0
ARC
  8
LAYER-1
 62
  7
 10
44.131503
 20
3.115779
 30
0.000000
 40
0.183667
 50
90.000000
 51
180.000000
  0
ARC
  8
LAYER-1
 62
  7
 10
44.131503
 20
2.431847
 30
0.000000
 40
0.183667
 50
180.000000
 51
270.000000
  0
ARC
  8
LAYER-1
 62
  7
 10
44.154208
 20
2.431847
 30
0.000000
 40
0.183667
 50
270.000000
 51
0.000000
  0
ARC
  8
LAYER-1
 62
  7
 10
44.154208
 20
3.115779
 30
0.000000
 40
0.183667
 50
0.000000
 51
90.000000
  0
POLYLINE
  8
LAYER-1
 66
  1
 70
  1
 62
  7
  0
VERTEX
  8
LAYER-1
 10
44.217872
 20
3.093778
 30
0.000000
  0
VERTEX
  8
LAYER-1
 10
44.067834
 20
3.093778
 30
0.000000
  0
VERTEX
  8
LAYER-1
 10
44.067834
 20
4.383808
 30
0.000000
  0
VERTEX
  8
LAYER-1
 10
44.217872
 20
4.383808
 30
0.000000
  0
SEQEND
  8
LAYER-1
  0
POLYLINE
  8
LAYER-1
 66
  1
 70
  0
 62
  7
 10
44.123657
 20
1.648250
 30
0.000000
  0
VERTEX
  8
LAYER-1
 10
44.123657
 20
1.648250
 30
0.000000
  0
VERTEX
  8
LAYER-1
 10
44.162048
 20
1.648250
 30
0.000000
  0
SEQEND
  8
LAYER-1
  0
POLYLINE
  8
LAYER-1
 66
  1
 70
  0
 62
  7
 10
44.472872
 20
1.337421
 30
0.000000
  0
VERTEX
  8
LAYER-1
 10
44.472872
 20
1.337421
 30
0.000000
  0
VERTEX
  8
LAYER-1
 10
44.472872
 20
0.575148
 30
0.000000
  0
SEQEND
  8
LAYER-1
  0
POLYLINE
  8
LAYER-1
 66
  1
 70
  0
 62
  7
 10
44.162048
 20
0.264329
 30
0.000000
  0
VERTEX
  8
LAYER-1
 10
44.162048
 20
0.264329
 30
0.000000
  0
VERTEX
  8
LAYER-1
 10
44.123657
 20
0.264329
 30
0.000000
  0
SEQEND
  8
LAYER-1
  0
POLYLINE
  8
LAYER-1
 66
  1
 70
  0
 62
  7
 10
43.812838
 20
0.575148
 30
0.000000
  0
VERTEX
  8
LAYER-1
 10
43.812838
 20
0.575148
 30
0.000000
  0
VERTEX
  8
LAYER-1
 10
43.812838
 20
1.337421
 30
0.000000
  0
SEQEND
  8
LAYER-1
  0
ARC
  8
LAYER-1
 62
  7
 10
44.123657
 20
1.337421
 30
0.000000
 40
0.310821
 50
90.000000
 51
180.000000
  0
ARC
  8
LAYER-1
 62
  7
 10
44.123657
 20
0.575148
 30
0.000000
 40
0.310821
 50
180.000000
 51
270.000000
  0
ARC
  8
LAYER-1
 62
  7
 10
44.162048
 20
0.575148
 30
0.000000
 40
0.310821
 50
270.000000
 51
0.000000
  0
ARC
  8
LAYER-1
 62
  7
 10
44.162048
 20
1.337421
 30
0.000000
 40
0.310821
 50
0.000000
 51
90.000000
  0
POLYLINE
  8
LAYER-1
 66
  1
 70
  0
 62
  7
 10
44.131503
 20
1.461952
 30
0.000000
  0
VERTEX
  8
LAYER-1
 10
44.131503
 20
1.461952
 30
0.000000
  0
VERTEX
  8
LAYER-1
 10
44.154208
 20
1.461952
 30
0.000000
  0
SEQEND
  8
LAYER-1
  0
POLYLINE
  8
LAYER-1
 66
  1
 70
  0
 62
  7
 10
44.337872
 20
1.278273
 30
0.000000
  0
VERTEX
  8
LAYER-1
 10
44.337872
 20
1.278273
 30
0.000000
  0
VERTEX
  8
LAYER-1
 10
44.337872
 20
0.594342
 30
0.000000
  0
SEQEND
  8
LAYER-1
  0
POLYLINE
  8
LAYER-1
 66
  1
 70
  0
 62
  7
 10
44.154208
 20
0.410673
 30
0.000000
  0
VERTEX
  8
LAYER-1
 10
44.154208
 20
0.410673
 30
0.000000
  0
VERTEX
  8
LAYER-1
 10
44.131503
 20
0.410673
 30
0.000000
  0
SEQEND
  8
LAYER-1
  0
POLYLINE
  8
LAYER-1
 66
  1
 70
  0
 62
  7
 10
43.947834
 20
0.594342
 30
0.000000
  0
VERTEX
  8
LAYER-1
 10
43.947834
 20
0.594342
 30
0.000000
  0
VERTEX
  8
LAYER-1
 10
43.947834
 20
1.278273
 30
0.000000
  0
SEQEND
  8
LAYER-1
  0
ARC
  8
LAYER-1
 62
  7
 10
44.131503
 20
1.278273
 30
0.000000
 40
0.183667
 50
90.000000
 51
180.000000
  0
ARC
  8
LAYER-1
 62
  7
 10
44.131503
 20
0.594342
 30
0.000000
 40
0.183667
 50
180.000000
 51
270.000000
  0
ARC
  8
LAYER-1
 62
  7
 10
44.154208
 20
0.594342
 30
0.000000
 40
0.183667
 50
270.000000
 51
0.000000
  0
ARC
  8
LAYER-1
 62
  7
 10
44.154208
 20
1.278273
 30
0.000000
 40
0.183667
 50
0.000000
 51
90.000000
  0
POLYLINE
  8
LAYER-1
 66
  1
 70
  1
 62
  7
  0
VERTEX
  8
LAYER-1
 10
44.217872
 20
1.256273
 30
0.000000
  0
VERTEX
  8
LAYER-1
 10
44.067834
 20
1.256273
 30
0.000000
  0
VERTEX
  8
LAYER-1
 10
44.067834
 20
2.546302
 30
0.000000
  0
VERTEX
  8
LAYER-1
 10
44.217872
 20
2.546302
 30
0.000000
  0
SEQEND
  8
LAYER-1
  0
POLYLINE
  8
LAYER-1
 66
  1
 70
  0
 62
  7
 10
47.373606
 20
5.663875
 30
0.000000
  0
VERTEX
  8
LAYER-1
 10
47.373606
 20
5.663875
 30
0.000000
  0
VERTEX
  8
LAYER-1
 10
47.373643
 20
5.663875
 30
0.000000
  0
SEQEND
  8
LAYER-1
  0
POLYLINE
  8
LAYER-1
 66
  1
 70
  0
 62
  7
 10
47.703641
 20
5.333872
 30
0.000000
  0
VERTEX
  8
LAYER-1
 10
47.703641
 20
5.333872
 30
0.000000
  0
VERTEX
  8
LAYER-1
 10
47.703641
 20
4.433894
 30
0.000000
  0
SEQEND
  8
LAYER-1
  0
POLYLINE
  8
LAYER-1
 66
  1
 70
  0
 62
  7
 10
47.373643
 20
4.103891
 30
0.000000
  0
VERTEX
  8
LAYER-1
 10
47.373643
 20
4.103891
 30
0.000000
  0
VERTEX
  8
LAYER-1
 10
47.373606
 20
4.103891
 30
0.000000
  0
SEQEND
  8
LAYER-1
  0
POLYLINE
  8
LAYER-1
 66
  1
 70
  0
 62
  7
 10
47.043607
 20
4.433894
 30
0.000000
  0
VERTEX
  8
LAYER-1
 10
47.043607
 20
4.433894
 30
0.000000
  0
VERTEX
  8
LAYER-1
 10
47.043607
 20
5.333872
 30
0.000000
  0
SEQEND
  8
LAYER-1
  0
ARC
  8
LAYER-1
 62
  7
 10
47.373606
 20
5.333872
 30
0.000000
 40
0.329999
 50
90.000000
 51
180.000000
  0
ARC
  8
LAYER-1
 62
  7
 10
47.373606
 20
4.433894
 30
0.000000
 40
0.329999
 50
180.000000
 51
270.000000
  0
ARC
  8
LAYER-1
 62
  7
 10
47.373643
 20
4.433894
 30
0.000000
 40
0.329999
 50
270.000000
 51
0.000000
  0
ARC
  8
LAYER-1
 62
  7
 10
47.373643
 20
5.333872
 30
0.000000
 40
0.329999
 50
0.000000
 51
90.000000
  0
POLYLINE
  8
LAYER-1
 66
  1
 70
  0
 62
  7
 10
47.373606
 20
5.453857
 30
0.000000
  0
VERTEX
  8
LAYER-1
 10
47.373606
 20
5.453857
 30
0.000000
  0
VERTEX
  8
LAYER-1
 10
47.373643
 20
5.453857
 30
0.000000
  0
SEQEND
  8
LAYER-1
  0
POLYLINE
  8
LAYER-1
 66
  1
 70
  0
 62
  7
 10
47.568641
 20
5.258859
 30
0.000000
  0
VERTEX
  8
LAYER-1
 10
47.568641
 20
5.258859
 30
0.000000
  0
VERTEX
  8
LAYER-1
 10
47.568641
 20
4.463877
 30
0.000000
  0
SEQEND
  8
LAYER-1
  0
POLYLINE
  8
LAYER-1
 66
  1
 70
  0
 62
  7
 10
47.373643
 20
4.268879
 30
0.000000
  0
VERTEX
  8
LAYER-1
 10
47.373643
 20
4.268879
 30
0.000000
  0
VERTEX
  8
LAYER-1
 10
47.373606
 20
4.268879
 30
0.000000
  0
SEQEND
  8
LAYER-1
  0
POLYLINE
  8
LAYER-1
 66
  1
 70
  0
 62
  7
 10
47.178603
 20
4.463877
 30
0.000000
  0
VERTEX
  8
LAYER-1
 10
47.178603
 20
4.463877
 30
0.000000
  0
VERTEX
  8
LAYER-1
 10
47.178603
 20
5.258859
 30
0.000000
  0
SEQEND
  8
LAYER-1
  0
ARC
  8
LAYER-1
 62
  7
 10
47.373606
 20
5.258859
 30
0.000000
 40
0.195000
 50
90.000000
 51
180.000000
  0
ARC
  8
LAYER-1
 62
  7
 10
47.373606
 20
4.463877
 30
0.000000
 40
0.195000
 50
180.000000
 51
270.000000
  0
ARC
  8
LAYER-1
 62
  7
 10
47.373643
 20
4.463877
 30
0.000000
 40
0.195000
 50
270.000000
 51
0.000000
  0
ARC
  8
LAYER-1
 62
  7
 10
47.373643
 20
5.258859
 30
0.000000
 40
0.195000
 50
0.000000
 51
90.000000
  0
POLYLINE
  8
LAYER-1
 66
  1
 70
  0
 62
  7
 10
47.373606
 20
7.848774
 30
0.000000
  0
VERTEX
  8
LAYER-1
 10
47.373606
 20
7.848774
 30
0.000000
  0
VERTEX
  8
LAYER-1
 10
47.373643
 20
7.848774
 30
0.000000
  0
SEQEND
  8
LAYER-1
  0
POLYLINE
  8
LAYER-1
 66
  1
 70
  0
 62
  7
 10
47.703641
 20
7.518771
 30
0.000000
  0
VERTEX
  8
LAYER-1
 10
47.703641
 20
7.518771
 30
0.000000
  0
VERTEX
  8
LAYER-1
 10
47.703641
 20
6.618798
 30
0.000000
  0
SEQEND
  8
LAYER-1
  0
POLYLINE
  8
LAYER-1
 66
  1
 70
  0
 62
  7
 10
47.373643
 20
6.288795
 30
0.000000
  0
VERTEX
  8
LAYER-1
 10
47.373643
 20
6.288795
 30
0.000000
  0
VERTEX
  8
LAYER-1
 10
47.373606
 20
6.288795
 30
0.000000
  0
SEQEND
  8
LAYER-1
  0
POLYLINE
  8
LAYER-1
 66
  1
 70
  0
 62
  7
 10
47.043607
 20
6.618798
 30
0.000000
  0
VERTEX
  8
LAYER-1
 10
47.043607
 20
6.618798
 30
0.000000
  0
VERTEX
  8
LAYER-1
 10
47.043607
 20
7.518771
 30
0.000000
  0
SEQEND
  8
LAYER-1
  0
ARC
  8
LAYER-1
 62
  7
 10
47.373606
 20
7.518771
 30
0.000000
 40
0.329999
 50
90.000000
 51
180.000000
  0
ARC
  8
LAYER-1
 62
  7
 10
47.373606
 20
6.618798
 30
0.000000
 40
0.329999
 50
180.000000
 51
270.000000
  0
ARC
  8
LAYER-1
 62
  7
 10
47.373643
 20
6.618798
 30
0.000000
 40
0.329999
 50
270.000000
 51
0.000000
  0
ARC
  8
LAYER-1
 62
  7
 10
47.373643
 20
7.518771
 30
0.000000
 40
0.329999
 50
0.000000
 51
90.000000
  0
POLYLINE
  8
LAYER-1
 66
  1
 70
  0
 62
  7
 10
47.373606
 20
7.638803
 30
0.000000
  0
VERTEX
  8
LAYER-1
 10
47.373606
 20
7.638803
 30
0.000000
  0
VERTEX
  8
LAYER-1
 10
47.373643
 20
7.638803
 30
0.000000
  0
SEQEND
  8
LAYER-1
  0
POLYLINE
  8
LAYER-1
 66
  1
 70
  0
 62
  7
 10
47.568641
 20
7.443810
 30
0.000000
  0
VERTEX
  8
LAYER-1
 10
47.568641
 20
7.443810
 30
0.000000
  0
VERTEX
  8
LAYER-1
 10
47.568641
 20
6.648780
 30
0.000000
  0
SEQEND
  8
LAYER-1
  0
POLYLINE
  8
LAYER-1
 66
  1
 70
  0
 62
  7
 10
47.373643
 20
6.453782
 30
0.000000
  0
VERTEX
  8
LAYER-1
 10
47.373643
 20
6.453782
 30
0.000000
  0
VERTEX
  8
LAYER-1
 10
47.373606
 20
6.453782
 30
0.000000
  0
SEQEND
  8
LAYER-1
  0
POLYLINE
  8
LAYER-1
 66
  1
 70
  0
 62
  7
 10
47.178603
 20
6.648780
 30
0.000000
  0
VERTEX
  8
LAYER-1
 10
47.178603
 20
6.648780
 30
0.000000
  0
VERTEX
  8
LAYER-1
 10
47.178603
 20
7.443810
 30
0.000000
  0
SEQEND
  8
LAYER-1
  0
ARC
  8
LAYER-1
 62
  7
 10
47.373606
 20
7.443810
 30
0.000000
 40
0.195000
 50
90.000000
 51
180.000000
  0
ARC
  8
LAYER-1
 62
  7
 10
47.373606
 20
6.648780
 30
0.000000
 40
0.195000
 50
180.000000
 51
270.000000
  0
ARC
  8
LAYER-1
 62
  7
 10
47.373643
 20
6.648780
 30
0.000000
 40
0.195000
 50
270.000000
 51
0.000000
  0
ARC
  8
LAYER-1
 62
  7
 10
47.373643
 20
7.443810
 30
0.000000
 40
0.195000
 50
0.000000
 51
90.000000
  0
POLYLINE
  8
LAYER-1
 66
  1
 70
  1
 62
  7
  0
VERTEX
  8
LAYER-1
 10
47.298603
 20
6.543795
 30
0.000000
  0
VERTEX
  8
LAYER-1
 10
47.448641
 20
6.543795
 30
0.000000
  0
VERTEX
  8
LAYER-1
 10
47.448641
 20
5.253808
 30
0.000000
  0
VERTEX
  8
LAYER-1
 10
47.298603
 20
5.253808
 30
0.000000
  0
SEQEND
  8
LAYER-1
  0
POLYLINE
  8
LAYER-1
 66
  1
 70
  0
 62
  7
 10
47.354426
 20
9.965759
 30
0.000000
  0
VERTEX
  8
LAYER-1
 10
47.354426
 20
9.965759
 30
0.000000
  0
VERTEX
  8
LAYER-1
 10
47.392818
 20
9.965759
 30
0.000000
  0
SEQEND
  8
LAYER-1
  0
POLYLINE
  8
LAYER-1
 66
  1
 70
  0
 62
  7
 10
47.703641
 20
9.654940
 30
0.000000
  0
VERTEX
  8
LAYER-1
 10
47.703641
 20
9.654940
 30
0.000000
  0
VERTEX
  8
LAYER-1
 10
47.703641
 20
8.892667
 30
0.000000
  0
SEQEND
  8
LAYER-1
  0
POLYLINE
  8
LAYER-1
 66
  1
 70
  0
 62
  7
 10
47.392818
 20
8.581843
 30
0.000000
  0
VERTEX
  8
LAYER-1
 10
47.392818
 20
8.581843
 30
0.000000
  0
VERTEX
  8
LAYER-1
 10
47.354426
 20
8.581843
 30
0.000000
  0
SEQEND
  8
LAYER-1
  0
POLYLINE
  8
LAYER-1
 66
  1
 70
  0
 62
  7
 10
47.043607
 20
8.892667
 30
0.000000
  0
VERTEX
  8
LAYER-1
 10
47.043607
 20
8.892667
 30
0.000000
  0
VERTEX
  8
LAYER-1
 10
47.043607
 20
9.654940
 30
0.000000
  0
SEQEND
  8
LAYER-1
  0
ARC
  8
LAYER-1
 62
  7
 10
47.354426
 20
9.654940
 30
0.000000
 40
0.310821
 50
90.000000
 51
180.000000
  0
ARC
  8
LAYER-1
 62
  7
 10
47.354426
 20
8.892667
 30
0.000000
 40
0.310821
 50
180.000000
 51
270.000000
  0
ARC
  8
LAYER-1
 62
  7
 10
47.392818
 20
8.892667
 30
0.000000
 40
0.310821
 50
270.000000
 51
0.000000
  0
ARC
  8
LAYER-1
 62
  7
 10
47.392818
 20
9.654940
 30
0.000000
 40
0.310821
 50
0.000000
 51
90.000000
  0
POLYLINE
  8
LAYER-1
 66
  1
 70
  0
 62
  7
 10
47.362267
 20
9.779461
 30
0.000000
  0
VERTEX
  8
LAYER-1
 10
47.362267
 20
9.779461
 30
0.000000
  0
VERTEX
  8
LAYER-1
 10
47.384977
 20
9.779461
 30
0.000000
  0
SEQEND
  8
LAYER-1
  0
POLYLINE
  8
LAYER-1
 66
  1
 70
  0
 62
  7
 10
47.568641
 20
9.595792
 30
0.000000
  0
VERTEX
  8
LAYER-1
 10
47.568641
 20
9.595792
 30
0.000000
  0
VERTEX
  8
LAYER-1
 10
47.568641
 20
8.911861
 30
0.000000
  0
SEQEND
  8
LAYER-1
  0
POLYLINE
  8
LAYER-1
 66
  1
 70
  0
 62
  7
 10
47.384977
 20
8.728187
 30
0.000000
  0
VERTEX
  8
LAYER-1
 10
47.384977
 20
8.728187
 30
0.000000
  0
VERTEX
  8
LAYER-1
 10
47.362267
 20
8.728187
 30
0.000000
  0
SEQEND
  8
LAYER-1
  0
POLYLINE
  8
LAYER-1
 66
  1
 70
  0
 62
  7
 10
47.178603
 20
8.911861
 30
0.000000
  0
VERTEX
  8
LAYER-1
 10
47.178603
 20
8.911861
 30
0.000000
  0
VERTEX
  8
LAYER-1
 10
47.178603
 20
9.595792
 30
0.000000
  0
SEQEND
  8
LAYER-1
  0
ARC
  8
LAYER-1
 62
  7
 10
47.362267
 20
9.595792
 30
0.000000
 40
0.183667
 50
90.000000
 51
180.000000
  0
ARC
  8
LAYER-1
 62
  7
 10
47.362267
 20
8.911861
 30
0.000000
 40
0.183667
 50
180.000000
 51
270.000000
  0
ARC
  8
LAYER-1
 62
  7
 10
47.384977
 20
8.911861
 30
0.000000
 40
0.183667
 50
270.000000
 51
0.000000
  0
ARC
  8
LAYER-1
 62
  7
 10
47.384977
 20
9.595792
 30
0.000000
 40
0.183667
 50
0.000000
 51
90.000000
  0
POLYLINE
  8
LAYER-1
 66
  1
 70
  1
 62
  7
  0
VERTEX
  8
LAYER-1
 10
47.298603
 20
8.838778
 30
0.000000
  0
VERTEX
  8
LAYER-1
 10
47.448641
 20
8.838778
 30
0.000000
  0
VERTEX
  8
LAYER-1
 10
47.448641
 20
7.548791
 30
0.000000
  0
VERTEX
  8
LAYER-1
 10
47.298603
 20
7.548791
 30
0.000000
  0
SEQEND
  8
LAYER-1
  0
POLYLINE
  8
LAYER-1
 66
  1
 70
  1
 62
  7
  0
VERTEX
  8
LAYER-1
 10
47.298603
 20
10.178866
 30
0.000000
  0
VERTEX
  8
LAYER-1
 10
47.448641
 20
10.178866
 30
0.000000
  0
VERTEX
  8
LAYER-1
 10
47.448641
 20
9.608849
 30
0.000000
  0
VERTEX
  8
LAYER-1
 10
47.298603
 20
9.608849
 30
0.000000
  0
SEQEND
  8
LAYER-1
  0
POLYLINE
  8
LAYER-1
 66
  1
 70
  0
 62
  7
 10
47.354426
 20
3.485755
 30
0.000000
  0
VERTEX
  8
LAYER-1
 10
47.354426
 20
3.485755
 30
0.000000
  0
VERTEX
  8
LAYER-1
 10
47.392818
 20
3.485755
 30
0.000000
  0
SEQEND
  8
LAYER-1
  0
POLYLINE
  8
LAYER-1
 66
  1
 70
  0
 62
  7
 10
47.703641
 20
3.174927
 30
0.000000
  0
VERTEX
  8
LAYER-1
 10
47.703641
 20
3.174927
 30
0.000000
  0
VERTEX
  8
LAYER-1
 10
47.703641
 20
2.412654
 30
0.000000
  0
SEQEND
  8
LAYER-1
  0
POLYLINE
  8
LAYER-1
 66
  1
 70
  0
 62
  7
 10
47.392818
 20
2.101835
 30
0.000000
  0
VERTEX
  8
LAYER-1
 10
47.392818
 20
2.101835
 30
0.000000
  0
VERTEX
  8
LAYER-1
 10
47.354426
 20
2.101835
 30
0.000000
  0
SEQEND
  8
LAYER-1
  0
POLYLINE
  8
LAYER-1
 66
  1
 70
  0
 62
  7
 10
47.043607
 20
2.412654
 30
0.000000
  0
VERTEX
  8
LAYER-1
 10
47.043607
 20
2.412654
 30
0.000000
  0
VERTEX
  8
LAYER-1
 10
47.043607
 20
3.174927
 30
0.000000
  0
SEQEND
  8
LAYER-1
  0
ARC
  8
LAYER-1
 62
  7
 10
47.354426
 20
3.174927
 30
0.000000
 40
0.310821
 50
90.000000
 51
180.000000
  0
ARC
  8
LAYER-1
 62
  7
 10
47.354426
 20
2.412654
 30
0.000000
 40
0.310821
 50
180.000000
 51
270.000000
  0
ARC
  8
LAYER-1
 62
  7
 10
47.392818
 20
2.412654
 30
0.000000
 40
0.310821
 50
270.000000
 51
0.000000
  0
ARC
  8
LAYER-1
 62
  7
 10
47.392818
 20
3.174927
 30
0.000000
 40
0.310821
 50
0.000000
 51
90.000000
  0
POLYLINE
  8
LAYER-1
 66
  1
 70
  0
 62
  7
 10
47.362267
 20
3.299457
 30
0.000000
  0
VERTEX
  8
LAYER-1
 10
47.362267
 20
3.299457
 30
0.000000
  0
VERTEX
  8
LAYER-1
 10
47.384977
 20
3.299457
 30
0.000000
  0
SEQEND
  8
LAYER-1
  0
POLYLINE
  8
LAYER-1
 66
  1
 70
  0
 62
  7
 10
47.568641
 20
3.115779
 30
0.000000
  0
VERTEX
  8
LAYER-1
 10
47.568641
 20
3.115779
 30
0.000000
  0
VERTEX
  8
LAYER-1
 10
47.568641
 20
2.431847
 30
0.000000
  0
SEQEND
  8
LAYER-1
  0
POLYLINE
  8
LAYER-1
 66
  1
 70
  0
 62
  7
 10
47.384977
 20
2.248178
 30
0.000000
  0
VERTEX
  8
LAYER-1
 10
47.384977
 20
2.248178
 30
0.000000
  0
VERTEX
  8
LAYER-1
 10
47.362267
 20
2.248178
 30
0.000000
  0
SEQEND
  8
LAYER-1
  0
POLYLINE
  8
LAYER-1
 66
  1
 70
  0
 62
  7
 10
47.178603
 20
2.431847
 30
0.000000
  0
VERTEX
  8
LAYER-1
 10
47.178603
 20
2.431847
 30
0.000000
  0
VERTEX
  8
LAYER-1
 10
47.178603
 20
3.115779
 30
0.000000
  0
SEQEND
  8
LAYER-1
  0
ARC
  8
LAYER-1
 62
  7
 10
47.362267
 20
3.115779
 30
0.000000
 40
0.183667
 50
90.000000
 51
180.000000
  0
ARC
  8
LAYER-1
 62
  7
 10
47.362267
 20
2.431847
 30
0.000000
 40
0.183667
 50
180.000000
 51
270.000000
  0
ARC
  8
LAYER-1
 62
  7
 10
47.384977
 20
2.431847
 30
0.000000
 40
0.183667
 50
270.000000
 51
0.000000
  0
ARC
  8
LAYER-1
 62
  7
 10
47.384977
 20
3.115779
 30
0.000000
 40
0.183667
 50
0.000000
 51
90.000000
  0
POLYLINE
  8
LAYER-1
 66
  1
 70
  1
 62
  7
  0
VERTEX
  8
LAYER-1
 10
47.448641
 20
3.093778
 30
0.000000
  0
VERTEX
  8
LAYER-1
 10
47.298603
 20
3.093778
 30
0.000000
  0
VERTEX
  8
LAYER-1
 10
47.298603
 20
4.383808
 30
0.000000
  0
VERTEX
  8
LAYER-1
 10
47.448641
 20
4.383808
 30
0.000000
  0
SEQEND
  8
LAYER-1
  0
POLYLINE
  8
LAYER-1
 66
  1
 70
  0
 62
  7
 10
47.354426
 20
1.648250
 30
0.000000
  0
VERTEX
  8
LAYER-1
 10
47.354426
 20
1.648250
 30
0.000000
  0
VERTEX
  8
LAYER-1
 10
47.392818
 20
1.648250
 30
0.000000
  0
SEQEND
  8
LAYER-1
  0
POLYLINE
  8
LAYER-1
 66
  1
 70
  0
 62
  7
 10
47.703641
 20
1.337421
 30
0.000000
  0
VERTEX
  8
LAYER-1
 10
47.703641
 20
1.337421
 30
0.000000
  0
VERTEX
  8
LAYER-1
 10
47.703641
 20
0.575148
 30
0.000000
  0
SEQEND
  8
LAYER-1
  0
POLYLINE
  8
LAYER-1
 66
  1
 70
  0
 62
  7
 10
47.392818
 20
0.264329
 30
0.000000
  0
VERTEX
  8
LAYER-1
 10
47.392818
 20
0.264329
 30
0.000000
  0
VERTEX
  8
LAYER-1
 10
47.354426
 20
0.264329
 30
0.000000
  0
SEQEND
  8
LAYER-1
  0
POLYLINE
  8
LAYER-1
 66
  1
 70
  0
 62
  7
 10
47.043607
 20
0.575148
 30
0.000000
  0
VERTEX
  8
LAYER-1
 10
47.043607
 20
0.575148
 30
0.000000
  0
VERTEX
  8
LAYER-1
 10
47.043607
 20
1.337421
 30
0.000000
  0
SEQEND
  8
LAYER-1
  0
ARC
  8
LAYER-1
 62
  7
 10
47.354426
 20
1.337421
 30
0.000000
 40
0.310821
 50
90.000000
 51
180.000000
  0
ARC
  8
LAYER-1
 62
  7
 10
47.354426
 20
0.575148
 30
0.000000
 40
0.310821
 50
180.000000
 51
270.000000
  0
ARC
  8
LAYER-1
 62
  7
 10
47.392818
 20
0.575148
 30
0.000000
 40
0.310821
 50
270.000000
 51
0.000000
  0
ARC
  8
LAYER-1
 62
  7
 10
47.392818
 20
1.337421
 30
0.000000
 40
0.310821
 50
0.000000
 51
90.000000
  0
POLYLINE
  8
LAYER-1
 66
  1
 70
  0
 62
  7
 10
47.362267
 20
1.461952
 30
0.000000
  0
VERTEX
  8
LAYER-1
 10
47.362267
 20
1.461952
 30
0.000000
  0
VERTEX
  8
LAYER-1
 10
47.384977
 20
1.461952
 30
0.000000
  0
SEQEND
  8
LAYER-1
  0
POLYLINE
  8
LAYER-1
 66
  1
 70
  0
 62
  7
 10
47.568641
 20
1.278273
 30
0.000000
  0
VERTEX
  8
LAYER-1
 10
47.568641
 20
1.278273
 30
0.000000
  0
VERTEX
  8
LAYER-1
 10
47.568641
 20
0.594342
 30
0.000000
  0
SEQEND
  8
LAYER-1
  0
POLYLINE
  8
LAYER-1
 66
  1
 70
  0
 62
  7
 10
47.384977
 20
0.410673
 30
0.000000
  0
VERTEX
  8
LAYER-1
 10
47.384977
 20
0.410673
 30
0.000000
  0
VERTEX
  8
LAYER-1
 10
47.362267
 20
0.410673
 30
0.000000
  0
SEQEND
  8
LAYER-1
  0
POLYLINE
  8
LAYER-1
 66
  1
 70
  0
 62
  7
 10
47.178603
 20
0.594342
 30
0.000000
  0
VERTEX
  8
LAYER-1
 10
47.178603
 20
0.594342
 30
0.000000
  0
VERTEX
  8
LAYER-1
 10
47.178603
 20
1.278273
 30
0.000000
  0
SEQEND
  8
LAYER-1
  0
ARC
  8
LAYER-1
 62
  7
 10
47.362267
 20
1.278273
 30
0.000000
 40
0.183667
 50
90.000000
 51
180.000000
  0
ARC
  8
LAYER-1
 62
  7
 10
47.362267
 20
0.594342
 30
0.000000
 40
0.183667
 50
180.000000
 51
270.000000
  0
ARC
  8
LAYER-1
 62
  7
 10
47.384977
 20
0.594342
 30
0.000000
 40
0.183667
 50
270.000000
 51
0.000000
  0
ARC
  8
LAYER-1
 62
  7
 10
47.384977
 20
1.278273
 30
0.000000
 40
0.183667
 50
0.000000
 51
90.000000
  0
POLYLINE
  8
LAYER-1
 66
  1
 70
  1
 62
  7
  0
VERTEX
  8
LAYER-1
 10
47.448641
 20
1.256273
 30
0.000000
  0
VERTEX
  8
LAYER-1
 10
47.298603
 20
1.256273
 30
0.000000
  0
VERTEX
  8
LAYER-1
 10
47.298603
 20
2.546302
 30
0.000000
  0
VERTEX
  8
LAYER-1
 10
47.448641
 20
2.546302
 30
0.000000
  0
SEQEND
  8
LAYER-1
  0
CIRCLE
  8
LAYER-1
 62
  7
 10
42.901968
 20
18.795687
 30
0.000000
 40
0.128472
  0
CIRCLE
  8
LAYER-1
 62
  7
 10
42.901968
 20
18.795687
 30
0.000000
 40
0.166667
  0
CIRCLE
  8
LAYER-1
 62
  7
 10
42.901968
 20
18.795687
 30
0.000000
 40
0.239583
  0
POLYLINE
  8
LAYER-1
 66
  1
 70
  1
 62
  7
 10
43.148499
 20
18.938016
 30
0.000000
  0
VERTEX
  8
LAYER-1
 10
43.148499
 20
18.938016
 30
0.000000
  0
VERTEX
  8
LAYER-1
 10
43.148499
 20
18.653348
 30
0.000000
  0
VERTEX
  8
LAYER-1
 10
42.901968
 20
18.511019
 30
0.000000
  0
VERTEX
  8
LAYER-1
 10
42.655442
 20
18.653348
 30
0.000000
  0
VERTEX
  8
LAYER-1
 10
42.655442
 20
18.938016
 30
0.000000
  0
VERTEX
  8
LAYER-1
 10
42.901968
 20
19.080350
 30
0.000000
  0
SEQEND
  8
LAYER-1
  0
CIRCLE
  8
LAYER-1
 62
  7
 10
48.636343
 20
14.365389
 30
0.000000
 40
0.128472
  0
CIRCLE
  8
LAYER-1
 62
  7
 10
48.636343
 20
14.365389
 30
0.000000
 40
0.166667
  0
CIRCLE
  8
LAYER-1
 62
  7
 10
48.636343
 20
14.365389
 30
0.000000
 40
0.239583
  0
POLYLINE
  8
LAYER-1
 66
  1
 70
  1
 62
  7
 10
48.882869
 20
14.507723
 30
0.000000
  0
VERTEX
  8
LAYER-1
 10
48.882869
 20
14.507723
 30
0.000000
  0
VERTEX
  8
LAYER-1
 10
48.882869
 20
14.223060
 30
0.000000
  0
VERTEX
  8
LAYER-1
 10
48.636343
 20
14.080726
 30
0.000000
  0
VERTEX
  8
LAYER-1
 10
48.389813
 20
14.223060
 30
0.000000
  0
VERTEX
  8
LAYER-1
 10
48.389813
 20
14.507723
 30
0.000000
  0
VERTEX
  8
LAYER-1
 10
48.636343
 20
14.650057
 30
0.000000
  0
SEQEND
  8
LAYER-1
  0
POLYLINE
  8
LAYER-1
 66
  1
 70
  1
 62
  7
 10
48.144151
 20
18.435298
 30
0.000000
  0
VERTEX
  8
LAYER-1
 10
48.144151
 20
18.435298
 30
0.000000
  0
VERTEX
  8
LAYER-1
 10
48.144151
 20
19.154048
 30
0.000000
  0
VERTEX
  8
LAYER-1
 10
48.394151
 20
19.404048
 30
0.000000
  0
VERTEX
  8
LAYER-1
 10
52.769151
 20
19.404048
 30
0.000000
  0
VERTEX
  8
LAYER-1
 10
52.769151
 20
18.185298
 30
0.000000
  0
VERTEX
  8
LAYER-1
 10
48.394151
 20
18.185298
 30
0.000000
  0
SEQEND
  8
LAYER-1
  0
POLYLINE
  8
LAYER-1
 66
  1
 70
  0
 62
  7
 10
52.651963
 20
18.185298
 30
0.000000
  0
VERTEX
  8
LAYER-1
 10
52.651963
 20
18.185298
 30
0.000000
  0
VERTEX
  8
LAYER-1
 10
52.651963
 20
19.404048
 30
0.000000
  0
SEQEND
  8
LAYER-1
  0
POLYLINE
  8
LAYER-1
 66
  1
 70
  0
 62
  7
 10
52.770264
 20
19.152926
 30
0.000000
  0
VERTEX
  8
LAYER-1
 10
52.770264
 20
19.152926
 30
0.000000
  0
VERTEX
  8
LAYER-1
 10
52.654194
 20
19.152926
 30
0.000000
  0
SEQEND
  8
LAYER-1
  0
POLYLINE
  8
LAYER-1
 66
  1
 70
  0
 62
  7
 10
52.770264
 20
18.429716
 30
0.000000
  0
VERTEX
  8
LAYER-1
 10
52.770264
 20
18.429716
 30
0.000000
  0
VERTEX
  8
LAYER-1
 10
52.654194
 20
18.429716
 30
0.000000
  0
SEQEND
  8
LAYER-1
  0
CIRCLE
  8
LAYER-1
 62
  7
 10
48.558213
 20
18.795781
 30
0.000000
 40
0.158482
  0
CIRCLE
  8
LAYER-1
 62
  7
 10
49.120713
 20
18.795781
 30
0.000000
 40
0.158482
  0
CIRCLE
  8
LAYER-1
 62
  7
 10
49.683213
 20
18.795781
 30
0.000000
 40
0.158482
  0
CIRCLE
  8
LAYER-1
 62
  7
 10
50.245713
 20
18.795781
 30
0.000000
 40
0.158482
  0
CIRCLE
  8
LAYER-1
 62
  7
 10
50.808213
 20
18.795781
 30
0.000000
 40
0.158482
  0
POLYLINE
  8
LAYER-1
  6
LTYPE01
 66
  1
 70
  0
 62
  7
  6
LTYPE01
 10
52.770264
 20
18.952031
 30
0.000000
  0
VERTEX
  8
LAYER-1
  6
LTYPE01
 10
52.770264
 20
18.952031
 30
0.000000
  0
VERTEX
  8
LAYER-1
  6
LTYPE01
 10
52.654194
 20
18.952031
 30
0.000000
  0
SEQEND
  8
LAYER-1
  0
POLYLINE
  8
LAYER-1
  6
LTYPE01
 66
  1
 70
  0
 62
  7
  6
LTYPE01
 10
52.770264
 20
18.635071
 30
0.000000
  0
VERTEX
  8
LAYER-1
  6
LTYPE01
 10
52.770264
 20
18.635071
 30
0.000000
  0
VERTEX
  8
LAYER-1
  6
LTYPE01
 10
52.654194
 20
18.635071
 30
0.000000
  0
SEQEND
  8
LAYER-1
  0
POLYLINE
  8
LAYER-1
 66
  1
 70
  0
 62
  7
 10
54.630850
 20
18.792039
 30
0.000000
  0
VERTEX
  8
LAYER-1
 10
54.630850
 20
18.792039
 30
0.000000
  0
VERTEX
  8
LAYER-1
 10
54.528358
 20
18.726215
 30
0.000000
  0
SEQEND
  8
LAYER-1
  0
POLYLINE
  8
LAYER-1
 66
  1
 70
  0
 62
  7
 10
54.630850
 20
18.792039
 30
0.000000
  0
VERTEX
  8
LAYER-1
 10
54.630850
 20
18.792039
 30
0.000000
  0
VERTEX
  8
LAYER-1
 10
54.492807
 20
18.858661
 30
0.000000
  0
SEQEND
  8
LAYER-1
  0
POLYLINE
  8
LAYER-1
 66
  1
 70
  1
 62
  7
 10
54.571505
 20
18.841271
 30
0.000000
  0
VERTEX
  8
LAYER-1
 10
54.571505
 20
18.841271
 30
0.000000
  0
VERTEX
  8
LAYER-1
 10
54.551509
 20
18.861187
 30
0.000000
  0
VERTEX
  8
LAYER-1
 10
54.531513
 20
18.841271
 30
0.000000
  0
VERTEX
  8
LAYER-1
 10
54.567059
 20
18.751981
 30
0.000000
  0
VERTEX
  8
LAYER-1
 10
54.587055
 20
18.732065
 30
0.000000
  0
VERTEX
  8
LAYER-1
 10
54.607046
 20
18.751981
 30
0.000000
  0
SEQEND
  8
LAYER-1
  0
POLYLINE
  8
LAYER-1
 66
  1
 70
  0
 62
  7
 10
54.146719
 20
18.888198
 30
0.000000
  0
VERTEX
  8
LAYER-1
 10
54.146719
 20
18.888198
 30
0.000000
  0
VERTEX
  8
LAYER-1
 10
54.126723
 20
18.858661
 30
0.000000
  0
SEQEND
  8
LAYER-1
  0
POLYLINE
  8
LAYER-1
 66
  1
 70
  0
 62
  7
 10
54.146719
 20
18.888198
 30
0.000000
  0
VERTEX
  8
LAYER-1
 10
54.146719
 20
18.888198
 30
0.000000
  0
VERTEX
  8
LAYER-1
 10
54.166715
 20
18.858661
 30
0.000000
  0
SEQEND
  8
LAYER-1
  0
POLYLINE
  8
LAYER-1
 66
  1
 70
  0
 62
  7
 10
54.182260
 20
18.696674
 30
0.000000
  0
VERTEX
  8
LAYER-1
 10
54.182260
 20
18.696674
 30
0.000000
  0
VERTEX
  8
LAYER-1
 10
54.162269
 20
18.726215
 30
0.000000
  0
SEQEND
  8
LAYER-1
  0
POLYLINE
  8
LAYER-1
 66
  1
 70
  0
 62
  7
 10
54.182260
 20
18.696674
 30
0.000000
  0
VERTEX
  8
LAYER-1
 10
54.182260
 20
18.696674
 30
0.000000
  0
VERTEX
  8
LAYER-1
 10
54.202261
 20
18.726215
 30
0.000000
  0
SEQEND
  8
LAYER-1
  0
POLYLINE
  8
LAYER-1
 66
  1
 70
  0
 62
  7
 10
54.126723
 20
18.858661
 30
0.000000
  0
VERTEX
  8
LAYER-1
 10
54.126723
 20
18.858661
 30
0.000000
  0
VERTEX
  8
LAYER-1
 10
54.162269
 20
18.726215
 30
0.000000
  0
SEQEND
  8
LAYER-1
  0
POLYLINE
  8
LAYER-1
 66
  1
 70
  0
 62
  7
 10
54.146719
 20
18.888198
 30
0.000000
  0
VERTEX
  8
LAYER-1
 10
54.146719
 20
18.888198
 30
0.000000
  0
VERTEX
  8
LAYER-1
 10
54.182260
 20
18.696674
 30
0.000000
  0
SEQEND
  8
LAYER-1
  0
POLYLINE
  8
LAYER-1
 66
  1
 70
  0
 62
  7
 10
54.166715
 20
18.858661
 30
0.000000
  0
VERTEX
  8
LAYER-1
 10
54.166715
 20
18.858661
 30
0.000000
  0
VERTEX
  8
LAYER-1
 10
54.202261
 20
18.726215
 30
0.000000
  0
SEQEND
  8
LAYER-1
  0
POLYLINE
  8
LAYER-1
 66
  1
 70
  0
 62
  7
 10
54.166715
 20
18.858661
 30
0.000000
  0
VERTEX
  8
LAYER-1
 10
54.166715
 20
18.858661
 30
0.000000
  0
VERTEX
  8
LAYER-1
 10
54.208247
 20
18.858661
 30
0.000000
  0
SEQEND
  8
LAYER-1
  0
POLYLINE
  8
LAYER-1
 66
  1
 70
  0
 62
  7
 10
54.202261
 20
18.726215
 30
0.000000
  0
VERTEX
  8
LAYER-1
 10
54.202261
 20
18.726215
 30
0.000000
  0
VERTEX
  8
LAYER-1
 10
54.243793
 20
18.726215
 30
0.000000
  0
SEQEND
  8
LAYER-1
  0
POLYLINE
  8
LAYER-1
 66
  1
 70
  0
 62
  7
 10
54.551509
 20
18.861187
 30
0.000000
  0
VERTEX
  8
LAYER-1
 10
54.551509
 20
18.861187
 30
0.000000
  0
VERTEX
  8
LAYER-1
 10
54.587055
 20
18.732065
 30
0.000000
  0
SEQEND
  8
LAYER-1
  0
POLYLINE
  8
LAYER-1
 66
  1
 70
  0
 62
  7
 10
54.228248
 20
18.888198
 30
0.000000
  0
VERTEX
  8
LAYER-1
 10
54.228248
 20
18.888198
 30
0.000000
  0
VERTEX
  8
LAYER-1
 10
54.208247
 20
18.858661
 30
0.000000
  0
SEQEND
  8
LAYER-1
  0
POLYLINE
  8
LAYER-1
 66
  1
 70
  0
 62
  7
 10
54.228248
 20
18.888198
 30
0.000000
  0
VERTEX
  8
LAYER-1
 10
54.228248
 20
18.888198
 30
0.000000
  0
VERTEX
  8
LAYER-1
 10
54.248239
 20
18.858661
 30
0.000000
  0
SEQEND
  8
LAYER-1
  0
POLYLINE
  8
LAYER-1
 66
  1
 70
  0
 62
  7
 10
54.263785
 20
18.696674
 30
0.000000
  0
VERTEX
  8
LAYER-1
 10
54.263785
 20
18.696674
 30
0.000000
  0
VERTEX
  8
LAYER-1
 10
54.243793
 20
18.726215
 30
0.000000
  0
SEQEND
  8
LAYER-1
  0
POLYLINE
  8
LAYER-1
 66
  1
 70
  0
 62
  7
 10
54.263785
 20
18.696674
 30
0.000000
  0
VERTEX
  8
LAYER-1
 10
54.263785
 20
18.696674
 30
0.000000
  0
VERTEX
  8
LAYER-1
 10
54.283781
 20
18.726215
 30
0.000000
  0
SEQEND
  8
LAYER-1
  0
POLYLINE
  8
LAYER-1
 66
  1
 70
  0
 62
  7
 10
54.208247
 20
18.858661
 30
0.000000
  0
VERTEX
  8
LAYER-1
 10
54.208247
 20
18.858661
 30
0.000000
  0
VERTEX
  8
LAYER-1
 10
54.243793
 20
18.726215
 30
0.000000
  0
SEQEND
  8
LAYER-1
  0
POLYLINE
  8
LAYER-1
 66
  1
 70
  0
 62
  7
 10
54.228248
 20
18.888198
 30
0.000000
  0
VERTEX
  8
LAYER-1
 10
54.228248
 20
18.888198
 30
0.000000
  0
VERTEX
  8
LAYER-1
 10
54.263785
 20
18.696674
 30
0.000000
  0
SEQEND
  8
LAYER-1
  0
POLYLINE
  8
LAYER-1
 66
  1
 70
  0
 62
  7
 10
54.248239
 20
18.858661
 30
0.000000
  0
VERTEX
  8
LAYER-1
 10
54.248239
 20
18.858661
 30
0.000000
  0
VERTEX
  8
LAYER-1
 10
54.283781
 20
18.726215
 30
0.000000
  0
SEQEND
  8
LAYER-1
  0
POLYLINE
  8
LAYER-1
 66
  1
 70
  0
 62
  7
 10
54.309768
 20
18.888198
 30
0.000000
  0
VERTEX
  8
LAYER-1
 10
54.309768
 20
18.888198
 30
0.000000
  0
VERTEX
  8
LAYER-1
 10
54.289771
 20
18.858661
 30
0.000000
  0
SEQEND
  8
LAYER-1
  0
POLYLINE
  8
LAYER-1
 66
  1
 70
  0
 62
  7
 10
54.309768
 20
18.888198
 30
0.000000
  0
VERTEX
  8
LAYER-1
 10
54.309768
 20
18.888198
 30
0.000000
  0
VERTEX
  8
LAYER-1
 10
54.329764
 20
18.858661
 30
0.000000
  0
SEQEND
  8
LAYER-1
  0
POLYLINE
  8
LAYER-1
 66
  1
 70
  0
 62
  7
 10
54.345313
 20
18.696674
 30
0.000000
  0
VERTEX
  8
LAYER-1
 10
54.345313
 20
18.696674
 30
0.000000
  0
VERTEX
  8
LAYER-1
 10
54.325317
 20
18.726215
 30
0.000000
  0
SEQEND
  8
LAYER-1
  0
POLYLINE
  8
LAYER-1
 66
  1
 70
  0
 62
  7
 10
54.345313
 20
18.696674
 30
0.000000
  0
VERTEX
  8
LAYER-1
 10
54.345313
 20
18.696674
 30
0.000000
  0
VERTEX
  8
LAYER-1
 10
54.365309
 20
18.726215
 30
0.000000
  0
SEQEND
  8
LAYER-1
  0
POLYLINE
  8
LAYER-1
 66
  1
 70
  0
 62
  7
 10
54.289771
 20
18.858661
 30
0.000000
  0
VERTEX
  8
LAYER-1
 10
54.289771
 20
18.858661
 30
0.000000
  0
VERTEX
  8
LAYER-1
 10
54.325317
 20
18.726215
 30
0.000000
  0
SEQEND
  8
LAYER-1
  0
POLYLINE
  8
LAYER-1
 66
  1
 70
  0
 62
  7
 10
54.309768
 20
18.888198
 30
0.000000
  0
VERTEX
  8
LAYER-1
 10
54.309768
 20
18.888198
 30
0.000000
  0
VERTEX
  8
LAYER-1
 10
54.345313
 20
18.696674
 30
0.000000
  0
SEQEND
  8
LAYER-1
  0
POLYLINE
  8
LAYER-1
 66
  1
 70
  0
 62
  7
 10
54.329764
 20
18.858661
 30
0.000000
  0
VERTEX
  8
LAYER-1
 10
54.329764
 20
18.858661
 30
0.000000
  0
VERTEX
  8
LAYER-1
 10
54.365309
 20
18.726215
 30
0.000000
  0
SEQEND
  8
LAYER-1
  0
POLYLINE
  8
LAYER-1
 66
  1
 70
  0
 62
  7
 10
54.391292
 20
18.888198
 30
0.000000
  0
VERTEX
  8
LAYER-1
 10
54.391292
 20
18.888198
 30
0.000000
  0
VERTEX
  8
LAYER-1
 10
54.371296
 20
18.858661
 30
0.000000
  0
SEQEND
  8
LAYER-1
  0
POLYLINE
  8
LAYER-1
 66
  1
 70
  0
 62
  7
 10
54.391292
 20
18.888198
 30
0.000000
  0
VERTEX
  8
LAYER-1
 10
54.391292
 20
18.888198
 30
0.000000
  0
VERTEX
  8
LAYER-1
 10
54.411288
 20
18.858661
 30
0.000000
  0
SEQEND
  8
LAYER-1
  0
POLYLINE
  8
LAYER-1
 66
  1
 70
  0
 62
  7
 10
54.426838
 20
18.696674
 30
0.000000
  0
VERTEX
  8
LAYER-1
 10
54.426838
 20
18.696674
 30
0.000000
  0
VERTEX
  8
LAYER-1
 10
54.406842
 20
18.726215
 30
0.000000
  0
SEQEND
  8
LAYER-1
  0
POLYLINE
  8
LAYER-1
 66
  1
 70
  0
 62
  7
 10
54.426838
 20
18.696674
 30
0.000000
  0
VERTEX
  8
LAYER-1
 10
54.426838
 20
18.696674
 30
0.000000
  0
VERTEX
  8
LAYER-1
 10
54.446834
 20
18.726215
 30
0.000000
  0
SEQEND
  8
LAYER-1
  0
POLYLINE
  8
LAYER-1
 66
  1
 70
  0
 62
  7
 10
54.371296
 20
18.858661
 30
0.000000
  0
VERTEX
  8
LAYER-1
 10
54.371296
 20
18.858661
 30
0.000000
  0
VERTEX
  8
LAYER-1
 10
54.406842
 20
18.726215
 30
0.000000
  0
SEQEND
  8
LAYER-1
  0
POLYLINE
  8
LAYER-1
 66
  1
 70
  0
 62
  7
 10
54.391292
 20
18.888198
 30
0.000000
  0
VERTEX
  8
LAYER-1
 10
54.391292
 20
18.888198
 30
0.000000
  0
VERTEX
  8
LAYER-1
 10
54.426838
 20
18.696674
 30
0.000000
  0
SEQEND
  8
LAYER-1
  0
POLYLINE
  8
LAYER-1
 66
  1
 70
  0
 62
  7
 10
54.411288
 20
18.858661
 30
0.000000
  0
VERTEX
  8
LAYER-1
 10
54.411288
 20
18.858661
 30
0.000000
  0
VERTEX
  8
LAYER-1
 10
54.446834
 20
18.726215
 30
0.000000
  0
SEQEND
  8
LAYER-1
  0
POLYLINE
  8
LAYER-1
 66
  1
 70
  0
 62
  7
 10
54.472816
 20
18.888198
 30
0.000000
  0
VERTEX
  8
LAYER-1
 10
54.472816
 20
18.888198
 30
0.000000
  0
VERTEX
  8
LAYER-1
 10
54.452825
 20
18.858661
 30
0.000000
  0
SEQEND
  8
LAYER-1
  0
POLYLINE
  8
LAYER-1
 66
  1
 70
  0
 62
  7
 10
54.472816
 20
18.888198
 30
0.000000
  0
VERTEX
  8
LAYER-1
 10
54.472816
 20
18.888198
 30
0.000000
  0
VERTEX
  8
LAYER-1
 10
54.492807
 20
18.858661
 30
0.000000
  0
SEQEND
  8
LAYER-1
  0
POLYLINE
  8
LAYER-1
 66
  1
 70
  0
 62
  7
 10
54.508362
 20
18.696674
 30
0.000000
  0
VERTEX
  8
LAYER-1
 10
54.508362
 20
18.696674
 30
0.000000
  0
VERTEX
  8
LAYER-1
 10
54.488366
 20
18.726215
 30
0.000000
  0
SEQEND
  8
LAYER-1
  0
POLYLINE
  8
LAYER-1
 66
  1
 70
  0
 62
  7
 10
54.508362
 20
18.696674
 30
0.000000
  0
VERTEX
  8
LAYER-1
 10
54.508362
 20
18.696674
 30
0.000000
  0
VERTEX
  8
LAYER-1
 10
54.528358
 20
18.726215
 30
0.000000
  0
SEQEND
  8
LAYER-1
  0
POLYLINE
  8
LAYER-1
 66
  1
 70
  0
 62
  7
 10
54.452825
 20
18.858661
 30
0.000000
  0
VERTEX
  8
LAYER-1
 10
54.452825
 20
18.858661
 30
0.000000
  0
VERTEX
  8
LAYER-1
 10
54.488366
 20
18.726215
 30
0.000000
  0
SEQEND
  8
LAYER-1
  0
POLYLINE
  8
LAYER-1
 66
  1
 70
  0
 62
  7
 10
54.472816
 20
18.888198
 30
0.000000
  0
VERTEX
  8
LAYER-1
 10
54.472816
 20
18.888198
 30
0.000000
  0
VERTEX
  8
LAYER-1
 10
54.508362
 20
18.696674
 30
0.000000
  0
SEQEND
  8
LAYER-1
  0
POLYLINE
  8
LAYER-1
 66
  1
 70
  0
 62
  7
 10
54.492807
 20
18.858661
 30
0.000000
  0
VERTEX
  8
LAYER-1
 10
54.492807
 20
18.858661
 30
0.000000
  0
VERTEX
  8
LAYER-1
 10
54.528358
 20
18.726215
 30
0.000000
  0
SEQEND
  8
LAYER-1
  0
POLYLINE
  8
LAYER-1
 66
  1
 70
  0
 62
  7
 10
54.248239
 20
18.858661
 30
0.000000
  0
VERTEX
  8
LAYER-1
 10
54.248239
 20
18.858661
 30
0.000000
  0
VERTEX
  8
LAYER-1
 10
54.289771
 20
18.858661
 30
0.000000
  0
SEQEND
  8
LAYER-1
  0
POLYLINE
  8
LAYER-1
 66
  1
 70
  0
 62
  7
 10
54.329764
 20
18.858661
 30
0.000000
  0
VERTEX
  8
LAYER-1
 10
54.329764
 20
18.858661
 30
0.000000
  0
VERTEX
  8
LAYER-1
 10
54.371296
 20
18.858661
 30
0.000000
  0
SEQEND
  8
LAYER-1
  0
POLYLINE
  8
LAYER-1
 66
  1
 70
  0
 62
  7
 10
54.411288
 20
18.858661
 30
0.000000
  0
VERTEX
  8
LAYER-1
 10
54.411288
 20
18.858661
 30
0.000000
  0
VERTEX
  8
LAYER-1
 10
54.452825
 20
18.858661
 30
0.000000
  0
SEQEND
  8
LAYER-1
  0
POLYLINE
  8
LAYER-1
 66
  1
 70
  0
 62
  7
 10
54.283781
 20
18.726215
 30
0.000000
  0
VERTEX
  8
LAYER-1
 10
54.283781
 20
18.726215
 30
0.000000
  0
VERTEX
  8
LAYER-1
 10
54.325317
 20
18.726215
 30
0.000000
  0
SEQEND
  8
LAYER-1
  0
POLYLINE
  8
LAYER-1
 66
  1
 70
  0
 62
  7
 10
54.365309
 20
18.726215
 30
0.000000
  0
VERTEX
  8
LAYER-1
 10
54.365309
 20
18.726215
 30
0.000000
  0
VERTEX
  8
LAYER-1
 10
54.406842
 20
18.726215
 30
0.000000
  0
SEQEND
  8
LAYER-1
  0
POLYLINE
  8
LAYER-1
 66
  1
 70
  0
 62
  7
 10
54.446834
 20
18.726215
 30
0.000000
  0
VERTEX
  8
LAYER-1
 10
54.446834
 20
18.726215
 30
0.000000
  0
VERTEX
  8
LAYER-1
 10
54.488366
 20
18.726215
 30
0.000000
  0
SEQEND
  8
LAYER-1
  0
POLYLINE
  8
LAYER-1
 66
  1
 70
  0
 62
  7
 10
52.648611
 20
18.971008
 30
0.000000
  0
VERTEX
  8
LAYER-1
 10
52.648611
 20
18.971008
 30
0.000000
  0
VERTEX
  8
LAYER-1
 10
52.648611
 20
18.613309
 30
0.000000
  0
SEQEND
  8
LAYER-1
  0
POLYLINE
  8
LAYER-1
 66
  1
 70
  0
 62
  7
 10
52.579149
 20
18.613309
 30
0.000000
  0
VERTEX
  8
LAYER-1
 10
52.579149
 20
18.613309
 30
0.000000
  0
VERTEX
  8
LAYER-1
 10
52.579149
 20
18.971008
 30
0.000000
  0
SEQEND
  8
LAYER-1
  0
POLYLINE
  8
LAYER-1
 66
  1
 70
  0
 62
  7
 10
52.502338
 20
18.739140
 30
0.000000
  0
VERTEX
  8
LAYER-1
 10
52.502338
 20
18.739140
 30
0.000000
  0
VERTEX
  8
LAYER-1
 10
52.502338
 20
18.846778
 30
0.000000
  0
SEQEND
  8
LAYER-1
  0
POLYLINE
  8
LAYER-1
 66
  1
 70
  0
 62
  7
 10
52.648611
 20
18.971008
 30
0.000000
  0
VERTEX
  8
LAYER-1
 10
52.648611
 20
18.971008
 30
0.000000
  0
VERTEX
  8
LAYER-1
 10
52.632836
 20
18.975116
 30
0.000000
  0
VERTEX
  8
LAYER-1
 10
52.618901
 20
18.976187
 30
0.000000
  0
VERTEX
  8
LAYER-1
 10
52.604924
 20
18.976187
 30
0.000000
  0
VERTEX
  8
LAYER-1
 10
52.590994
 20
18.975112
 30
0.000000
  0
VERTEX
  8
LAYER-1
 10
52.579149
 20
18.971008
 30
0.000000
  0
SEQEND
  8
LAYER-1
  0
POLYLINE
  8
LAYER-1
 66
  1
 70
  0
 62
  7
 10
52.579149
 20
18.613309
 30
0.000000
  0
VERTEX
  8
LAYER-1
 10
52.579149
 20
18.613309
 30
0.000000
  0
VERTEX
  8
LAYER-1
 10
52.590989
 20
18.613098
 30
0.000000
  0
VERTEX
  8
LAYER-1
 10
52.604924
 20
18.612004
 30
0.000000
  0
VERTEX
  8
LAYER-1
 10
52.618901
 20
18.612004
 30
0.000000
  0
VERTEX
  8
LAYER-1
 10
52.632836
 20
18.613098
 30
0.000000
  0
VERTEX
  8
LAYER-1
 10
52.648611
 20
18.613309
 30
0.000000
  0
SEQEND
  8
LAYER-1
  0
ARC
  8
LAYER-1
 62
  7
 10
52.726051
 20
18.794316
 30
0.000000
 40
0.229780
 50
129.739807
 51
166.802307
  0
ARC
  8
LAYER-1
 62
  7
 10
52.739647
 20
18.797645
 30
0.000000
 40
0.244412
 50
193.848083
 51
228.954468
  0
POLYLINE
  8
LAYER-1
 66
  1
 70
  0
 62
  7
 10
54.064716
 20
18.888198
 30
0.000000
  0
VERTEX
  8
LAYER-1
 10
54.064716
 20
18.888198
 30
0.000000
  0
VERTEX
  8
LAYER-1
 10
54.044725
 20
18.858661
 30
0.000000
  0
SEQEND
  8
LAYER-1
  0
POLYLINE
  8
LAYER-1
 66
  1
 70
  0
 62
  7
 10
54.064716
 20
18.888198
 30
0.000000
  0
VERTEX
  8
LAYER-1
 10
54.064716
 20
18.888198
 30
0.000000
  0
VERTEX
  8
LAYER-1
 10
54.084712
 20
18.858661
 30
0.000000
  0
SEQEND
  8
LAYER-1
  0
POLYLINE
  8
LAYER-1
 66
  1
 70
  0
 62
  7
 10
54.100262
 20
18.696674
 30
0.000000
  0
VERTEX
  8
LAYER-1
 10
54.100262
 20
18.696674
 30
0.000000
  0
VERTEX
  8
LAYER-1
 10
54.080271
 20
18.726215
 30
0.000000
  0
SEQEND
  8
LAYER-1
  0
POLYLINE
  8
LAYER-1
 66
  1
 70
  0
 62
  7
 10
54.100262
 20
18.696674
 30
0.000000
  0
VERTEX
  8
LAYER-1
 10
54.100262
 20
18.696674
 30
0.000000
  0
VERTEX
  8
LAYER-1
 10
54.120258
 20
18.726215
 30
0.000000
  0
SEQEND
  8
LAYER-1
  0
POLYLINE
  8
LAYER-1
 66
  1
 70
  0
 62
  7
 10
54.044725
 20
18.858661
 30
0.000000
  0
VERTEX
  8
LAYER-1
 10
54.044725
 20
18.858661
 30
0.000000
  0
VERTEX
  8
LAYER-1
 10
54.080271
 20
18.726215
 30
0.000000
  0
SEQEND
  8
LAYER-1
  0
POLYLINE
  8
LAYER-1
 66
  1
 70
  0
 62
  7
 10
54.064716
 20
18.888198
 30
0.000000
  0
VERTEX
  8
LAYER-1
 10
54.064716
 20
18.888198
 30
0.000000
  0
VERTEX
  8
LAYER-1
 10
54.100262
 20
18.696674
 30
0.000000
  0
SEQEND
  8
LAYER-1
  0
POLYLINE
  8
LAYER-1
 66
  1
 70
  0
 62
  7
 10
54.084712
 20
18.858661
 30
0.000000
  0
VERTEX
  8
LAYER-1
 10
54.084712
 20
18.858661
 30
0.000000
  0
VERTEX
  8
LAYER-1
 10
54.120258
 20
18.726215
 30
0.000000
  0
SEQEND
  8
LAYER-1
  0
POLYLINE
  8
LAYER-1
 66
  1
 70
  0
 62
  7
 10
54.084712
 20
18.858661
 30
0.000000
  0
VERTEX
  8
LAYER-1
 10
54.084712
 20
18.858661
 30
0.000000
  0
VERTEX
  8
LAYER-1
 10
54.126249
 20
18.858661
 30
0.000000
  0
SEQEND
  8
LAYER-1
  0
POLYLINE
  8
LAYER-1
 66
  1
 70
  0
 62
  7
 10
54.120258
 20
18.726215
 30
0.000000
  0
VERTEX
  8
LAYER-1
 10
54.120258
 20
18.726215
 30
0.000000
  0
VERTEX
  8
LAYER-1
 10
54.161795
 20
18.726215
 30
0.000000
  0
SEQEND
  8
LAYER-1
  0
POLYLINE
  8
LAYER-1
 66
  1
 70
  0
 62
  7
 10
53.982722
 20
18.888198
 30
0.000000
  0
VERTEX
  8
LAYER-1
 10
53.982722
 20
18.888198
 30
0.000000
  0
VERTEX
  8
LAYER-1
 10
53.962726
 20
18.858661
 30
0.000000
  0
SEQEND
  8
LAYER-1
  0
POLYLINE
  8
LAYER-1
 66
  1
 70
  0
 62
  7
 10
53.982722
 20
18.888198
 30
0.000000
  0
VERTEX
  8
LAYER-1
 10
53.982722
 20
18.888198
 30
0.000000
  0
VERTEX
  8
LAYER-1
 10
54.002714
 20
18.858661
 30
0.000000
  0
SEQEND
  8
LAYER-1
  0
POLYLINE
  8
LAYER-1
 66
  1
 70
  0
 62
  7
 10
54.018264
 20
18.696674
 30
0.000000
  0
VERTEX
  8
LAYER-1
 10
54.018264
 20
18.696674
 30
0.000000
  0
VERTEX
  8
LAYER-1
 10
53.998268
 20
18.726215
 30
0.000000
  0
SEQEND
  8
LAYER-1
  0
POLYLINE
  8
LAYER-1
 66
  1
 70
  0
 62
  7
 10
54.018264
 20
18.696674
 30
0.000000
  0
VERTEX
  8
LAYER-1
 10
54.018264
 20
18.696674
 30
0.000000
  0
VERTEX
  8
LAYER-1
 10
54.038260
 20
18.726215
 30
0.000000
  0
SEQEND
  8
LAYER-1
  0
POLYLINE
  8
LAYER-1
 66
  1
 70
  0
 62
  7
 10
53.962726
 20
18.858661
 30
0.000000
  0
VERTEX
  8
LAYER-1
 10
53.962726
 20
18.858661
 30
0.000000
  0
VERTEX
  8
LAYER-1
 10
53.998268
 20
18.726215
 30
0.000000
  0
SEQEND
  8
LAYER-1
  0
POLYLINE
  8
LAYER-1
 66
  1
 70
  0
 62
  7
 10
53.982722
 20
18.888198
 30
0.000000
  0
VERTEX
  8
LAYER-1
 10
53.982722
 20
18.888198
 30
0.000000
  0
VERTEX
  8
LAYER-1
 10
54.018264
 20
18.696674
 30
0.000000
  0
SEQEND
  8
LAYER-1
  0
POLYLINE
  8
LAYER-1
 66
  1
 70
  0
 62
  7
 10
54.002714
 20
18.858661
 30
0.000000
  0
VERTEX
  8
LAYER-1
 10
54.002714
 20
18.858661
 30
0.000000
  0
VERTEX
  8
LAYER-1
 10
54.038260
 20
18.726215
 30
0.000000
  0
SEQEND
  8
LAYER-1
  0
POLYLINE
  8
LAYER-1
 66
  1
 70
  0
 62
  7
 10
54.002714
 20
18.858661
 30
0.000000
  0
VERTEX
  8
LAYER-1
 10
54.002714
 20
18.858661
 30
0.000000
  0
VERTEX
  8
LAYER-1
 10
54.044250
 20
18.858661
 30
0.000000
  0
SEQEND
  8
LAYER-1
  0
POLYLINE
  8
LAYER-1
 66
  1
 70
  0
 62
  7
 10
54.038260
 20
18.726215
 30
0.000000
  0
VERTEX
  8
LAYER-1
 10
54.038260
 20
18.726215
 30
0.000000
  0
VERTEX
  8
LAYER-1
 10
54.079792
 20
18.726215
 30
0.000000
  0
SEQEND
  8
LAYER-1
  0
POLYLINE
  8
LAYER-1
 66
  1
 70
  0
 62
  7
 10
53.900719
 20
18.888198
 30
0.000000
  0
VERTEX
  8
LAYER-1
 10
53.900719
 20
18.888198
 30
0.000000
  0
VERTEX
  8
LAYER-1
 10
53.880723
 20
18.858661
 30
0.000000
  0
SEQEND
  8
LAYER-1
  0
POLYLINE
  8
LAYER-1
 66
  1
 70
  0
 62
  7
 10
53.900719
 20
18.888198
 30
0.000000
  0
VERTEX
  8
LAYER-1
 10
53.900719
 20
18.888198
 30
0.000000
  0
VERTEX
  8
LAYER-1
 10
53.920715
 20
18.858661
 30
0.000000
  0
SEQEND
  8
LAYER-1
  0
POLYLINE
  8
LAYER-1
 66
  1
 70
  0
 62
  7
 10
53.936265
 20
18.696674
 30
0.000000
  0
VERTEX
  8
LAYER-1
 10
53.936265
 20
18.696674
 30
0.000000
  0
VERTEX
  8
LAYER-1
 10
53.916269
 20
18.726215
 30
0.000000
  0
SEQEND
  8
LAYER-1
  0
POLYLINE
  8
LAYER-1
 66
  1
 70
  0
 62
  7
 10
53.936265
 20
18.696674
 30
0.000000
  0
VERTEX
  8
LAYER-1
 10
53.936265
 20
18.696674
 30
0.000000
  0
VERTEX
  8
LAYER-1
 10
53.956261
 20
18.726215
 30
0.000000
  0
SEQEND
  8
LAYER-1
  0
POLYLINE
  8
LAYER-1
 66
  1
 70
  0
 62
  7
 10
53.880723
 20
18.858661
 30
0.000000
  0
VERTEX
  8
LAYER-1
 10
53.880723
 20
18.858661
 30
0.000000
  0
VERTEX
  8
LAYER-1
 10
53.916269
 20
18.726215
 30
0.000000
  0
SEQEND
  8
LAYER-1
  0
POLYLINE
  8
LAYER-1
 66
  1
 70
  0
 62
  7
 10
53.900719
 20
18.888198
 30
0.000000
  0
VERTEX
  8
LAYER-1
 10
53.900719
 20
18.888198
 30
0.000000
  0
VERTEX
  8
LAYER-1
 10
53.936265
 20
18.696674
 30
0.000000
  0
SEQEND
  8
LAYER-1
  0
POLYLINE
  8
LAYER-1
 66
  1
 70
  0
 62
  7
 10
53.920715
 20
18.858661
 30
0.000000
  0
VERTEX
  8
LAYER-1
 10
53.920715
 20
18.858661
 30
0.000000
  0
VERTEX
  8
LAYER-1
 10
53.956261
 20
18.726215
 30
0.000000
  0
SEQEND
  8
LAYER-1
  0
POLYLINE
  8
LAYER-1
 66
  1
 70
  0
 62
  7
 10
53.920715
 20
18.858661
 30
0.000000
  0
VERTEX
  8
LAYER-1
 10
53.920715
 20
18.858661
 30
0.000000
  0
VERTEX
  8
LAYER-1
 10
53.962247
 20
18.858661
 30
0.000000
  0
SEQEND
  8
LAYER-1
  0
POLYLINE
  8
LAYER-1
 66
  1
 70
  0
 62
  7
 10
53.956261
 20
18.726215
 30
0.000000
  0
VERTEX
  8
LAYER-1
 10
53.956261
 20
18.726215
 30
0.000000
  0
VERTEX
  8
LAYER-1
 10
53.997793
 20
18.726215
 30
0.000000
  0
SEQEND
  8
LAYER-1
  0
POLYLINE
  8
LAYER-1
 66
  1
 70
  0
 62
  7
 10
53.818721
 20
18.888198
 30
0.000000
  0
VERTEX
  8
LAYER-1
 10
53.818721
 20
18.888198
 30
0.000000
  0
VERTEX
  8
LAYER-1
 10
53.798725
 20
18.858661
 30
0.000000
  0
SEQEND
  8
LAYER-1
  0
POLYLINE
  8
LAYER-1
 66
  1
 70
  0
 62
  7
 10
53.818721
 20
18.888198
 30
0.000000
  0
VERTEX
  8
LAYER-1
 10
53.818721
 20
18.888198
 30
0.000000
  0
VERTEX
  8
LAYER-1
 10
53.838712
 20
18.858661
 30
0.000000
  0
SEQEND
  8
LAYER-1
  0
POLYLINE
  8
LAYER-1
 66
  1
 70
  0
 62
  7
 10
53.854267
 20
18.696674
 30
0.000000
  0
VERTEX
  8
LAYER-1
 10
53.854267
 20
18.696674
 30
0.000000
  0
VERTEX
  8
LAYER-1
 10
53.834266
 20
18.726215
 30
0.000000
  0
SEQEND
  8
LAYER-1
  0
POLYLINE
  8
LAYER-1
 66
  1
 70
  0
 62
  7
 10
53.854267
 20
18.696674
 30
0.000000
  0
VERTEX
  8
LAYER-1
 10
53.854267
 20
18.696674
 30
0.000000
  0
VERTEX
  8
LAYER-1
 10
53.874263
 20
18.726215
 30
0.000000
  0
SEQEND
  8
LAYER-1
  0
POLYLINE
  8
LAYER-1
 66
  1
 70
  0
 62
  7
 10
53.798725
 20
18.858661
 30
0.000000
  0
VERTEX
  8
LAYER-1
 10
53.798725
 20
18.858661
 30
0.000000
  0
VERTEX
  8
LAYER-1
 10
53.834266
 20
18.726215
 30
0.000000
  0
SEQEND
  8
LAYER-1
  0
POLYLINE
  8
LAYER-1
 66
  1
 70
  0
 62
  7
 10
53.818721
 20
18.888198
 30
0.000000
  0
VERTEX
  8
LAYER-1
 10
53.818721
 20
18.888198
 30
0.000000
  0
VERTEX
  8
LAYER-1
 10
53.854267
 20
18.696674
 30
0.000000
  0
SEQEND
  8
LAYER-1
  0
POLYLINE
  8
LAYER-1
 66
  1
 70
  0
 62
  7
 10
53.838712
 20
18.858661
 30
0.000000
  0
VERTEX
  8
LAYER-1
 10
53.838712
 20
18.858661
 30
0.000000
  0
VERTEX
  8
LAYER-1
 10
53.874263
 20
18.726215
 30
0.000000
  0
SEQEND
  8
LAYER-1
  0
POLYLINE
  8
LAYER-1
 66
  1
 70
  0
 62
  7
 10
53.838712
 20
18.858661
 30
0.000000
  0
VERTEX
  8
LAYER-1
 10
53.838712
 20
18.858661
 30
0.000000
  0
VERTEX
  8
LAYER-1
 10
53.880249
 20
18.858661
 30
0.000000
  0
SEQEND
  8
LAYER-1
  0
POLYLINE
  8
LAYER-1
 66
  1
 70
  0
 62
  7
 10
53.874263
 20
18.726215
 30
0.000000
  0
VERTEX
  8
LAYER-1
 10
53.874263
 20
18.726215
 30
0.000000
  0
VERTEX
  8
LAYER-1
 10
53.915790
 20
18.726215
 30
0.000000
  0
SEQEND
  8
LAYER-1
  0
POLYLINE
  8
LAYER-1
 66
  1
 70
  0
 62
  7
 10
53.736718
 20
18.888198
 30
0.000000
  0
VERTEX
  8
LAYER-1
 10
53.736718
 20
18.888198
 30
0.000000
  0
VERTEX
  8
LAYER-1
 10
53.716722
 20
18.858661
 30
0.000000
  0
SEQEND
  8
LAYER-1
  0
POLYLINE
  8
LAYER-1
 66
  1
 70
  0
 62
  7
 10
53.736718
 20
18.888198
 30
0.000000
  0
VERTEX
  8
LAYER-1
 10
53.736718
 20
18.888198
 30
0.000000
  0
VERTEX
  8
LAYER-1
 10
53.756714
 20
18.858661
 30
0.000000
  0
SEQEND
  8
LAYER-1
  0
POLYLINE
  8
LAYER-1
 66
  1
 70
  0
 62
  7
 10
53.772264
 20
18.696674
 30
0.000000
  0
VERTEX
  8
LAYER-1
 10
53.772264
 20
18.696674
 30
0.000000
  0
VERTEX
  8
LAYER-1
 10
53.752268
 20
18.726215
 30
0.000000
  0
SEQEND
  8
LAYER-1
  0
POLYLINE
  8
LAYER-1
 66
  1
 70
  0
 62
  7
 10
53.772264
 20
18.696674
 30
0.000000
  0
VERTEX
  8
LAYER-1
 10
53.772264
 20
18.696674
 30
0.000000
  0
VERTEX
  8
LAYER-1
 10
53.792260
 20
18.726215
 30
0.000000
  0
SEQEND
  8
LAYER-1
  0
POLYLINE
  8
LAYER-1
 66
  1
 70
  0
 62
  7
 10
53.716722
 20
18.858661
 30
0.000000
  0
VERTEX
  8
LAYER-1
 10
53.716722
 20
18.858661
 30
0.000000
  0
VERTEX
  8
LAYER-1
 10
53.752268
 20
18.726215
 30
0.000000
  0
SEQEND
  8
LAYER-1
  0
POLYLINE
  8
LAYER-1
 66
  1
 70
  0
 62
  7
 10
53.736718
 20
18.888198
 30
0.000000
  0
VERTEX
  8
LAYER-1
 10
53.736718
 20
18.888198
 30
0.000000
  0
VERTEX
  8
LAYER-1
 10
53.772264
 20
18.696674
 30
0.000000
  0
SEQEND
  8
LAYER-1
  0
POLYLINE
  8
LAYER-1
 66
  1
 70
  0
 62
  7
 10
53.756714
 20
18.858661
 30
0.000000
  0
VERTEX
  8
LAYER-1
 10
53.756714
 20
18.858661
 30
0.000000
  0
VERTEX
  8
LAYER-1
 10
53.792260
 20
18.726215
 30
0.000000
  0
SEQEND
  8
LAYER-1
  0
POLYLINE
  8
LAYER-1
 66
  1
 70
  0
 62
  7
 10
53.756714
 20
18.858661
 30
0.000000
  0
VERTEX
  8
LAYER-1
 10
53.756714
 20
18.858661
 30
0.000000
  0
VERTEX
  8
LAYER-1
 10
53.798251
 20
18.858661
 30
0.000000
  0
SEQEND
  8
LAYER-1
  0
POLYLINE
  8
LAYER-1
 66
  1
 70
  0
 62
  7
 10
53.792260
 20
18.726215
 30
0.000000
  0
VERTEX
  8
LAYER-1
 10
53.792260
 20
18.726215
 30
0.000000
  0
VERTEX
  8
LAYER-1
 10
53.833797
 20
18.726215
 30
0.000000
  0
SEQEND
  8
LAYER-1
  0
POLYLINE
  8
LAYER-1
 66
  1
 70
  0
 62
  7
 10
53.654719
 20
18.888198
 30
0.000000
  0
VERTEX
  8
LAYER-1
 10
53.654719
 20
18.888198
 30
0.000000
  0
VERTEX
  8
LAYER-1
 10
53.634728
 20
18.858661
 30
0.000000
  0
SEQEND
  8
LAYER-1
  0
POLYLINE
  8
LAYER-1
 66
  1
 70
  0
 62
  7
 10
53.654719
 20
18.888198
 30
0.000000
  0
VERTEX
  8
LAYER-1
 10
53.654719
 20
18.888198
 30
0.000000
  0
VERTEX
  8
LAYER-1
 10
53.674711
 20
18.858661
 30
0.000000
  0
SEQEND
  8
LAYER-1
  0
POLYLINE
  8
LAYER-1
 66
  1
 70
  0
 62
  7
 10
53.690265
 20
18.696674
 30
0.000000
  0
VERTEX
  8
LAYER-1
 10
53.690265
 20
18.696674
 30
0.000000
  0
VERTEX
  8
LAYER-1
 10
53.670269
 20
18.726215
 30
0.000000
  0
SEQEND
  8
LAYER-1
  0
POLYLINE
  8
LAYER-1
 66
  1
 70
  0
 62
  7
 10
53.690265
 20
18.696674
 30
0.000000
  0
VERTEX
  8
LAYER-1
 10
53.690265
 20
18.696674
 30
0.000000
  0
VERTEX
  8
LAYER-1
 10
53.710261
 20
18.726215
 30
0.000000
  0
SEQEND
  8
LAYER-1
  0
POLYLINE
  8
LAYER-1
 66
  1
 70
  0
 62
  7
 10
53.634728
 20
18.858661
 30
0.000000
  0
VERTEX
  8
LAYER-1
 10
53.634728
 20
18.858661
 30
0.000000
  0
VERTEX
  8
LAYER-1
 10
53.670269
 20
18.726215
 30
0.000000
  0
SEQEND
  8
LAYER-1
  0
POLYLINE
  8
LAYER-1
 66
  1
 70
  0
 62
  7
 10
53.654719
 20
18.888198
 30
0.000000
  0
VERTEX
  8
LAYER-1
 10
53.654719
 20
18.888198
 30
0.000000
  0
VERTEX
  8
LAYER-1
 10
53.690265
 20
18.696674
 30
0.000000
  0
SEQEND
  8
LAYER-1
  0
POLYLINE
  8
LAYER-1
 66
  1
 70
  0
 62
  7
 10
53.674711
 20
18.858661
 30
0.000000
  0
VERTEX
  8
LAYER-1
 10
53.674711
 20
18.858661
 30
0.000000
  0
VERTEX
  8
LAYER-1
 10
53.710261
 20
18.726215
 30
0.000000
  0
SEQEND
  8
LAYER-1
  0
POLYLINE
  8
LAYER-1
 66
  1
 70
  0
 62
  7
 10
53.674711
 20
18.858661
 30
0.000000
  0
VERTEX
  8
LAYER-1
 10
53.674711
 20
18.858661
 30
0.000000
  0
VERTEX
  8
LAYER-1
 10
53.716252
 20
18.858661
 30
0.000000
  0
SEQEND
  8
LAYER-1
  0
POLYLINE
  8
LAYER-1
 66
  1
 70
  0
 62
  7
 10
53.710261
 20
18.726215
 30
0.000000
  0
VERTEX
  8
LAYER-1
 10
53.710261
 20
18.726215
 30
0.000000
  0
VERTEX
  8
LAYER-1
 10
53.751793
 20
18.726215
 30
0.000000
  0
SEQEND
  8
LAYER-1
  0
POLYLINE
  8
LAYER-1
 66
  1
 70
  0
 62
  7
 10
53.572716
 20
18.888198
 30
0.000000
  0
VERTEX
  8
LAYER-1
 10
53.572716
 20
18.888198
 30
0.000000
  0
VERTEX
  8
LAYER-1
 10
53.552725
 20
18.858661
 30
0.000000
  0
SEQEND
  8
LAYER-1
  0
POLYLINE
  8
LAYER-1
 66
  1
 70
  0
 62
  7
 10
53.572716
 20
18.888198
 30
0.000000
  0
VERTEX
  8
LAYER-1
 10
53.572716
 20
18.888198
 30
0.000000
  0
VERTEX
  8
LAYER-1
 10
53.592712
 20
18.858661
 30
0.000000
  0
SEQEND
  8
LAYER-1
  0
POLYLINE
  8
LAYER-1
 66
  1
 70
  0
 62
  7
 10
53.608267
 20
18.696674
 30
0.000000
  0
VERTEX
  8
LAYER-1
 10
53.608267
 20
18.696674
 30
0.000000
  0
VERTEX
  8
LAYER-1
 10
53.588271
 20
18.726215
 30
0.000000
  0
SEQEND
  8
LAYER-1
  0
POLYLINE
  8
LAYER-1
 66
  1
 70
  0
 62
  7
 10
53.608267
 20
18.696674
 30
0.000000
  0
VERTEX
  8
LAYER-1
 10
53.608267
 20
18.696674
 30
0.000000
  0
VERTEX
  8
LAYER-1
 10
53.628258
 20
18.726215
 30
0.000000
  0
SEQEND
  8
LAYER-1
  0
POLYLINE
  8
LAYER-1
 66
  1
 70
  0
 62
  7
 10
53.552725
 20
18.858661
 30
0.000000
  0
VERTEX
  8
LAYER-1
 10
53.552725
 20
18.858661
 30
0.000000
  0
VERTEX
  8
LAYER-1
 10
53.588271
 20
18.726215
 30
0.000000
  0
SEQEND
  8
LAYER-1
  0
POLYLINE
  8
LAYER-1
 66
  1
 70
  0
 62
  7
 10
53.572716
 20
18.888198
 30
0.000000
  0
VERTEX
  8
LAYER-1
 10
53.572716
 20
18.888198
 30
0.000000
  0
VERTEX
  8
LAYER-1
 10
53.608267
 20
18.696674
 30
0.000000
  0
SEQEND
  8
LAYER-1
  0
POLYLINE
  8
LAYER-1
 66
  1
 70
  0
 62
  7
 10
53.592712
 20
18.858661
 30
0.000000
  0
VERTEX
  8
LAYER-1
 10
53.592712
 20
18.858661
 30
0.000000
  0
VERTEX
  8
LAYER-1
 10
53.628258
 20
18.726215
 30
0.000000
  0
SEQEND
  8
LAYER-1
  0
POLYLINE
  8
LAYER-1
 66
  1
 70
  0
 62
  7
 10
53.592712
 20
18.858661
 30
0.000000
  0
VERTEX
  8
LAYER-1
 10
53.592712
 20
18.858661
 30
0.000000
  0
VERTEX
  8
LAYER-1
 10
53.634249
 20
18.858661
 30
0.000000
  0
SEQEND
  8
LAYER-1
  0
POLYLINE
  8
LAYER-1
 66
  1
 70
  0
 62
  7
 10
53.628258
 20
18.726215
 30
0.000000
  0
VERTEX
  8
LAYER-1
 10
53.628258
 20
18.726215
 30
0.000000
  0
VERTEX
  8
LAYER-1
 10
53.669795
 20
18.726215
 30
0.000000
  0
SEQEND
  8
LAYER-1
  0
POLYLINE
  8
LAYER-1
 66
  1
 70
  0
 62
  7
 10
53.490718
 20
18.888198
 30
0.000000
  0
VERTEX
  8
LAYER-1
 10
53.490718
 20
18.888198
 30
0.000000
  0
VERTEX
  8
LAYER-1
 10
53.470727
 20
18.858661
 30
0.000000
  0
SEQEND
  8
LAYER-1
  0
POLYLINE
  8
LAYER-1
 66
  1
 70
  0
 62
  7
 10
53.490718
 20
18.888198
 30
0.000000
  0
VERTEX
  8
LAYER-1
 10
53.490718
 20
18.888198
 30
0.000000
  0
VERTEX
  8
LAYER-1
 10
53.510709
 20
18.858661
 30
0.000000
  0
SEQEND
  8
LAYER-1
  0
POLYLINE
  8
LAYER-1
 66
  1
 70
  0
 62
  7
 10
53.526269
 20
18.696674
 30
0.000000
  0
VERTEX
  8
LAYER-1
 10
53.526269
 20
18.696674
 30
0.000000
  0
VERTEX
  8
LAYER-1
 10
53.506268
 20
18.726215
 30
0.000000
  0
SEQEND
  8
LAYER-1
  0
POLYLINE
  8
LAYER-1
 66
  1
 70
  0
 62
  7
 10
53.526269
 20
18.696674
 30
0.000000
  0
VERTEX
  8
LAYER-1
 10
53.526269
 20
18.696674
 30
0.000000
  0
VERTEX
  8
LAYER-1
 10
53.546260
 20
18.726215
 30
0.000000
  0
SEQEND
  8
LAYER-1
  0
POLYLINE
  8
LAYER-1
 66
  1
 70
  0
 62
  7
 10
53.470727
 20
18.858661
 30
0.000000
  0
VERTEX
  8
LAYER-1
 10
53.470727
 20
18.858661
 30
0.000000
  0
VERTEX
  8
LAYER-1
 10
53.506268
 20
18.726215
 30
0.000000
  0
SEQEND
  8
LAYER-1
  0
POLYLINE
  8
LAYER-1
 66
  1
 70
  0
 62
  7
 10
53.490718
 20
18.888198
 30
0.000000
  0
VERTEX
  8
LAYER-1
 10
53.490718
 20
18.888198
 30
0.000000
  0
VERTEX
  8
LAYER-1
 10
53.526269
 20
18.696674
 30
0.000000
  0
SEQEND
  8
LAYER-1
  0
POLYLINE
  8
LAYER-1
 66
  1
 70
  0
 62
  7
 10
53.510709
 20
18.858661
 30
0.000000
  0
VERTEX
  8
LAYER-1
 10
53.510709
 20
18.858661
 30
0.000000
  0
VERTEX
  8
LAYER-1
 10
53.546260
 20
18.726215
 30
0.000000
  0
SEQEND
  8
LAYER-1
  0
POLYLINE
  8
LAYER-1
 66
  1
 70
  0
 62
  7
 10
53.510709
 20
18.858661
 30
0.000000
  0
VERTEX
  8
LAYER-1
 10
53.510709
 20
18.858661
 30
0.000000
  0
VERTEX
  8
LAYER-1
 10
53.552251
 20
18.858661
 30
0.000000
  0
SEQEND
  8
LAYER-1
  0
POLYLINE
  8
LAYER-1
 66
  1
 70
  0
 62
  7
 10
53.546260
 20
18.726215
 30
0.000000
  0
VERTEX
  8
LAYER-1
 10
53.546260
 20
18.726215
 30
0.000000
  0
VERTEX
  8
LAYER-1
 10
53.587792
 20
18.726215
 30
0.000000
  0
SEQEND
  8
LAYER-1
  0
POLYLINE
  8
LAYER-1
 66
  1
 70
  0
 62
  7
 10
53.408720
 20
18.888198
 30
0.000000
  0
VERTEX
  8
LAYER-1
 10
53.408720
 20
18.888198
 30
0.000000
  0
VERTEX
  8
LAYER-1
 10
53.388724
 20
18.858661
 30
0.000000
  0
SEQEND
  8
LAYER-1
  0
POLYLINE
  8
LAYER-1
 66
  1
 70
  0
 62
  7
 10
53.408720
 20
18.888198
 30
0.000000
  0
VERTEX
  8
LAYER-1
 10
53.408720
 20
18.888198
 30
0.000000
  0
VERTEX
  8
LAYER-1
 10
53.428716
 20
18.858661
 30
0.000000
  0
SEQEND
  8
LAYER-1
  0
POLYLINE
  8
LAYER-1
 66
  1
 70
  0
 62
  7
 10
53.444266
 20
18.696674
 30
0.000000
  0
VERTEX
  8
LAYER-1
 10
53.444266
 20
18.696674
 30
0.000000
  0
VERTEX
  8
LAYER-1
 10
53.424269
 20
18.726215
 30
0.000000
  0
SEQEND
  8
LAYER-1
  0
POLYLINE
  8
LAYER-1
 66
  1
 70
  0
 62
  7
 10
53.444266
 20
18.696674
 30
0.000000
  0
VERTEX
  8
LAYER-1
 10
53.444266
 20
18.696674
 30
0.000000
  0
VERTEX
  8
LAYER-1
 10
53.464257
 20
18.726215
 30
0.000000
  0
SEQEND
  8
LAYER-1
  0
POLYLINE
  8
LAYER-1
 66
  1
 70
  0
 62
  7
 10
53.388724
 20
18.858661
 30
0.000000
  0
VERTEX
  8
LAYER-1
 10
53.388724
 20
18.858661
 30
0.000000
  0
VERTEX
  8
LAYER-1
 10
53.424269
 20
18.726215
 30
0.000000
  0
SEQEND
  8
LAYER-1
  0
POLYLINE
  8
LAYER-1
 66
  1
 70
  0
 62
  7
 10
53.408720
 20
18.888198
 30
0.000000
  0
VERTEX
  8
LAYER-1
 10
53.408720
 20
18.888198
 30
0.000000
  0
VERTEX
  8
LAYER-1
 10
53.444266
 20
18.696674
 30
0.000000
  0
SEQEND
  8
LAYER-1
  0
POLYLINE
  8
LAYER-1
 66
  1
 70
  0
 62
  7
 10
53.428716
 20
18.858661
 30
0.000000
  0
VERTEX
  8
LAYER-1
 10
53.428716
 20
18.858661
 30
0.000000
  0
VERTEX
  8
LAYER-1
 10
53.464257
 20
18.726215
 30
0.000000
  0
SEQEND
  8
LAYER-1
  0
POLYLINE
  8
LAYER-1
 66
  1
 70
  0
 62
  7
 10
53.428716
 20
18.858661
 30
0.000000
  0
VERTEX
  8
LAYER-1
 10
53.428716
 20
18.858661
 30
0.000000
  0
VERTEX
  8
LAYER-1
 10
53.470248
 20
18.858661
 30
0.000000
  0
SEQEND
  8
LAYER-1
  0
POLYLINE
  8
LAYER-1
 66
  1
 70
  0
 62
  7
 10
53.464257
 20
18.726215
 30
0.000000
  0
VERTEX
  8
LAYER-1
 10
53.464257
 20
18.726215
 30
0.000000
  0
VERTEX
  8
LAYER-1
 10
53.505794
 20
18.726215
 30
0.000000
  0
SEQEND
  8
LAYER-1
  0
POLYLINE
  8
LAYER-1
 66
  1
 70
  0
 62
  7
 10
53.326716
 20
18.888198
 30
0.000000
  0
VERTEX
  8
LAYER-1
 10
53.326716
 20
18.888198
 30
0.000000
  0
VERTEX
  8
LAYER-1
 10
53.306725
 20
18.858661
 30
0.000000
  0
SEQEND
  8
LAYER-1
  0
POLYLINE
  8
LAYER-1
 66
  1
 70
  0
 62
  7
 10
53.326716
 20
18.888198
 30
0.000000
  0
VERTEX
  8
LAYER-1
 10
53.326716
 20
18.888198
 30
0.000000
  0
VERTEX
  8
LAYER-1
 10
53.346713
 20
18.858661
 30
0.000000
  0
SEQEND
  8
LAYER-1
  0
POLYLINE
  8
LAYER-1
 66
  1
 70
  0
 62
  7
 10
53.362267
 20
18.696674
 30
0.000000
  0
VERTEX
  8
LAYER-1
 10
53.362267
 20
18.696674
 30
0.000000
  0
VERTEX
  8
LAYER-1
 10
53.342271
 20
18.726215
 30
0.000000
  0
SEQEND
  8
LAYER-1
  0
POLYLINE
  8
LAYER-1
 66
  1
 70
  0
 62
  7
 10
53.362267
 20
18.696674
 30
0.000000
  0
VERTEX
  8
LAYER-1
 10
53.362267
 20
18.696674
 30
0.000000
  0
VERTEX
  8
LAYER-1
 10
53.382258
 20
18.726215
 30
0.000000
  0
SEQEND
  8
LAYER-1
  0
POLYLINE
  8
LAYER-1
 66
  1
 70
  0
 62
  7
 10
53.306725
 20
18.858661
 30
0.000000
  0
VERTEX
  8
LAYER-1
 10
53.306725
 20
18.858661
 30
0.000000
  0
VERTEX
  8
LAYER-1
 10
53.342271
 20
18.726215
 30
0.000000
  0
SEQEND
  8
LAYER-1
  0
POLYLINE
  8
LAYER-1
 66
  1
 70
  0
 62
  7
 10
53.326716
 20
18.888198
 30
0.000000
  0
VERTEX
  8
LAYER-1
 10
53.326716
 20
18.888198
 30
0.000000
  0
VERTEX
  8
LAYER-1
 10
53.362267
 20
18.696674
 30
0.000000
  0
SEQEND
  8
LAYER-1
  0
POLYLINE
  8
LAYER-1
 66
  1
 70
  0
 62
  7
 10
53.346713
 20
18.858661
 30
0.000000
  0
VERTEX
  8
LAYER-1
 10
53.346713
 20
18.858661
 30
0.000000
  0
VERTEX
  8
LAYER-1
 10
53.382258
 20
18.726215
 30
0.000000
  0
SEQEND
  8
LAYER-1
  0
POLYLINE
  8
LAYER-1
 66
  1
 70
  0
 62
  7
 10
53.346713
 20
18.858661
 30
0.000000
  0
VERTEX
  8
LAYER-1
 10
53.346713
 20
18.858661
 30
0.000000
  0
VERTEX
  8
LAYER-1
 10
53.388249
 20
18.858661
 30
0.000000
  0
SEQEND
  8
LAYER-1
  0
POLYLINE
  8
LAYER-1
 66
  1
 70
  0
 62
  7
 10
53.382258
 20
18.726215
 30
0.000000
  0
VERTEX
  8
LAYER-1
 10
53.382258
 20
18.726215
 30
0.000000
  0
VERTEX
  8
LAYER-1
 10
53.423795
 20
18.726215
 30
0.000000
  0
SEQEND
  8
LAYER-1
  0
POLYLINE
  8
LAYER-1
 66
  1
 70
  0
 62
  7
 10
53.244718
 20
18.888198
 30
0.000000
  0
VERTEX
  8
LAYER-1
 10
53.244718
 20
18.888198
 30
0.000000
  0
VERTEX
  8
LAYER-1
 10
53.224722
 20
18.858661
 30
0.000000
  0
SEQEND
  8
LAYER-1
  0
POLYLINE
  8
LAYER-1
 66
  1
 70
  0
 62
  7
 10
53.244718
 20
18.888198
 30
0.000000
  0
VERTEX
  8
LAYER-1
 10
53.244718
 20
18.888198
 30
0.000000
  0
VERTEX
  8
LAYER-1
 10
53.264714
 20
18.858661
 30
0.000000
  0
SEQEND
  8
LAYER-1
  0
POLYLINE
  8
LAYER-1
 66
  1
 70
  0
 62
  7
 10
53.280264
 20
18.696674
 30
0.000000
  0
VERTEX
  8
LAYER-1
 10
53.280264
 20
18.696674
 30
0.000000
  0
VERTEX
  8
LAYER-1
 10
53.260268
 20
18.726215
 30
0.000000
  0
SEQEND
  8
LAYER-1
  0
POLYLINE
  8
LAYER-1
 66
  1
 70
  0
 62
  7
 10
53.280264
 20
18.696674
 30
0.000000
  0
VERTEX
  8
LAYER-1
 10
53.280264
 20
18.696674
 30
0.000000
  0
VERTEX
  8
LAYER-1
 10
53.300255
 20
18.726215
 30
0.000000
  0
SEQEND
  8
LAYER-1
  0
POLYLINE
  8
LAYER-1
 66
  1
 70
  0
 62
  7
 10
53.224722
 20
18.858661
 30
0.000000
  0
VERTEX
  8
LAYER-1
 10
53.224722
 20
18.858661
 30
0.000000
  0
VERTEX
  8
LAYER-1
 10
53.260268
 20
18.726215
 30
0.000000
  0
SEQEND
  8
LAYER-1
  0
POLYLINE
  8
LAYER-1
 66
  1
 70
  0
 62
  7
 10
53.244718
 20
18.888198
 30
0.000000
  0
VERTEX
  8
LAYER-1
 10
53.244718
 20
18.888198
 30
0.000000
  0
VERTEX
  8
LAYER-1
 10
53.280264
 20
18.696674
 30
0.000000
  0
SEQEND
  8
LAYER-1
  0
POLYLINE
  8
LAYER-1
 66
  1
 70
  0
 62
  7
 10
53.264714
 20
18.858661
 30
0.000000
  0
VERTEX
  8
LAYER-1
 10
53.264714
 20
18.858661
 30
0.000000
  0
VERTEX
  8
LAYER-1
 10
53.300255
 20
18.726215
 30
0.000000
  0
SEQEND
  8
LAYER-1
  0
POLYLINE
  8
LAYER-1
 66
  1
 70
  0
 62
  7
 10
53.264714
 20
18.858661
 30
0.000000
  0
VERTEX
  8
LAYER-1
 10
53.264714
 20
18.858661
 30
0.000000
  0
VERTEX
  8
LAYER-1
 10
53.306246
 20
18.858661
 30
0.000000
  0
SEQEND
  8
LAYER-1
  0
POLYLINE
  8
LAYER-1
 66
  1
 70
  0
 62
  7
 10
53.300255
 20
18.726215
 30
0.000000
  0
VERTEX
  8
LAYER-1
 10
53.300255
 20
18.726215
 30
0.000000
  0
VERTEX
  8
LAYER-1
 10
53.341797
 20
18.726215
 30
0.000000
  0
SEQEND
  8
LAYER-1
  0
POLYLINE
  8
LAYER-1
 66
  1
 70
  0
 62
  7
 10
53.162715
 20
18.888198
 30
0.000000
  0
VERTEX
  8
LAYER-1
 10
53.162715
 20
18.888198
 30
0.000000
  0
VERTEX
  8
LAYER-1
 10
53.142724
 20
18.858661
 30
0.000000
  0
SEQEND
  8
LAYER-1
  0
POLYLINE
  8
LAYER-1
 66
  1
 70
  0
 62
  7
 10
53.162715
 20
18.888198
 30
0.000000
  0
VERTEX
  8
LAYER-1
 10
53.162715
 20
18.888198
 30
0.000000
  0
VERTEX
  8
LAYER-1
 10
53.182711
 20
18.858661
 30
0.000000
  0
SEQEND
  8
LAYER-1
  0
POLYLINE
  8
LAYER-1
 66
  1
 70
  0
 62
  7
 10
53.198266
 20
18.696674
 30
0.000000
  0
VERTEX
  8
LAYER-1
 10
53.198266
 20
18.696674
 30
0.000000
  0
VERTEX
  8
LAYER-1
 10
53.178270
 20
18.726215
 30
0.000000
  0
SEQEND
  8
LAYER-1
  0
POLYLINE
  8
LAYER-1
 66
  1
 70
  0
 62
  7
 10
53.198266
 20
18.696674
 30
0.000000
  0
VERTEX
  8
LAYER-1
 10
53.198266
 20
18.696674
 30
0.000000
  0
VERTEX
  8
LAYER-1
 10
53.218257
 20
18.726215
 30
0.000000
  0
SEQEND
  8
LAYER-1
  0
POLYLINE
  8
LAYER-1
 66
  1
 70
  0
 62
  7
 10
53.142724
 20
18.858661
 30
0.000000
  0
VERTEX
  8
LAYER-1
 10
53.142724
 20
18.858661
 30
0.000000
  0
VERTEX
  8
LAYER-1
 10
53.178270
 20
18.726215
 30
0.000000
  0
SEQEND
  8
LAYER-1
  0
POLYLINE
  8
LAYER-1
 66
  1
 70
  0
 62
  7
 10
53.162715
 20
18.888198
 30
0.000000
  0
VERTEX
  8
LAYER-1
 10
53.162715
 20
18.888198
 30
0.000000
  0
VERTEX
  8
LAYER-1
 10
53.198266
 20
18.696674
 30
0.000000
  0
SEQEND
  8
LAYER-1
  0
POLYLINE
  8
LAYER-1
 66
  1
 70
  0
 62
  7
 10
53.182711
 20
18.858661
 30
0.000000
  0
VERTEX
  8
LAYER-1
 10
53.182711
 20
18.858661
 30
0.000000
  0
VERTEX
  8
LAYER-1
 10
53.218257
 20
18.726215
 30
0.000000
  0
SEQEND
  8
LAYER-1
  0
POLYLINE
  8
LAYER-1
 66
  1
 70
  0
 62
  7
 10
53.182711
 20
18.858661
 30
0.000000
  0
VERTEX
  8
LAYER-1
 10
53.182711
 20
18.858661
 30
0.000000
  0
VERTEX
  8
LAYER-1
 10
53.224248
 20
18.858661
 30
0.000000
  0
SEQEND
  8
LAYER-1
  0
POLYLINE
  8
LAYER-1
 66
  1
 70
  0
 62
  7
 10
53.218257
 20
18.726215
 30
0.000000
  0
VERTEX
  8
LAYER-1
 10
53.218257
 20
18.726215
 30
0.000000
  0
VERTEX
  8
LAYER-1
 10
53.259794
 20
18.726215
 30
0.000000
  0
SEQEND
  8
LAYER-1
  0
POLYLINE
  8
LAYER-1
 66
  1
 70
  0
 62
  7
 10
53.080721
 20
18.888198
 30
0.000000
  0
VERTEX
  8
LAYER-1
 10
53.080721
 20
18.888198
 30
0.000000
  0
VERTEX
  8
LAYER-1
 10
53.060721
 20
18.858661
 30
0.000000
  0
SEQEND
  8
LAYER-1
  0
POLYLINE
  8
LAYER-1
 66
  1
 70
  0
 62
  7
 10
53.080721
 20
18.888198
 30
0.000000
  0
VERTEX
  8
LAYER-1
 10
53.080721
 20
18.888198
 30
0.000000
  0
VERTEX
  8
LAYER-1
 10
53.100713
 20
18.858661
 30
0.000000
  0
SEQEND
  8
LAYER-1
  0
POLYLINE
  8
LAYER-1
 66
  1
 70
  0
 62
  7
 10
53.116263
 20
18.696674
 30
0.000000
  0
VERTEX
  8
LAYER-1
 10
53.116263
 20
18.696674
 30
0.000000
  0
VERTEX
  8
LAYER-1
 10
53.096271
 20
18.726215
 30
0.000000
  0
SEQEND
  8
LAYER-1
  0
POLYLINE
  8
LAYER-1
 66
  1
 70
  0
 62
  7
 10
53.116263
 20
18.696674
 30
0.000000
  0
VERTEX
  8
LAYER-1
 10
53.116263
 20
18.696674
 30
0.000000
  0
VERTEX
  8
LAYER-1
 10
53.136259
 20
18.726215
 30
0.000000
  0
SEQEND
  8
LAYER-1
  0
POLYLINE
  8
LAYER-1
 66
  1
 70
  0
 62
  7
 10
53.060721
 20
18.858661
 30
0.000000
  0
VERTEX
  8
LAYER-1
 10
53.060721
 20
18.858661
 30
0.000000
  0
VERTEX
  8
LAYER-1
 10
53.096271
 20
18.726215
 30
0.000000
  0
SEQEND
  8
LAYER-1
  0
POLYLINE
  8
LAYER-1
 66
  1
 70
  0
 62
  7
 10
53.080721
 20
18.888198
 30
0.000000
  0
VERTEX
  8
LAYER-1
 10
53.080721
 20
18.888198
 30
0.000000
  0
VERTEX
  8
LAYER-1
 10
53.116263
 20
18.696674
 30
0.000000
  0
SEQEND
  8
LAYER-1
  0
POLYLINE
  8
LAYER-1
 66
  1
 70
  0
 62
  7
 10
53.100713
 20
18.858661
 30
0.000000
  0
VERTEX
  8
LAYER-1
 10
53.100713
 20
18.858661
 30
0.000000
  0
VERTEX
  8
LAYER-1
 10
53.136259
 20
18.726215
 30
0.000000
  0
SEQEND
  8
LAYER-1
  0
POLYLINE
  8
LAYER-1
 66
  1
 70
  0
 62
  7
 10
53.100713
 20
18.858661
 30
0.000000
  0
VERTEX
  8
LAYER-1
 10
53.100713
 20
18.858661
 30
0.000000
  0
VERTEX
  8
LAYER-1
 10
53.142245
 20
18.858661
 30
0.000000
  0
SEQEND
  8
LAYER-1
  0
POLYLINE
  8
LAYER-1
 66
  1
 70
  0
 62
  7
 10
53.136259
 20
18.726215
 30
0.000000
  0
VERTEX
  8
LAYER-1
 10
53.136259
 20
18.726215
 30
0.000000
  0
VERTEX
  8
LAYER-1
 10
53.177795
 20
18.726215
 30
0.000000
  0
SEQEND
  8
LAYER-1
  0
POLYLINE
  8
LAYER-1
 66
  1
 70
  0
 62
  7
 10
52.998718
 20
18.888198
 30
0.000000
  0
VERTEX
  8
LAYER-1
 10
52.998718
 20
18.888198
 30
0.000000
  0
VERTEX
  8
LAYER-1
 10
52.978722
 20
18.858661
 30
0.000000
  0
SEQEND
  8
LAYER-1
  0
POLYLINE
  8
LAYER-1
 66
  1
 70
  0
 62
  7
 10
52.998718
 20
18.888198
 30
0.000000
  0
VERTEX
  8
LAYER-1
 10
52.998718
 20
18.888198
 30
0.000000
  0
VERTEX
  8
LAYER-1
 10
53.018714
 20
18.858661
 30
0.000000
  0
SEQEND
  8
LAYER-1
  0
POLYLINE
  8
LAYER-1
 66
  1
 70
  0
 62
  7
 10
53.034264
 20
18.696674
 30
0.000000
  0
VERTEX
  8
LAYER-1
 10
53.034264
 20
18.696674
 30
0.000000
  0
VERTEX
  8
LAYER-1
 10
53.014273
 20
18.726215
 30
0.000000
  0
SEQEND
  8
LAYER-1
  0
POLYLINE
  8
LAYER-1
 66
  1
 70
  0
 62
  7
 10
53.034264
 20
18.696674
 30
0.000000
  0
VERTEX
  8
LAYER-1
 10
53.034264
 20
18.696674
 30
0.000000
  0
VERTEX
  8
LAYER-1
 10
53.054260
 20
18.726215
 30
0.000000
  0
SEQEND
  8
LAYER-1
  0
POLYLINE
  8
LAYER-1
 66
  1
 70
  0
 62
  7
 10
52.978722
 20
18.858661
 30
0.000000
  0
VERTEX
  8
LAYER-1
 10
52.978722
 20
18.858661
 30
0.000000
  0
VERTEX
  8
LAYER-1
 10
53.014273
 20
18.726215
 30
0.000000
  0
SEQEND
  8
LAYER-1
  0
POLYLINE
  8
LAYER-1
 66
  1
 70
  0
 62
  7
 10
52.998718
 20
18.888198
 30
0.000000
  0
VERTEX
  8
LAYER-1
 10
52.998718
 20
18.888198
 30
0.000000
  0
VERTEX
  8
LAYER-1
 10
53.034264
 20
18.696674
 30
0.000000
  0
SEQEND
  8
LAYER-1
  0
POLYLINE
  8
LAYER-1
 66
  1
 70
  0
 62
  7
 10
53.018714
 20
18.858661
 30
0.000000
  0
VERTEX
  8
LAYER-1
 10
53.018714
 20
18.858661
 30
0.000000
  0
VERTEX
  8
LAYER-1
 10
53.054260
 20
18.726215
 30
0.000000
  0
SEQEND
  8
LAYER-1
  0
POLYLINE
  8
LAYER-1
 66
  1
 70
  0
 62
  7
 10
53.018714
 20
18.858661
 30
0.000000
  0
VERTEX
  8
LAYER-1
 10
53.018714
 20
18.858661
 30
0.000000
  0
VERTEX
  8
LAYER-1
 10
53.060246
 20
18.858661
 30
0.000000
  0
SEQEND
  8
LAYER-1
  0
POLYLINE
  8
LAYER-1
 66
  1
 70
  0
 62
  7
 10
53.054260
 20
18.726215
 30
0.000000
  0
VERTEX
  8
LAYER-1
 10
53.054260
 20
18.726215
 30
0.000000
  0
VERTEX
  8
LAYER-1
 10
53.095792
 20
18.726215
 30
0.000000
  0
SEQEND
  8
LAYER-1
  0
POLYLINE
  8
LAYER-1
 66
  1
 70
  0
 62
  7
 10
52.916720
 20
18.888198
 30
0.000000
  0
VERTEX
  8
LAYER-1
 10
52.916720
 20
18.888198
 30
0.000000
  0
VERTEX
  8
LAYER-1
 10
52.896724
 20
18.858661
 30
0.000000
  0
SEQEND
  8
LAYER-1
  0
POLYLINE
  8
LAYER-1
 66
  1
 70
  0
 62
  7
 10
52.916720
 20
18.888198
 30
0.000000
  0
VERTEX
  8
LAYER-1
 10
52.916720
 20
18.888198
 30
0.000000
  0
VERTEX
  8
LAYER-1
 10
52.936716
 20
18.858661
 30
0.000000
  0
SEQEND
  8
LAYER-1
  0
POLYLINE
  8
LAYER-1
 66
  1
 70
  0
 62
  7
 10
52.952261
 20
18.696674
 30
0.000000
  0
VERTEX
  8
LAYER-1
 10
52.952261
 20
18.696674
 30
0.000000
  0
VERTEX
  8
LAYER-1
 10
52.932270
 20
18.726215
 30
0.000000
  0
SEQEND
  8
LAYER-1
  0
POLYLINE
  8
LAYER-1
 66
  1
 70
  0
 62
  7
 10
52.952261
 20
18.696674
 30
0.000000
  0
VERTEX
  8
LAYER-1
 10
52.952261
 20
18.696674
 30
0.000000
  0
VERTEX
  8
LAYER-1
 10
52.972257
 20
18.726215
 30
0.000000
  0
SEQEND
  8
LAYER-1
  0
POLYLINE
  8
LAYER-1
 66
  1
 70
  0
 62
  7
 10
52.896724
 20
18.858661
 30
0.000000
  0
VERTEX
  8
LAYER-1
 10
52.896724
 20
18.858661
 30
0.000000
  0
VERTEX
  8
LAYER-1
 10
52.932270
 20
18.726215
 30
0.000000
  0
SEQEND
  8
LAYER-1
  0
POLYLINE
  8
LAYER-1
 66
  1
 70
  0
 62
  7
 10
52.916720
 20
18.888198
 30
0.000000
  0
VERTEX
  8
LAYER-1
 10
52.916720
 20
18.888198
 30
0.000000
  0
VERTEX
  8
LAYER-1
 10
52.952261
 20
18.696674
 30
0.000000
  0
SEQEND
  8
LAYER-1
  0
POLYLINE
  8
LAYER-1
 66
  1
 70
  0
 62
  7
 10
52.936716
 20
18.858661
 30
0.000000
  0
VERTEX
  8
LAYER-1
 10
52.936716
 20
18.858661
 30
0.000000
  0
VERTEX
  8
LAYER-1
 10
52.972257
 20
18.726215
 30
0.000000
  0
SEQEND
  8
LAYER-1
  0
POLYLINE
  8
LAYER-1
 66
  1
 70
  0
 62
  7
 10
52.936716
 20
18.858661
 30
0.000000
  0
VERTEX
  8
LAYER-1
 10
52.936716
 20
18.858661
 30
0.000000
  0
VERTEX
  8
LAYER-1
 10
52.978243
 20
18.858661
 30
0.000000
  0
SEQEND
  8
LAYER-1
  0
POLYLINE
  8
LAYER-1
 66
  1
 70
  0
 62
  7
 10
52.972257
 20
18.726215
 30
0.000000
  0
VERTEX
  8
LAYER-1
 10
52.972257
 20
18.726215
 30
0.000000
  0
VERTEX
  8
LAYER-1
 10
53.013794
 20
18.726215
 30
0.000000
  0
SEQEND
  8
LAYER-1
  0
POLYLINE
  8
LAYER-1
 66
  1
 70
  0
 62
  7
 10
52.834717
 20
18.888198
 30
0.000000
  0
VERTEX
  8
LAYER-1
 10
52.834717
 20
18.888198
 30
0.000000
  0
VERTEX
  8
LAYER-1
 10
52.814721
 20
18.858661
 30
0.000000
  0
SEQEND
  8
LAYER-1
  0
POLYLINE
  8
LAYER-1
 66
  1
 70
  0
 62
  7
 10
52.834717
 20
18.888198
 30
0.000000
  0
VERTEX
  8
LAYER-1
 10
52.834717
 20
18.888198
 30
0.000000
  0
VERTEX
  8
LAYER-1
 10
52.854713
 20
18.858661
 30
0.000000
  0
SEQEND
  8
LAYER-1
  0
POLYLINE
  8
LAYER-1
 66
  1
 70
  0
 62
  7
 10
52.870263
 20
18.696674
 30
0.000000
  0
VERTEX
  8
LAYER-1
 10
52.870263
 20
18.696674
 30
0.000000
  0
VERTEX
  8
LAYER-1
 10
52.850271
 20
18.726215
 30
0.000000
  0
SEQEND
  8
LAYER-1
  0
POLYLINE
  8
LAYER-1
 66
  1
 70
  0
 62
  7
 10
52.870263
 20
18.696674
 30
0.000000
  0
VERTEX
  8
LAYER-1
 10
52.870263
 20
18.696674
 30
0.000000
  0
VERTEX
  8
LAYER-1
 10
52.890259
 20
18.726215
 30
0.000000
  0
SEQEND
  8
LAYER-1
  0
POLYLINE
  8
LAYER-1
 66
  1
 70
  0
 62
  7
 10
52.814721
 20
18.858661
 30
0.000000
  0
VERTEX
  8
LAYER-1
 10
52.814721
 20
18.858661
 30
0.000000
  0
VERTEX
  8
LAYER-1
 10
52.850271
 20
18.726215
 30
0.000000
  0
SEQEND
  8
LAYER-1
  0
POLYLINE
  8
LAYER-1
 66
  1
 70
  0
 62
  7
 10
52.834717
 20
18.888198
 30
0.000000
  0
VERTEX
  8
LAYER-1
 10
52.834717
 20
18.888198
 30
0.000000
  0
VERTEX
  8
LAYER-1
 10
52.870263
 20
18.696674
 30
0.000000
  0
SEQEND
  8
LAYER-1
  0
POLYLINE
  8
LAYER-1
 66
  1
 70
  0
 62
  7
 10
52.854713
 20
18.858661
 30
0.000000
  0
VERTEX
  8
LAYER-1
 10
52.854713
 20
18.858661
 30
0.000000
  0
VERTEX
  8
LAYER-1
 10
52.890259
 20
18.726215
 30
0.000000
  0
SEQEND
  8
LAYER-1
  0
POLYLINE
  8
LAYER-1
 66
  1
 70
  0
 62
  7
 10
52.854713
 20
18.858661
 30
0.000000
  0
VERTEX
  8
LAYER-1
 10
52.854713
 20
18.858661
 30
0.000000
  0
VERTEX
  8
LAYER-1
 10
52.896250
 20
18.858661
 30
0.000000
  0
SEQEND
  8
LAYER-1
  0
POLYLINE
  8
LAYER-1
 66
  1
 70
  0
 62
  7
 10
52.890259
 20
18.726215
 30
0.000000
  0
VERTEX
  8
LAYER-1
 10
52.890259
 20
18.726215
 30
0.000000
  0
VERTEX
  8
LAYER-1
 10
52.931796
 20
18.726215
 30
0.000000
  0
SEQEND
  8
LAYER-1
  0
POLYLINE
  8
LAYER-1
 66
  1
 70
  0
 62
  7
 10
52.752718
 20
18.888198
 30
0.000000
  0
VERTEX
  8
LAYER-1
 10
52.752718
 20
18.888198
 30
0.000000
  0
VERTEX
  8
LAYER-1
 10
52.732727
 20
18.858661
 30
0.000000
  0
SEQEND
  8
LAYER-1
  0
POLYLINE
  8
LAYER-1
 66
  1
 70
  0
 62
  7
 10
52.752718
 20
18.888198
 30
0.000000
  0
VERTEX
  8
LAYER-1
 10
52.752718
 20
18.888198
 30
0.000000
  0
VERTEX
  8
LAYER-1
 10
52.772714
 20
18.858661
 30
0.000000
  0
SEQEND
  8
LAYER-1
  0
POLYLINE
  8
LAYER-1
 66
  1
 70
  0
 62
  7
 10
52.788260
 20
18.696674
 30
0.000000
  0
VERTEX
  8
LAYER-1
 10
52.788260
 20
18.696674
 30
0.000000
  0
VERTEX
  8
LAYER-1
 10
52.768268
 20
18.726215
 30
0.000000
  0
SEQEND
  8
LAYER-1
  0
POLYLINE
  8
LAYER-1
 66
  1
 70
  0
 62
  7
 10
52.788260
 20
18.696674
 30
0.000000
  0
VERTEX
  8
LAYER-1
 10
52.788260
 20
18.696674
 30
0.000000
  0
VERTEX
  8
LAYER-1
 10
52.808260
 20
18.726215
 30
0.000000
  0
SEQEND
  8
LAYER-1
  0
POLYLINE
  8
LAYER-1
 66
  1
 70
  0
 62
  7
 10
52.732727
 20
18.858661
 30
0.000000
  0
VERTEX
  8
LAYER-1
 10
52.732727
 20
18.858661
 30
0.000000
  0
VERTEX
  8
LAYER-1
 10
52.768268
 20
18.726215
 30
0.000000
  0
SEQEND
  8
LAYER-1
  0
POLYLINE
  8
LAYER-1
 66
  1
 70
  0
 62
  7
 10
52.752718
 20
18.888198
 30
0.000000
  0
VERTEX
  8
LAYER-1
 10
52.752718
 20
18.888198
 30
0.000000
  0
VERTEX
  8
LAYER-1
 10
52.788260
 20
18.696674
 30
0.000000
  0
SEQEND
  8
LAYER-1
  0
POLYLINE
  8
LAYER-1
 66
  1
 70
  0
 62
  7
 10
52.772714
 20
18.858661
 30
0.000000
  0
VERTEX
  8
LAYER-1
 10
52.772714
 20
18.858661
 30
0.000000
  0
VERTEX
  8
LAYER-1
 10
52.808260
 20
18.726215
 30
0.000000
  0
SEQEND
  8
LAYER-1
  0
POLYLINE
  8
LAYER-1
 66
  1
 70
  0
 62
  7
 10
52.772714
 20
18.858661
 30
0.000000
  0
VERTEX
  8
LAYER-1
 10
52.772714
 20
18.858661
 30
0.000000
  0
VERTEX
  8
LAYER-1
 10
52.814247
 20
18.858661
 30
0.000000
  0
SEQEND
  8
LAYER-1
  0
POLYLINE
  8
LAYER-1
 66
  1
 70
  0
 62
  7
 10
52.808260
 20
18.726215
 30
0.000000
  0
VERTEX
  8
LAYER-1
 10
52.808260
 20
18.726215
 30
0.000000
  0
VERTEX
  8
LAYER-1
 10
52.849792
 20
18.726215
 30
0.000000
  0
SEQEND
  8
LAYER-1
  0
POLYLINE
  8
LAYER-1
 66
  1
 70
  0
 62
  7
 10
52.670720
 20
18.888198
 30
0.000000
  0
VERTEX
  8
LAYER-1
 10
52.670720
 20
18.888198
 30
0.000000
  0
VERTEX
  8
LAYER-1
 10
52.650724
 20
18.858661
 30
0.000000
  0
SEQEND
  8
LAYER-1
  0
POLYLINE
  8
LAYER-1
 66
  1
 70
  0
 62
  7
 10
52.670720
 20
18.888198
 30
0.000000
  0
VERTEX
  8
LAYER-1
 10
52.670720
 20
18.888198
 30
0.000000
  0
VERTEX
  8
LAYER-1
 10
52.690711
 20
18.858661
 30
0.000000
  0
SEQEND
  8
LAYER-1
  0
POLYLINE
  8
LAYER-1
 66
  1
 70
  0
 62
  7
 10
52.706266
 20
18.696674
 30
0.000000
  0
VERTEX
  8
LAYER-1
 10
52.706266
 20
18.696674
 30
0.000000
  0
VERTEX
  8
LAYER-1
 10
52.686270
 20
18.726215
 30
0.000000
  0
SEQEND
  8
LAYER-1
  0
POLYLINE
  8
LAYER-1
 66
  1
 70
  0
 62
  7
 10
52.706266
 20
18.696674
 30
0.000000
  0
VERTEX
  8
LAYER-1
 10
52.706266
 20
18.696674
 30
0.000000
  0
VERTEX
  8
LAYER-1
 10
52.726257
 20
18.726215
 30
0.000000
  0
SEQEND
  8
LAYER-1
  0
POLYLINE
  8
LAYER-1
 66
  1
 70
  0
 62
  7
 10
52.650724
 20
18.858661
 30
0.000000
  0
VERTEX
  8
LAYER-1
 10
52.650724
 20
18.858661
 30
0.000000
  0
VERTEX
  8
LAYER-1
 10
52.686270
 20
18.726215
 30
0.000000
  0
SEQEND
  8
LAYER-1
  0
POLYLINE
  8
LAYER-1
 66
  1
 70
  0
 62
  7
 10
52.670720
 20
18.888198
 30
0.000000
  0
VERTEX
  8
LAYER-1
 10
52.670720
 20
18.888198
 30
0.000000
  0
VERTEX
  8
LAYER-1
 10
52.706266
 20
18.696674
 30
0.000000
  0
SEQEND
  8
LAYER-1
  0
POLYLINE
  8
LAYER-1
 66
  1
 70
  0
 62
  7
 10
52.690711
 20
18.858661
 30
0.000000
  0
VERTEX
  8
LAYER-1
 10
52.690711
 20
18.858661
 30
0.000000
  0
VERTEX
  8
LAYER-1
 10
52.726257
 20
18.726215
 30
0.000000
  0
SEQEND
  8
LAYER-1
  0
POLYLINE
  8
LAYER-1
 66
  1
 70
  0
 62
  7
 10
52.690711
 20
18.858661
 30
0.000000
  0
VERTEX
  8
LAYER-1
 10
52.690711
 20
18.858661
 30
0.000000
  0
VERTEX
  8
LAYER-1
 10
52.732248
 20
18.858661
 30
0.000000
  0
SEQEND
  8
LAYER-1
  0
POLYLINE
  8
LAYER-1
 66
  1
 70
  0
 62
  7
 10
52.726257
 20
18.726215
 30
0.000000
  0
VERTEX
  8
LAYER-1
 10
52.726257
 20
18.726215
 30
0.000000
  0
VERTEX
  8
LAYER-1
 10
52.767794
 20
18.726215
 30
0.000000
  0
SEQEND
  8
LAYER-1
  0
POLYLINE
  8
LAYER-1
 66
  1
 70
  0
 62
  7
 10
52.648212
 20
18.726060
 30
0.000000
  0
VERTEX
  8
LAYER-1
 10
52.648212
 20
18.726060
 30
0.000000
  0
VERTEX
  8
LAYER-1
 10
52.685791
 20
18.726215
 30
0.000000
  0
SEQEND
  8
LAYER-1
  0
POLYLINE
  8
LAYER-1
 66
  1
 70
  0
 62
  7
 10
52.771921
 20
1.711557
 30
0.000000
  0
VERTEX
  8
LAYER-1
 10
52.771921
 20
1.711557
 30
0.000000
  0
VERTEX
  8
LAYER-1
 10
58.846943
 20
1.711557
 30
0.000000
  0
SEQEND
  8
LAYER-1
  0
POLYLINE
  8
LAYER-1
 66
  1
 70
  0
 62
  7
 10
58.846943
 20
1.711557
 30
0.000000
  0
VERTEX
  8
LAYER-1
 10
58.846943
 20
1.711557
 30
0.000000
  0
VERTEX
  8
LAYER-1
 10
58.846943
 20
26.826932
 30
0.000000
  0
SEQEND
  8
LAYER-1
  0
TEXT
  8
LAYER-1
 62
  7
 10
40.490908
 20
23.403865
 30
0.000000
 40
0.980769
  1
End plate
 72
  5
 11
48.875524
 21
23.403865
 31
0.000000
  0
POLYLINE
  8
LAYER-1
 66
  1
 70
  1
 62
255
  0
VERTEX
  8
LAYER-1
 10
49.770024
 20
57.980788
 30
0.000000
  0
VERTEX
  8
LAYER-1
 10
52.770024
 20
57.980788
 30
0.000000
  0
VERTEX
  8
LAYER-1
 10
52.770024
 20
31.230788
 30
0.000000
  0
VERTEX
  8
LAYER-1
 10
49.770024
 20
31.230788
 30
0.000000
  0
SEQEND
  8
LAYER-1
  0
POLYLINE
  8
LAYER-1
 66
  1
 70
  0
 62
  7
 10
52.770024
 20
57.980788
 30
0.000000
  0
VERTEX
  8
LAYER-1
 10
52.770024
 20
57.980788
 30
0.000000
  0
VERTEX
  8
LAYER-1
 10
52.770024
 20
31.230788
 30
0.000000
  0
SEQEND
  8
LAYER-1
  0
POLYLINE
  8
LAYER-1
 66
  1
 70
  0
 62
  7
 10
49.770024
 20
57.980788
 30
0.000000
  0
VERTEX
  8
LAYER-1
 10
49.770024
 20
57.980788
 30
0.000000
  0
VERTEX
  8
LAYER-1
 10
49.770024
 20
31.230788
 30
0.000000
  0
SEQEND
  8
LAYER-1
  0
POLYLINE
  8
LAYER-1
 66
  1
 70
  1
 62
  7
  0
VERTEX
  8
LAYER-1
 10
47.270024
 20
48.401255
 30
0.000000
  0
VERTEX
  8
LAYER-1
 10
55.274884
 20
48.401255
 30
0.000000
  0
VERTEX
  8
LAYER-1
 10
55.274884
 20
47.403189
 30
0.000000
  0
VERTEX
  8
LAYER-1
 10
47.270024
 20
47.403189
 30
0.000000
  0
SEQEND
  8
LAYER-1
  0
POLYLINE
  8
LAYER-1
  6
LTYPE01
 66
  1
 70
  0
 62
  7
  6
LTYPE01
 10
47.270024
 20
48.278189
 30
0.000000
  0
VERTEX
  8
LAYER-1
  6
LTYPE01
 10
47.270024
 20
48.278189
 30
0.000000
  0
VERTEX
  8
LAYER-1
  6
LTYPE01
 10
55.274884
 20
48.278189
 30
0.000000
  0
SEQEND
  8
LAYER-1
  0
POLYLINE
  8
LAYER-1
 66
  1
 70
  0
 62
  7
 10
39.638207
 20
44.597999
 30
0.000000
  0
VERTEX
  8
LAYER-1
 10
39.638207
 20
44.597999
 30
0.000000
  0
VERTEX
  8
LAYER-1
 10
47.270024
 20
44.597999
 30
0.000000
  0
SEQEND
  8
LAYER-1
  0
POLYLINE
  8
LAYER-1
 66
  1
 70
  0
 62
  7
 10
47.272156
 20
46.836233
 30
0.000000
  0
VERTEX
  8
LAYER-1
 10
47.272156
 20
46.836233
 30
0.000000
  0
VERTEX
  8
LAYER-1
 10
40.930481
 20
46.836233
 30
0.000000
  0
SEQEND
  8
LAYER-1
  0
POLYLINE
  8
LAYER-1
 66
  1
 70
  0
 62
  7
 10
47.272156
 20
46.136775
 30
0.000000
  0
VERTEX
  8
LAYER-1
 10
47.272156
 20
46.136775
 30
0.000000
  0
VERTEX
  8
LAYER-1
 10
40.526630
 20
46.136761
 30
0.000000
  0
SEQEND
  8
LAYER-1
  0
POLYLINE
  8
LAYER-1
 66
  1
 70
  0
 62
  7
 10
47.272156
 20
45.547729
 30
0.000000
  0
VERTEX
  8
LAYER-1
 10
47.272156
 20
45.547729
 30
0.000000
  0
VERTEX
  8
LAYER-1
 10
40.186542
 20
45.547729
 30
0.000000
  0
SEQEND
  8
LAYER-1
  0
POLYLINE
  8
LAYER-1
 66
  1
 70
  0
 62
  7
 10
47.272156
 20
45.161180
 30
0.000000
  0
VERTEX
  8
LAYER-1
 10
47.272156
 20
45.161180
 30
0.000000
  0
VERTEX
  8
LAYER-1
 10
39.963379
 20
45.161170
 30
0.000000
  0
SEQEND
  8
LAYER-1
  0
POLYLINE
  8
LAYER-1
 66
  1
 70
  0
 62
  7
 10
47.272156
 20
44.903480
 30
0.000000
  0
VERTEX
  8
LAYER-1
 10
47.272156
 20
44.903480
 30
0.000000
  0
VERTEX
  8
LAYER-1
 10
39.814571
 20
44.903480
 30
0.000000
  0
SEQEND
  8
LAYER-1
  0
POLYLINE
  8
LAYER-1
 66
  1
 70
  0
 62
  7
 10
47.272156
 20
44.719398
 30
0.000000
  0
VERTEX
  8
LAYER-1
 10
47.272156
 20
44.719398
 30
0.000000
  0
VERTEX
  8
LAYER-1
 10
39.708304
 20
44.719398
 30
0.000000
  0
SEQEND
  8
LAYER-1
  0
TEXT
  8
LAYER-1
 62
  7
 10
43.029370
 20
39.480788
 30
0.000000
 40
0.980769
  1
Barrel
 72
  5
 11
48.337062
 21
39.480788
 31
0.000000
  0
POLYLINE
  8
LAYER-1
 66
  1
 70
  0
 62
  7
 10
47.804842
 20
53.441848
 30
0.000000
  0
VERTEX
  8
LAYER-1
 10
47.804842
 20
53.441848
 30
0.000000
  0
VERTEX
  8
LAYER-1
 10
48.775517
 20
48.477581
 30
0.000000
  0
SEQEND
  8
LAYER-1
  0
POLYLINE
  8
LAYER-1
 66
  1
 70
  1
 62
  7
  0
VERTEX
  8
LAYER-1
 10
48.779292
 20
48.458261
 30
0.000000
  0
VERTEX
  8
LAYER-1
 10
48.479004
 20
48.791448
 30
0.000000
  0
VERTEX
  8
LAYER-1
 10
48.705487
 20
48.835731
 30
0.000000
  0
VERTEX
  8
LAYER-1
 10
48.931969
 20
48.880014
 30
0.000000
  0
VERTEX
  8
LAYER-1
 10
48.779292
 20
48.458261
 30
0.000000
  0
SEQEND
  8
LAYER-1
  0
POLYLINE
  8
LAYER-1
 66
  1
 70
  0
 62
  7
 10
41.465740
 20
42.454078
 30
0.000000
  0
VERTEX
  8
LAYER-1
 10
41.465740
 20
42.454078
 30
0.000000
  0
VERTEX
  8
LAYER-1
 10
40.146663
 20
44.566012
 30
0.000000
  0
SEQEND
  8
LAYER-1
  0
POLYLINE
  8
LAYER-1
 66
  1
 70
  1
 62
  7
  0
VERTEX
  8
LAYER-1
 10
40.136235
 20
44.582707
 30
0.000000
  0
VERTEX
  8
LAYER-1
 10
40.535715
 20
44.378742
 30
0.000000
  0
VERTEX
  8
LAYER-1
 10
40.339985
 20
44.256493
 30
0.000000
  0
VERTEX
  8
LAYER-1
 10
40.144254
 20
44.134244
 30
0.000000
  0
VERTEX
  8
LAYER-1
 10
40.136235
 20
44.582707
 30
0.000000
  0
SEQEND
  8
LAYER-1
  0
POLYLINE
  8
LAYER-1
 66
  1
 70
  0
 62
  7
 10
47.804842
 20
53.441848
 30
0.000000
  0
VERTEX
  8
LAYER-1
 10
47.804842
 20
53.441848
 30
0.000000
  0
VERTEX
  8
LAYER-1
 10
46.691209
 20
53.441848
 30
0.000000
  0
SEQEND
  8
LAYER-1
  0
TEXT
  8
LAYER-1
 62
  7
 10
44.875524
 20
51.326942
 30
0.000000
 40
0.980769
  1
Shaft
 72
  5
 11
49.644755
 21
51.326942
 31
0.000000
  0
POLYLINE
  8
LAYER-1
 66
  1
 70
  0
 62
  7
 10
47.270024
 20
51.221173
 30
0.000000
  0
VERTEX
  8
LAYER-1
 10
47.270024
 20
51.221173
 30
0.000000
  0
VERTEX
  8
LAYER-1
 10
47.270024
 20
44.597999
 30
0.000000
  0
SEQEND
  8
LAYER-1
  0
POLYLINE
  8
LAYER-1
 66
  1
 70
  1
 62
  7
  0
VERTEX
  8
LAYER-1
 10
49.584975
 20
54.903865
 30
0.000000
  0
VERTEX
  8
LAYER-1
 10
49.770024
 20
54.903865
 30
0.000000
  0
VERTEX
  8
LAYER-1
 10
49.770024
 20
38.903860
 30
0.000000
  0
VERTEX
  8
LAYER-1
 10
49.584975
 20
38.903860
 30
0.000000
  0
SEQEND
  8
LAYER-1
  0
POLYLINE
  8
LAYER-1
 66
  1
 70
  0
 62
  7
 10
47.270024
 20
51.221173
 30
0.000000
  0
VERTEX
  8
LAYER-1
 10
47.270024
 20
51.221173
 30
0.000000
  0
VERTEX
  8
LAYER-1
 10
43.462191
 20
51.221173
 30
0.000000
  0
SEQEND
  8
LAYER-1
  0
POLYLINE
  8
LAYER-1
 66
  1
 70
  0
 62
  7
 10
47.267381
 20
48.920110
 30
0.000000
  0
VERTEX
  8
LAYER-1
 10
47.267381
 20
48.920110
 30
0.000000
  0
VERTEX
  8
LAYER-1
 10
42.133639
 20
48.920110
 30
0.000000
  0
SEQEND
  8
LAYER-1
  0
POLYLINE
  8
LAYER-1
 66
  1
 70
  0
 62
  7
 10
47.267381
 20
49.619591
 30
0.000000
  0
VERTEX
  8
LAYER-1
 10
47.267381
 20
49.619591
 30
0.000000
  0
VERTEX
  8
LAYER-1
 10
42.537494
 20
49.619591
 30
0.000000
  0
SEQEND
  8
LAYER-1
  0
POLYLINE
  8
LAYER-1
 66
  1
 70
  0
 62
  7
 10
47.267381
 20
50.208618
 30
0.000000
  0
VERTEX
  8
LAYER-1
 10
47.267381
 20
50.208618
 30
0.000000
  0
VERTEX
  8
LAYER-1
 10
42.877573
 20
50.208618
 30
0.000000
  0
SEQEND
  8
LAYER-1
  0
POLYLINE
  8
LAYER-1
 66
  1
 70
  0
 62
  7
 10
47.267381
 20
50.595191
 30
0.000000
  0
VERTEX
  8
LAYER-1
 10
47.267381
 20
50.595191
 30
0.000000
  0
VERTEX
  8
LAYER-1
 10
43.100769
 20
50.595191
 30
0.000000
  0
SEQEND
  8
LAYER-1
  0
POLYLINE
  8
LAYER-1
 66
  1
 70
  0
 62
  7
 10
47.267381
 20
50.852877
 30
0.000000
  0
VERTEX
  8
LAYER-1
 10
47.267381
 20
50.852877
 30
0.000000
  0
VERTEX
  8
LAYER-1
 10
43.249549
 20
50.852877
 30
0.000000
  0
SEQEND
  8
LAYER-1
  0
POLYLINE
  8
LAYER-1
 66
  1
 70
  0
 62
  7
 10
47.267381
 20
51.036959
 30
0.000000
  0
VERTEX
  8
LAYER-1
 10
47.267381
 20
51.036959
 30
0.000000
  0
VERTEX
  8
LAYER-1
 10
43.355830
 20
51.036959
 30
0.000000
  0
SEQEND
  8
LAYER-1
  0
POLYLINE
  8
LAYER-1
 66
  1
 70
  1
 62
255
 10
55.926321
 20
49.276949
 30
0.000000
  0
VERTEX
  8
LAYER-1
 10
55.926321
 20
49.276949
 30
0.000000
  0
VERTEX
  8
LAYER-1
 10
55.925044
 20
49.077101
 30
0.000000
  0
VERTEX
  8
LAYER-1
 10
55.995174
 20
49.024386
 30
0.000000
  0
VERTEX
  8
LAYER-1
 10
55.958717
 20
48.994845
 30
0.000000
  0
VERTEX
  8
LAYER-1
 10
55.990488
 20
48.968116
 30
0.000000
  0
VERTEX
  8
LAYER-1
 10
55.956102
 20
48.937312
 30
0.000000
  0
VERTEX
  8
LAYER-1
 10
55.987873
 20
48.910579
 30
0.000000
  0
VERTEX
  8
LAYER-1
 10
55.953106
 20
48.878441
 30
0.000000
  0
VERTEX
  8
LAYER-1
 10
55.987737
 20
48.849403
 30
0.000000
  0
VERTEX
  8
LAYER-1
 10
55.951285
 20
48.819852
 30
0.000000
  0
VERTEX
  8
LAYER-1
 10
55.983051
 20
48.793128
 30
0.000000
  0
VERTEX
  8
LAYER-1
 10
55.949444
 20
48.761277
 30
0.000000
  0
VERTEX
  8
LAYER-1
 10
55.986413
 20
48.732802
 30
0.000000
  0
VERTEX
  8
LAYER-1
 10
55.949951
 20
48.703256
 30
0.000000
  0
VERTEX
  8
LAYER-1
 10
55.981084
 20
48.673368
 30
0.000000
  0
VERTEX
  8
LAYER-1
 10
55.944618
 20
48.643827
 30
0.000000
  0
VERTEX
  8
LAYER-1
 10
55.967323
 20
48.626024
 30
0.000000
  0
VERTEX
  8
LAYER-1
 10
55.952421
 20
48.392320
 30
0.000000
  0
VERTEX
  8
LAYER-1
 10
55.961703
 20
48.384686
 30
0.000000
  0
VERTEX
  8
LAYER-1
 10
55.926645
 20
48.353722
 30
0.000000
  0
VERTEX
  8
LAYER-1
 10
55.958416
 20
48.326984
 30
0.000000
  0
VERTEX
  8
LAYER-1
 10
55.954698
 20
48.291448
 30
0.000000
  0
VERTEX
  8
LAYER-1
 10
56.186190
 20
48.295805
 30
0.000000
  0
VERTEX
  8
LAYER-1
 10
56.199989
 20
48.344398
 30
0.000000
  0
VERTEX
  8
LAYER-1
 10
56.232643
 20
48.370713
 30
0.000000
  0
VERTEX
  8
LAYER-1
 10
56.213017
 20
48.388916
 30
0.000000
  0
VERTEX
  8
LAYER-1
 10
56.225008
 20
48.624390
 30
0.000000
  0
VERTEX
  8
LAYER-1
 10
56.215895
 20
48.634155
 30
0.000000
  0
VERTEX
  8
LAYER-1
 10
56.250615
 20
48.660832
 30
0.000000
  0
VERTEX
  8
LAYER-1
 10
56.223295
 20
48.693942
 30
0.000000
  0
VERTEX
  8
LAYER-1
 10
56.255949
 20
48.720262
 30
0.000000
  0
VERTEX
  8
LAYER-1
 10
56.222788
 20
48.751958
 30
0.000000
  0
VERTEX
  8
LAYER-1
 10
56.255442
 20
48.778278
 30
0.000000
  0
VERTEX
  8
LAYER-1
 10
56.224614
 20
48.810542
 30
0.000000
  0
VERTEX
  8
LAYER-1
 10
56.257268
 20
48.836858
 30
0.000000
  0
VERTEX
  8
LAYER-1
 10
56.226445
 20
48.869122
 30
0.000000
  0
VERTEX
  8
LAYER-1
 10
56.259099
 20
48.895442
 30
0.000000
  0
VERTEX
  8
LAYER-1
 10
56.229441
 20
48.927993
 30
0.000000
  0
VERTEX
  8
LAYER-1
 10
56.262094
 20
48.954308
 30
0.000000
  0
VERTEX
  8
LAYER-1
 10
56.232060
 20
48.985525
 30
0.000000
  0
VERTEX
  8
LAYER-1
 10
56.264709
 20
49.011846
 30
0.000000
  0
VERTEX
  8
LAYER-1
 10
56.242141
 20
49.038518
 30
0.000000
  0
VERTEX
  8
LAYER-1
 10
56.316838
 20
49.050321
 30
0.000000
  0
VERTEX
  8
LAYER-1
 10
56.333139
 20
49.228882
 30
0.000000
  0
VERTEX
  8
LAYER-1
 10
56.212731
 20
49.279992
 30
0.000000
  0
VERTEX
  8
LAYER-1
 10
56.159856
 20
49.288875
 30
0.000000
  0
VERTEX
  8
LAYER-1
 10
56.094013
 20
49.295119
 30
0.000000
  0
VERTEX
  8
LAYER-1
 10
56.042124
 20
49.294866
 30
0.000000
  0
VERTEX
  8
LAYER-1
 10
55.991366
 20
49.289945
 30
0.000000
  0
SEQEND
  8
LAYER-1
  0
POLYLINE
  8
LAYER-1
 66
  1
 70
  0
 62
  7
 10
55.926321
 20
49.276949
 30
0.000000
  0
VERTEX
  8
LAYER-1
 10
55.926321
 20
49.276949
 30
0.000000
  0
VERTEX
  8
LAYER-1
 10
55.925044
 20
49.077101
 30
0.000000
  0
SEQEND
  8
LAYER-1
  0
POLYLINE
  8
LAYER-1
 66
  1
 70
  0
 62
  7
 10
56.201773
 20
49.088956
 30
0.000000
  0
VERTEX
  8
LAYER-1
 10
56.201773
 20
49.088956
 30
0.000000
  0
VERTEX
  8
LAYER-1
 10
55.925044
 20
49.077101
 30
0.000000
  0
SEQEND
  8
LAYER-1
  0
POLYLINE
  8
LAYER-1
 66
  1
 70
  0
 62
  7
 10
56.201773
 20
49.088956
 30
0.000000
  0
VERTEX
  8
LAYER-1
 10
56.201773
 20
49.088956
 30
0.000000
  0
VERTEX
  8
LAYER-1
 10
56.212731
 20
49.279992
 30
0.000000
  0
SEQEND
  8
LAYER-1
  0
POLYLINE
  8
LAYER-1
 66
  1
 70
  0
 62
  7
 10
56.212731
 20
49.279992
 30
0.000000
  0
VERTEX
  8
LAYER-1
 10
56.212731
 20
49.279992
 30
0.000000
  0
VERTEX
  8
LAYER-1
 10
56.333139
 20
49.228882
 30
0.000000
  0
SEQEND
  8
LAYER-1
  0
POLYLINE
  8
LAYER-1
 66
  1
 70
  0
 62
  7
 10
56.333139
 20
49.228882
 30
0.000000
  0
VERTEX
  8
LAYER-1
 10
56.333139
 20
49.228882
 30
0.000000
  0
VERTEX
  8
LAYER-1
 10
56.316838
 20
49.050321
 30
0.000000
  0
SEQEND
  8
LAYER-1
  0
POLYLINE
  8
LAYER-1
 66
  1
 70
  0
 62
  7
 10
56.316838
 20
49.050321
 30
0.000000
  0
VERTEX
  8
LAYER-1
 10
56.316838
 20
49.050321
 30
0.000000
  0
VERTEX
  8
LAYER-1
 10
56.201773
 20
49.088956
 30
0.000000
  0
SEQEND
  8
LAYER-1
  0
ARC
  8
LAYER-1
 62
  7
 10
56.075876
 20
48.682659
 30
0.000000
 40
0.612813
 50
77.095131
 51
104.125153
  0
POLYLINE
  8
LAYER-1
 66
  1
 70
  0
 62
  7
 10
55.984882
 20
48.851713
 30
0.000000
  0
VERTEX
  8
LAYER-1
 10
55.984882
 20
48.851713
 30
0.000000
  0
VERTEX
  8
LAYER-1
 10
55.953106
 20
48.878441
 30
0.000000
  0
SEQEND
  8
LAYER-1
  0
POLYLINE
  8
LAYER-1
 66
  1
 70
  0
 62
  7
 10
55.953106
 20
48.878441
 30
0.000000
  0
VERTEX
  8
LAYER-1
 10
55.953106
 20
48.878441
 30
0.000000
  0
VERTEX
  8
LAYER-1
 10
55.989572
 20
48.907987
 30
0.000000
  0
SEQEND
  8
LAYER-1
  0
POLYLINE
  8
LAYER-1
 66
  1
 70
  0
 62
  7
 10
56.229441
 20
48.927993
 30
0.000000
  0
VERTEX
  8
LAYER-1
 10
56.229441
 20
48.927993
 30
0.000000
  0
VERTEX
  8
LAYER-1
 10
56.259099
 20
48.895442
 30
0.000000
  0
SEQEND
  8
LAYER-1
  0
POLYLINE
  8
LAYER-1
 66
  1
 70
  0
 62
  7
 10
56.259099
 20
48.895442
 30
0.000000
  0
VERTEX
  8
LAYER-1
 10
56.259099
 20
48.895442
 30
0.000000
  0
VERTEX
  8
LAYER-1
 10
56.226445
 20
48.869122
 30
0.000000
  0
SEQEND
  8
LAYER-1
  0
ARC
  8
LAYER-1
 62
  7
 10
56.140188
 20
48.273362
 30
0.000000
 40
0.633342
 50
79.179024
 51
107.181244
  0
ARC
  8
LAYER-1
 62
  7
 10
56.144869
 20
48.316500
 30
0.000000
 40
0.558604
 50
81.602242
 51
106.643066
  0
POLYLINE
  8
LAYER-1
 66
  1
 70
  0
 62
  7
 10
55.983051
 20
48.793128
 30
0.000000
  0
VERTEX
  8
LAYER-1
 10
55.983051
 20
48.793128
 30
0.000000
  0
VERTEX
  8
LAYER-1
 10
55.951285
 20
48.819852
 30
0.000000
  0
SEQEND
  8
LAYER-1
  0
POLYLINE
  8
LAYER-1
 66
  1
 70
  0
 62
  7
 10
55.951285
 20
48.819852
 30
0.000000
  0
VERTEX
  8
LAYER-1
 10
55.951285
 20
48.819852
 30
0.000000
  0
VERTEX
  8
LAYER-1
 10
55.987737
 20
48.849403
 30
0.000000
  0
SEQEND
  8
LAYER-1
  0
POLYLINE
  8
LAYER-1
 66
  1
 70
  0
 62
  7
 10
56.226445
 20
48.869122
 30
0.000000
  0
VERTEX
  8
LAYER-1
 10
56.226445
 20
48.869122
 30
0.000000
  0
VERTEX
  8
LAYER-1
 10
56.257268
 20
48.836858
 30
0.000000
  0
SEQEND
  8
LAYER-1
  0
POLYLINE
  8
LAYER-1
 66
  1
 70
  0
 62
  7
 10
56.257268
 20
48.836858
 30
0.000000
  0
VERTEX
  8
LAYER-1
 10
56.257268
 20
48.836858
 30
0.000000
  0
VERTEX
  8
LAYER-1
 10
56.224614
 20
48.810542
 30
0.000000
  0
SEQEND
  8
LAYER-1
  0
ARC
  8
LAYER-1
 62
  7
 10
56.138367
 20
48.214778
 30
0.000000
 40
0.633342
 50
79.179024
 51
107.181244
  0
ARC
  8
LAYER-1
 62
  7
 10
56.143043
 20
48.257925
 30
0.000000
 40
0.558604
 50
81.602242
 51
106.643066
  0
POLYLINE
  8
LAYER-1
 66
  1
 70
  0
 62
  7
 10
55.981722
 20
48.676532
 30
0.000000
  0
VERTEX
  8
LAYER-1
 10
55.981722
 20
48.676532
 30
0.000000
  0
VERTEX
  8
LAYER-1
 10
55.949951
 20
48.703256
 30
0.000000
  0
SEQEND
  8
LAYER-1
  0
POLYLINE
  8
LAYER-1
 66
  1
 70
  0
 62
  7
 10
55.949951
 20
48.703256
 30
0.000000
  0
VERTEX
  8
LAYER-1
 10
55.949951
 20
48.703256
 30
0.000000
  0
VERTEX
  8
LAYER-1
 10
55.986413
 20
48.732802
 30
0.000000
  0
SEQEND
  8
LAYER-1
  0
POLYLINE
  8
LAYER-1
 66
  1
 70
  0
 62
  7
 10
56.222788
 20
48.751958
 30
0.000000
  0
VERTEX
  8
LAYER-1
 10
56.222788
 20
48.751958
 30
0.000000
  0
VERTEX
  8
LAYER-1
 10
56.255949
 20
48.720262
 30
0.000000
  0
SEQEND
  8
LAYER-1
  0
POLYLINE
  8
LAYER-1
 66
  1
 70
  0
 62
  7
 10
56.255949
 20
48.720262
 30
0.000000
  0
VERTEX
  8
LAYER-1
 10
56.255949
 20
48.720262
 30
0.000000
  0
VERTEX
  8
LAYER-1
 10
56.223295
 20
48.693942
 30
0.000000
  0
SEQEND
  8
LAYER-1
  0
ARC
  8
LAYER-1
 62
  7
 10
56.137038
 20
48.098182
 30
0.000000
 40
0.633342
 50
79.179024
 51
107.181244
  0
ARC
  8
LAYER-1
 62
  7
 10
56.141714
 20
48.141329
 30
0.000000
 40
0.558604
 50
81.602242
 51
106.643066
  0
POLYLINE
  8
LAYER-1
 66
  1
 70
  0
 62
  7
 10
55.967323
 20
48.626024
 30
0.000000
  0
VERTEX
  8
LAYER-1
 10
55.967323
 20
48.626024
 30
0.000000
  0
VERTEX
  8
LAYER-1
 10
55.944618
 20
48.643827
 30
0.000000
  0
SEQEND
  8
LAYER-1
  0
POLYLINE
  8
LAYER-1
 66
  1
 70
  0
 62
  7
 10
55.944618
 20
48.643827
 30
0.000000
  0
VERTEX
  8
LAYER-1
 10
55.944618
 20
48.643827
 30
0.000000
  0
VERTEX
  8
LAYER-1
 10
55.981084
 20
48.673368
 30
0.000000
  0
SEQEND
  8
LAYER-1
  0
POLYLINE
  8
LAYER-1
 66
  1
 70
  0
 62
  7
 10
56.223295
 20
48.693942
 30
0.000000
  0
VERTEX
  8
LAYER-1
 10
56.223295
 20
48.693942
 30
0.000000
  0
VERTEX
  8
LAYER-1
 10
56.250615
 20
48.660832
 30
0.000000
  0
SEQEND
  8
LAYER-1
  0
POLYLINE
  8
LAYER-1
 66
  1
 70
  0
 62
  7
 10
56.250615
 20
48.660832
 30
0.000000
  0
VERTEX
  8
LAYER-1
 10
56.250615
 20
48.660832
 30
0.000000
  0
VERTEX
  8
LAYER-1
 10
56.217961
 20
48.634507
 30
0.000000
  0
SEQEND
  8
LAYER-1
  0
ARC
  8
LAYER-1
 62
  7
 10
56.131704
 20
48.038743
 30
0.000000
 40
0.633342
 50
79.179024
 51
107.181244
  0
ARC
  8
LAYER-1
 62
  7
 10
56.131780
 20
47.964684
 30
0.000000
 40
0.675344
 50
82.668495
 51
96.916077
  0
POLYLINE
  8
LAYER-1
 66
  1
 70
  0
 62
  7
 10
55.987873
 20
48.910579
 30
0.000000
  0
VERTEX
  8
LAYER-1
 10
55.987873
 20
48.910579
 30
0.000000
  0
VERTEX
  8
LAYER-1
 10
55.956102
 20
48.937312
 30
0.000000
  0
SEQEND
  8
LAYER-1
  0
POLYLINE
  8
LAYER-1
 66
  1
 70
  0
 62
  7
 10
55.956102
 20
48.937312
 30
0.000000
  0
VERTEX
  8
LAYER-1
 10
55.956102
 20
48.937312
 30
0.000000
  0
VERTEX
  8
LAYER-1
 10
55.992568
 20
48.966853
 30
0.000000
  0
SEQEND
  8
LAYER-1
  0
POLYLINE
  8
LAYER-1
 66
  1
 70
  0
 62
  7
 10
56.232060
 20
48.985525
 30
0.000000
  0
VERTEX
  8
LAYER-1
 10
56.232060
 20
48.985525
 30
0.000000
  0
VERTEX
  8
LAYER-1
 10
56.262094
 20
48.954308
 30
0.000000
  0
SEQEND
  8
LAYER-1
  0
POLYLINE
  8
LAYER-1
 66
  1
 70
  0
 62
  7
 10
56.262094
 20
48.954308
 30
0.000000
  0
VERTEX
  8
LAYER-1
 10
56.262094
 20
48.954308
 30
0.000000
  0
VERTEX
  8
LAYER-1
 10
56.229441
 20
48.927993
 30
0.000000
  0
SEQEND
  8
LAYER-1
  0
ARC
  8
LAYER-1
 62
  7
 10
56.143188
 20
48.332228
 30
0.000000
 40
0.633342
 50
79.179024
 51
107.181244
  0
ARC
  8
LAYER-1
 62
  7
 10
56.147860
 20
48.375376
 30
0.000000
 40
0.558604
 50
81.602242
 51
106.643066
  0
POLYLINE
  8
LAYER-1
 66
  1
 70
  0
 62
  7
 10
55.990488
 20
48.968116
 30
0.000000
  0
VERTEX
  8
LAYER-1
 10
55.990488
 20
48.968116
 30
0.000000
  0
VERTEX
  8
LAYER-1
 10
55.958717
 20
48.994845
 30
0.000000
  0
SEQEND
  8
LAYER-1
  0
POLYLINE
  8
LAYER-1
 66
  1
 70
  0
 62
  7
 10
55.958717
 20
48.994845
 30
0.000000
  0
VERTEX
  8
LAYER-1
 10
55.958717
 20
48.994845
 30
0.000000
  0
VERTEX
  8
LAYER-1
 10
55.995174
 20
49.024386
 30
0.000000
  0
SEQEND
  8
LAYER-1
  0
POLYLINE
  8
LAYER-1
 66
  1
 70
  0
 62
  7
 10
56.242141
 20
49.038518
 30
0.000000
  0
VERTEX
  8
LAYER-1
 10
56.242141
 20
49.038518
 30
0.000000
  0
VERTEX
  8
LAYER-1
 10
56.264709
 20
49.011846
 30
0.000000
  0
SEQEND
  8
LAYER-1
  0
POLYLINE
  8
LAYER-1
 66
  1
 70
  0
 62
  7
 10
56.264709
 20
49.011846
 30
0.000000
  0
VERTEX
  8
LAYER-1
 10
56.264709
 20
49.011846
 30
0.000000
  0
VERTEX
  8
LAYER-1
 10
56.232060
 20
48.985525
 30
0.000000
  0
SEQEND
  8
LAYER-1
  0
ARC
  8
LAYER-1
 62
  7
 10
56.145804
 20
48.389761
 30
0.000000
 40
0.633342
 50
79.179024
 51
107.181244
  0
ARC
  8
LAYER-1
 62
  7
 10
56.150480
 20
48.432913
 30
0.000000
 40
0.558604
 50
81.602242
 51
106.643066
  0
POLYLINE
  8
LAYER-1
 66
  1
 70
  0
 62
  7
 10
55.995174
 20
49.024386
 30
0.000000
  0
VERTEX
  8
LAYER-1
 10
55.995174
 20
49.024386
 30
0.000000
  0
VERTEX
  8
LAYER-1
 10
55.925044
 20
49.077101
 30
0.000000
  0
SEQEND
  8
LAYER-1
  0
POLYLINE
  8
LAYER-1
 66
  1
 70
  0
 62
  7
 10
56.242141
 20
49.038518
 30
0.000000
  0
VERTEX
  8
LAYER-1
 10
56.242141
 20
49.038518
 30
0.000000
  0
VERTEX
  8
LAYER-1
 10
56.316838
 20
49.050321
 30
0.000000
  0
SEQEND
  8
LAYER-1
  0
ARC
  8
LAYER-1
 62
  7
 10
56.150503
 20
48.474821
 30
0.000000
 40
0.571096
 50
80.766609
 51
105.782074
  0
POLYLINE
  8
LAYER-1
 66
  1
 70
  0
 62
  7
 10
55.981215
 20
48.734544
 30
0.000000
  0
VERTEX
  8
LAYER-1
 10
55.981215
 20
48.734544
 30
0.000000
  0
VERTEX
  8
LAYER-1
 10
55.949444
 20
48.761277
 30
0.000000
  0
SEQEND
  8
LAYER-1
  0
POLYLINE
  8
LAYER-1
 66
  1
 70
  0
 62
  7
 10
55.949444
 20
48.761277
 30
0.000000
  0
VERTEX
  8
LAYER-1
 10
55.949444
 20
48.761277
 30
0.000000
  0
VERTEX
  8
LAYER-1
 10
55.985910
 20
48.790818
 30
0.000000
  0
SEQEND
  8
LAYER-1
  0
POLYLINE
  8
LAYER-1
 66
  1
 70
  0
 62
  7
 10
56.224614
 20
48.810542
 30
0.000000
  0
VERTEX
  8
LAYER-1
 10
56.224614
 20
48.810542
 30
0.000000
  0
VERTEX
  8
LAYER-1
 10
56.255442
 20
48.778278
 30
0.000000
  0
SEQEND
  8
LAYER-1
  0
POLYLINE
  8
LAYER-1
 66
  1
 70
  0
 62
  7
 10
56.255442
 20
48.778278
 30
0.000000
  0
VERTEX
  8
LAYER-1
 10
56.255442
 20
48.778278
 30
0.000000
  0
VERTEX
  8
LAYER-1
 10
56.222788
 20
48.751958
 30
0.000000
  0
SEQEND
  8
LAYER-1
  0
ARC
  8
LAYER-1
 62
  7
 10
56.136531
 20
48.156194
 30
0.000000
 40
0.633342
 50
79.179024
 51
107.181244
  0
ARC
  8
LAYER-1
 62
  7
 10
56.141202
 20
48.199346
 30
0.000000
 40
0.558604
 50
81.602242
 51
106.643066
  0
POLYLINE
  8
LAYER-1
 66
  1
 70
  0
 62
  7
 10
56.215895
 20
48.634155
 30
0.000000
  0
VERTEX
  8
LAYER-1
 10
56.215895
 20
48.634155
 30
0.000000
  0
VERTEX
  8
LAYER-1
 10
56.225008
 20
48.624390
 30
0.000000
  0
SEQEND
  8
LAYER-1
  0
POLYLINE
  8
LAYER-1
 66
  1
 70
  1
 62
  7
  0
VERTEX
  8
LAYER-1
 10
55.844590
 20
48.632719
 30
0.000000
  0
VERTEX
  8
LAYER-1
 10
56.339783
 20
48.632719
 30
0.000000
  0
VERTEX
  8
LAYER-1
 10
56.339783
 20
47.075022
 30
0.000000
  0
VERTEX
  8
LAYER-1
 10
55.844590
 20
47.075022
 30
0.000000
  0
SEQEND
  8
LAYER-1
  0
POLYLINE
  8
LAYER-1
 66
  1
 70
  1
 62
255
 10
60.551321
 20
49.276949
 30
0.000000
  0
VERTEX
  8
LAYER-1
 10
60.551321
 20
49.276949
 30
0.000000
  0
VERTEX
  8
LAYER-1
 10
60.550044
 20
49.077101
 30
0.000000
  0
VERTEX
  8
LAYER-1
 10
60.620174
 20
49.024386
 30
0.000000
  0
VERTEX
  8
LAYER-1
 10
60.583717
 20
48.994845
 30
0.000000
  0
VERTEX
  8
LAYER-1
 10
60.615488
 20
48.968116
 30
0.000000
  0
VERTEX
  8
LAYER-1
 10
60.581102
 20
48.937312
 30
0.000000
  0
VERTEX
  8
LAYER-1
 10
60.612873
 20
48.910579
 30
0.000000
  0
VERTEX
  8
LAYER-1
 10
60.578106
 20
48.878441
 30
0.000000
  0
VERTEX
  8
LAYER-1
 10
60.612737
 20
48.849403
 30
0.000000
  0
VERTEX
  8
LAYER-1
 10
60.576285
 20
48.819852
 30
0.000000
  0
VERTEX
  8
LAYER-1
 10
60.608051
 20
48.793128
 30
0.000000
  0
VERTEX
  8
LAYER-1
 10
60.574444
 20
48.761277
 30
0.000000
  0
VERTEX
  8
LAYER-1
 10
60.611413
 20
48.732802
 30
0.000000
  0
VERTEX
  8
LAYER-1
 10
60.574951
 20
48.703256
 30
0.000000
  0
VERTEX
  8
LAYER-1
 10
60.606084
 20
48.673368
 30
0.000000
  0
VERTEX
  8
LAYER-1
 10
60.569618
 20
48.643827
 30
0.000000
  0
VERTEX
  8
LAYER-1
 10
60.592323
 20
48.626024
 30
0.000000
  0
VERTEX
  8
LAYER-1
 10
60.577421
 20
48.392320
 30
0.000000
  0
VERTEX
  8
LAYER-1
 10
60.586703
 20
48.384686
 30
0.000000
  0
VERTEX
  8
LAYER-1
 10
60.551645
 20
48.353722
 30
0.000000
  0
VERTEX
  8
LAYER-1
 10
60.583416
 20
48.326984
 30
0.000000
  0
VERTEX
  8
LAYER-1
 10
60.579698
 20
48.291448
 30
0.000000
  0
VERTEX
  8
LAYER-1
 10
60.811190
 20
48.295805
 30
0.000000
  0
VERTEX
  8
LAYER-1
 10
60.824989
 20
48.344398
 30
0.000000
  0
VERTEX
  8
LAYER-1
 10
60.857643
 20
48.370713
 30
0.000000
  0
VERTEX
  8
LAYER-1
 10
60.838017
 20
48.388916
 30
0.000000
  0
VERTEX
  8
LAYER-1
 10
60.850008
 20
48.624390
 30
0.000000
  0
VERTEX
  8
LAYER-1
 10
60.840895
 20
48.634155
 30
0.000000
  0
VERTEX
  8
LAYER-1
 10
60.875615
 20
48.660832
 30
0.000000
  0
VERTEX
  8
LAYER-1
 10
60.848295
 20
48.693942
 30
0.000000
  0
VERTEX
  8
LAYER-1
 10
60.880949
 20
48.720262
 30
0.000000
  0
VERTEX
  8
LAYER-1
 10
60.847788
 20
48.751958
 30
0.000000
  0
VERTEX
  8
LAYER-1
 10
60.880442
 20
48.778278
 30
0.000000
  0
VERTEX
  8
LAYER-1
 10
60.849619
 20
48.810542
 30
0.000000
  0
VERTEX
  8
LAYER-1
 10
60.882268
 20
48.836858
 30
0.000000
  0
VERTEX
  8
LAYER-1
 10
60.851445
 20
48.869122
 30
0.000000
  0
VERTEX
  8
LAYER-1
 10
60.884099
 20
48.895442
 30
0.000000
  0
VERTEX
  8
LAYER-1
 10
60.854441
 20
48.927993
 30
0.000000
  0
VERTEX
  8
LAYER-1
 10
60.887094
 20
48.954308
 30
0.000000
  0
VERTEX
  8
LAYER-1
 10
60.857060
 20
48.985525
 30
0.000000
  0
VERTEX
  8
LAYER-1
 10
60.889709
 20
49.011846
 30
0.000000
  0
VERTEX
  8
LAYER-1
 10
60.867141
 20
49.038518
 30
0.000000
  0
VERTEX
  8
LAYER-1
 10
60.941838
 20
49.050321
 30
0.000000
  0
VERTEX
  8
LAYER-1
 10
60.958139
 20
49.228882
 30
0.000000
  0
VERTEX
  8
LAYER-1
 10
60.837731
 20
49.279992
 30
0.000000
  0
VERTEX
  8
LAYER-1
 10
60.784856
 20
49.288875
 30
0.000000
  0
VERTEX
  8
LAYER-1
 10
60.719013
 20
49.295119
 30
0.000000
  0
VERTEX
  8
LAYER-1
 10
60.667124
 20
49.294866
 30
0.000000
  0
VERTEX
  8
LAYER-1
 10
60.616366
 20
49.289945
 30
0.000000
  0
SEQEND
  8
LAYER-1
  0
POLYLINE
  8
LAYER-1
 66
  1
 70
  0
 62
  7
 10
60.551321
 20
49.276949
 30
0.000000
  0
VERTEX
  8
LAYER-1
 10
60.551321
 20
49.276949
 30
0.000000
  0
VERTEX
  8
LAYER-1
 10
60.550044
 20
49.077101
 30
0.000000
  0
SEQEND
  8
LAYER-1
  0
POLYLINE
  8
LAYER-1
 66
  1
 70
  0
 62
  7
 10
60.826773
 20
49.088956
 30
0.000000
  0
VERTEX
  8
LAYER-1
 10
60.826773
 20
49.088956
 30
0.000000
  0
VERTEX
  8
LAYER-1
 10
60.550044
 20
49.077101
 30
0.000000
  0
SEQEND
  8
LAYER-1
  0
POLYLINE
  8
LAYER-1
 66
  1
 70
  0
 62
  7
 10
60.826773
 20
49.088956
 30
0.000000
  0
VERTEX
  8
LAYER-1
 10
60.826773
 20
49.088956
 30
0.000000
  0
VERTEX
  8
LAYER-1
 10
60.837731
 20
49.279992
 30
0.000000
  0
SEQEND
  8
LAYER-1
  0
POLYLINE
  8
LAYER-1
 66
  1
 70
  0
 62
  7
 10
60.837731
 20
49.279992
 30
0.000000
  0
VERTEX
  8
LAYER-1
 10
60.837731
 20
49.279992
 30
0.000000
  0
VERTEX
  8
LAYER-1
 10
60.958139
 20
49.228882
 30
0.000000
  0
SEQEND
  8
LAYER-1
  0
POLYLINE
  8
LAYER-1
 66
  1
 70
  0
 62
  7
 10
60.958139
 20
49.228882
 30
0.000000
  0
VERTEX
  8
LAYER-1
 10
60.958139
 20
49.228882
 30
0.000000
  0
VERTEX
  8
LAYER-1
 10
60.941838
 20
49.050321
 30
0.000000
  0
SEQEND
  8
LAYER-1
  0
POLYLINE
  8
LAYER-1
 66
  1
 70
  0
 62
  7
 10
60.941838
 20
49.050321
 30
0.000000
  0
VERTEX
  8
LAYER-1
 10
60.941838
 20
49.050321
 30
0.000000
  0
VERTEX
  8
LAYER-1
 10
60.826773
 20
49.088956
 30
0.000000
  0
SEQEND
  8
LAYER-1
  0
ARC
  8
LAYER-1
 62
  7
 10
60.700876
 20
48.682659
 30
0.000000
 40
0.612813
 50
77.095131
 51
104.125153
  0
POLYLINE
  8
LAYER-1
 66
  1
 70
  0
 62
  7
 10
60.609882
 20
48.851713
 30
0.000000
  0
VERTEX
  8
LAYER-1
 10
60.609882
 20
48.851713
 30
0.000000
  0
VERTEX
  8
LAYER-1
 10
60.578106
 20
48.878441
 30
0.000000
  0
SEQEND
  8
LAYER-1
  0
POLYLINE
  8
LAYER-1
 66
  1
 70
  0
 62
  7
 10
60.578106
 20
48.878441
 30
0.000000
  0
VERTEX
  8
LAYER-1
 10
60.578106
 20
48.878441
 30
0.000000
  0
VERTEX
  8
LAYER-1
 10
60.614572
 20
48.907987
 30
0.000000
  0
SEQEND
  8
LAYER-1
  0
POLYLINE
  8
LAYER-1
 66
  1
 70
  0
 62
  7
 10
60.854441
 20
48.927993
 30
0.000000
  0
VERTEX
  8
LAYER-1
 10
60.854441
 20
48.927993
 30
0.000000
  0
VERTEX
  8
LAYER-1
 10
60.884099
 20
48.895442
 30
0.000000
  0
SEQEND
  8
LAYER-1
  0
POLYLINE
  8
LAYER-1
 66
  1
 70
  0
 62
  7
 10
60.884099
 20
48.895442
 30
0.000000
  0
VERTEX
  8
LAYER-1
 10
60.884099
 20
48.895442
 30
0.000000
  0
VERTEX
  8
LAYER-1
 10
60.851445
 20
48.869122
 30
0.000000
  0
SEQEND
  8
LAYER-1
  0
ARC
  8
LAYER-1
 62
  7
 10
60.765188
 20
48.273362
 30
0.000000
 40
0.633342
 50
79.179024
 51
107.181244
  0
ARC
  8
LAYER-1
 62
  7
 10
60.769869
 20
48.316500
 30
0.000000
 40
0.558604
 50
81.602242
 51
106.643066
  0
POLYLINE
  8
LAYER-1
 66
  1
 70
  0
 62
  7
 10
60.608051
 20
48.793128
 30
0.000000
  0
VERTEX
  8
LAYER-1
 10
60.608051
 20
48.793128
 30
0.000000
  0
VERTEX
  8
LAYER-1
 10
60.576285
 20
48.819852
 30
0.000000
  0
SEQEND
  8
LAYER-1
  0
POLYLINE
  8
LAYER-1
 66
  1
 70
  0
 62
  7
 10
60.576285
 20
48.819852
 30
0.000000
  0
VERTEX
  8
LAYER-1
 10
60.576285
 20
48.819852
 30
0.000000
  0
VERTEX
  8
LAYER-1
 10
60.612737
 20
48.849403
 30
0.000000
  0
SEQEND
  8
LAYER-1
  0
POLYLINE
  8
LAYER-1
 66
  1
 70
  0
 62
  7
 10
60.851445
 20
48.869122
 30
0.000000
  0
VERTEX
  8
LAYER-1
 10
60.851445
 20
48.869122
 30
0.000000
  0
VERTEX
  8
LAYER-1
 10
60.882268
 20
48.836858
 30
0.000000
  0
SEQEND
  8
LAYER-1
  0
POLYLINE
  8
LAYER-1
 66
  1
 70
  0
 62
  7
 10
60.882268
 20
48.836858
 30
0.000000
  0
VERTEX
  8
LAYER-1
 10
60.882268
 20
48.836858
 30
0.000000
  0
VERTEX
  8
LAYER-1
 10
60.849619
 20
48.810542
 30
0.000000
  0
SEQEND
  8
LAYER-1
  0
ARC
  8
LAYER-1
 62
  7
 10
60.763367
 20
48.214778
 30
0.000000
 40
0.633342
 50
79.179024
 51
107.181244
  0
ARC
  8
LAYER-1
 62
  7
 10
60.768043
 20
48.257925
 30
0.000000
 40
0.558604
 50
81.602242
 51
106.643066
  0
POLYLINE
  8
LAYER-1
 66
  1
 70
  0
 62
  7
 10
60.606722
 20
48.676532
 30
0.000000
  0
VERTEX
  8
LAYER-1
 10
60.606722
 20
48.676532
 30
0.000000
  0
VERTEX
  8
LAYER-1
 10
60.574951
 20
48.703256
 30
0.000000
  0
SEQEND
  8
LAYER-1
  0
POLYLINE
  8
LAYER-1
 66
  1
 70
  0
 62
  7
 10
60.574951
 20
48.703256
 30
0.000000
  0
VERTEX
  8
LAYER-1
 10
60.574951
 20
48.703256
 30
0.000000
  0
VERTEX
  8
LAYER-1
 10
60.611413
 20
48.732802
 30
0.000000
  0
SEQEND
  8
LAYER-1
  0
POLYLINE
  8
LAYER-1
 66
  1
 70
  0
 62
  7
 10
60.847788
 20
48.751958
 30
0.000000
  0
VERTEX
  8
LAYER-1
 10
60.847788
 20
48.751958
 30
0.000000
  0
VERTEX
  8
LAYER-1
 10
60.880949
 20
48.720262
 30
0.000000
  0
SEQEND
  8
LAYER-1
  0
POLYLINE
  8
LAYER-1
 66
  1
 70
  0
 62
  7
 10
60.880949
 20
48.720262
 30
0.000000
  0
VERTEX
  8
LAYER-1
 10
60.880949
 20
48.720262
 30
0.000000
  0
VERTEX
  8
LAYER-1
 10
60.848295
 20
48.693942
 30
0.000000
  0
SEQEND
  8
LAYER-1
  0
ARC
  8
LAYER-1
 62
  7
 10
60.762038
 20
48.098182
 30
0.000000
 40
0.633342
 50
79.179024
 51
107.181244
  0
ARC
  8
LAYER-1
 62
  7
 10
60.766714
 20
48.141329
 30
0.000000
 40
0.558604
 50
81.602242
 51
106.643066
  0
POLYLINE
  8
LAYER-1
 66
  1
 70
  0
 62
  7
 10
60.592323
 20
48.626024
 30
0.000000
  0
VERTEX
  8
LAYER-1
 10
60.592323
 20
48.626024
 30
0.000000
  0
VERTEX
  8
LAYER-1
 10
60.569618
 20
48.643827
 30
0.000000
  0
SEQEND
  8
LAYER-1
  0
POLYLINE
  8
LAYER-1
 66
  1
 70
  0
 62
  7
 10
60.569618
 20
48.643827
 30
0.000000
  0
VERTEX
  8
LAYER-1
 10
60.569618
 20
48.643827
 30
0.000000
  0
VERTEX
  8
LAYER-1
 10
60.606084
 20
48.673368
 30
0.000000
  0
SEQEND
  8
LAYER-1
  0
POLYLINE
  8
LAYER-1
 66
  1
 70
  0
 62
  7
 10
60.848295
 20
48.693942
 30
0.000000
  0
VERTEX
  8
LAYER-1
 10
60.848295
 20
48.693942
 30
0.000000
  0
VERTEX
  8
LAYER-1
 10
60.875615
 20
48.660832
 30
0.000000
  0
SEQEND
  8
LAYER-1
  0
POLYLINE
  8
LAYER-1
 66
  1
 70
  0
 62
  7
 10
60.875615
 20
48.660832
 30
0.000000
  0
VERTEX
  8
LAYER-1
 10
60.875615
 20
48.660832
 30
0.000000
  0
VERTEX
  8
LAYER-1
 10
60.842961
 20
48.634507
 30
0.000000
  0
SEQEND
  8
LAYER-1
  0
ARC
  8
LAYER-1
 62
  7
 10
60.756704
 20
48.038743
 30
0.000000
 40
0.633342
 50
79.179024
 51
107.181244
  0
ARC
  8
LAYER-1
 62
  7
 10
60.756780
 20
47.964684
 30
0.000000
 40
0.675344
 50
82.668495
 51
96.916077
  0
POLYLINE
  8
LAYER-1
 66
  1
 70
  0
 62
  7
 10
60.612873
 20
48.910579
 30
0.000000
  0
VERTEX
  8
LAYER-1
 10
60.612873
 20
48.910579
 30
0.000000
  0
VERTEX
  8
LAYER-1
 10
60.581102
 20
48.937312
 30
0.000000
  0
SEQEND
  8
LAYER-1
  0
POLYLINE
  8
LAYER-1
 66
  1
 70
  0
 62
  7
 10
60.581102
 20
48.937312
 30
0.000000
  0
VERTEX
  8
LAYER-1
 10
60.581102
 20
48.937312
 30
0.000000
  0
VERTEX
  8
LAYER-1
 10
60.617568
 20
48.966853
 30
0.000000
  0
SEQEND
  8
LAYER-1
  0
POLYLINE
  8
LAYER-1
 66
  1
 70
  0
 62
  7
 10
60.857060
 20
48.985525
 30
0.000000
  0
VERTEX
  8
LAYER-1
 10
60.857060
 20
48.985525
 30
0.000000
  0
VERTEX
  8
LAYER-1
 10
60.887094
 20
48.954308
 30
0.000000
  0
SEQEND
  8
LAYER-1
  0
POLYLINE
  8
LAYER-1
 66
  1
 70
  0
 62
  7
 10
60.887094
 20
48.954308
 30
0.000000
  0
VERTEX
  8
LAYER-1
 10
60.887094
 20
48.954308
 30
0.000000
  0
VERTEX
  8
LAYER-1
 10
60.854441
 20
48.927993
 30
0.000000
  0
SEQEND
  8
LAYER-1
  0
ARC
  8
LAYER-1
 62
  7
 10
60.768188
 20
48.332228
 30
0.000000
 40
0.633342
 50
79.179024
 51
107.181244
  0
ARC
  8
LAYER-1
 62
  7
 10
60.772860
 20
48.375376
 30
0.000000
 40
0.558604
 50
81.602242
 51
106.643066
  0
POLYLINE
  8
LAYER-1
 66
  1
 70
  0
 62
  7
 10
60.615488
 20
48.968116
 30
0.000000
  0
VERTEX
  8
LAYER-1
 10
60.615488
 20
48.968116
 30
0.000000
  0
VERTEX
  8
LAYER-1
 10
60.583717
 20
48.994845
 30
0.000000
  0
SEQEND
  8
LAYER-1
  0
POLYLINE
  8
LAYER-1
 66
  1
 70
  0
 62
  7
 10
60.583717
 20
48.994845
 30
0.000000
  0
VERTEX
  8
LAYER-1
 10
60.583717
 20
48.994845
 30
0.000000
  0
VERTEX
  8
LAYER-1
 10
60.620174
 20
49.024386
 30
0.000000
  0
SEQEND
  8
LAYER-1
  0
POLYLINE
  8
LAYER-1
 66
  1
 70
  0
 62
  7
 10
60.867141
 20
49.038518
 30
0.000000
  0
VERTEX
  8
LAYER-1
 10
60.867141
 20
49.038518
 30
0.000000
  0
VERTEX
  8
LAYER-1
 10
60.889709
 20
49.011846
 30
0.000000
  0
SEQEND
  8
LAYER-1
  0
POLYLINE
  8
LAYER-1
 66
  1
 70
  0
 62
  7
 10
60.889709
 20
49.011846
 30
0.000000
  0
VERTEX
  8
LAYER-1
 10
60.889709
 20
49.011846
 30
0.000000
  0
VERTEX
  8
LAYER-1
 10
60.857060
 20
48.985525
 30
0.000000
  0
SEQEND
  8
LAYER-1
  0
ARC
  8
LAYER-1
 62
  7
 10
60.770804
 20
48.389761
 30
0.000000
 40
0.633342
 50
79.179024
 51
107.181244
  0
ARC
  8
LAYER-1
 62
  7
 10
60.775480
 20
48.432913
 30
0.000000
 40
0.558604
 50
81.602242
 51
106.643066
  0
POLYLINE
  8
LAYER-1
 66
  1
 70
  0
 62
  7
 10
60.620174
 20
49.024386
 30
0.000000
  0
VERTEX
  8
LAYER-1
 10
60.620174
 20
49.024386
 30
0.000000
  0
VERTEX
  8
LAYER-1
 10
60.550044
 20
49.077101
 30
0.000000
  0
SEQEND
  8
LAYER-1
  0
POLYLINE
  8
LAYER-1
 66
  1
 70
  0
 62
  7
 10
60.867141
 20
49.038518
 30
0.000000
  0
VERTEX
  8
LAYER-1
 10
60.867141
 20
49.038518
 30
0.000000
  0
VERTEX
  8
LAYER-1
 10
60.941838
 20
49.050321
 30
0.000000
  0
SEQEND
  8
LAYER-1
  0
ARC
  8
LAYER-1
 62
  7
 10
60.775503
 20
48.474821
 30
0.000000
 40
0.571096
 50
80.766609
 51
105.782074
  0
POLYLINE
  8
LAYER-1
 66
  1
 70
  0
 62
  7
 10
60.606215
 20
48.734544
 30
0.000000
  0
VERTEX
  8
LAYER-1
 10
60.606215
 20
48.734544
 30
0.000000
  0
VERTEX
  8
LAYER-1
 10
60.574444
 20
48.761277
 30
0.000000
  0
SEQEND
  8
LAYER-1
  0
POLYLINE
  8
LAYER-1
 66
  1
 70
  0
 62
  7
 10
60.574444
 20
48.761277
 30
0.000000
  0
VERTEX
  8
LAYER-1
 10
60.574444
 20
48.761277
 30
0.000000
  0
VERTEX
  8
LAYER-1
 10
60.610910
 20
48.790818
 30
0.000000
  0
SEQEND
  8
LAYER-1
  0
POLYLINE
  8
LAYER-1
 66
  1
 70
  0
 62
  7
 10
60.849619
 20
48.810542
 30
0.000000
  0
VERTEX
  8
LAYER-1
 10
60.849619
 20
48.810542
 30
0.000000
  0
VERTEX
  8
LAYER-1
 10
60.880442
 20
48.778278
 30
0.000000
  0
SEQEND
  8
LAYER-1
  0
POLYLINE
  8
LAYER-1
 66
  1
 70
  0
 62
  7
 10
60.880442
 20
48.778278
 30
0.000000
  0
VERTEX
  8
LAYER-1
 10
60.880442
 20
48.778278
 30
0.000000
  0
VERTEX
  8
LAYER-1
 10
60.847788
 20
48.751958
 30
0.000000
  0
SEQEND
  8
LAYER-1
  0
ARC
  8
LAYER-1
 62
  7
 10
60.761531
 20
48.156194
 30
0.000000
 40
0.633342
 50
79.179024
 51
107.181244
  0
ARC
  8
LAYER-1
 62
  7
 10
60.766207
 20
48.199346
 30
0.000000
 40
0.558604
 50
81.602242
 51
106.643066
  0
POLYLINE
  8
LAYER-1
 66
  1
 70
  0
 62
  7
 10
60.840895
 20
48.634155
 30
0.000000
  0
VERTEX
  8
LAYER-1
 10
60.840895
 20
48.634155
 30
0.000000
  0
VERTEX
  8
LAYER-1
 10
60.850008
 20
48.624390
 30
0.000000
  0
SEQEND
  8
LAYER-1
  0
POLYLINE
  8
LAYER-1
 66
  1
 70
  1
 62
  7
  0
VERTEX
  8
LAYER-1
 10
60.469590
 20
48.632719
 30
0.000000
  0
VERTEX
  8
LAYER-1
 10
60.964783
 20
48.632719
 30
0.000000
  0
VERTEX
  8
LAYER-1
 10
60.964783
 20
47.075022
 30
0.000000
  0
VERTEX
  8
LAYER-1
 10
60.469590
 20
47.075022
 30
0.000000
  0
SEQEND
  8
LAYER-1
  0
POLYLINE
  8
LAYER-1
 66
  1
 70
  1
 62
  7
  0
VERTEX
  8
LAYER-1
 10
57.148442
 20
50.939923
 30
0.000000
  0
VERTEX
  8
LAYER-1
 10
59.648447
 20
50.939923
 30
0.000000
  0
VERTEX
  8
LAYER-1
 10
59.648447
 20
41.239925
 30
0.000000
  0
VERTEX
  8
LAYER-1
 10
57.148442
 20
41.239925
 30
0.000000
  0
SEQEND
  8
LAYER-1
  0
POLYLINE
  8
LAYER-1
 66
  1
 70
  1
 62
  7
  0
VERTEX
  8
LAYER-1
 10
56.893644
 20
48.816848
 30
0.000000
  0
VERTEX
  8
LAYER-1
 10
57.143644
 20
48.816848
 30
0.000000
  0
VERTEX
  8
LAYER-1
 10
57.143644
 20
46.816848
 30
0.000000
  0
VERTEX
  8
LAYER-1
 10
56.893644
 20
46.816848
 30
0.000000
  0
SEQEND
  8
LAYER-1
  0
POLYLINE
  8
LAYER-1
 66
  1
 70
  1
 62
  7
  0
VERTEX
  8
LAYER-1
 10
59.643644
 20
48.816848
 30
0.000000
  0
VERTEX
  8
LAYER-1
 10
59.893644
 20
48.816848
 30
0.000000
  0
VERTEX
  8
LAYER-1
 10
59.893644
 20
46.816848
 30
0.000000
  0
VERTEX
  8
LAYER-1
 10
59.643644
 20
46.816848
 30
0.000000
  0
SEQEND
  8
LAYER-1
  0
POLYLINE
  8
LAYER-1
 66
  1
 70
  1
 62
  7
  0
VERTEX
  8
LAYER-1
 10
59.643630
 20
44.829346
 30
0.000000
  0
VERTEX
  8
LAYER-1
 10
59.768630
 20
44.829346
 30
0.000000
  0
VERTEX
  8
LAYER-1
 10
59.768630
 20
43.579346
 30
0.000000
  0
VERTEX
  8
LAYER-1
 10
59.643630
 20
43.579346
 30
0.000000
  0
SEQEND
  8
LAYER-1
  0
POLYLINE
  8
LAYER-1
 66
  1
 70
  1
 62
  7
  0
VERTEX
  8
LAYER-1
 10
57.018630
 20
44.829346
 30
0.000000
  0
VERTEX
  8
LAYER-1
 10
57.143630
 20
44.829346
 30
0.000000
  0
VERTEX
  8
LAYER-1
 10
57.143630
 20
43.579346
 30
0.000000
  0
VERTEX
  8
LAYER-1
 10
57.018630
 20
43.579346
 30
0.000000
  0
SEQEND
  8
LAYER-1
  0
POLYLINE
  8
LAYER-1
  6
LTYPE06
 66
  1
 70
  0
 62
  7
  6
LTYPE06
 10
62.093628
 20
49.868169
 30
0.000000
  0
VERTEX
  8
LAYER-1
  6
LTYPE06
 10
62.093628
 20
49.868169
 30
0.000000
  0
VERTEX
  8
LAYER-1
  6
LTYPE06
 10
46.593628
 20
49.868169
 30
0.000000
  0
SEQEND
  8
LAYER-1
  0
POLYLINE
  8
LAYER-1
  6
LTYPE06
 66
  1
 70
  0
 62
  7
  6
LTYPE06
 10
62.093628
 20
43.528879
 30
0.000000
  0
VERTEX
  8
LAYER-1
  6
LTYPE06
 10
62.093628
 20
43.528879
 30
0.000000
  0
VERTEX
  8
LAYER-1
  6
LTYPE06
 10
46.593628
 20
43.528879
 30
0.000000
  0
SEQEND
  8
LAYER-1
  0
POLYLINE
  8
LAYER-1
 66
  1
 70
  0
 62
  7
 10
52.784288
 20
43.673096
 30
0.000000
  0
VERTEX
  8
LAYER-1
 10
52.784288
 20
43.673096
 30
0.000000
  0
VERTEX
  8
LAYER-1
 10
52.755925
 20
43.625380
 30
0.000000
  0
SEQEND
  8
LAYER-1
  0
POLYLINE
  8
LAYER-1
 66
  1
 70
  0
 62
  7
 10
52.784288
 20
43.673096
 30
0.000000
  0
VERTEX
  8
LAYER-1
 10
52.784288
 20
43.673096
 30
0.000000
  0
VERTEX
  8
LAYER-1
 10
52.812655
 20
43.625380
 30
0.000000
  0
SEQEND
  8
LAYER-1
  0
POLYLINE
  8
LAYER-1
 66
  1
 70
  0
 62
  7
 10
52.834712
 20
43.363732
 30
0.000000
  0
VERTEX
  8
LAYER-1
 10
52.834712
 20
43.363732
 30
0.000000
  0
VERTEX
  8
LAYER-1
 10
52.806350
 20
43.411443
 30
0.000000
  0
SEQEND
  8
LAYER-1
  0
POLYLINE
  8
LAYER-1
 66
  1
 70
  0
 62
  7
 10
52.834712
 20
43.363732
 30
0.000000
  0
VERTEX
  8
LAYER-1
 10
52.834712
 20
43.363732
 30
0.000000
  0
VERTEX
  8
LAYER-1
 10
52.863079
 20
43.411443
 30
0.000000
  0
SEQEND
  8
LAYER-1
  0
POLYLINE
  8
LAYER-1
 66
  1
 70
  0
 62
  7
 10
52.755925
 20
43.625380
 30
0.000000
  0
VERTEX
  8
LAYER-1
 10
52.755925
 20
43.625380
 30
0.000000
  0
VERTEX
  8
LAYER-1
 10
52.806350
 20
43.411443
 30
0.000000
  0
SEQEND
  8
LAYER-1
  0
POLYLINE
  8
LAYER-1
 66
  1
 70
  0
 62
  7
 10
52.784288
 20
43.673096
 30
0.000000
  0
VERTEX
  8
LAYER-1
 10
52.784288
 20
43.673096
 30
0.000000
  0
VERTEX
  8
LAYER-1
 10
52.834712
 20
43.363732
 30
0.000000
  0
SEQEND
  8
LAYER-1
  0
POLYLINE
  8
LAYER-1
 66
  1
 70
  0
 62
  7
 10
52.840562
 20
43.673096
 30
0.000000
  0
VERTEX
  8
LAYER-1
 10
52.840562
 20
43.673096
 30
0.000000
  0
VERTEX
  8
LAYER-1
 10
52.812200
 20
43.625380
 30
0.000000
  0
SEQEND
  8
LAYER-1
  0
POLYLINE
  8
LAYER-1
 66
  1
 70
  0
 62
  7
 10
52.840562
 20
43.673096
 30
0.000000
  0
VERTEX
  8
LAYER-1
 10
52.840562
 20
43.673096
 30
0.000000
  0
VERTEX
  8
LAYER-1
 10
52.868929
 20
43.625380
 30
0.000000
  0
SEQEND
  8
LAYER-1
  0
POLYLINE
  8
LAYER-1
 66
  1
 70
  0
 62
  7
 10
52.890991
 20
43.363732
 30
0.000000
  0
VERTEX
  8
LAYER-1
 10
52.890991
 20
43.363732
 30
0.000000
  0
VERTEX
  8
LAYER-1
 10
52.862629
 20
43.411443
 30
0.000000
  0
SEQEND
  8
LAYER-1
  0
POLYLINE
  8
LAYER-1
 66
  1
 70
  0
 62
  7
 10
52.890991
 20
43.363732
 30
0.000000
  0
VERTEX
  8
LAYER-1
 10
52.890991
 20
43.363732
 30
0.000000
  0
VERTEX
  8
LAYER-1
 10
52.919354
 20
43.411443
 30
0.000000
  0
SEQEND
  8
LAYER-1
  0
POLYLINE
  8
LAYER-1
 66
  1
 70
  0
 62
  7
 10
52.812200
 20
43.625380
 30
0.000000
  0
VERTEX
  8
LAYER-1
 10
52.812200
 20
43.625380
 30
0.000000
  0
VERTEX
  8
LAYER-1
 10
52.862629
 20
43.411443
 30
0.000000
  0
SEQEND
  8
LAYER-1
  0
POLYLINE
  8
LAYER-1
 66
  1
 70
  0
 62
  7
 10
52.840562
 20
43.673096
 30
0.000000
  0
VERTEX
  8
LAYER-1
 10
52.840562
 20
43.673096
 30
0.000000
  0
VERTEX
  8
LAYER-1
 10
52.890991
 20
43.363732
 30
0.000000
  0
SEQEND
  8
LAYER-1
  0
POLYLINE
  8
LAYER-1
 66
  1
 70
  0
 62
  7
 10
52.896841
 20
43.673096
 30
0.000000
  0
VERTEX
  8
LAYER-1
 10
52.896841
 20
43.673096
 30
0.000000
  0
VERTEX
  8
LAYER-1
 10
52.868474
 20
43.625380
 30
0.000000
  0
SEQEND
  8
LAYER-1
  0
POLYLINE
  8
LAYER-1
 66
  1
 70
  0
 62
  7
 10
52.896841
 20
43.673096
 30
0.000000
  0
VERTEX
  8
LAYER-1
 10
52.896841
 20
43.673096
 30
0.000000
  0
VERTEX
  8
LAYER-1
 10
52.925204
 20
43.625380
 30
0.000000
  0
SEQEND
  8
LAYER-1
  0
POLYLINE
  8
LAYER-1
 66
  1
 70
  0
 62
  7
 10
52.947266
 20
43.363732
 30
0.000000
  0
VERTEX
  8
LAYER-1
 10
52.947266
 20
43.363732
 30
0.000000
  0
VERTEX
  8
LAYER-1
 10
52.918903
 20
43.411443
 30
0.000000
  0
SEQEND
  8
LAYER-1
  0
POLYLINE
  8
LAYER-1
 66
  1
 70
  0
 62
  7
 10
52.947266
 20
43.363732
 30
0.000000
  0
VERTEX
  8
LAYER-1
 10
52.947266
 20
43.363732
 30
0.000000
  0
VERTEX
  8
LAYER-1
 10
52.975633
 20
43.411443
 30
0.000000
  0
SEQEND
  8
LAYER-1
  0
POLYLINE
  8
LAYER-1
 66
  1
 70
  0
 62
  7
 10
52.868474
 20
43.625380
 30
0.000000
  0
VERTEX
  8
LAYER-1
 10
52.868474
 20
43.625380
 30
0.000000
  0
VERTEX
  8
LAYER-1
 10
52.918903
 20
43.411443
 30
0.000000
  0
SEQEND
  8
LAYER-1
  0
POLYLINE
  8
LAYER-1
 66
  1
 70
  0
 62
  7
 10
52.896841
 20
43.673096
 30
0.000000
  0
VERTEX
  8
LAYER-1
 10
52.896841
 20
43.673096
 30
0.000000
  0
VERTEX
  8
LAYER-1
 10
52.947266
 20
43.363732
 30
0.000000
  0
SEQEND
  8
LAYER-1
  0
POLYLINE
  8
LAYER-1
 66
  1
 70
  0
 62
  7
 10
52.953116
 20
43.673096
 30
0.000000
  0
VERTEX
  8
LAYER-1
 10
52.953116
 20
43.673096
 30
0.000000
  0
VERTEX
  8
LAYER-1
 10
52.924748
 20
43.625380
 30
0.000000
  0
SEQEND
  8
LAYER-1
  0
POLYLINE
  8
LAYER-1
 66
  1
 70
  0
 62
  7
 10
52.953116
 20
43.673096
 30
0.000000
  0
VERTEX
  8
LAYER-1
 10
52.953116
 20
43.673096
 30
0.000000
  0
VERTEX
  8
LAYER-1
 10
52.981478
 20
43.625380
 30
0.000000
  0
SEQEND
  8
LAYER-1
  0
POLYLINE
  8
LAYER-1
 66
  1
 70
  0
 62
  7
 10
53.003540
 20
43.363732
 30
0.000000
  0
VERTEX
  8
LAYER-1
 10
53.003540
 20
43.363732
 30
0.000000
  0
VERTEX
  8
LAYER-1
 10
52.975177
 20
43.411443
 30
0.000000
  0
SEQEND
  8
LAYER-1
  0
POLYLINE
  8
LAYER-1
 66
  1
 70
  0
 62
  7
 10
53.003540
 20
43.363732
 30
0.000000
  0
VERTEX
  8
LAYER-1
 10
53.003540
 20
43.363732
 30
0.000000
  0
VERTEX
  8
LAYER-1
 10
53.031907
 20
43.411443
 30
0.000000
  0
SEQEND
  8
LAYER-1
  0
POLYLINE
  8
LAYER-1
 66
  1
 70
  0
 62
  7
 10
52.924748
 20
43.625380
 30
0.000000
  0
VERTEX
  8
LAYER-1
 10
52.924748
 20
43.625380
 30
0.000000
  0
VERTEX
  8
LAYER-1
 10
52.975177
 20
43.411443
 30
0.000000
  0
SEQEND
  8
LAYER-1
  0
POLYLINE
  8
LAYER-1
 66
  1
 70
  0
 62
  7
 10
52.953116
 20
43.673096
 30
0.000000
  0
VERTEX
  8
LAYER-1
 10
52.953116
 20
43.673096
 30
0.000000
  0
VERTEX
  8
LAYER-1
 10
53.003540
 20
43.363732
 30
0.000000
  0
SEQEND
  8
LAYER-1
  0
POLYLINE
  8
LAYER-1
 66
  1
 70
  0
 62
  7
 10
53.009390
 20
43.673096
 30
0.000000
  0
VERTEX
  8
LAYER-1
 10
53.009390
 20
43.673096
 30
0.000000
  0
VERTEX
  8
LAYER-1
 10
52.981027
 20
43.625380
 30
0.000000
  0
SEQEND
  8
LAYER-1
  0
POLYLINE
  8
LAYER-1
 66
  1
 70
  0
 62
  7
 10
53.009390
 20
43.673096
 30
0.000000
  0
VERTEX
  8
LAYER-1
 10
53.009390
 20
43.673096
 30
0.000000
  0
VERTEX
  8
LAYER-1
 10
53.037753
 20
43.625380
 30
0.000000
  0
SEQEND
  8
LAYER-1
  0
POLYLINE
  8
LAYER-1
 66
  1
 70
  0
 62
  7
 10
53.059819
 20
43.363732
 30
0.000000
  0
VERTEX
  8
LAYER-1
 10
53.059819
 20
43.363732
 30
0.000000
  0
VERTEX
  8
LAYER-1
 10
53.031452
 20
43.411443
 30
0.000000
  0
SEQEND
  8
LAYER-1
  0
POLYLINE
  8
LAYER-1
 66
  1
 70
  0
 62
  7
 10
53.059819
 20
43.363732
 30
0.000000
  0
VERTEX
  8
LAYER-1
 10
53.059819
 20
43.363732
 30
0.000000
  0
VERTEX
  8
LAYER-1
 10
53.088182
 20
43.411443
 30
0.000000
  0
SEQEND
  8
LAYER-1
  0
POLYLINE
  8
LAYER-1
 66
  1
 70
  0
 62
  7
 10
52.981027
 20
43.625380
 30
0.000000
  0
VERTEX
  8
LAYER-1
 10
52.981027
 20
43.625380
 30
0.000000
  0
VERTEX
  8
LAYER-1
 10
53.031452
 20
43.411443
 30
0.000000
  0
SEQEND
  8
LAYER-1
  0
POLYLINE
  8
LAYER-1
 66
  1
 70
  0
 62
  7
 10
53.009390
 20
43.673096
 30
0.000000
  0
VERTEX
  8
LAYER-1
 10
53.009390
 20
43.673096
 30
0.000000
  0
VERTEX
  8
LAYER-1
 10
53.059819
 20
43.363732
 30
0.000000
  0
SEQEND
  8
LAYER-1
  0
POLYLINE
  8
LAYER-1
 66
  1
 70
  0
 62
  7
 10
53.065669
 20
43.673096
 30
0.000000
  0
VERTEX
  8
LAYER-1
 10
53.065669
 20
43.673096
 30
0.000000
  0
VERTEX
  8
LAYER-1
 10
53.037302
 20
43.625380
 30
0.000000
  0
SEQEND
  8
LAYER-1
  0
POLYLINE
  8
LAYER-1
 66
  1
 70
  0
 62
  7
 10
53.065669
 20
43.673096
 30
0.000000
  0
VERTEX
  8
LAYER-1
 10
53.065669
 20
43.673096
 30
0.000000
  0
VERTEX
  8
LAYER-1
 10
53.094032
 20
43.625380
 30
0.000000
  0
SEQEND
  8
LAYER-1
  0
POLYLINE
  8
LAYER-1
 66
  1
 70
  0
 62
  7
 10
53.116094
 20
43.363732
 30
0.000000
  0
VERTEX
  8
LAYER-1
 10
53.116094
 20
43.363732
 30
0.000000
  0
VERTEX
  8
LAYER-1
 10
53.087726
 20
43.411443
 30
0.000000
  0
SEQEND
  8
LAYER-1
  0
POLYLINE
  8
LAYER-1
 66
  1
 70
  0
 62
  7
 10
53.116094
 20
43.363732
 30
0.000000
  0
VERTEX
  8
LAYER-1
 10
53.116094
 20
43.363732
 30
0.000000
  0
VERTEX
  8
LAYER-1
 10
53.144456
 20
43.411443
 30
0.000000
  0
SEQEND
  8
LAYER-1
  0
POLYLINE
  8
LAYER-1
 66
  1
 70
  0
 62
  7
 10
53.037302
 20
43.625380
 30
0.000000
  0
VERTEX
  8
LAYER-1
 10
53.037302
 20
43.625380
 30
0.000000
  0
VERTEX
  8
LAYER-1
 10
53.087726
 20
43.411443
 30
0.000000
  0
SEQEND
  8
LAYER-1
  0
POLYLINE
  8
LAYER-1
 66
  1
 70
  0
 62
  7
 10
53.065669
 20
43.673096
 30
0.000000
  0
VERTEX
  8
LAYER-1
 10
53.065669
 20
43.673096
 30
0.000000
  0
VERTEX
  8
LAYER-1
 10
53.116094
 20
43.363732
 30
0.000000
  0
SEQEND
  8
LAYER-1
  0
POLYLINE
  8
LAYER-1
 66
  1
 70
  0
 62
  7
 10
53.121944
 20
43.673096
 30
0.000000
  0
VERTEX
  8
LAYER-1
 10
53.121944
 20
43.673096
 30
0.000000
  0
VERTEX
  8
LAYER-1
 10
53.093581
 20
43.625380
 30
0.000000
  0
SEQEND
  8
LAYER-1
  0
POLYLINE
  8
LAYER-1
 66
  1
 70
  0
 62
  7
 10
53.121944
 20
43.673096
 30
0.000000
  0
VERTEX
  8
LAYER-1
 10
53.121944
 20
43.673096
 30
0.000000
  0
VERTEX
  8
LAYER-1
 10
53.150311
 20
43.625380
 30
0.000000
  0
SEQEND
  8
LAYER-1
  0
POLYLINE
  8
LAYER-1
 66
  1
 70
  0
 62
  7
 10
53.172368
 20
43.363732
 30
0.000000
  0
VERTEX
  8
LAYER-1
 10
53.172368
 20
43.363732
 30
0.000000
  0
VERTEX
  8
LAYER-1
 10
53.144005
 20
43.411443
 30
0.000000
  0
SEQEND
  8
LAYER-1
  0
POLYLINE
  8
LAYER-1
 66
  1
 70
  0
 62
  7
 10
53.172368
 20
43.363732
 30
0.000000
  0
VERTEX
  8
LAYER-1
 10
53.172368
 20
43.363732
 30
0.000000
  0
VERTEX
  8
LAYER-1
 10
53.200731
 20
43.411443
 30
0.000000
  0
SEQEND
  8
LAYER-1
  0
POLYLINE
  8
LAYER-1
 66
  1
 70
  0
 62
  7
 10
53.093581
 20
43.625380
 30
0.000000
  0
VERTEX
  8
LAYER-1
 10
53.093581
 20
43.625380
 30
0.000000
  0
VERTEX
  8
LAYER-1
 10
53.144005
 20
43.411443
 30
0.000000
  0
SEQEND
  8
LAYER-1
  0
POLYLINE
  8
LAYER-1
 66
  1
 70
  0
 62
  7
 10
53.121944
 20
43.673096
 30
0.000000
  0
VERTEX
  8
LAYER-1
 10
53.121944
 20
43.673096
 30
0.000000
  0
VERTEX
  8
LAYER-1
 10
53.172368
 20
43.363732
 30
0.000000
  0
SEQEND
  8
LAYER-1
  0
POLYLINE
  8
LAYER-1
 66
  1
 70
  0
 62
  7
 10
53.178218
 20
43.673096
 30
0.000000
  0
VERTEX
  8
LAYER-1
 10
53.178218
 20
43.673096
 30
0.000000
  0
VERTEX
  8
LAYER-1
 10
53.149855
 20
43.625380
 30
0.000000
  0
SEQEND
  8
LAYER-1
  0
POLYLINE
  8
LAYER-1
 66
  1
 70
  0
 62
  7
 10
53.178218
 20
43.673096
 30
0.000000
  0
VERTEX
  8
LAYER-1
 10
53.178218
 20
43.673096
 30
0.000000
  0
VERTEX
  8
LAYER-1
 10
53.206585
 20
43.625380
 30
0.000000
  0
SEQEND
  8
LAYER-1
  0
POLYLINE
  8
LAYER-1
 66
  1
 70
  0
 62
  7
 10
53.228647
 20
43.363732
 30
0.000000
  0
VERTEX
  8
LAYER-1
 10
53.228647
 20
43.363732
 30
0.000000
  0
VERTEX
  8
LAYER-1
 10
53.200280
 20
43.411443
 30
0.000000
  0
SEQEND
  8
LAYER-1
  0
POLYLINE
  8
LAYER-1
 66
  1
 70
  0
 62
  7
 10
53.228647
 20
43.363732
 30
0.000000
  0
VERTEX
  8
LAYER-1
 10
53.228647
 20
43.363732
 30
0.000000
  0
VERTEX
  8
LAYER-1
 10
53.257010
 20
43.411443
 30
0.000000
  0
SEQEND
  8
LAYER-1
  0
POLYLINE
  8
LAYER-1
 66
  1
 70
  0
 62
  7
 10
53.149855
 20
43.625380
 30
0.000000
  0
VERTEX
  8
LAYER-1
 10
53.149855
 20
43.625380
 30
0.000000
  0
VERTEX
  8
LAYER-1
 10
53.200280
 20
43.411443
 30
0.000000
  0
SEQEND
  8
LAYER-1
  0
POLYLINE
  8
LAYER-1
 66
  1
 70
  0
 62
  7
 10
53.178218
 20
43.673096
 30
0.000000
  0
VERTEX
  8
LAYER-1
 10
53.178218
 20
43.673096
 30
0.000000
  0
VERTEX
  8
LAYER-1
 10
53.228647
 20
43.363732
 30
0.000000
  0
SEQEND
  8
LAYER-1
  0
POLYLINE
  8
LAYER-1
 66
  1
 70
  0
 62
  7
 10
53.234492
 20
43.673096
 30
0.000000
  0
VERTEX
  8
LAYER-1
 10
53.234492
 20
43.673096
 30
0.000000
  0
VERTEX
  8
LAYER-1
 10
53.206130
 20
43.625380
 30
0.000000
  0
SEQEND
  8
LAYER-1
  0
POLYLINE
  8
LAYER-1
 66
  1
 70
  0
 62
  7
 10
53.234492
 20
43.673096
 30
0.000000
  0
VERTEX
  8
LAYER-1
 10
53.234492
 20
43.673096
 30
0.000000
  0
VERTEX
  8
LAYER-1
 10
53.262860
 20
43.625380
 30
0.000000
  0
SEQEND
  8
LAYER-1
  0
POLYLINE
  8
LAYER-1
 66
  1
 70
  0
 62
  7
 10
53.284921
 20
43.363732
 30
0.000000
  0
VERTEX
  8
LAYER-1
 10
53.284921
 20
43.363732
 30
0.000000
  0
VERTEX
  8
LAYER-1
 10
53.256559
 20
43.411443
 30
0.000000
  0
SEQEND
  8
LAYER-1
  0
POLYLINE
  8
LAYER-1
 66
  1
 70
  0
 62
  7
 10
53.284921
 20
43.363732
 30
0.000000
  0
VERTEX
  8
LAYER-1
 10
53.284921
 20
43.363732
 30
0.000000
  0
VERTEX
  8
LAYER-1
 10
53.313289
 20
43.411443
 30
0.000000
  0
SEQEND
  8
LAYER-1
  0
POLYLINE
  8
LAYER-1
 66
  1
 70
  0
 62
  7
 10
53.206130
 20
43.625380
 30
0.000000
  0
VERTEX
  8
LAYER-1
 10
53.206130
 20
43.625380
 30
0.000000
  0
VERTEX
  8
LAYER-1
 10
53.256559
 20
43.411443
 30
0.000000
  0
SEQEND
  8
LAYER-1
  0
POLYLINE
  8
LAYER-1
 66
  1
 70
  0
 62
  7
 10
53.234492
 20
43.673096
 30
0.000000
  0
VERTEX
  8
LAYER-1
 10
53.234492
 20
43.673096
 30
0.000000
  0
VERTEX
  8
LAYER-1
 10
53.284921
 20
43.363732
 30
0.000000
  0
SEQEND
  8
LAYER-1
  0
POLYLINE
  8
LAYER-1
 66
  1
 70
  0
 62
  7
 10
52.756376
 20
43.625380
 30
0.000000
  0
VERTEX
  8
LAYER-1
 10
52.756376
 20
43.625380
 30
0.000000
  0
VERTEX
  8
LAYER-1
 10
52.734722
 20
43.643583
 30
0.000000
  0
SEQEND
  8
LAYER-1
  0
POLYLINE
  8
LAYER-1
 66
  1
 70
  0
 62
  7
 10
52.778438
 20
43.363732
 30
0.000000
  0
VERTEX
  8
LAYER-1
 10
52.778438
 20
43.363732
 30
0.000000
  0
VERTEX
  8
LAYER-1
 10
52.734722
 20
43.392367
 30
0.000000
  0
SEQEND
  8
LAYER-1
  0
POLYLINE
  8
LAYER-1
 66
  1
 70
  0
 62
  7
 10
52.778438
 20
43.363732
 30
0.000000
  0
VERTEX
  8
LAYER-1
 10
52.778438
 20
43.363732
 30
0.000000
  0
VERTEX
  8
LAYER-1
 10
52.806800
 20
43.411443
 30
0.000000
  0
SEQEND
  8
LAYER-1
  0
POLYLINE
  8
LAYER-1
 66
  1
 70
  0
 62
  7
 10
52.734722
 20
43.643583
 30
0.000000
  0
VERTEX
  8
LAYER-1
 10
52.734722
 20
43.643583
 30
0.000000
  0
VERTEX
  8
LAYER-1
 10
52.778438
 20
43.363732
 30
0.000000
  0
SEQEND
  8
LAYER-1
  0
POLYLINE
  8
LAYER-1
 66
  1
 70
  0
 62
  7
 10
53.290771
 20
43.673096
 30
0.000000
  0
VERTEX
  8
LAYER-1
 10
53.290771
 20
43.673096
 30
0.000000
  0
VERTEX
  8
LAYER-1
 10
53.262404
 20
43.625380
 30
0.000000
  0
SEQEND
  8
LAYER-1
  0
POLYLINE
  8
LAYER-1
 66
  1
 70
  0
 62
  7
 10
53.290771
 20
43.673096
 30
0.000000
  0
VERTEX
  8
LAYER-1
 10
53.290771
 20
43.673096
 30
0.000000
  0
VERTEX
  8
LAYER-1
 10
53.319134
 20
43.625380
 30
0.000000
  0
SEQEND
  8
LAYER-1
  0
POLYLINE
  8
LAYER-1
 66
  1
 70
  0
 62
  7
 10
53.341196
 20
43.363732
 30
0.000000
  0
VERTEX
  8
LAYER-1
 10
53.341196
 20
43.363732
 30
0.000000
  0
VERTEX
  8
LAYER-1
 10
53.312833
 20
43.411443
 30
0.000000
  0
SEQEND
  8
LAYER-1
  0
POLYLINE
  8
LAYER-1
 66
  1
 70
  0
 62
  7
 10
53.341196
 20
43.363732
 30
0.000000
  0
VERTEX
  8
LAYER-1
 10
53.341196
 20
43.363732
 30
0.000000
  0
VERTEX
  8
LAYER-1
 10
53.369563
 20
43.411443
 30
0.000000
  0
SEQEND
  8
LAYER-1
  0
POLYLINE
  8
LAYER-1
 66
  1
 70
  0
 62
  7
 10
53.262404
 20
43.625380
 30
0.000000
  0
VERTEX
  8
LAYER-1
 10
53.262404
 20
43.625380
 30
0.000000
  0
VERTEX
  8
LAYER-1
 10
53.312833
 20
43.411443
 30
0.000000
  0
SEQEND
  8
LAYER-1
  0
POLYLINE
  8
LAYER-1
 66
  1
 70
  0
 62
  7
 10
53.290771
 20
43.673096
 30
0.000000
  0
VERTEX
  8
LAYER-1
 10
53.290771
 20
43.673096
 30
0.000000
  0
VERTEX
  8
LAYER-1
 10
53.341196
 20
43.363732
 30
0.000000
  0
SEQEND
  8
LAYER-1
  0
POLYLINE
  8
LAYER-1
 66
  1
 70
  0
 62
  7
 10
53.347046
 20
43.673096
 30
0.000000
  0
VERTEX
  8
LAYER-1
 10
53.347046
 20
43.673096
 30
0.000000
  0
VERTEX
  8
LAYER-1
 10
53.318683
 20
43.625380
 30
0.000000
  0
SEQEND
  8
LAYER-1
  0
POLYLINE
  8
LAYER-1
 66
  1
 70
  0
 62
  7
 10
53.347046
 20
43.673096
 30
0.000000
  0
VERTEX
  8
LAYER-1
 10
53.347046
 20
43.673096
 30
0.000000
  0
VERTEX
  8
LAYER-1
 10
53.375408
 20
43.625380
 30
0.000000
  0
SEQEND
  8
LAYER-1
  0
POLYLINE
  8
LAYER-1
 66
  1
 70
  0
 62
  7
 10
53.397470
 20
43.363732
 30
0.000000
  0
VERTEX
  8
LAYER-1
 10
53.397470
 20
43.363732
 30
0.000000
  0
VERTEX
  8
LAYER-1
 10
53.369108
 20
43.411443
 30
0.000000
  0
SEQEND
  8
LAYER-1
  0
POLYLINE
  8
LAYER-1
 66
  1
 70
  0
 62
  7
 10
53.397470
 20
43.363732
 30
0.000000
  0
VERTEX
  8
LAYER-1
 10
53.397470
 20
43.363732
 30
0.000000
  0
VERTEX
  8
LAYER-1
 10
53.425838
 20
43.411443
 30
0.000000
  0
SEQEND
  8
LAYER-1
  0
POLYLINE
  8
LAYER-1
 66
  1
 70
  0
 62
  7
 10
53.318683
 20
43.625380
 30
0.000000
  0
VERTEX
  8
LAYER-1
 10
53.318683
 20
43.625380
 30
0.000000
  0
VERTEX
  8
LAYER-1
 10
53.369108
 20
43.411443
 30
0.000000
  0
SEQEND
  8
LAYER-1
  0
POLYLINE
  8
LAYER-1
 66
  1
 70
  0
 62
  7
 10
53.347046
 20
43.673096
 30
0.000000
  0
VERTEX
  8
LAYER-1
 10
53.347046
 20
43.673096
 30
0.000000
  0
VERTEX
  8
LAYER-1
 10
53.397470
 20
43.363732
 30
0.000000
  0
SEQEND
  8
LAYER-1
  0
POLYLINE
  8
LAYER-1
 66
  1
 70
  0
 62
  7
 10
53.403325
 20
43.673096
 30
0.000000
  0
VERTEX
  8
LAYER-1
 10
53.403325
 20
43.673096
 30
0.000000
  0
VERTEX
  8
LAYER-1
 10
53.374958
 20
43.625380
 30
0.000000
  0
SEQEND
  8
LAYER-1
  0
POLYLINE
  8
LAYER-1
 66
  1
 70
  0
 62
  7
 10
53.403325
 20
43.673096
 30
0.000000
  0
VERTEX
  8
LAYER-1
 10
53.403325
 20
43.673096
 30
0.000000
  0
VERTEX
  8
LAYER-1
 10
53.431688
 20
43.625380
 30
0.000000
  0
SEQEND
  8
LAYER-1
  0
POLYLINE
  8
LAYER-1
 66
  1
 70
  0
 62
  7
 10
53.453749
 20
43.363732
 30
0.000000
  0
VERTEX
  8
LAYER-1
 10
53.453749
 20
43.363732
 30
0.000000
  0
VERTEX
  8
LAYER-1
 10
53.425382
 20
43.411443
 30
0.000000
  0
SEQEND
  8
LAYER-1
  0
POLYLINE
  8
LAYER-1
 66
  1
 70
  0
 62
  7
 10
53.453749
 20
43.363732
 30
0.000000
  0
VERTEX
  8
LAYER-1
 10
53.453749
 20
43.363732
 30
0.000000
  0
VERTEX
  8
LAYER-1
 10
53.482112
 20
43.411443
 30
0.000000
  0
SEQEND
  8
LAYER-1
  0
POLYLINE
  8
LAYER-1
 66
  1
 70
  0
 62
  7
 10
53.374958
 20
43.625380
 30
0.000000
  0
VERTEX
  8
LAYER-1
 10
53.374958
 20
43.625380
 30
0.000000
  0
VERTEX
  8
LAYER-1
 10
53.425382
 20
43.411443
 30
0.000000
  0
SEQEND
  8
LAYER-1
  0
POLYLINE
  8
LAYER-1
 66
  1
 70
  0
 62
  7
 10
53.403325
 20
43.673096
 30
0.000000
  0
VERTEX
  8
LAYER-1
 10
53.403325
 20
43.673096
 30
0.000000
  0
VERTEX
  8
LAYER-1
 10
53.453749
 20
43.363732
 30
0.000000
  0
SEQEND
  8
LAYER-1
  0
POLYLINE
  8
LAYER-1
 66
  1
 70
  0
 62
  7
 10
53.459599
 20
43.673096
 30
0.000000
  0
VERTEX
  8
LAYER-1
 10
53.459599
 20
43.673096
 30
0.000000
  0
VERTEX
  8
LAYER-1
 10
53.431232
 20
43.625380
 30
0.000000
  0
SEQEND
  8
LAYER-1
  0
POLYLINE
  8
LAYER-1
 66
  1
 70
  0
 62
  7
 10
53.459599
 20
43.673096
 30
0.000000
  0
VERTEX
  8
LAYER-1
 10
53.459599
 20
43.673096
 30
0.000000
  0
VERTEX
  8
LAYER-1
 10
53.487967
 20
43.625380
 30
0.000000
  0
SEQEND
  8
LAYER-1
  0
POLYLINE
  8
LAYER-1
 66
  1
 70
  0
 62
  7
 10
53.510029
 20
43.363732
 30
0.000000
  0
VERTEX
  8
LAYER-1
 10
53.510029
 20
43.363732
 30
0.000000
  0
VERTEX
  8
LAYER-1
 10
53.481661
 20
43.411443
 30
0.000000
  0
SEQEND
  8
LAYER-1
  0
POLYLINE
  8
LAYER-1
 66
  1
 70
  0
 62
  7
 10
53.510029
 20
43.363732
 30
0.000000
  0
VERTEX
  8
LAYER-1
 10
53.510029
 20
43.363732
 30
0.000000
  0
VERTEX
  8
LAYER-1
 10
53.538391
 20
43.411443
 30
0.000000
  0
SEQEND
  8
LAYER-1
  0
POLYLINE
  8
LAYER-1
 66
  1
 70
  0
 62
  7
 10
53.431232
 20
43.625380
 30
0.000000
  0
VERTEX
  8
LAYER-1
 10
53.431232
 20
43.625380
 30
0.000000
  0
VERTEX
  8
LAYER-1
 10
53.481661
 20
43.411443
 30
0.000000
  0
SEQEND
  8
LAYER-1
  0
POLYLINE
  8
LAYER-1
 66
  1
 70
  0
 62
  7
 10
53.459599
 20
43.673096
 30
0.000000
  0
VERTEX
  8
LAYER-1
 10
53.459599
 20
43.673096
 30
0.000000
  0
VERTEX
  8
LAYER-1
 10
53.510029
 20
43.363732
 30
0.000000
  0
SEQEND
  8
LAYER-1
  0
POLYLINE
  8
LAYER-1
 66
  1
 70
  0
 62
  7
 10
53.515874
 20
43.673096
 30
0.000000
  0
VERTEX
  8
LAYER-1
 10
53.515874
 20
43.673096
 30
0.000000
  0
VERTEX
  8
LAYER-1
 10
53.487511
 20
43.625380
 30
0.000000
  0
SEQEND
  8
LAYER-1
  0
POLYLINE
  8
LAYER-1
 66
  1
 70
  0
 62
  7
 10
53.515874
 20
43.673096
 30
0.000000
  0
VERTEX
  8
LAYER-1
 10
53.515874
 20
43.673096
 30
0.000000
  0
VERTEX
  8
LAYER-1
 10
53.544241
 20
43.625380
 30
0.000000
  0
SEQEND
  8
LAYER-1
  0
POLYLINE
  8
LAYER-1
 66
  1
 70
  0
 62
  7
 10
53.566303
 20
43.363732
 30
0.000000
  0
VERTEX
  8
LAYER-1
 10
53.566303
 20
43.363732
 30
0.000000
  0
VERTEX
  8
LAYER-1
 10
53.537936
 20
43.411443
 30
0.000000
  0
SEQEND
  8
LAYER-1
  0
POLYLINE
  8
LAYER-1
 66
  1
 70
  0
 62
  7
 10
53.566303
 20
43.363732
 30
0.000000
  0
VERTEX
  8
LAYER-1
 10
53.566303
 20
43.363732
 30
0.000000
  0
VERTEX
  8
LAYER-1
 10
53.594666
 20
43.411443
 30
0.000000
  0
SEQEND
  8
LAYER-1
  0
POLYLINE
  8
LAYER-1
 66
  1
 70
  0
 62
  7
 10
53.487511
 20
43.625380
 30
0.000000
  0
VERTEX
  8
LAYER-1
 10
53.487511
 20
43.625380
 30
0.000000
  0
VERTEX
  8
LAYER-1
 10
53.537936
 20
43.411443
 30
0.000000
  0
SEQEND
  8
LAYER-1
  0
POLYLINE
  8
LAYER-1
 66
  1
 70
  0
 62
  7
 10
53.515874
 20
43.673096
 30
0.000000
  0
VERTEX
  8
LAYER-1
 10
53.515874
 20
43.673096
 30
0.000000
  0
VERTEX
  8
LAYER-1
 10
53.566303
 20
43.363732
 30
0.000000
  0
SEQEND
  8
LAYER-1
  0
POLYLINE
  8
LAYER-1
 66
  1
 70
  0
 62
  7
 10
53.572148
 20
43.673096
 30
0.000000
  0
VERTEX
  8
LAYER-1
 10
53.572148
 20
43.673096
 30
0.000000
  0
VERTEX
  8
LAYER-1
 10
53.543786
 20
43.625380
 30
0.000000
  0
SEQEND
  8
LAYER-1
  0
POLYLINE
  8
LAYER-1
 66
  1
 70
  0
 62
  7
 10
53.572148
 20
43.673096
 30
0.000000
  0
VERTEX
  8
LAYER-1
 10
53.572148
 20
43.673096
 30
0.000000
  0
VERTEX
  8
LAYER-1
 10
53.600516
 20
43.625380
 30
0.000000
  0
SEQEND
  8
LAYER-1
  0
POLYLINE
  8
LAYER-1
 66
  1
 70
  0
 62
  7
 10
53.622577
 20
43.363732
 30
0.000000
  0
VERTEX
  8
LAYER-1
 10
53.622577
 20
43.363732
 30
0.000000
  0
VERTEX
  8
LAYER-1
 10
53.594210
 20
43.411443
 30
0.000000
  0
SEQEND
  8
LAYER-1
  0
POLYLINE
  8
LAYER-1
 66
  1
 70
  0
 62
  7
 10
53.622577
 20
43.363732
 30
0.000000
  0
VERTEX
  8
LAYER-1
 10
53.622577
 20
43.363732
 30
0.000000
  0
VERTEX
  8
LAYER-1
 10
53.650945
 20
43.411443
 30
0.000000
  0
SEQEND
  8
LAYER-1
  0
POLYLINE
  8
LAYER-1
 66
  1
 70
  0
 62
  7
 10
53.543786
 20
43.625380
 30
0.000000
  0
VERTEX
  8
LAYER-1
 10
53.543786
 20
43.625380
 30
0.000000
  0
VERTEX
  8
LAYER-1
 10
53.594210
 20
43.411443
 30
0.000000
  0
SEQEND
  8
LAYER-1
  0
POLYLINE
  8
LAYER-1
 66
  1
 70
  0
 62
  7
 10
53.572148
 20
43.673096
 30
0.000000
  0
VERTEX
  8
LAYER-1
 10
53.572148
 20
43.673096
 30
0.000000
  0
VERTEX
  8
LAYER-1
 10
53.622577
 20
43.363732
 30
0.000000
  0
SEQEND
  8
LAYER-1
  0
POLYLINE
  8
LAYER-1
 66
  1
 70
  0
 62
  7
 10
53.628423
 20
43.673096
 30
0.000000
  0
VERTEX
  8
LAYER-1
 10
53.628423
 20
43.673096
 30
0.000000
  0
VERTEX
  8
LAYER-1
 10
53.600060
 20
43.625380
 30
0.000000
  0
SEQEND
  8
LAYER-1
  0
POLYLINE
  8
LAYER-1
 66
  1
 70
  0
 62
  7
 10
53.628423
 20
43.673096
 30
0.000000
  0
VERTEX
  8
LAYER-1
 10
53.628423
 20
43.673096
 30
0.000000
  0
VERTEX
  8
LAYER-1
 10
53.656790
 20
43.625380
 30
0.000000
  0
SEQEND
  8
LAYER-1
  0
POLYLINE
  8
LAYER-1
 66
  1
 70
  0
 62
  7
 10
53.678852
 20
43.363732
 30
0.000000
  0
VERTEX
  8
LAYER-1
 10
53.678852
 20
43.363732
 30
0.000000
  0
VERTEX
  8
LAYER-1
 10
53.650489
 20
43.411443
 30
0.000000
  0
SEQEND
  8
LAYER-1
  0
POLYLINE
  8
LAYER-1
 66
  1
 70
  0
 62
  7
 10
53.678852
 20
43.363732
 30
0.000000
  0
VERTEX
  8
LAYER-1
 10
53.678852
 20
43.363732
 30
0.000000
  0
VERTEX
  8
LAYER-1
 10
53.707219
 20
43.411443
 30
0.000000
  0
SEQEND
  8
LAYER-1
  0
POLYLINE
  8
LAYER-1
 66
  1
 70
  0
 62
  7
 10
53.600060
 20
43.625380
 30
0.000000
  0
VERTEX
  8
LAYER-1
 10
53.600060
 20
43.625380
 30
0.000000
  0
VERTEX
  8
LAYER-1
 10
53.650489
 20
43.411443
 30
0.000000
  0
SEQEND
  8
LAYER-1
  0
POLYLINE
  8
LAYER-1
 66
  1
 70
  0
 62
  7
 10
53.628423
 20
43.673096
 30
0.000000
  0
VERTEX
  8
LAYER-1
 10
53.628423
 20
43.673096
 30
0.000000
  0
VERTEX
  8
LAYER-1
 10
53.678852
 20
43.363732
 30
0.000000
  0
SEQEND
  8
LAYER-1
  0
POLYLINE
  8
LAYER-1
 66
  1
 70
  0
 62
  7
 10
53.684702
 20
43.673096
 30
0.000000
  0
VERTEX
  8
LAYER-1
 10
53.684702
 20
43.673096
 30
0.000000
  0
VERTEX
  8
LAYER-1
 10
53.656339
 20
43.625380
 30
0.000000
  0
SEQEND
  8
LAYER-1
  0
POLYLINE
  8
LAYER-1
 66
  1
 70
  0
 62
  7
 10
53.684702
 20
43.673096
 30
0.000000
  0
VERTEX
  8
LAYER-1
 10
53.684702
 20
43.673096
 30
0.000000
  0
VERTEX
  8
LAYER-1
 10
53.720407
 20
43.644789
 30
0.000000
  0
SEQEND
  8
LAYER-1
  0
POLYLINE
  8
LAYER-1
 66
  1
 70
  0
 62
  7
 10
53.735126
 20
43.363732
 30
0.000000
  0
VERTEX
  8
LAYER-1
 10
53.735126
 20
43.363732
 30
0.000000
  0
VERTEX
  8
LAYER-1
 10
53.706764
 20
43.411443
 30
0.000000
  0
SEQEND
  8
LAYER-1
  0
POLYLINE
  8
LAYER-1
 66
  1
 70
  0
 62
  7
 10
53.735126
 20
43.363732
 30
0.000000
  0
VERTEX
  8
LAYER-1
 10
53.735126
 20
43.363732
 30
0.000000
  0
VERTEX
  8
LAYER-1
 10
53.720407
 20
43.644789
 30
0.000000
  0
SEQEND
  8
LAYER-1
  0
POLYLINE
  8
LAYER-1
 66
  1
 70
  0
 62
  7
 10
53.656339
 20
43.625380
 30
0.000000
  0
VERTEX
  8
LAYER-1
 10
53.656339
 20
43.625380
 30
0.000000
  0
VERTEX
  8
LAYER-1
 10
53.706764
 20
43.411443
 30
0.000000
  0
SEQEND
  8
LAYER-1
  0
POLYLINE
  8
LAYER-1
 66
  1
 70
  0
 62
  7
 10
53.684702
 20
43.673096
 30
0.000000
  0
VERTEX
  8
LAYER-1
 10
53.684702
 20
43.673096
 30
0.000000
  0
VERTEX
  8
LAYER-1
 10
53.735126
 20
43.363732
 30
0.000000
  0
SEQEND
  8
LAYER-1
  0
POLYLINE
  8
LAYER-1
 66
  1
 70
  0
 62
  7
 10
52.734722
 20
43.643583
 30
0.000000
  0
VERTEX
  8
LAYER-1
 10
52.734722
 20
43.643583
 30
0.000000
  0
VERTEX
  8
LAYER-1
 10
52.734722
 20
43.392367
 30
0.000000
  0
SEQEND
  8
LAYER-1
  0
POLYLINE
  8
LAYER-1
 66
  1
 70
  0
 62
  7
 10
52.644879
 20
43.673096
 30
0.000000
  0
VERTEX
  8
LAYER-1
 10
52.644879
 20
43.673096
 30
0.000000
  0
VERTEX
  8
LAYER-1
 10
52.734722
 20
43.643583
 30
0.000000
  0
SEQEND
  8
LAYER-1
  0
POLYLINE
  8
LAYER-1
 66
  1
 70
  0
 62
  7
 10
52.734722
 20
43.392367
 30
0.000000
  0
VERTEX
  8
LAYER-1
 10
52.734722
 20
43.392367
 30
0.000000
  0
VERTEX
  8
LAYER-1
 10
52.644879
 20
43.363732
 30
0.000000
  0
SEQEND
  8
LAYER-1
  0
POLYLINE
  8
LAYER-1
 66
  1
 70
  0
 62
  7
 10
52.644879
 20
43.673096
 30
0.000000
  0
VERTEX
  8
LAYER-1
 10
52.644879
 20
43.673096
 30
0.000000
  0
VERTEX
  8
LAYER-1
 10
52.644879
 20
43.363732
 30
0.000000
  0
SEQEND
  8
LAYER-1
  0
POLYLINE
  8
LAYER-1
 66
  1
 70
  0
 62
  7
 10
47.576693
 20
43.234366
 30
0.000000
  0
VERTEX
  8
LAYER-1
 10
47.576693
 20
43.234366
 30
0.000000
  0
VERTEX
  8
LAYER-1
 10
47.734506
 20
43.234366
 30
0.000000
  0
SEQEND
  8
LAYER-1
  0
POLYLINE
  8
LAYER-1
 66
  1
 70
  0
 62
  7
 10
47.576693
 20
43.234366
 30
0.000000
  0
VERTEX
  8
LAYER-1
 10
47.576693
 20
43.234366
 30
0.000000
  0
VERTEX
  8
LAYER-1
 10
47.547175
 20
43.263878
 30
0.000000
  0
SEQEND
  8
LAYER-1
  0
ARC
  8
LAYER-1
 62
  7
 10
47.860032
 20
43.515841
 30
0.000000
 40
0.309461
 50
151.200317
 51
207.435486
  0
POLYLINE
  8
LAYER-1
 66
  1
 70
  0
 62
  7
 10
47.578374
 20
43.803753
 30
0.000000
  0
VERTEX
  8
LAYER-1
 10
47.578374
 20
43.803753
 30
0.000000
  0
VERTEX
  8
LAYER-1
 10
47.734506
 20
43.803753
 30
0.000000
  0
SEQEND
  8
LAYER-1
  0
POLYLINE
  8
LAYER-1
 66
  1
 70
  0
 62
  7
 10
47.734506
 20
43.803753
 30
0.000000
  0
VERTEX
  8
LAYER-1
 10
47.734506
 20
43.803753
 30
0.000000
  0
VERTEX
  8
LAYER-1
 10
47.734506
 20
43.234366
 30
0.000000
  0
SEQEND
  8
LAYER-1
  0
POLYLINE
  8
LAYER-1
 66
  1
 70
  0
 62
  7
 10
47.547175
 20
43.772564
 30
0.000000
  0
VERTEX
  8
LAYER-1
 10
47.547175
 20
43.772564
 30
0.000000
  0
VERTEX
  8
LAYER-1
 10
47.547175
 20
43.263878
 30
0.000000
  0
SEQEND
  8
LAYER-1
  0
ARC
  8
LAYER-1
 62
  7
 10
47.730797
 20
43.781757
 30
0.000000
 40
0.183849
 50
182.866760
 51
219.456268
  0
POLYLINE
  8
LAYER-1
 66
  1
 70
  0
 62
  7
 10
47.578374
 20
43.803753
 30
0.000000
  0
VERTEX
  8
LAYER-1
 10
47.578374
 20
43.803753
 30
0.000000
  0
VERTEX
  8
LAYER-1
 10
47.547175
 20
43.772564
 30
0.000000
  0
SEQEND
  8
LAYER-1
  0
ARC
  8
LAYER-1
 62
  7
 10
47.828435
 20
43.227018
 30
0.000000
 40
0.283661
 50
148.966705
 51
172.533142
  0
POLYLINE
  8
LAYER-1
 66
  1
 70
  0
 62
  7
 10
47.585374
 20
43.373253
 30
0.000000
  0
VERTEX
  8
LAYER-1
 10
47.585374
 20
43.373253
 30
0.000000
  0
VERTEX
  8
LAYER-1
 10
47.734333
 20
43.373253
 30
0.000000
  0
SEQEND
  8
LAYER-1
  0
POLYLINE
  8
LAYER-1
 66
  1
 70
  0
 62
  7
 10
47.588294
 20
43.664926
 30
0.000000
  0
VERTEX
  8
LAYER-1
 10
47.588294
 20
43.664926
 30
0.000000
  0
VERTEX
  8
LAYER-1
 10
47.734333
 20
43.664926
 30
0.000000
  0
SEQEND
  8
LAYER-1
  0
POLYLINE
  8
LAYER-1
 66
  1
 70
  0
 62
  7
 10
52.784288
 20
50.017437
 30
0.000000
  0
VERTEX
  8
LAYER-1
 10
52.784288
 20
50.017437
 30
0.000000
  0
VERTEX
  8
LAYER-1
 10
52.755925
 20
49.969722
 30
0.000000
  0
SEQEND
  8
LAYER-1
  0
POLYLINE
  8
LAYER-1
 66
  1
 70
  0
 62
  7
 10
52.784288
 20
50.017437
 30
0.000000
  0
VERTEX
  8
LAYER-1
 10
52.784288
 20
50.017437
 30
0.000000
  0
VERTEX
  8
LAYER-1
 10
52.812655
 20
49.969722
 30
0.000000
  0
SEQEND
  8
LAYER-1
  0
POLYLINE
  8
LAYER-1
 66
  1
 70
  0
 62
  7
 10
52.834712
 20
49.708074
 30
0.000000
  0
VERTEX
  8
LAYER-1
 10
52.834712
 20
49.708074
 30
0.000000
  0
VERTEX
  8
LAYER-1
 10
52.806350
 20
49.755784
 30
0.000000
  0
SEQEND
  8
LAYER-1
  0
POLYLINE
  8
LAYER-1
 66
  1
 70
  0
 62
  7
 10
52.834712
 20
49.708074
 30
0.000000
  0
VERTEX
  8
LAYER-1
 10
52.834712
 20
49.708074
 30
0.000000
  0
VERTEX
  8
LAYER-1
 10
52.863079
 20
49.755784
 30
0.000000
  0
SEQEND
  8
LAYER-1
  0
POLYLINE
  8
LAYER-1
 66
  1
 70
  0
 62
  7
 10
52.755925
 20
49.969722
 30
0.000000
  0
VERTEX
  8
LAYER-1
 10
52.755925
 20
49.969722
 30
0.000000
  0
VERTEX
  8
LAYER-1
 10
52.806350
 20
49.755784
 30
0.000000
  0
SEQEND
  8
LAYER-1
  0
POLYLINE
  8
LAYER-1
 66
  1
 70
  0
 62
  7
 10
52.784288
 20
50.017437
 30
0.000000
  0
VERTEX
  8
LAYER-1
 10
52.784288
 20
50.017437
 30
0.000000
  0
VERTEX
  8
LAYER-1
 10
52.834712
 20
49.708074
 30
0.000000
  0
SEQEND
  8
LAYER-1
  0
POLYLINE
  8
LAYER-1
 66
  1
 70
  0
 62
  7
 10
52.840562
 20
50.017437
 30
0.000000
  0
VERTEX
  8
LAYER-1
 10
52.840562
 20
50.017437
 30
0.000000
  0
VERTEX
  8
LAYER-1
 10
52.812200
 20
49.969722
 30
0.000000
  0
SEQEND
  8
LAYER-1
  0
POLYLINE
  8
LAYER-1
 66
  1
 70
  0
 62
  7
 10
52.840562
 20
50.017437
 30
0.000000
  0
VERTEX
  8
LAYER-1
 10
52.840562
 20
50.017437
 30
0.000000
  0
VERTEX
  8
LAYER-1
 10
52.868929
 20
49.969722
 30
0.000000
  0
SEQEND
  8
LAYER-1
  0
POLYLINE
  8
LAYER-1
 66
  1
 70
  0
 62
  7
 10
52.890991
 20
49.708074
 30
0.000000
  0
VERTEX
  8
LAYER-1
 10
52.890991
 20
49.708074
 30
0.000000
  0
VERTEX
  8
LAYER-1
 10
52.862629
 20
49.755784
 30
0.000000
  0
SEQEND
  8
LAYER-1
  0
POLYLINE
  8
LAYER-1
 66
  1
 70
  0
 62
  7
 10
52.890991
 20
49.708074
 30
0.000000
  0
VERTEX
  8
LAYER-1
 10
52.890991
 20
49.708074
 30
0.000000
  0
VERTEX
  8
LAYER-1
 10
52.919354
 20
49.755784
 30
0.000000
  0
SEQEND
  8
LAYER-1
  0
POLYLINE
  8
LAYER-1
 66
  1
 70
  0
 62
  7
 10
52.812200
 20
49.969722
 30
0.000000
  0
VERTEX
  8
LAYER-1
 10
52.812200
 20
49.969722
 30
0.000000
  0
VERTEX
  8
LAYER-1
 10
52.862629
 20
49.755784
 30
0.000000
  0
SEQEND
  8
LAYER-1
  0
POLYLINE
  8
LAYER-1
 66
  1
 70
  0
 62
  7
 10
52.840562
 20
50.017437
 30
0.000000
  0
VERTEX
  8
LAYER-1
 10
52.840562
 20
50.017437
 30
0.000000
  0
VERTEX
  8
LAYER-1
 10
52.890991
 20
49.708074
 30
0.000000
  0
SEQEND
  8
LAYER-1
  0
POLYLINE
  8
LAYER-1
 66
  1
 70
  0
 62
  7
 10
52.896841
 20
50.017437
 30
0.000000
  0
VERTEX
  8
LAYER-1
 10
52.896841
 20
50.017437
 30
0.000000
  0
VERTEX
  8
LAYER-1
 10
52.868474
 20
49.969722
 30
0.000000
  0
SEQEND
  8
LAYER-1
  0
POLYLINE
  8
LAYER-1
 66
  1
 70
  0
 62
  7
 10
52.896841
 20
50.017437
 30
0.000000
  0
VERTEX
  8
LAYER-1
 10
52.896841
 20
50.017437
 30
0.000000
  0
VERTEX
  8
LAYER-1
 10
52.925204
 20
49.969722
 30
0.000000
  0
SEQEND
  8
LAYER-1
  0
POLYLINE
  8
LAYER-1
 66
  1
 70
  0
 62
  7
 10
52.947266
 20
49.708074
 30
0.000000
  0
VERTEX
  8
LAYER-1
 10
52.947266
 20
49.708074
 30
0.000000
  0
VERTEX
  8
LAYER-1
 10
52.918903
 20
49.755784
 30
0.000000
  0
SEQEND
  8
LAYER-1
  0
POLYLINE
  8
LAYER-1
 66
  1
 70
  0
 62
  7
 10
52.947266
 20
49.708074
 30
0.000000
  0
VERTEX
  8
LAYER-1
 10
52.947266
 20
49.708074
 30
0.000000
  0
VERTEX
  8
LAYER-1
 10
52.975633
 20
49.755784
 30
0.000000
  0
SEQEND
  8
LAYER-1
  0
POLYLINE
  8
LAYER-1
 66
  1
 70
  0
 62
  7
 10
52.868474
 20
49.969722
 30
0.000000
  0
VERTEX
  8
LAYER-1
 10
52.868474
 20
49.969722
 30
0.000000
  0
VERTEX
  8
LAYER-1
 10
52.918903
 20
49.755784
 30
0.000000
  0
SEQEND
  8
LAYER-1
  0
POLYLINE
  8
LAYER-1
 66
  1
 70
  0
 62
  7
 10
52.896841
 20
50.017437
 30
0.000000
  0
VERTEX
  8
LAYER-1
 10
52.896841
 20
50.017437
 30
0.000000
  0
VERTEX
  8
LAYER-1
 10
52.947266
 20
49.708074
 30
0.000000
  0
SEQEND
  8
LAYER-1
  0
POLYLINE
  8
LAYER-1
 66
  1
 70
  0
 62
  7
 10
52.953116
 20
50.017437
 30
0.000000
  0
VERTEX
  8
LAYER-1
 10
52.953116
 20
50.017437
 30
0.000000
  0
VERTEX
  8
LAYER-1
 10
52.924748
 20
49.969722
 30
0.000000
  0
SEQEND
  8
LAYER-1
  0
POLYLINE
  8
LAYER-1
 66
  1
 70
  0
 62
  7
 10
52.953116
 20
50.017437
 30
0.000000
  0
VERTEX
  8
LAYER-1
 10
52.953116
 20
50.017437
 30
0.000000
  0
VERTEX
  8
LAYER-1
 10
52.981478
 20
49.969722
 30
0.000000
  0
SEQEND
  8
LAYER-1
  0
POLYLINE
  8
LAYER-1
 66
  1
 70
  0
 62
  7
 10
53.003540
 20
49.708074
 30
0.000000
  0
VERTEX
  8
LAYER-1
 10
53.003540
 20
49.708074
 30
0.000000
  0
VERTEX
  8
LAYER-1
 10
52.975177
 20
49.755784
 30
0.000000
  0
SEQEND
  8
LAYER-1
  0
POLYLINE
  8
LAYER-1
 66
  1
 70
  0
 62
  7
 10
53.003540
 20
49.708074
 30
0.000000
  0
VERTEX
  8
LAYER-1
 10
53.003540
 20
49.708074
 30
0.000000
  0
VERTEX
  8
LAYER-1
 10
53.031907
 20
49.755784
 30
0.000000
  0
SEQEND
  8
LAYER-1
  0
POLYLINE
  8
LAYER-1
 66
  1
 70
  0
 62
  7
 10
52.924748
 20
49.969722
 30
0.000000
  0
VERTEX
  8
LAYER-1
 10
52.924748
 20
49.969722
 30
0.000000
  0
VERTEX
  8
LAYER-1
 10
52.975177
 20
49.755784
 30
0.000000
  0
SEQEND
  8
LAYER-1
  0
POLYLINE
  8
LAYER-1
 66
  1
 70
  0
 62
  7
 10
52.953116
 20
50.017437
 30
0.000000
  0
VERTEX
  8
LAYER-1
 10
52.953116
 20
50.017437
 30
0.000000
  0
VERTEX
  8
LAYER-1
 10
53.003540
 20
49.708074
 30
0.000000
  0
SEQEND
  8
LAYER-1
  0
POLYLINE
  8
LAYER-1
 66
  1
 70
  0
 62
  7
 10
53.009390
 20
50.017437
 30
0.000000
  0
VERTEX
  8
LAYER-1
 10
53.009390
 20
50.017437
 30
0.000000
  0
VERTEX
  8
LAYER-1
 10
52.981027
 20
49.969722
 30
0.000000
  0
SEQEND
  8
LAYER-1
  0
POLYLINE
  8
LAYER-1
 66
  1
 70
  0
 62
  7
 10
53.009390
 20
50.017437
 30
0.000000
  0
VERTEX
  8
LAYER-1
 10
53.009390
 20
50.017437
 30
0.000000
  0
VERTEX
  8
LAYER-1
 10
53.037753
 20
49.969722
 30
0.000000
  0
SEQEND
  8
LAYER-1
  0
POLYLINE
  8
LAYER-1
 66
  1
 70
  0
 62
  7
 10
53.059819
 20
49.708074
 30
0.000000
  0
VERTEX
  8
LAYER-1
 10
53.059819
 20
49.708074
 30
0.000000
  0
VERTEX
  8
LAYER-1
 10
53.031452
 20
49.755784
 30
0.000000
  0
SEQEND
  8
LAYER-1
  0
POLYLINE
  8
LAYER-1
 66
  1
 70
  0
 62
  7
 10
53.059819
 20
49.708074
 30
0.000000
  0
VERTEX
  8
LAYER-1
 10
53.059819
 20
49.708074
 30
0.000000
  0
VERTEX
  8
LAYER-1
 10
53.088182
 20
49.755784
 30
0.000000
  0
SEQEND
  8
LAYER-1
  0
POLYLINE
  8
LAYER-1
 66
  1
 70
  0
 62
  7
 10
52.981027
 20
49.969722
 30
0.000000
  0
VERTEX
  8
LAYER-1
 10
52.981027
 20
49.969722
 30
0.000000
  0
VERTEX
  8
LAYER-1
 10
53.031452
 20
49.755784
 30
0.000000
  0
SEQEND
  8
LAYER-1
  0
POLYLINE
  8
LAYER-1
 66
  1
 70
  0
 62
  7
 10
53.009390
 20
50.017437
 30
0.000000
  0
VERTEX
  8
LAYER-1
 10
53.009390
 20
50.017437
 30
0.000000
  0
VERTEX
  8
LAYER-1
 10
53.059819
 20
49.708074
 30
0.000000
  0
SEQEND
  8
LAYER-1
  0
POLYLINE
  8
LAYER-1
 66
  1
 70
  0
 62
  7
 10
53.065669
 20
50.017437
 30
0.000000
  0
VERTEX
  8
LAYER-1
 10
53.065669
 20
50.017437
 30
0.000000
  0
VERTEX
  8
LAYER-1
 10
53.037302
 20
49.969722
 30
0.000000
  0
SEQEND
  8
LAYER-1
  0
POLYLINE
  8
LAYER-1
 66
  1
 70
  0
 62
  7
 10
53.065669
 20
50.017437
 30
0.000000
  0
VERTEX
  8
LAYER-1
 10
53.065669
 20
50.017437
 30
0.000000
  0
VERTEX
  8
LAYER-1
 10
53.094032
 20
49.969722
 30
0.000000
  0
SEQEND
  8
LAYER-1
  0
POLYLINE
  8
LAYER-1
 66
  1
 70
  0
 62
  7
 10
53.116094
 20
49.708074
 30
0.000000
  0
VERTEX
  8
LAYER-1
 10
53.116094
 20
49.708074
 30
0.000000
  0
VERTEX
  8
LAYER-1
 10
53.087726
 20
49.755784
 30
0.000000
  0
SEQEND
  8
LAYER-1
  0
POLYLINE
  8
LAYER-1
 66
  1
 70
  0
 62
  7
 10
53.116094
 20
49.708074
 30
0.000000
  0
VERTEX
  8
LAYER-1
 10
53.116094
 20
49.708074
 30
0.000000
  0
VERTEX
  8
LAYER-1
 10
53.144456
 20
49.755784
 30
0.000000
  0
SEQEND
  8
LAYER-1
  0
POLYLINE
  8
LAYER-1
 66
  1
 70
  0
 62
  7
 10
53.037302
 20
49.969722
 30
0.000000
  0
VERTEX
  8
LAYER-1
 10
53.037302
 20
49.969722
 30
0.000000
  0
VERTEX
  8
LAYER-1
 10
53.087726
 20
49.755784
 30
0.000000
  0
SEQEND
  8
LAYER-1
  0
POLYLINE
  8
LAYER-1
 66
  1
 70
  0
 62
  7
 10
53.065669
 20
50.017437
 30
0.000000
  0
VERTEX
  8
LAYER-1
 10
53.065669
 20
50.017437
 30
0.000000
  0
VERTEX
  8
LAYER-1
 10
53.116094
 20
49.708074
 30
0.000000
  0
SEQEND
  8
LAYER-1
  0
POLYLINE
  8
LAYER-1
 66
  1
 70
  0
 62
  7
 10
53.121944
 20
50.017437
 30
0.000000
  0
VERTEX
  8
LAYER-1
 10
53.121944
 20
50.017437
 30
0.000000
  0
VERTEX
  8
LAYER-1
 10
53.093581
 20
49.969722
 30
0.000000
  0
SEQEND
  8
LAYER-1
  0
POLYLINE
  8
LAYER-1
 66
  1
 70
  0
 62
  7
 10
53.121944
 20
50.017437
 30
0.000000
  0
VERTEX
  8
LAYER-1
 10
53.121944
 20
50.017437
 30
0.000000
  0
VERTEX
  8
LAYER-1
 10
53.150311
 20
49.969722
 30
0.000000
  0
SEQEND
  8
LAYER-1
  0
POLYLINE
  8
LAYER-1
 66
  1
 70
  0
 62
  7
 10
53.172368
 20
49.708074
 30
0.000000
  0
VERTEX
  8
LAYER-1
 10
53.172368
 20
49.708074
 30
0.000000
  0
VERTEX
  8
LAYER-1
 10
53.144005
 20
49.755784
 30
0.000000
  0
SEQEND
  8
LAYER-1
  0
POLYLINE
  8
LAYER-1
 66
  1
 70
  0
 62
  7
 10
53.172368
 20
49.708074
 30
0.000000
  0
VERTEX
  8
LAYER-1
 10
53.172368
 20
49.708074
 30
0.000000
  0
VERTEX
  8
LAYER-1
 10
53.200731
 20
49.755784
 30
0.000000
  0
SEQEND
  8
LAYER-1
  0
POLYLINE
  8
LAYER-1
 66
  1
 70
  0
 62
  7
 10
53.093581
 20
49.969722
 30
0.000000
  0
VERTEX
  8
LAYER-1
 10
53.093581
 20
49.969722
 30
0.000000
  0
VERTEX
  8
LAYER-1
 10
53.144005
 20
49.755784
 30
0.000000
  0
SEQEND
  8
LAYER-1
  0
POLYLINE
  8
LAYER-1
 66
  1
 70
  0
 62
  7
 10
53.121944
 20
50.017437
 30
0.000000
  0
VERTEX
  8
LAYER-1
 10
53.121944
 20
50.017437
 30
0.000000
  0
VERTEX
  8
LAYER-1
 10
53.172368
 20
49.708074
 30
0.000000
  0
SEQEND
  8
LAYER-1
  0
POLYLINE
  8
LAYER-1
 66
  1
 70
  0
 62
  7
 10
53.178218
 20
50.017437
 30
0.000000
  0
VERTEX
  8
LAYER-1
 10
53.178218
 20
50.017437
 30
0.000000
  0
VERTEX
  8
LAYER-1
 10
53.149855
 20
49.969722
 30
0.000000
  0
SEQEND
  8
LAYER-1
  0
POLYLINE
  8
LAYER-1
 66
  1
 70
  0
 62
  7
 10
53.178218
 20
50.017437
 30
0.000000
  0
VERTEX
  8
LAYER-1
 10
53.178218
 20
50.017437
 30
0.000000
  0
VERTEX
  8
LAYER-1
 10
53.206585
 20
49.969722
 30
0.000000
  0
SEQEND
  8
LAYER-1
  0
POLYLINE
  8
LAYER-1
 66
  1
 70
  0
 62
  7
 10
53.228647
 20
49.708074
 30
0.000000
  0
VERTEX
  8
LAYER-1
 10
53.228647
 20
49.708074
 30
0.000000
  0
VERTEX
  8
LAYER-1
 10
53.200280
 20
49.755784
 30
0.000000
  0
SEQEND
  8
LAYER-1
  0
POLYLINE
  8
LAYER-1
 66
  1
 70
  0
 62
  7
 10
53.228647
 20
49.708074
 30
0.000000
  0
VERTEX
  8
LAYER-1
 10
53.228647
 20
49.708074
 30
0.000000
  0
VERTEX
  8
LAYER-1
 10
53.257010
 20
49.755784
 30
0.000000
  0
SEQEND
  8
LAYER-1
  0
POLYLINE
  8
LAYER-1
 66
  1
 70
  0
 62
  7
 10
53.149855
 20
49.969722
 30
0.000000
  0
VERTEX
  8
LAYER-1
 10
53.149855
 20
49.969722
 30
0.000000
  0
VERTEX
  8
LAYER-1
 10
53.200280
 20
49.755784
 30
0.000000
  0
SEQEND
  8
LAYER-1
  0
POLYLINE
  8
LAYER-1
 66
  1
 70
  0
 62
  7
 10
53.178218
 20
50.017437
 30
0.000000
  0
VERTEX
  8
LAYER-1
 10
53.178218
 20
50.017437
 30
0.000000
  0
VERTEX
  8
LAYER-1
 10
53.228647
 20
49.708074
 30
0.000000
  0
SEQEND
  8
LAYER-1
  0
POLYLINE
  8
LAYER-1
 66
  1
 70
  0
 62
  7
 10
53.234492
 20
50.017437
 30
0.000000
  0
VERTEX
  8
LAYER-1
 10
53.234492
 20
50.017437
 30
0.000000
  0
VERTEX
  8
LAYER-1
 10
53.206130
 20
49.969722
 30
0.000000
  0
SEQEND
  8
LAYER-1
  0
POLYLINE
  8
LAYER-1
 66
  1
 70
  0
 62
  7
 10
53.234492
 20
50.017437
 30
0.000000
  0
VERTEX
  8
LAYER-1
 10
53.234492
 20
50.017437
 30
0.000000
  0
VERTEX
  8
LAYER-1
 10
53.262860
 20
49.969722
 30
0.000000
  0
SEQEND
  8
LAYER-1
  0
POLYLINE
  8
LAYER-1
 66
  1
 70
  0
 62
  7
 10
53.284921
 20
49.708074
 30
0.000000
  0
VERTEX
  8
LAYER-1
 10
53.284921
 20
49.708074
 30
0.000000
  0
VERTEX
  8
LAYER-1
 10
53.256559
 20
49.755784
 30
0.000000
  0
SEQEND
  8
LAYER-1
  0
POLYLINE
  8
LAYER-1
 66
  1
 70
  0
 62
  7
 10
53.284921
 20
49.708074
 30
0.000000
  0
VERTEX
  8
LAYER-1
 10
53.284921
 20
49.708074
 30
0.000000
  0
VERTEX
  8
LAYER-1
 10
53.313289
 20
49.755784
 30
0.000000
  0
SEQEND
  8
LAYER-1
  0
POLYLINE
  8
LAYER-1
 66
  1
 70
  0
 62
  7
 10
53.206130
 20
49.969722
 30
0.000000
  0
VERTEX
  8
LAYER-1
 10
53.206130
 20
49.969722
 30
0.000000
  0
VERTEX
  8
LAYER-1
 10
53.256559
 20
49.755784
 30
0.000000
  0
SEQEND
  8
LAYER-1
  0
POLYLINE
  8
LAYER-1
 66
  1
 70
  0
 62
  7
 10
53.234492
 20
50.017437
 30
0.000000
  0
VERTEX
  8
LAYER-1
 10
53.234492
 20
50.017437
 30
0.000000
  0
VERTEX
  8
LAYER-1
 10
53.284921
 20
49.708074
 30
0.000000
  0
SEQEND
  8
LAYER-1
  0
POLYLINE
  8
LAYER-1
 66
  1
 70
  0
 62
  7
 10
52.756376
 20
49.969722
 30
0.000000
  0
VERTEX
  8
LAYER-1
 10
52.756376
 20
49.969722
 30
0.000000
  0
VERTEX
  8
LAYER-1
 10
52.734722
 20
49.987934
 30
0.000000
  0
SEQEND
  8
LAYER-1
  0
POLYLINE
  8
LAYER-1
 66
  1
 70
  0
 62
  7
 10
52.778438
 20
49.708074
 30
0.000000
  0
VERTEX
  8
LAYER-1
 10
52.778438
 20
49.708074
 30
0.000000
  0
VERTEX
  8
LAYER-1
 10
52.734722
 20
49.736708
 30
0.000000
  0
SEQEND
  8
LAYER-1
  0
POLYLINE
  8
LAYER-1
 66
  1
 70
  0
 62
  7
 10
52.778438
 20
49.708074
 30
0.000000
  0
VERTEX
  8
LAYER-1
 10
52.778438
 20
49.708074
 30
0.000000
  0
VERTEX
  8
LAYER-1
 10
52.806800
 20
49.755784
 30
0.000000
  0
SEQEND
  8
LAYER-1
  0
POLYLINE
  8
LAYER-1
 66
  1
 70
  0
 62
  7
 10
52.734722
 20
49.987934
 30
0.000000
  0
VERTEX
  8
LAYER-1
 10
52.734722
 20
49.987934
 30
0.000000
  0
VERTEX
  8
LAYER-1
 10
52.778438
 20
49.708074
 30
0.000000
  0
SEQEND
  8
LAYER-1
  0
POLYLINE
  8
LAYER-1
 66
  1
 70
  0
 62
  7
 10
53.290771
 20
50.017437
 30
0.000000
  0
VERTEX
  8
LAYER-1
 10
53.290771
 20
50.017437
 30
0.000000
  0
VERTEX
  8
LAYER-1
 10
53.262404
 20
49.969722
 30
0.000000
  0
SEQEND
  8
LAYER-1
  0
POLYLINE
  8
LAYER-1
 66
  1
 70
  0
 62
  7
 10
53.290771
 20
50.017437
 30
0.000000
  0
VERTEX
  8
LAYER-1
 10
53.290771
 20
50.017437
 30
0.000000
  0
VERTEX
  8
LAYER-1
 10
53.319134
 20
49.969722
 30
0.000000
  0
SEQEND
  8
LAYER-1
  0
POLYLINE
  8
LAYER-1
 66
  1
 70
  0
 62
  7
 10
53.341196
 20
49.708074
 30
0.000000
  0
VERTEX
  8
LAYER-1
 10
53.341196
 20
49.708074
 30
0.000000
  0
VERTEX
  8
LAYER-1
 10
53.312833
 20
49.755784
 30
0.000000
  0
SEQEND
  8
LAYER-1
  0
POLYLINE
  8
LAYER-1
 66
  1
 70
  0
 62
  7
 10
53.341196
 20
49.708074
 30
0.000000
  0
VERTEX
  8
LAYER-1
 10
53.341196
 20
49.708074
 30
0.000000
  0
VERTEX
  8
LAYER-1
 10
53.369563
 20
49.755784
 30
0.000000
  0
SEQEND
  8
LAYER-1
  0
POLYLINE
  8
LAYER-1
 66
  1
 70
  0
 62
  7
 10
53.262404
 20
49.969722
 30
0.000000
  0
VERTEX
  8
LAYER-1
 10
53.262404
 20
49.969722
 30
0.000000
  0
VERTEX
  8
LAYER-1
 10
53.312833
 20
49.755784
 30
0.000000
  0
SEQEND
  8
LAYER-1
  0
POLYLINE
  8
LAYER-1
 66
  1
 70
  0
 62
  7
 10
53.290771
 20
50.017437
 30
0.000000
  0
VERTEX
  8
LAYER-1
 10
53.290771
 20
50.017437
 30
0.000000
  0
VERTEX
  8
LAYER-1
 10
53.341196
 20
49.708074
 30
0.000000
  0
SEQEND
  8
LAYER-1
  0
POLYLINE
  8
LAYER-1
 66
  1
 70
  0
 62
  7
 10
53.347046
 20
50.017437
 30
0.000000
  0
VERTEX
  8
LAYER-1
 10
53.347046
 20
50.017437
 30
0.000000
  0
VERTEX
  8
LAYER-1
 10
53.318683
 20
49.969722
 30
0.000000
  0
SEQEND
  8
LAYER-1
  0
POLYLINE
  8
LAYER-1
 66
  1
 70
  0
 62
  7
 10
53.347046
 20
50.017437
 30
0.000000
  0
VERTEX
  8
LAYER-1
 10
53.347046
 20
50.017437
 30
0.000000
  0
VERTEX
  8
LAYER-1
 10
53.375408
 20
49.969722
 30
0.000000
  0
SEQEND
  8
LAYER-1
  0
POLYLINE
  8
LAYER-1
 66
  1
 70
  0
 62
  7
 10
53.397470
 20
49.708074
 30
0.000000
  0
VERTEX
  8
LAYER-1
 10
53.397470
 20
49.708074
 30
0.000000
  0
VERTEX
  8
LAYER-1
 10
53.369108
 20
49.755784
 30
0.000000
  0
SEQEND
  8
LAYER-1
  0
POLYLINE
  8
LAYER-1
 66
  1
 70
  0
 62
  7
 10
53.397470
 20
49.708074
 30
0.000000
  0
VERTEX
  8
LAYER-1
 10
53.397470
 20
49.708074
 30
0.000000
  0
VERTEX
  8
LAYER-1
 10
53.425838
 20
49.755784
 30
0.000000
  0
SEQEND
  8
LAYER-1
  0
POLYLINE
  8
LAYER-1
 66
  1
 70
  0
 62
  7
 10
53.318683
 20
49.969722
 30
0.000000
  0
VERTEX
  8
LAYER-1
 10
53.318683
 20
49.969722
 30
0.000000
  0
VERTEX
  8
LAYER-1
 10
53.369108
 20
49.755784
 30
0.000000
  0
SEQEND
  8
LAYER-1
  0
POLYLINE
  8
LAYER-1
 66
  1
 70
  0
 62
  7
 10
53.347046
 20
50.017437
 30
0.000000
  0
VERTEX
  8
LAYER-1
 10
53.347046
 20
50.017437
 30
0.000000
  0
VERTEX
  8
LAYER-1
 10
53.397470
 20
49.708074
 30
0.000000
  0
SEQEND
  8
LAYER-1
  0
POLYLINE
  8
LAYER-1
 66
  1
 70
  0
 62
  7
 10
53.403325
 20
50.017437
 30
0.000000
  0
VERTEX
  8
LAYER-1
 10
53.403325
 20
50.017437
 30
0.000000
  0
VERTEX
  8
LAYER-1
 10
53.374958
 20
49.969722
 30
0.000000
  0
SEQEND
  8
LAYER-1
  0
POLYLINE
  8
LAYER-1
 66
  1
 70
  0
 62
  7
 10
53.403325
 20
50.017437
 30
0.000000
  0
VERTEX
  8
LAYER-1
 10
53.403325
 20
50.017437
 30
0.000000
  0
VERTEX
  8
LAYER-1
 10
53.431688
 20
49.969722
 30
0.000000
  0
SEQEND
  8
LAYER-1
  0
POLYLINE
  8
LAYER-1
 66
  1
 70
  0
 62
  7
 10
53.453749
 20
49.708074
 30
0.000000
  0
VERTEX
  8
LAYER-1
 10
53.453749
 20
49.708074
 30
0.000000
  0
VERTEX
  8
LAYER-1
 10
53.425382
 20
49.755784
 30
0.000000
  0
SEQEND
  8
LAYER-1
  0
POLYLINE
  8
LAYER-1
 66
  1
 70
  0
 62
  7
 10
53.453749
 20
49.708074
 30
0.000000
  0
VERTEX
  8
LAYER-1
 10
53.453749
 20
49.708074
 30
0.000000
  0
VERTEX
  8
LAYER-1
 10
53.482112
 20
49.755784
 30
0.000000
  0
SEQEND
  8
LAYER-1
  0
POLYLINE
  8
LAYER-1
 66
  1
 70
  0
 62
  7
 10
53.374958
 20
49.969722
 30
0.000000
  0
VERTEX
  8
LAYER-1
 10
53.374958
 20
49.969722
 30
0.000000
  0
VERTEX
  8
LAYER-1
 10
53.425382
 20
49.755784
 30
0.000000
  0
SEQEND
  8
LAYER-1
  0
POLYLINE
  8
LAYER-1
 66
  1
 70
  0
 62
  7
 10
53.403325
 20
50.017437
 30
0.000000
  0
VERTEX
  8
LAYER-1
 10
53.403325
 20
50.017437
 30
0.000000
  0
VERTEX
  8
LAYER-1
 10
53.453749
 20
49.708074
 30
0.000000
  0
SEQEND
  8
LAYER-1
  0
POLYLINE
  8
LAYER-1
 66
  1
 70
  0
 62
  7
 10
53.459599
 20
50.017437
 30
0.000000
  0
VERTEX
  8
LAYER-1
 10
53.459599
 20
50.017437
 30
0.000000
  0
VERTEX
  8
LAYER-1
 10
53.431232
 20
49.969722
 30
0.000000
  0
SEQEND
  8
LAYER-1
  0
POLYLINE
  8
LAYER-1
 66
  1
 70
  0
 62
  7
 10
53.459599
 20
50.017437
 30
0.000000
  0
VERTEX
  8
LAYER-1
 10
53.459599
 20
50.017437
 30
0.000000
  0
VERTEX
  8
LAYER-1
 10
53.487967
 20
49.969722
 30
0.000000
  0
SEQEND
  8
LAYER-1
  0
POLYLINE
  8
LAYER-1
 66
  1
 70
  0
 62
  7
 10
53.510029
 20
49.708074
 30
0.000000
  0
VERTEX
  8
LAYER-1
 10
53.510029
 20
49.708074
 30
0.000000
  0
VERTEX
  8
LAYER-1
 10
53.481661
 20
49.755784
 30
0.000000
  0
SEQEND
  8
LAYER-1
  0
POLYLINE
  8
LAYER-1
 66
  1
 70
  0
 62
  7
 10
53.510029
 20
49.708074
 30
0.000000
  0
VERTEX
  8
LAYER-1
 10
53.510029
 20
49.708074
 30
0.000000
  0
VERTEX
  8
LAYER-1
 10
53.538391
 20
49.755784
 30
0.000000
  0
SEQEND
  8
LAYER-1
  0
POLYLINE
  8
LAYER-1
 66
  1
 70
  0
 62
  7
 10
53.431232
 20
49.969722
 30
0.000000
  0
VERTEX
  8
LAYER-1
 10
53.431232
 20
49.969722
 30
0.000000
  0
VERTEX
  8
LAYER-1
 10
53.481661
 20
49.755784
 30
0.000000
  0
SEQEND
  8
LAYER-1
  0
POLYLINE
  8
LAYER-1
 66
  1
 70
  0
 62
  7
 10
53.459599
 20
50.017437
 30
0.000000
  0
VERTEX
  8
LAYER-1
 10
53.459599
 20
50.017437
 30
0.000000
  0
VERTEX
  8
LAYER-1
 10
53.510029
 20
49.708074
 30
0.000000
  0
SEQEND
  8
LAYER-1
  0
POLYLINE
  8
LAYER-1
 66
  1
 70
  0
 62
  7
 10
53.515874
 20
50.017437
 30
0.000000
  0
VERTEX
  8
LAYER-1
 10
53.515874
 20
50.017437
 30
0.000000
  0
VERTEX
  8
LAYER-1
 10
53.487511
 20
49.969722
 30
0.000000
  0
SEQEND
  8
LAYER-1
  0
POLYLINE
  8
LAYER-1
 66
  1
 70
  0
 62
  7
 10
53.515874
 20
50.017437
 30
0.000000
  0
VERTEX
  8
LAYER-1
 10
53.515874
 20
50.017437
 30
0.000000
  0
VERTEX
  8
LAYER-1
 10
53.544241
 20
49.969722
 30
0.000000
  0
SEQEND
  8
LAYER-1
  0
POLYLINE
  8
LAYER-1
 66
  1
 70
  0
 62
  7
 10
53.566303
 20
49.708074
 30
0.000000
  0
VERTEX
  8
LAYER-1
 10
53.566303
 20
49.708074
 30
0.000000
  0
VERTEX
  8
LAYER-1
 10
53.537936
 20
49.755784
 30
0.000000
  0
SEQEND
  8
LAYER-1
  0
POLYLINE
  8
LAYER-1
 66
  1
 70
  0
 62
  7
 10
53.566303
 20
49.708074
 30
0.000000
  0
VERTEX
  8
LAYER-1
 10
53.566303
 20
49.708074
 30
0.000000
  0
VERTEX
  8
LAYER-1
 10
53.594666
 20
49.755784
 30
0.000000
  0
SEQEND
  8
LAYER-1
  0
POLYLINE
  8
LAYER-1
 66
  1
 70
  0
 62
  7
 10
53.487511
 20
49.969722
 30
0.000000
  0
VERTEX
  8
LAYER-1
 10
53.487511
 20
49.969722
 30
0.000000
  0
VERTEX
  8
LAYER-1
 10
53.537936
 20
49.755784
 30
0.000000
  0
SEQEND
  8
LAYER-1
  0
POLYLINE
  8
LAYER-1
 66
  1
 70
  0
 62
  7
 10
53.515874
 20
50.017437
 30
0.000000
  0
VERTEX
  8
LAYER-1
 10
53.515874
 20
50.017437
 30
0.000000
  0
VERTEX
  8
LAYER-1
 10
53.566303
 20
49.708074
 30
0.000000
  0
SEQEND
  8
LAYER-1
  0
POLYLINE
  8
LAYER-1
 66
  1
 70
  0
 62
  7
 10
53.572148
 20
50.017437
 30
0.000000
  0
VERTEX
  8
LAYER-1
 10
53.572148
 20
50.017437
 30
0.000000
  0
VERTEX
  8
LAYER-1
 10
53.543786
 20
49.969722
 30
0.000000
  0
SEQEND
  8
LAYER-1
  0
POLYLINE
  8
LAYER-1
 66
  1
 70
  0
 62
  7
 10
53.572148
 20
50.017437
 30
0.000000
  0
VERTEX
  8
LAYER-1
 10
53.572148
 20
50.017437
 30
0.000000
  0
VERTEX
  8
LAYER-1
 10
53.600516
 20
49.969722
 30
0.000000
  0
SEQEND
  8
LAYER-1
  0
POLYLINE
  8
LAYER-1
 66
  1
 70
  0
 62
  7
 10
53.622577
 20
49.708074
 30
0.000000
  0
VERTEX
  8
LAYER-1
 10
53.622577
 20
49.708074
 30
0.000000
  0
VERTEX
  8
LAYER-1
 10
53.594210
 20
49.755784
 30
0.000000
  0
SEQEND
  8
LAYER-1
  0
POLYLINE
  8
LAYER-1
 66
  1
 70
  0
 62
  7
 10
53.622577
 20
49.708074
 30
0.000000
  0
VERTEX
  8
LAYER-1
 10
53.622577
 20
49.708074
 30
0.000000
  0
VERTEX
  8
LAYER-1
 10
53.650945
 20
49.755784
 30
0.000000
  0
SEQEND
  8
LAYER-1
  0
POLYLINE
  8
LAYER-1
 66
  1
 70
  0
 62
  7
 10
53.543786
 20
49.969722
 30
0.000000
  0
VERTEX
  8
LAYER-1
 10
53.543786
 20
49.969722
 30
0.000000
  0
VERTEX
  8
LAYER-1
 10
53.594210
 20
49.755784
 30
0.000000
  0
SEQEND
  8
LAYER-1
  0
POLYLINE
  8
LAYER-1
 66
  1
 70
  0
 62
  7
 10
53.572148
 20
50.017437
 30
0.000000
  0
VERTEX
  8
LAYER-1
 10
53.572148
 20
50.017437
 30
0.000000
  0
VERTEX
  8
LAYER-1
 10
53.622577
 20
49.708074
 30
0.000000
  0
SEQEND
  8
LAYER-1
  0
POLYLINE
  8
LAYER-1
 66
  1
 70
  0
 62
  7
 10
53.628423
 20
50.017437
 30
0.000000
  0
VERTEX
  8
LAYER-1
 10
53.628423
 20
50.017437
 30
0.000000
  0
VERTEX
  8
LAYER-1
 10
53.600060
 20
49.969722
 30
0.000000
  0
SEQEND
  8
LAYER-1
  0
POLYLINE
  8
LAYER-1
 66
  1
 70
  0
 62
  7
 10
53.628423
 20
50.017437
 30
0.000000
  0
VERTEX
  8
LAYER-1
 10
53.628423
 20
50.017437
 30
0.000000
  0
VERTEX
  8
LAYER-1
 10
53.656790
 20
49.969722
 30
0.000000
  0
SEQEND
  8
LAYER-1
  0
POLYLINE
  8
LAYER-1
 66
  1
 70
  0
 62
  7
 10
53.678852
 20
49.708074
 30
0.000000
  0
VERTEX
  8
LAYER-1
 10
53.678852
 20
49.708074
 30
0.000000
  0
VERTEX
  8
LAYER-1
 10
53.650489
 20
49.755784
 30
0.000000
  0
SEQEND
  8
LAYER-1
  0
POLYLINE
  8
LAYER-1
 66
  1
 70
  0
 62
  7
 10
53.678852
 20
49.708074
 30
0.000000
  0
VERTEX
  8
LAYER-1
 10
53.678852
 20
49.708074
 30
0.000000
  0
VERTEX
  8
LAYER-1
 10
53.707219
 20
49.755784
 30
0.000000
  0
SEQEND
  8
LAYER-1
  0
POLYLINE
  8
LAYER-1
 66
  1
 70
  0
 62
  7
 10
53.600060
 20
49.969722
 30
0.000000
  0
VERTEX
  8
LAYER-1
 10
53.600060
 20
49.969722
 30
0.000000
  0
VERTEX
  8
LAYER-1
 10
53.650489
 20
49.755784
 30
0.000000
  0
SEQEND
  8
LAYER-1
  0
POLYLINE
  8
LAYER-1
 66
  1
 70
  0
 62
  7
 10
53.628423
 20
50.017437
 30
0.000000
  0
VERTEX
  8
LAYER-1
 10
53.628423
 20
50.017437
 30
0.000000
  0
VERTEX
  8
LAYER-1
 10
53.678852
 20
49.708074
 30
0.000000
  0
SEQEND
  8
LAYER-1
  0
POLYLINE
  8
LAYER-1
 66
  1
 70
  0
 62
  7
 10
53.684702
 20
50.017437
 30
0.000000
  0
VERTEX
  8
LAYER-1
 10
53.684702
 20
50.017437
 30
0.000000
  0
VERTEX
  8
LAYER-1
 10
53.656339
 20
49.969722
 30
0.000000
  0
SEQEND
  8
LAYER-1
  0
POLYLINE
  8
LAYER-1
 66
  1
 70
  0
 62
  7
 10
53.684702
 20
50.017437
 30
0.000000
  0
VERTEX
  8
LAYER-1
 10
53.684702
 20
50.017437
 30
0.000000
  0
VERTEX
  8
LAYER-1
 10
53.720407
 20
49.989131
 30
0.000000
  0
SEQEND
  8
LAYER-1
  0
POLYLINE
  8
LAYER-1
 66
  1
 70
  0
 62
  7
 10
53.735126
 20
49.708074
 30
0.000000
  0
VERTEX
  8
LAYER-1
 10
53.735126
 20
49.708074
 30
0.000000
  0
VERTEX
  8
LAYER-1
 10
53.706764
 20
49.755784
 30
0.000000
  0
SEQEND
  8
LAYER-1
  0
POLYLINE
  8
LAYER-1
 66
  1
 70
  0
 62
  7
 10
53.735126
 20
49.708074
 30
0.000000
  0
VERTEX
  8
LAYER-1
 10
53.735126
 20
49.708074
 30
0.000000
  0
VERTEX
  8
LAYER-1
 10
53.720407
 20
49.989131
 30
0.000000
  0
SEQEND
  8
LAYER-1
  0
POLYLINE
  8
LAYER-1
 66
  1
 70
  0
 62
  7
 10
53.656339
 20
49.969722
 30
0.000000
  0
VERTEX
  8
LAYER-1
 10
53.656339
 20
49.969722
 30
0.000000
  0
VERTEX
  8
LAYER-1
 10
53.706764
 20
49.755784
 30
0.000000
  0
SEQEND
  8
LAYER-1
  0
POLYLINE
  8
LAYER-1
 66
  1
 70
  0
 62
  7
 10
53.684702
 20
50.017437
 30
0.000000
  0
VERTEX
  8
LAYER-1
 10
53.684702
 20
50.017437
 30
0.000000
  0
VERTEX
  8
LAYER-1
 10
53.735126
 20
49.708074
 30
0.000000
  0
SEQEND
  8
LAYER-1
  0
POLYLINE
  8
LAYER-1
 66
  1
 70
  0
 62
  7
 10
52.734722
 20
49.987934
 30
0.000000
  0
VERTEX
  8
LAYER-1
 10
52.734722
 20
49.987934
 30
0.000000
  0
VERTEX
  8
LAYER-1
 10
52.734722
 20
49.736708
 30
0.000000
  0
SEQEND
  8
LAYER-1
  0
POLYLINE
  8
LAYER-1
 66
  1
 70
  0
 62
  7
 10
52.644879
 20
50.017437
 30
0.000000
  0
VERTEX
  8
LAYER-1
 10
52.644879
 20
50.017437
 30
0.000000
  0
VERTEX
  8
LAYER-1
 10
52.734722
 20
49.987934
 30
0.000000
  0
SEQEND
  8
LAYER-1
  0
POLYLINE
  8
LAYER-1
 66
  1
 70
  0
 62
  7
 10
52.734722
 20
49.736708
 30
0.000000
  0
VERTEX
  8
LAYER-1
 10
52.734722
 20
49.736708
 30
0.000000
  0
VERTEX
  8
LAYER-1
 10
52.644879
 20
49.708074
 30
0.000000
  0
SEQEND
  8
LAYER-1
  0
POLYLINE
  8
LAYER-1
 66
  1
 70
  0
 62
  7
 10
52.644879
 20
50.017437
 30
0.000000
  0
VERTEX
  8
LAYER-1
 10
52.644879
 20
50.017437
 30
0.000000
  0
VERTEX
  8
LAYER-1
 10
52.644879
 20
49.708074
 30
0.000000
  0
SEQEND
  8
LAYER-1
  0
POLYLINE
  8
LAYER-1
 66
  1
 70
  0
 62
  7
 10
47.576693
 20
49.578707
 30
0.000000
  0
VERTEX
  8
LAYER-1
 10
47.576693
 20
49.578707
 30
0.000000
  0
VERTEX
  8
LAYER-1
 10
47.734506
 20
49.578707
 30
0.000000
  0
SEQEND
  8
LAYER-1
  0
POLYLINE
  8
LAYER-1
 66
  1
 70
  0
 62
  7
 10
47.576693
 20
49.578707
 30
0.000000
  0
VERTEX
  8
LAYER-1
 10
47.576693
 20
49.578707
 30
0.000000
  0
VERTEX
  8
LAYER-1
 10
47.547175
 20
49.608225
 30
0.000000
  0
SEQEND
  8
LAYER-1
  0
ARC
  8
LAYER-1
 62
  7
 10
47.860032
 20
49.860187
 30
0.000000
 40
0.309461
 50
151.200317
 51
207.435486
  0
POLYLINE
  8
LAYER-1
 66
  1
 70
  0
 62
  7
 10
47.578374
 20
50.148095
 30
0.000000
  0
VERTEX
  8
LAYER-1
 10
47.578374
 20
50.148095
 30
0.000000
  0
VERTEX
  8
LAYER-1
 10
47.734506
 20
50.148095
 30
0.000000
  0
SEQEND
  8
LAYER-1
  0
POLYLINE
  8
LAYER-1
 66
  1
 70
  0
 62
  7
 10
47.734506
 20
50.148095
 30
0.000000
  0
VERTEX
  8
LAYER-1
 10
47.734506
 20
50.148095
 30
0.000000
  0
VERTEX
  8
LAYER-1
 10
47.734506
 20
49.578707
 30
0.000000
  0
SEQEND
  8
LAYER-1
  0
POLYLINE
  8
LAYER-1
 66
  1
 70
  0
 62
  7
 10
47.547175
 20
50.116906
 30
0.000000
  0
VERTEX
  8
LAYER-1
 10
47.547175
 20
50.116906
 30
0.000000
  0
VERTEX
  8
LAYER-1
 10
47.547175
 20
49.608225
 30
0.000000
  0
SEQEND
  8
LAYER-1
  0
ARC
  8
LAYER-1
 62
  7
 10
47.730797
 20
50.126103
 30
0.000000
 40
0.183849
 50
182.866760
 51
219.456268
  0
POLYLINE
  8
LAYER-1
 66
  1
 70
  0
 62
  7
 10
47.578374
 20
50.148095
 30
0.000000
  0
VERTEX
  8
LAYER-1
 10
47.578374
 20
50.148095
 30
0.000000
  0
VERTEX
  8
LAYER-1
 10
47.547175
 20
50.116906
 30
0.000000
  0
SEQEND
  8
LAYER-1
  0
ARC
  8
LAYER-1
 62
  7
 10
47.828435
 20
49.571364
 30
0.000000
 40
0.283661
 50
148.966705
 51
172.533142
  0
POLYLINE
  8
LAYER-1
 66
  1
 70
  0
 62
  7
 10
47.585374
 20
49.717600
 30
0.000000
  0
VERTEX
  8
LAYER-1
 10
47.585374
 20
49.717600
 30
0.000000
  0
VERTEX
  8
LAYER-1
 10
47.734333
 20
49.717600
 30
0.000000
  0
SEQEND
  8
LAYER-1
  0
POLYLINE
  8
LAYER-1
 66
  1
 70
  0
 62
  7
 10
47.588294
 20
50.009268
 30
0.000000
  0
VERTEX
  8
LAYER-1
 10
47.588294
 20
50.009268
 30
0.000000
  0
VERTEX
  8
LAYER-1
 10
47.734333
 20
50.009268
 30
0.000000
  0
SEQEND
  8
LAYER-1
  0
POLYLINE
  8
LAYER-1
 66
  1
 70
  0
 62
  7
 10
46.573946
 20
43.528879
 30
0.000000
  0
VERTEX
  8
LAYER-1
 10
46.573946
 20
43.528879
 30
0.000000
  0
VERTEX
  8
LAYER-1
 10
44.631132
 20
43.528879
 30
0.000000
  0
SEQEND
  8
LAYER-1
  0
POLYLINE
  8
LAYER-1
 66
  1
 70
  1
 62
  7
  0
VERTEX
  8
LAYER-1
 10
46.593628
 20
43.528879
 30
0.000000
  0
VERTEX
  8
LAYER-1
 10
46.209013
 20
43.759648
 30
0.000000
  0
VERTEX
  8
LAYER-1
 10
46.209013
 20
43.528879
 30
0.000000
  0
VERTEX
  8
LAYER-1
 10
46.209013
 20
43.298110
 30
0.000000
  0
VERTEX
  8
LAYER-1
 10
46.593628
 20
43.528879
 30
0.000000
  0
SEQEND
  8
LAYER-1
  0
POLYLINE
  8
LAYER-1
 66
  1
 70
  0
 62
  7
 10
46.573946
 20
49.866380
 30
0.000000
  0
VERTEX
  8
LAYER-1
 10
46.573946
 20
49.866380
 30
0.000000
  0
VERTEX
  8
LAYER-1
 10
44.631132
 20
49.866380
 30
0.000000
  0
SEQEND
  8
LAYER-1
  0
POLYLINE
  8
LAYER-1
 66
  1
 70
  1
 62
  7
  0
VERTEX
  8
LAYER-1
 10
46.593628
 20
49.866380
 30
0.000000
  0
VERTEX
  8
LAYER-1
 10
46.209013
 20
50.097149
 30
0.000000
  0
VERTEX
  8
LAYER-1
 10
46.209013
 20
49.866380
 30
0.000000
  0
VERTEX
  8
LAYER-1
 10
46.209013
 20
49.635611
 30
0.000000
  0
VERTEX
  8
LAYER-1
 10
46.593628
 20
49.866380
 30
0.000000
  0
SEQEND
  8
LAYER-1
  0
POLYLINE
  8
LAYER-1
 66
  1
 70
  0
 62
  7
 10
62.376009
 20
49.584952
 30
0.000000
  0
VERTEX
  8
LAYER-1
 10
62.376009
 20
49.584952
 30
0.000000
  0
VERTEX
  8
LAYER-1
 10
62.580872
 20
49.584952
 30
0.000000
  0
SEQEND
  8
LAYER-1
  0
POLYLINE
  8
LAYER-1
  6
LTYPE01
 66
  1
 70
  0
 62
  7
  6
LTYPE01
 10
62.346497
 20
49.741202
 30
0.000000
  0
VERTEX
  8
LAYER-1
  6
LTYPE01
 10
62.346497
 20
49.741202
 30
0.000000
  0
VERTEX
  8
LAYER-1
  6
LTYPE01
 10
62.610384
 20
49.741202
 30
0.000000
  0
SEQEND
  8
LAYER-1
  0
ARC
  8
LAYER-1
 62
  7
 10
62.369798
 20
49.573031
 30
0.000000
 40
0.244129
 50
9.772491
 51
38.152527
  0
POLYLINE
  8
LAYER-1
 66
  1
 70
  0
 62
  7
 10
62.384691
 20
49.723844
 30
0.000000
  0
VERTEX
  8
LAYER-1
 10
62.384691
 20
49.723844
 30
0.000000
  0
VERTEX
  8
LAYER-1
 10
62.561772
 20
49.723844
 30
0.000000
  0
SEQEND
  8
LAYER-1
  0
POLYLINE
  8
LAYER-1
 66
  1
 70
  0
 62
  7
 10
62.376009
 20
49.584952
 30
0.000000
  0
VERTEX
  8
LAYER-1
 10
62.376009
 20
49.584952
 30
0.000000
  0
VERTEX
  8
LAYER-1
 10
62.346497
 20
49.614469
 30
0.000000
  0
SEQEND
  8
LAYER-1
  0
POLYLINE
  8
LAYER-1
 66
  1
 70
  0
 62
  7
 10
62.580872
 20
49.584952
 30
0.000000
  0
VERTEX
  8
LAYER-1
 10
62.580872
 20
49.584952
 30
0.000000
  0
VERTEX
  8
LAYER-1
 10
62.610384
 20
49.614469
 30
0.000000
  0
SEQEND
  8
LAYER-1
  0
POLYLINE
  8
LAYER-1
  6
LTYPE01
 66
  1
 70
  0
 62
  7
  6
LTYPE01
 10
62.346497
 20
49.994676
 30
0.000000
  0
VERTEX
  8
LAYER-1
  6
LTYPE01
 10
62.346497
 20
49.994676
 30
0.000000
  0
VERTEX
  8
LAYER-1
  6
LTYPE01
 10
62.610384
 20
49.994676
 30
0.000000
  0
SEQEND
  8
LAYER-1
  0
ARC
  8
LAYER-1
 62
  7
 10
62.659344
 20
49.866422
 30
0.000000
 40
0.309461
 50
151.200317
 51
207.435486
  0
ARC
  8
LAYER-1
 62
  7
 10
62.327984
 20
49.869676
 30
0.000000
 40
0.275550
 50
328.045746
 51
31.954407
  0
POLYLINE
  8
LAYER-1
 66
  1
 70
  0
 62
  7
 10
62.388160
 20
50.015503
 30
0.000000
  0
VERTEX
  8
LAYER-1
 10
62.388160
 20
50.015503
 30
0.000000
  0
VERTEX
  8
LAYER-1
 10
62.561772
 20
50.015503
 30
0.000000
  0
SEQEND
  8
LAYER-1
  0
POLYLINE
  8
LAYER-1
 66
  1
 70
  0
 62
  7
 10
62.377686
 20
50.154339
 30
0.000000
  0
VERTEX
  8
LAYER-1
 10
62.377686
 20
50.154339
 30
0.000000
  0
VERTEX
  8
LAYER-1
 10
62.579191
 20
50.154339
 30
0.000000
  0
SEQEND
  8
LAYER-1
  0
POLYLINE
  8
LAYER-1
 66
  1
 70
  0
 62
  7
 10
62.610384
 20
50.123141
 30
0.000000
  0
VERTEX
  8
LAYER-1
 10
62.610384
 20
50.123141
 30
0.000000
  0
VERTEX
  8
LAYER-1
 10
62.610384
 20
49.614469
 30
0.000000
  0
SEQEND
  8
LAYER-1
  0
POLYLINE
  8
LAYER-1
 66
  1
 70
  0
 62
  7
 10
62.346497
 20
50.123141
 30
0.000000
  0
VERTEX
  8
LAYER-1
 10
62.346497
 20
50.123141
 30
0.000000
  0
VERTEX
  8
LAYER-1
 10
62.346497
 20
49.614469
 30
0.000000
  0
SEQEND
  8
LAYER-1
  0
ARC
  8
LAYER-1
 62
  7
 10
62.530109
 20
50.132343
 30
0.000000
 40
0.183846
 50
182.866638
 51
219.456543
  0
ARC
  8
LAYER-1
 62
  7
 10
62.443355
 20
50.133780
 30
0.000000
 40
0.167364
 50
315.034149
 51
356.356812
  0
POLYLINE
  8
LAYER-1
 66
  1
 70
  0
 62
  7
 10
62.377686
 20
50.154339
 30
0.000000
  0
VERTEX
  8
LAYER-1
 10
62.377686
 20
50.154339
 30
0.000000
  0
VERTEX
  8
LAYER-1
 10
62.346497
 20
50.123141
 30
0.000000
  0
SEQEND
  8
LAYER-1
  0
POLYLINE
  8
LAYER-1
 66
  1
 70
  0
 62
  7
 10
62.579191
 20
50.154339
 30
0.000000
  0
VERTEX
  8
LAYER-1
 10
62.579191
 20
50.154339
 30
0.000000
  0
VERTEX
  8
LAYER-1
 10
62.610384
 20
50.123141
 30
0.000000
  0
SEQEND
  8
LAYER-1
  0
ARC
  8
LAYER-1
 62
  7
 10
62.627747
 20
49.577609
 30
0.000000
 40
0.283661
 50
148.966705
 51
172.533142
  0
POLYLINE
  8
LAYER-1
 66
  1
 70
  0
 62
  7
 10
61.580012
 20
49.878357
 30
0.000000
  0
VERTEX
  8
LAYER-1
 10
61.580012
 20
49.878357
 30
0.000000
  0
VERTEX
  8
LAYER-1
 10
61.671842
 20
49.878427
 30
0.000000
  0
SEQEND
  8
LAYER-1
  0
POLYLINE
  8
LAYER-1
 66
  1
 70
  0
 62
  7
 10
61.693439
 20
49.854051
 30
0.000000
  0
VERTEX
  8
LAYER-1
 10
61.693439
 20
49.854051
 30
0.000000
  0
VERTEX
  8
LAYER-1
 10
61.777156
 20
49.854051
 30
0.000000
  0
SEQEND
  8
LAYER-1
  0
POLYLINE
  8
LAYER-1
 66
  1
 70
  0
 62
  7
 10
61.580012
 20
49.878357
 30
0.000000
  0
VERTEX
  8
LAYER-1
 10
61.580012
 20
49.878357
 30
0.000000
  0
VERTEX
  8
LAYER-1
 10
61.613939
 20
50.145226
 30
0.000000
  0
SEQEND
  8
LAYER-1
  0
POLYLINE
  8
LAYER-1
 66
  1
 70
  0
 62
  7
 10
61.629441
 20
50.154400
 30
0.000000
  0
VERTEX
  8
LAYER-1
 10
61.629441
 20
50.154400
 30
0.000000
  0
VERTEX
  8
LAYER-1
 10
61.622911
 20
50.155931
 30
0.000000
  0
VERTEX
  8
LAYER-1
 10
61.618746
 20
50.154644
 30
0.000000
  0
VERTEX
  8
LAYER-1
 10
61.615356
 20
50.152635
 30
0.000000
  0
VERTEX
  8
LAYER-1
 10
61.613028
 20
50.150076
 30
0.000000
  0
VERTEX
  8
LAYER-1
 10
61.613939
 20
50.145226
 30
0.000000
  0
SEQEND
  8
LAYER-1
  0
POLYLINE
  8
LAYER-1
 66
  1
 70
  0
 62
  7
 10
61.704242
 20
50.154400
 30
0.000000
  0
VERTEX
  8
LAYER-1
 10
61.704242
 20
50.154400
 30
0.000000
  0
VERTEX
  8
LAYER-1
 10
61.629441
 20
50.154400
 30
0.000000
  0
SEQEND
  8
LAYER-1
  0
POLYLINE
  8
LAYER-1
 66
  1
 70
  0
 62
  7
 10
61.704651
 20
50.154400
 30
0.000000
  0
VERTEX
  8
LAYER-1
 10
61.704651
 20
50.154400
 30
0.000000
  0
VERTEX
  8
LAYER-1
 10
61.671842
 20
49.878427
 30
0.000000
  0
SEQEND
  8
LAYER-1
  0
POLYLINE
  8
LAYER-1
 66
  1
 70
  0
 62
  7
 10
61.777156
 20
49.854051
 30
0.000000
  0
VERTEX
  8
LAYER-1
 10
61.777156
 20
49.854051
 30
0.000000
  0
VERTEX
  8
LAYER-1
 10
61.748451
 20
49.587323
 30
0.000000
  0
SEQEND
  8
LAYER-1
  0
POLYLINE
  8
LAYER-1
 66
  1
 70
  0
 62
  7
 10
61.732934
 20
49.578012
 30
0.000000
  0
VERTEX
  8
LAYER-1
 10
61.732934
 20
49.578012
 30
0.000000
  0
VERTEX
  8
LAYER-1
 10
61.735563
 20
49.580426
 30
0.000000
  0
VERTEX
  8
LAYER-1
 10
61.739755
 20
49.581731
 30
0.000000
  0
VERTEX
  8
LAYER-1
 10
61.743159
 20
49.583768
 30
0.000000
  0
VERTEX
  8
LAYER-1
 10
61.745465
 20
49.586369
 30
0.000000
  0
VERTEX
  8
LAYER-1
 10
61.746483
 20
49.589290
 30
0.000000
  0
VERTEX
  8
LAYER-1
 10
61.748451
 20
49.587323
 30
0.000000
  0
SEQEND
  8
LAYER-1
  0
POLYLINE
  8
LAYER-1
 66
  1
 70
  0
 62
  7
 10
61.693439
 20
49.854051
 30
0.000000
  0
VERTEX
  8
LAYER-1
 10
61.693439
 20
49.854051
 30
0.000000
  0
VERTEX
  8
LAYER-1
 10
61.661030
 20
49.578012
 30
0.000000
  0
SEQEND
  8
LAYER-1
  0
POLYLINE
  8
LAYER-1
 66
  1
 70
  0
 62
  7
 10
61.661030
 20
49.578012
 30
0.000000
  0
VERTEX
  8
LAYER-1
 10
61.661030
 20
49.578012
 30
0.000000
  0
VERTEX
  8
LAYER-1
 10
61.732934
 20
49.578012
 30
0.000000
  0
SEQEND
  8
LAYER-1
  0
POLYLINE
  8
LAYER-1
 66
  1
 70
  0
 62
  7
 10
61.693439
 20
49.854051
 30
0.000000
  0
VERTEX
  8
LAYER-1
 10
61.693439
 20
49.854051
 30
0.000000
  0
VERTEX
  8
LAYER-1
 10
61.671833
 20
49.836689
 30
0.000000
  0
SEQEND
  8
LAYER-1
  0
POLYLINE
  8
LAYER-1
 66
  1
 70
  0
 62
  7
 10
61.671833
 20
49.878357
 30
0.000000
  0
VERTEX
  8
LAYER-1
 10
61.671833
 20
49.878357
 30
0.000000
  0
VERTEX
  8
LAYER-1
 10
61.690735
 20
49.892245
 30
0.000000
  0
SEQEND
  8
LAYER-1
  0
POLYLINE
  8
LAYER-1
 66
  1
 70
  0
 62
  7
 10
61.690735
 20
49.892245
 30
0.000000
  0
VERTEX
  8
LAYER-1
 10
61.690735
 20
49.892245
 30
0.000000
  0
VERTEX
  8
LAYER-1
 10
61.704242
 20
50.045025
 30
0.000000
  0
SEQEND
  8
LAYER-1
  0
POLYLINE
  8
LAYER-1
 66
  1
 70
  0
 62
  7
 10
61.671833
 20
49.836689
 30
0.000000
  0
VERTEX
  8
LAYER-1
 10
61.671833
 20
49.836689
 30
0.000000
  0
VERTEX
  8
LAYER-1
 10
61.661030
 20
49.683913
 30
0.000000
  0
SEQEND
  8
LAYER-1
  0
POLYLINE
  8
LAYER-1
 66
  1
 70
  0
 62
  7
 10
61.625920
 20
49.876620
 30
0.000000
  0
VERTEX
  8
LAYER-1
 10
61.625920
 20
49.876620
 30
0.000000
  0
VERTEX
  8
LAYER-1
 10
61.644259
 20
49.592060
 30
0.000000
  0
SEQEND
  8
LAYER-1
  0
POLYLINE
  8
LAYER-1
 66
  1
 70
  0
 62
  7
 10
61.739347
 20
49.854051
 30
0.000000
  0
VERTEX
  8
LAYER-1
 10
61.739347
 20
49.854051
 30
0.000000
  0
VERTEX
  8
LAYER-1
 10
61.718036
 20
50.133141
 30
0.000000
  0
SEQEND
  8
LAYER-1
  0
POLYLINE
  8
LAYER-1
 66
  1
 70
  0
 62
  7
 10
61.718036
 20
50.133136
 30
0.000000
  0
VERTEX
  8
LAYER-1
 10
61.718036
 20
50.133136
 30
0.000000
  0
VERTEX
  8
LAYER-1
 10
61.715839
 20
50.136625
 30
0.000000
  0
VERTEX
  8
LAYER-1
 10
61.715360
 20
50.138123
 30
0.000000
  0
VERTEX
  8
LAYER-1
 10
61.714647
 20
50.139583
 30
0.000000
  0
VERTEX
  8
LAYER-1
 10
61.713708
 20
50.140982
 30
0.000000
  0
VERTEX
  8
LAYER-1
 10
61.714524
 20
50.140353
 30
0.000000
  0
SEQEND
  8
LAYER-1
  0
POLYLINE
  8
LAYER-1
 66
  1
 70
  0
 62
  7
 10
61.642123
 20
49.878357
 30
0.000000
  0
VERTEX
  8
LAYER-1
 10
61.642123
 20
49.878357
 30
0.000000
  0
VERTEX
  8
LAYER-1
 10
61.647372
 20
49.699599
 30
0.000000
  0
SEQEND
  8
LAYER-1
  0
POLYLINE
  8
LAYER-1
 66
  1
 70
  0
 62
  7
 10
61.647372
 20
49.699599
 30
0.000000
  0
VERTEX
  8
LAYER-1
 10
61.647372
 20
49.699599
 30
0.000000
  0
VERTEX
  8
LAYER-1
 10
61.645677
 20
49.699547
 30
0.000000
  0
VERTEX
  8
LAYER-1
 10
61.646367
 20
49.697575
 30
0.000000
  0
VERTEX
  8
LAYER-1
 10
61.647470
 20
49.695674
 30
0.000000
  0
VERTEX
  8
LAYER-1
 10
61.648959
 20
49.693890
 30
0.000000
  0
VERTEX
  8
LAYER-1
 10
61.652776
 20
49.690279
 30
0.000000
  0
SEQEND
  8
LAYER-1
  0
POLYLINE
  8
LAYER-1
 66
  1
 70
  0
 62
  7
 10
61.720445
 20
49.854051
 30
0.000000
  0
VERTEX
  8
LAYER-1
 10
61.720445
 20
49.854051
 30
0.000000
  0
VERTEX
  8
LAYER-1
 10
61.715168
 20
50.030226
 30
0.000000
  0
SEQEND
  8
LAYER-1
  0
POLYLINE
  8
LAYER-1
 66
  1
 70
  0
 62
  7
 10
61.661030
 20
49.578012
 30
0.000000
  0
VERTEX
  8
LAYER-1
 10
61.661030
 20
49.578012
 30
0.000000
  0
VERTEX
  8
LAYER-1
 10
61.657128
 20
49.579261
 30
0.000000
  0
SEQEND
  8
LAYER-1
  0
POLYLINE
  8
LAYER-1
 66
  1
 70
  0
 62
  7
 10
61.644254
 20
49.592060
 30
0.000000
  0
VERTEX
  8
LAYER-1
 10
61.644254
 20
49.592060
 30
0.000000
  0
VERTEX
  8
LAYER-1
 10
61.643019
 20
49.590877
 30
0.000000
  0
VERTEX
  8
LAYER-1
 10
61.644771
 20
49.587886
 30
0.000000
  0
VERTEX
  8
LAYER-1
 10
61.647470
 20
49.585205
 30
0.000000
  0
VERTEX
  8
LAYER-1
 10
61.650987
 20
49.582961
 30
0.000000
  0
VERTEX
  8
LAYER-1
 10
61.657128
 20
49.579271
 30
0.000000
  0
SEQEND
  8
LAYER-1
  0
POLYLINE
  8
LAYER-1
 66
  1
 70
  0
 62
  7
 10
61.661030
 20
49.683913
 30
0.000000
  0
VERTEX
  8
LAYER-1
 10
61.661030
 20
49.683913
 30
0.000000
  0
VERTEX
  8
LAYER-1
 10
61.652776
 20
49.690279
 30
0.000000
  0
SEQEND
  8
LAYER-1
  0
POLYLINE
  8
LAYER-1
 66
  1
 70
  0
 62
  7
 10
61.647423
 20
49.697848
 30
0.000000
  0
VERTEX
  8
LAYER-1
 10
61.647423
 20
49.697848
 30
0.000000
  0
VERTEX
  8
LAYER-1
 10
61.645635
 20
49.698468
 30
0.000000
  0
VERTEX
  8
LAYER-1
 10
61.646095
 20
49.697144
 30
0.000000
  0
VERTEX
  8
LAYER-1
 10
61.646832
 20
49.695881
 30
0.000000
  0
VERTEX
  8
LAYER-1
 10
61.647822
 20
49.694693
 30
0.000000
  0
VERTEX
  8
LAYER-1
 10
61.649057
 20
49.693599
 30
0.000000
  0
VERTEX
  8
LAYER-1
 10
61.651024
 20
49.691632
 30
0.000000
  0
SEQEND
  8
LAYER-1
  0
POLYLINE
  8
LAYER-1
 66
  1
 70
  0
 62
  7
 10
61.704242
 20
50.045025
 30
0.000000
  0
VERTEX
  8
LAYER-1
 10
61.704242
 20
50.045025
 30
0.000000
  0
VERTEX
  8
LAYER-1
 10
61.711257
 20
50.038260
 30
0.000000
  0
SEQEND
  8
LAYER-1
  0
POLYLINE
  8
LAYER-1
 66
  1
 70
  0
 62
  7
 10
61.715168
 20
50.030226
 30
0.000000
  0
VERTEX
  8
LAYER-1
 10
61.715168
 20
50.030226
 30
0.000000
  0
VERTEX
  8
LAYER-1
 10
61.713008
 20
50.033889
 30
0.000000
  0
VERTEX
  8
LAYER-1
 10
61.712510
 20
50.035569
 30
0.000000
  0
VERTEX
  8
LAYER-1
 10
61.711707
 20
50.037194
 30
0.000000
  0
VERTEX
  8
LAYER-1
 10
61.710642
 20
50.038753
 30
0.000000
  0
VERTEX
  8
LAYER-1
 10
61.711257
 20
50.038260
 30
0.000000
  0
SEQEND
  8
LAYER-1
  0
POLYLINE
  8
LAYER-1
 66
  1
 70
  0
 62
  7
 10
61.704242
 20
50.154400
 30
0.000000
  0
VERTEX
  8
LAYER-1
 10
61.704242
 20
50.154400
 30
0.000000
  0
VERTEX
  8
LAYER-1
 10
61.714515
 20
50.140353
 30
0.000000
  0
SEQEND
  8
LAYER-1
  0
POLYLINE
  8
LAYER-1
 66
  1
 70
  0
 62
  7
 10
62.376009
 20
43.246408
 30
0.000000
  0
VERTEX
  8
LAYER-1
 10
62.376009
 20
43.246408
 30
0.000000
  0
VERTEX
  8
LAYER-1
 10
62.580872
 20
43.246408
 30
0.000000
  0
SEQEND
  8
LAYER-1
  0
POLYLINE
  8
LAYER-1
  6
LTYPE01
 66
  1
 70
  0
 62
  7
  6
LTYPE01
 10
62.346497
 20
43.402658
 30
0.000000
  0
VERTEX
  8
LAYER-1
  6
LTYPE01
 10
62.346497
 20
43.402658
 30
0.000000
  0
VERTEX
  8
LAYER-1
  6
LTYPE01
 10
62.610384
 20
43.402658
 30
0.000000
  0
SEQEND
  8
LAYER-1
  0
ARC
  8
LAYER-1
 62
  7
 10
62.369798
 20
43.234492
 30
0.000000
 40
0.244129
 50
9.772491
 51
38.152527
  0
POLYLINE
  8
LAYER-1
 66
  1
 70
  0
 62
  7
 10
62.384691
 20
43.385306
 30
0.000000
  0
VERTEX
  8
LAYER-1
 10
62.384691
 20
43.385306
 30
0.000000
  0
VERTEX
  8
LAYER-1
 10
62.561772
 20
43.385306
 30
0.000000
  0
SEQEND
  8
LAYER-1
  0
POLYLINE
  8
LAYER-1
 66
  1
 70
  0
 62
  7
 10
62.376009
 20
43.246408
 30
0.000000
  0
VERTEX
  8
LAYER-1
 10
62.376009
 20
43.246408
 30
0.000000
  0
VERTEX
  8
LAYER-1
 10
62.346497
 20
43.275931
 30
0.000000
  0
SEQEND
  8
LAYER-1
  0
POLYLINE
  8
LAYER-1
 66
  1
 70
  0
 62
  7
 10
62.580872
 20
43.246408
 30
0.000000
  0
VERTEX
  8
LAYER-1
 10
62.580872
 20
43.246408
 30
0.000000
  0
VERTEX
  8
LAYER-1
 10
62.610384
 20
43.275931
 30
0.000000
  0
SEQEND
  8
LAYER-1
  0
POLYLINE
  8
LAYER-1
  6
LTYPE01
 66
  1
 70
  0
 62
  7
  6
LTYPE01
 10
62.346497
 20
43.656137
 30
0.000000
  0
VERTEX
  8
LAYER-1
  6
LTYPE01
 10
62.346497
 20
43.656137
 30
0.000000
  0
VERTEX
  8
LAYER-1
  6
LTYPE01
 10
62.610384
 20
43.656137
 30
0.000000
  0
SEQEND
  8
LAYER-1
  0
ARC
  8
LAYER-1
 62
  7
 10
62.659344
 20
43.527884
 30
0.000000
 40
0.309461
 50
151.200317
 51
207.435486
  0
ARC
  8
LAYER-1
 62
  7
 10
62.327984
 20
43.531133
 30
0.000000
 40
0.275550
 50
328.045746
 51
31.954407
  0
POLYLINE
  8
LAYER-1
 66
  1
 70
  0
 62
  7
 10
62.388160
 20
43.676964
 30
0.000000
  0
VERTEX
  8
LAYER-1
 10
62.388160
 20
43.676964
 30
0.000000
  0
VERTEX
  8
LAYER-1
 10
62.561772
 20
43.676964
 30
0.000000
  0
SEQEND
  8
LAYER-1
  0
POLYLINE
  8
LAYER-1
 66
  1
 70
  0
 62
  7
 10
62.377686
 20
43.815796
 30
0.000000
  0
VERTEX
  8
LAYER-1
 10
62.377686
 20
43.815796
 30
0.000000
  0
VERTEX
  8
LAYER-1
 10
62.579191
 20
43.815796
 30
0.000000
  0
SEQEND
  8
LAYER-1
  0
POLYLINE
  8
LAYER-1
 66
  1
 70
  0
 62
  7
 10
62.610384
 20
43.784602
 30
0.000000
  0
VERTEX
  8
LAYER-1
 10
62.610384
 20
43.784602
 30
0.000000
  0
VERTEX
  8
LAYER-1
 10
62.610384
 20
43.275931
 30
0.000000
  0
SEQEND
  8
LAYER-1
  0
POLYLINE
  8
LAYER-1
 66
  1
 70
  0
 62
  7
 10
62.346497
 20
43.784602
 30
0.000000
  0
VERTEX
  8
LAYER-1
 10
62.346497
 20
43.784602
 30
0.000000
  0
VERTEX
  8
LAYER-1
 10
62.346497
 20
43.275931
 30
0.000000
  0
SEQEND
  8
LAYER-1
  0
ARC
  8
LAYER-1
 62
  7
 10
62.530109
 20
43.793800
 30
0.000000
 40
0.183846
 50
182.866638
 51
219.456543
  0
ARC
  8
LAYER-1
 62
  7
 10
62.443355
 20
43.795236
 30
0.000000
 40
0.167364
 50
315.034149
 51
356.356812
  0
POLYLINE
  8
LAYER-1
 66
  1
 70
  0
 62
  7
 10
62.377686
 20
43.815796
 30
0.000000
  0
VERTEX
  8
LAYER-1
 10
62.377686
 20
43.815796
 30
0.000000
  0
VERTEX
  8
LAYER-1
 10
62.346497
 20
43.784602
 30
0.000000
  0
SEQEND
  8
LAYER-1
  0
POLYLINE
  8
LAYER-1
 66
  1
 70
  0
 62
  7
 10
62.579191
 20
43.815796
 30
0.000000
  0
VERTEX
  8
LAYER-1
 10
62.579191
 20
43.815796
 30
0.000000
  0
VERTEX
  8
LAYER-1
 10
62.610384
 20
43.784602
 30
0.000000
  0
SEQEND
  8
LAYER-1
  0
ARC
  8
LAYER-1
 62
  7
 10
62.627747
 20
43.239065
 30
0.000000
 40
0.283661
 50
148.966705
 51
172.533142
  0
POLYLINE
  8
LAYER-1
 66
  1
 70
  0
 62
  7
 10
61.580012
 20
43.539818
 30
0.000000
  0
VERTEX
  8
LAYER-1
 10
61.580012
 20
43.539818
 30
0.000000
  0
VERTEX
  8
LAYER-1
 10
61.671842
 20
43.539884
 30
0.000000
  0
SEQEND
  8
LAYER-1
  0
POLYLINE
  8
LAYER-1
 66
  1
 70
  0
 62
  7
 10
61.693439
 20
43.515508
 30
0.000000
  0
VERTEX
  8
LAYER-1
 10
61.693439
 20
43.515508
 30
0.000000
  0
VERTEX
  8
LAYER-1
 10
61.777156
 20
43.515508
 30
0.000000
  0
SEQEND
  8
LAYER-1
  0
POLYLINE
  8
LAYER-1
 66
  1
 70
  0
 62
  7
 10
61.580012
 20
43.539818
 30
0.000000
  0
VERTEX
  8
LAYER-1
 10
61.580012
 20
43.539818
 30
0.000000
  0
VERTEX
  8
LAYER-1
 10
61.613939
 20
43.806688
 30
0.000000
  0
SEQEND
  8
LAYER-1
  0
POLYLINE
  8
LAYER-1
 66
  1
 70
  0
 62
  7
 10
61.629441
 20
43.815862
 30
0.000000
  0
VERTEX
  8
LAYER-1
 10
61.629441
 20
43.815862
 30
0.000000
  0
VERTEX
  8
LAYER-1
 10
61.622911
 20
43.817388
 30
0.000000
  0
VERTEX
  8
LAYER-1
 10
61.618746
 20
43.816106
 30
0.000000
  0
VERTEX
  8
LAYER-1
 10
61.615356
 20
43.814096
 30
0.000000
  0
VERTEX
  8
LAYER-1
 10
61.613028
 20
43.811533
 30
0.000000
  0
VERTEX
  8
LAYER-1
 10
61.613939
 20
43.806683
 30
0.000000
  0
SEQEND
  8
LAYER-1
  0
POLYLINE
  8
LAYER-1
 66
  1
 70
  0
 62
  7
 10
61.704242
 20
43.815862
 30
0.000000
  0
VERTEX
  8
LAYER-1
 10
61.704242
 20
43.815862
 30
0.000000
  0
VERTEX
  8
LAYER-1
 10
61.629441
 20
43.815862
 30
0.000000
  0
SEQEND
  8
LAYER-1
  0
POLYLINE
  8
LAYER-1
 66
  1
 70
  0
 62
  7
 10
61.704651
 20
43.815862
 30
0.000000
  0
VERTEX
  8
LAYER-1
 10
61.704651
 20
43.815862
 30
0.000000
  0
VERTEX
  8
LAYER-1
 10
61.671842
 20
43.539884
 30
0.000000
  0
SEQEND
  8
LAYER-1
  0
POLYLINE
  8
LAYER-1
 66
  1
 70
  0
 62
  7
 10
61.777156
 20
43.515508
 30
0.000000
  0
VERTEX
  8
LAYER-1
 10
61.777156
 20
43.515508
 30
0.000000
  0
VERTEX
  8
LAYER-1
 10
61.748451
 20
43.248779
 30
0.000000
  0
SEQEND
  8
LAYER-1
  0
POLYLINE
  8
LAYER-1
 66
  1
 70
  0
 62
  7
 10
61.732934
 20
43.239474
 30
0.000000
  0
VERTEX
  8
LAYER-1
 10
61.732934
 20
43.239474
 30
0.000000
  0
VERTEX
  8
LAYER-1
 10
61.735563
 20
43.241882
 30
0.000000
  0
VERTEX
  8
LAYER-1
 10
61.739755
 20
43.243188
 30
0.000000
  0
VERTEX
  8
LAYER-1
 10
61.743159
 20
43.245230
 30
0.000000
  0
VERTEX
  8
LAYER-1
 10
61.745465
 20
43.247826
 30
0.000000
  0
VERTEX
  8
LAYER-1
 10
61.746483
 20
43.250747
 30
0.000000
  0
VERTEX
  8
LAYER-1
 10
61.748451
 20
43.248779
 30
0.000000
  0
SEQEND
  8
LAYER-1
  0
POLYLINE
  8
LAYER-1
 66
  1
 70
  0
 62
  7
 10
61.693439
 20
43.515508
 30
0.000000
  0
VERTEX
  8
LAYER-1
 10
61.693439
 20
43.515508
 30
0.000000
  0
VERTEX
  8
LAYER-1
 10
61.661030
 20
43.239474
 30
0.000000
  0
SEQEND
  8
LAYER-1
  0
POLYLINE
  8
LAYER-1
 66
  1
 70
  0
 62
  7
 10
61.661030
 20
43.239474
 30
0.000000
  0
VERTEX
  8
LAYER-1
 10
61.661030
 20
43.239474
 30
0.000000
  0
VERTEX
  8
LAYER-1
 10
61.732934
 20
43.239474
 30
0.000000
  0
SEQEND
  8
LAYER-1
  0
POLYLINE
  8
LAYER-1
 66
  1
 70
  0
 62
  7
 10
61.693439
 20
43.515508
 30
0.000000
  0
VERTEX
  8
LAYER-1
 10
61.693439
 20
43.515508
 30
0.000000
  0
VERTEX
  8
LAYER-1
 10
61.671833
 20
43.498145
 30
0.000000
  0
SEQEND
  8
LAYER-1
  0
POLYLINE
  8
LAYER-1
 66
  1
 70
  0
 62
  7
 10
61.671833
 20
43.539818
 30
0.000000
  0
VERTEX
  8
LAYER-1
 10
61.671833
 20
43.539818
 30
0.000000
  0
VERTEX
  8
LAYER-1
 10
61.690735
 20
43.553702
 30
0.000000
  0
SEQEND
  8
LAYER-1
  0
POLYLINE
  8
LAYER-1
 66
  1
 70
  0
 62
  7
 10
61.690735
 20
43.553702
 30
0.000000
  0
VERTEX
  8
LAYER-1
 10
61.690735
 20
43.553702
 30
0.000000
  0
VERTEX
  8
LAYER-1
 10
61.704242
 20
43.706487
 30
0.000000
  0
SEQEND
  8
LAYER-1
  0
POLYLINE
  8
LAYER-1
 66
  1
 70
  0
 62
  7
 10
61.671833
 20
43.498145
 30
0.000000
  0
VERTEX
  8
LAYER-1
 10
61.671833
 20
43.498145
 30
0.000000
  0
VERTEX
  8
LAYER-1
 10
61.661030
 20
43.345374
 30
0.000000
  0
SEQEND
  8
LAYER-1
  0
POLYLINE
  8
LAYER-1
 66
  1
 70
  0
 62
  7
 10
61.625920
 20
43.538077
 30
0.000000
  0
VERTEX
  8
LAYER-1
 10
61.625920
 20
43.538077
 30
0.000000
  0
VERTEX
  8
LAYER-1
 10
61.644259
 20
43.253517
 30
0.000000
  0
SEQEND
  8
LAYER-1
  0
POLYLINE
  8
LAYER-1
 66
  1
 70
  0
 62
  7
 10
61.739347
 20
43.515508
 30
0.000000
  0
VERTEX
  8
LAYER-1
 10
61.739347
 20
43.515508
 30
0.000000
  0
VERTEX
  8
LAYER-1
 10
61.718036
 20
43.794598
 30
0.000000
  0
SEQEND
  8
LAYER-1
  0
POLYLINE
  8
LAYER-1
 66
  1
 70
  0
 62
  7
 10
61.718036
 20
43.794593
 30
0.000000
  0
VERTEX
  8
LAYER-1
 10
61.718036
 20
43.794593
 30
0.000000
  0
VERTEX
  8
LAYER-1
 10
61.715839
 20
43.798086
 30
0.000000
  0
VERTEX
  8
LAYER-1
 10
61.715360
 20
43.799579
 30
0.000000
  0
VERTEX
  8
LAYER-1
 10
61.714647
 20
43.801039
 30
0.000000
  0
VERTEX
  8
LAYER-1
 10
61.713708
 20
43.802443
 30
0.000000
  0
VERTEX
  8
LAYER-1
 10
61.714524
 20
43.801814
 30
0.000000
  0
SEQEND
  8
LAYER-1
  0
POLYLINE
  8
LAYER-1
 66
  1
 70
  0
 62
  7
 10
61.642123
 20
43.539818
 30
0.000000
  0
VERTEX
  8
LAYER-1
 10
61.642123
 20
43.539818
 30
0.000000
  0
VERTEX
  8
LAYER-1
 10
61.647372
 20
43.361061
 30
0.000000
  0
SEQEND
  8
LAYER-1
  0
POLYLINE
  8
LAYER-1
 66
  1
 70
  0
 62
  7
 10
61.647372
 20
43.361061
 30
0.000000
  0
VERTEX
  8
LAYER-1
 10
61.647372
 20
43.361061
 30
0.000000
  0
VERTEX
  8
LAYER-1
 10
61.645677
 20
43.361009
 30
0.000000
  0
VERTEX
  8
LAYER-1
 10
61.646367
 20
43.359032
 30
0.000000
  0
VERTEX
  8
LAYER-1
 10
61.647470
 20
43.357135
 30
0.000000
  0
VERTEX
  8
LAYER-1
 10
61.648959
 20
43.355351
 30
0.000000
  0
VERTEX
  8
LAYER-1
 10
61.652776
 20
43.351741
 30
0.000000
  0
SEQEND
  8
LAYER-1
  0
POLYLINE
  8
LAYER-1
 66
  1
 70
  0
 62
  7
 10
61.720445
 20
43.515508
 30
0.000000
  0
VERTEX
  8
LAYER-1
 10
61.720445
 20
43.515508
 30
0.000000
  0
VERTEX
  8
LAYER-1
 10
61.715168
 20
43.691683
 30
0.000000
  0
SEQEND
  8
LAYER-1
  0
POLYLINE
  8
LAYER-1
 66
  1
 70
  0
 62
  7
 10
61.661030
 20
43.239474
 30
0.000000
  0
VERTEX
  8
LAYER-1
 10
61.661030
 20
43.239474
 30
0.000000
  0
VERTEX
  8
LAYER-1
 10
61.657128
 20
43.240723
 30
0.000000
  0
SEQEND
  8
LAYER-1
  0
POLYLINE
  8
LAYER-1
 66
  1
 70
  0
 62
  7
 10
61.644254
 20
43.253521
 30
0.000000
  0
VERTEX
  8
LAYER-1
 10
61.644254
 20
43.253521
 30
0.000000
  0
VERTEX
  8
LAYER-1
 10
61.643019
 20
43.252333
 30
0.000000
  0
VERTEX
  8
LAYER-1
 10
61.644771
 20
43.249347
 30
0.000000
  0
VERTEX
  8
LAYER-1
 10
61.647470
 20
43.246667
 30
0.000000
  0
VERTEX
  8
LAYER-1
 10
61.650987
 20
43.244418
 30
0.000000
  0
VERTEX
  8
LAYER-1
 10
61.657128
 20
43.240727
 30
0.000000
  0
SEQEND
  8
LAYER-1
  0
POLYLINE
  8
LAYER-1
 66
  1
 70
  0
 62
  7
 10
61.661030
 20
43.345374
 30
0.000000
  0
VERTEX
  8
LAYER-1
 10
61.661030
 20
43.345374
 30
0.000000
  0
VERTEX
  8
LAYER-1
 10
61.652776
 20
43.351741
 30
0.000000
  0
SEQEND
  8
LAYER-1
  0
POLYLINE
  8
LAYER-1
 66
  1
 70
  0
 62
  7
 10
61.647423
 20
43.359305
 30
0.000000
  0
VERTEX
  8
LAYER-1
 10
61.647423
 20
43.359305
 30
0.000000
  0
VERTEX
  8
LAYER-1
 10
61.645635
 20
43.359924
 30
0.000000
  0
VERTEX
  8
LAYER-1
 10
61.646095
 20
43.358605
 30
0.000000
  0
VERTEX
  8
LAYER-1
 10
61.646832
 20
43.357342
 30
0.000000
  0
VERTEX
  8
LAYER-1
 10
61.647822
 20
43.356150
 30
0.000000
  0
VERTEX
  8
LAYER-1
 10
61.649057
 20
43.355056
 30
0.000000
  0
VERTEX
  8
LAYER-1
 10
61.651024
 20
43.353093
 30
0.000000
  0
SEQEND
  8
LAYER-1
  0
POLYLINE
  8
LAYER-1
 66
  1
 70
  0
 62
  7
 10
61.704242
 20
43.706487
 30
0.000000
  0
VERTEX
  8
LAYER-1
 10
61.704242
 20
43.706487
 30
0.000000
  0
VERTEX
  8
LAYER-1
 10
61.711257
 20
43.699716
 30
0.000000
  0
SEQEND
  8
LAYER-1
  0
POLYLINE
  8
LAYER-1
 66
  1
 70
  0
 62
  7
 10
61.715168
 20
43.691683
 30
0.000000
  0
VERTEX
  8
LAYER-1
 10
61.715168
 20
43.691683
 30
0.000000
  0
VERTEX
  8
LAYER-1
 10
61.713008
 20
43.695350
 30
0.000000
  0
VERTEX
  8
LAYER-1
 10
61.712510
 20
43.697026
 30
0.000000
  0
VERTEX
  8
LAYER-1
 10
61.711707
 20
43.698655
 30
0.000000
  0
VERTEX
  8
LAYER-1
 10
61.710642
 20
43.700214
 30
0.000000
  0
VERTEX
  8
LAYER-1
 10
61.711257
 20
43.699716
 30
0.000000
  0
SEQEND
  8
LAYER-1
  0
POLYLINE
  8
LAYER-1
 66
  1
 70
  0
 62
  7
 10
61.704242
 20
43.815862
 30
0.000000
  0
VERTEX
  8
LAYER-1
 10
61.704242
 20
43.815862
 30
0.000000
  0
VERTEX
  8
LAYER-1
 10
61.714515
 20
43.801814
 30
0.000000
  0
SEQEND
  8
LAYER-1
  0
TEXT
  8
LAYER-1
 62
  7
 10
42.029370
 20
59.557711
 30
0.000000
 40
0.980769
  1
ASSEMBLY OF HOIST
 72
  5
 11
61.413985
 21
59.557711
 31
0.000000
  0
TEXT
  8
LAYER-1
 62
  7
 10
42.029370
 20
57.403865
 30
0.000000
 40
0.980769
  1
TO END PLATE
 72
  5
 11
55.567831
 21
57.403865
 31
0.000000
  0
LINE
  8
LAYER-1
 62
  7
 10
49.789706
 20
56.942326
 30
0.000000
 11
55.255197
 21
56.942326
 31
0.000000
  0
LINE
  8
LAYER-1
 62
  7
 10
49.770024
 20
55.403865
 30
0.000000
 11
49.770024
 21
57.942326
 31
0.000000
  0
LINE
  8
LAYER-1
 62
  7
 10
55.274884
 20
48.901255
 30
0.000000
 11
55.274884
 21
57.942326
 31
0.000000
  0
LINE
  8
LAYER-1
 62
  7
 10
55.274884
 20
56.942326
 30
0.000000
 11
60.644757
 21
56.942326
 31
0.000000
  0
POLYLINE
  8
LAYER-1
 66
  1
 70
  1
 62
  7
  0
VERTEX
  8
LAYER-1
 10
49.770024
 20
56.942326
 30
0.000000
  0
VERTEX
  8
LAYER-1
 10
50.154640
 20
56.711562
 30
0.000000
  0
VERTEX
  8
LAYER-1
 10
50.154640
 20
56.942331
 30
0.000000
  0
VERTEX
  8
LAYER-1
 10
50.154640
 20
57.173100
 30
0.000000
  0
VERTEX
  8
LAYER-1
 10
49.770024
 20
56.942326
 30
0.000000
  0
SEQEND
  8
LAYER-1
  0
POLYLINE
  8
LAYER-1
 66
  1
 70
  1
 62
  7
  0
VERTEX
  8
LAYER-1
 10
55.274884
 20
56.942326
 30
0.000000
  0
VERTEX
  8
LAYER-1
 10
54.890268
 20
56.711557
 30
0.000000
  0
VERTEX
  8
LAYER-1
 10
54.890268
 20
56.942326
 30
0.000000
  0
VERTEX
  8
LAYER-1
 10
54.890268
 20
57.173096
 30
0.000000
  0
VERTEX
  8
LAYER-1
 10
55.274884
 20
56.942326
 30
0.000000
  0
SEQEND
  8
LAYER-1
  0
TEXT
  8
LAYER-1
 62
  7
 10
58.364321
 20
57.950200
 30
0.000000
 40
0.692308
  1
5-1/2"
  0
POLYLINE
  8
LAYER-1
  6
LTYPE06
 66
  1
 70
  0
 62
  7
  6
LTYPE06
 10
51.786236
 20
47.894977
 30
0.000000
  0
VERTEX
  8
LAYER-1
  6
LTYPE06
 10
51.786236
 20
47.894977
 30
0.000000
  0
VERTEX
  8
LAYER-1
  6
LTYPE06
 10
62.093623
 20
47.897452
 30
0.000000
  0
SEQEND
  8
LAYER-1
  0
POLYLINE
  8
LAYER-1
 66
  1
 70
  1
 62
  7
  0
VERTEX
  8
LAYER-1
 10
51.766550
 20
47.894973
 30
0.000000
  0
VERTEX
  8
LAYER-1
 10
52.151222
 20
47.664297
 30
0.000000
  0
VERTEX
  8
LAYER-1
 10
52.151165
 20
47.895066
 30
0.000000
  0
VERTEX
  8
LAYER-1
 10
52.151109
 20
48.125836
 30
0.000000
  0
VERTEX
  8
LAYER-1
 10
51.766550
 20
47.894973
 30
0.000000
  0
SEQEND
  8
LAYER-1
  0
POLYLINE
  8
LAYER-1
 66
  1
 70
  0
 62
  7
 10
58.389428
 20
36.720867
 30
0.000000
  0
VERTEX
  8
LAYER-1
 10
58.389428
 20
36.720867
 30
0.000000
  0
VERTEX
  8
LAYER-1
 10
58.389465
 20
36.720867
 30
0.000000
  0
SEQEND
  8
LAYER-1
  0
POLYLINE
  8
LAYER-1
 66
  1
 70
  0
 62
  7
 10
58.719464
 20
36.390869
 30
0.000000
  0
VERTEX
  8
LAYER-1
 10
58.719464
 20
36.390869
 30
0.000000
  0
VERTEX
  8
LAYER-1
 10
58.719464
 20
35.490892
 30
0.000000
  0
SEQEND
  8
LAYER-1
  0
POLYLINE
  8
LAYER-1
 66
  1
 70
  0
 62
  7
 10
58.389465
 20
35.160889
 30
0.000000
  0
VERTEX
  8
LAYER-1
 10
58.389465
 20
35.160889
 30
0.000000
  0
VERTEX
  8
LAYER-1
 10
58.389428
 20
35.160889
 30
0.000000
  0
SEQEND
  8
LAYER-1
  0
POLYLINE
  8
LAYER-1
 66
  1
 70
  0
 62
  7
 10
58.059429
 20
35.490892
 30
0.000000
  0
VERTEX
  8
LAYER-1
 10
58.059429
 20
35.490892
 30
0.000000
  0
VERTEX
  8
LAYER-1
 10
58.059429
 20
36.390869
 30
0.000000
  0
SEQEND
  8
LAYER-1
  0
ARC
  8
LAYER-1
 62
  7
 10
58.389428
 20
36.390869
 30
0.000000
 40
0.329999
 50
90.000000
 51
180.000000
  0
ARC
  8
LAYER-1
 62
  7
 10
58.389428
 20
35.490892
 30
0.000000
 40
0.329999
 50
180.000000
 51
270.000000
  0
ARC
  8
LAYER-1
 62
  7
 10
58.389465
 20
35.490892
 30
0.000000
 40
0.329999
 50
270.000000
 51
0.000000
  0
ARC
  8
LAYER-1
 62
  7
 10
58.389465
 20
36.390869
 30
0.000000
 40
0.329999
 50
0.000000
 51
90.000000
  0
POLYLINE
  8
LAYER-1
 66
  1
 70
  0
 62
  7
 10
58.389428
 20
36.510855
 30
0.000000
  0
VERTEX
  8
LAYER-1
 10
58.389428
 20
36.510855
 30
0.000000
  0
VERTEX
  8
LAYER-1
 10
58.389465
 20
36.510855
 30
0.000000
  0
SEQEND
  8
LAYER-1
  0
POLYLINE
  8
LAYER-1
 66
  1
 70
  0
 62
  7
 10
58.584468
 20
36.315852
 30
0.000000
  0
VERTEX
  8
LAYER-1
 10
58.584468
 20
36.315852
 30
0.000000
  0
VERTEX
  8
LAYER-1
 10
58.584468
 20
35.520879
 30
0.000000
  0
SEQEND
  8
LAYER-1
  0
POLYLINE
  8
LAYER-1
 66
  1
 70
  0
 62
  7
 10
58.389465
 20
35.325876
 30
0.000000
  0
VERTEX
  8
LAYER-1
 10
58.389465
 20
35.325876
 30
0.000000
  0
VERTEX
  8
LAYER-1
 10
58.389428
 20
35.325876
 30
0.000000
  0
SEQEND
  8
LAYER-1
  0
POLYLINE
  8
LAYER-1
 66
  1
 70
  0
 62
  7
 10
58.194430
 20
35.520879
 30
0.000000
  0
VERTEX
  8
LAYER-1
 10
58.194430
 20
35.520879
 30
0.000000
  0
VERTEX
  8
LAYER-1
 10
58.194430
 20
36.315852
 30
0.000000
  0
SEQEND
  8
LAYER-1
  0
ARC
  8
LAYER-1
 62
  7
 10
58.389428
 20
36.315852
 30
0.000000
 40
0.195000
 50
90.000000
 51
180.000000
  0
ARC
  8
LAYER-1
 62
  7
 10
58.389428
 20
35.520879
 30
0.000000
 40
0.195000
 50
180.000000
 51
270.000000
  0
ARC
  8
LAYER-1
 62
  7
 10
58.389465
 20
35.520879
 30
0.000000
 40
0.195000
 50
270.000000
 51
0.000000
  0
ARC
  8
LAYER-1
 62
  7
 10
58.389465
 20
36.315852
 30
0.000000
 40
0.195000
 50
0.000000
 51
90.000000
  0
POLYLINE
  8
LAYER-1
 66
  1
 70
  0
 62
  7
 10
58.389428
 20
38.905771
 30
0.000000
  0
VERTEX
  8
LAYER-1
 10
58.389428
 20
38.905771
 30
0.000000
  0
VERTEX
  8
LAYER-1
 10
58.389465
 20
38.905771
 30
0.000000
  0
SEQEND
  8
LAYER-1
  0
POLYLINE
  8
LAYER-1
 66
  1
 70
  0
 62
  7
 10
58.719464
 20
38.575768
 30
0.000000
  0
VERTEX
  8
LAYER-1
 10
58.719464
 20
38.575768
 30
0.000000
  0
VERTEX
  8
LAYER-1
 10
58.719464
 20
37.675791
 30
0.000000
  0
SEQEND
  8
LAYER-1
  0
POLYLINE
  8
LAYER-1
 66
  1
 70
  0
 62
  7
 10
58.389465
 20
37.345792
 30
0.000000
  0
VERTEX
  8
LAYER-1
 10
58.389465
 20
37.345792
 30
0.000000
  0
VERTEX
  8
LAYER-1
 10
58.389428
 20
37.345792
 30
0.000000
  0
SEQEND
  8
LAYER-1
  0
POLYLINE
  8
LAYER-1
 66
  1
 70
  0
 62
  7
 10
58.059429
 20
37.675791
 30
0.000000
  0
VERTEX
  8
LAYER-1
 10
58.059429
 20
37.675791
 30
0.000000
  0
VERTEX
  8
LAYER-1
 10
58.059429
 20
38.575768
 30
0.000000
  0
SEQEND
  8
LAYER-1
  0
ARC
  8
LAYER-1
 62
  7
 10
58.389428
 20
38.575768
 30
0.000000
 40
0.329999
 50
90.000000
 51
180.000000
  0
ARC
  8
LAYER-1
 62
  7
 10
58.389428
 20
37.675791
 30
0.000000
 40
0.329999
 50
180.000000
 51
270.000000
  0
ARC
  8
LAYER-1
 62
  7
 10
58.389465
 20
37.675791
 30
0.000000
 40
0.329999
 50
270.000000
 51
0.000000
  0
ARC
  8
LAYER-1
 62
  7
 10
58.389465
 20
38.575768
 30
0.000000
 40
0.329999
 50
0.000000
 51
90.000000
  0
POLYLINE
  8
LAYER-1
 66
  1
 70
  0
 62
  7
 10
58.389428
 20
38.695801
 30
0.000000
  0
VERTEX
  8
LAYER-1
 10
58.389428
 20
38.695801
 30
0.000000
  0
VERTEX
  8
LAYER-1
 10
58.389465
 20
38.695801
 30
0.000000
  0
SEQEND
  8
LAYER-1
  0
POLYLINE
  8
LAYER-1
 66
  1
 70
  0
 62
  7
 10
58.584468
 20
38.500798
 30
0.000000
  0
VERTEX
  8
LAYER-1
 10
58.584468
 20
38.500798
 30
0.000000
  0
VERTEX
  8
LAYER-1
 10
58.584468
 20
37.705778
 30
0.000000
  0
SEQEND
  8
LAYER-1
  0
POLYLINE
  8
LAYER-1
 66
  1
 70
  0
 62
  7
 10
58.389465
 20
37.510775
 30
0.000000
  0
VERTEX
  8
LAYER-1
 10
58.389465
 20
37.510775
 30
0.000000
  0
VERTEX
  8
LAYER-1
 10
58.389428
 20
37.510775
 30
0.000000
  0
SEQEND
  8
LAYER-1
  0
POLYLINE
  8
LAYER-1
 66
  1
 70
  0
 62
  7
 10
58.194430
 20
37.705778
 30
0.000000
  0
VERTEX
  8
LAYER-1
 10
58.194430
 20
37.705778
 30
0.000000
  0
VERTEX
  8
LAYER-1
 10
58.194430
 20
38.500798
 30
0.000000
  0
SEQEND
  8
LAYER-1
  0
ARC
  8
LAYER-1
 62
  7
 10
58.389428
 20
38.500798
 30
0.000000
 40
0.195000
 50
90.000000
 51
180.000000
  0
ARC
  8
LAYER-1
 62
  7
 10
58.389428
 20
37.705778
 30
0.000000
 40
0.195000
 50
180.000000
 51
270.000000
  0
ARC
  8
LAYER-1
 62
  7
 10
58.389465
 20
37.705778
 30
0.000000
 40
0.195000
 50
270.000000
 51
0.000000
  0
ARC
  8
LAYER-1
 62
  7
 10
58.389465
 20
38.500798
 30
0.000000
 40
0.195000
 50
0.000000
 51
90.000000
  0
POLYLINE
  8
LAYER-1
 66
  1
 70
  1
 62
  7
  0
VERTEX
  8
LAYER-1
 10
58.314430
 20
37.600788
 30
0.000000
  0
VERTEX
  8
LAYER-1
 10
58.464468
 20
37.600788
 30
0.000000
  0
VERTEX
  8
LAYER-1
 10
58.464468
 20
36.310805
 30
0.000000
  0
VERTEX
  8
LAYER-1
 10
58.314430
 20
36.310805
 30
0.000000
  0
SEQEND
  8
LAYER-1
  0
POLYLINE
  8
LAYER-1
 66
  1
 70
  0
 62
  7
 10
58.370253
 20
41.022757
 30
0.000000
  0
VERTEX
  8
LAYER-1
 10
58.370253
 20
41.022757
 30
0.000000
  0
VERTEX
  8
LAYER-1
 10
58.408644
 20
41.022757
 30
0.000000
  0
SEQEND
  8
LAYER-1
  0
POLYLINE
  8
LAYER-1
 66
  1
 70
  0
 62
  7
 10
58.719464
 20
40.711938
 30
0.000000
  0
VERTEX
  8
LAYER-1
 10
58.719464
 20
40.711938
 30
0.000000
  0
VERTEX
  8
LAYER-1
 10
58.719464
 20
39.949655
 30
0.000000
  0
SEQEND
  8
LAYER-1
  0
POLYLINE
  8
LAYER-1
 66
  1
 70
  0
 62
  7
 10
58.408644
 20
39.638836
 30
0.000000
  0
VERTEX
  8
LAYER-1
 10
58.408644
 20
39.638836
 30
0.000000
  0
VERTEX
  8
LAYER-1
 10
58.370253
 20
39.638836
 30
0.000000
  0
SEQEND
  8
LAYER-1
  0
POLYLINE
  8
LAYER-1
 66
  1
 70
  0
 62
  7
 10
58.059429
 20
39.949655
 30
0.000000
  0
VERTEX
  8
LAYER-1
 10
58.059429
 20
39.949655
 30
0.000000
  0
VERTEX
  8
LAYER-1
 10
58.059429
 20
40.711938
 30
0.000000
  0
SEQEND
  8
LAYER-1
  0
ARC
  8
LAYER-1
 62
  7
 10
58.370253
 20
40.711938
 30
0.000000
 40
0.310821
 50
90.000000
 51
180.000000
  0
ARC
  8
LAYER-1
 62
  7
 10
58.370253
 20
39.949655
 30
0.000000
 40
0.310821
 50
180.000000
 51
270.000000
  0
ARC
  8
LAYER-1
 62
  7
 10
58.408644
 20
39.949655
 30
0.000000
 40
0.310821
 50
270.000000
 51
0.000000
  0
ARC
  8
LAYER-1
 62
  7
 10
58.408644
 20
40.711938
 30
0.000000
 40
0.310821
 50
0.000000
 51
90.000000
  0
POLYLINE
  8
LAYER-1
 66
  1
 70
  0
 62
  7
 10
58.378094
 20
40.836459
 30
0.000000
  0
VERTEX
  8
LAYER-1
 10
58.378094
 20
40.836459
 30
0.000000
  0
VERTEX
  8
LAYER-1
 10
58.400799
 20
40.836459
 30
0.000000
  0
SEQEND
  8
LAYER-1
  0
POLYLINE
  8
LAYER-1
 66
  1
 70
  0
 62
  7
 10
58.584468
 20
40.652790
 30
0.000000
  0
VERTEX
  8
LAYER-1
 10
58.584468
 20
40.652790
 30
0.000000
  0
VERTEX
  8
LAYER-1
 10
58.584468
 20
39.968849
 30
0.000000
  0
SEQEND
  8
LAYER-1
  0
POLYLINE
  8
LAYER-1
 66
  1
 70
  0
 62
  7
 10
58.400799
 20
39.785184
 30
0.000000
  0
VERTEX
  8
LAYER-1
 10
58.400799
 20
39.785184
 30
0.000000
  0
VERTEX
  8
LAYER-1
 10
58.378094
 20
39.785184
 30
0.000000
  0
SEQEND
  8
LAYER-1
  0
POLYLINE
  8
LAYER-1
 66
  1
 70
  0
 62
  7
 10
58.194430
 20
39.968849
 30
0.000000
  0
VERTEX
  8
LAYER-1
 10
58.194430
 20
39.968849
 30
0.000000
  0
VERTEX
  8
LAYER-1
 10
58.194430
 20
40.652790
 30
0.000000
  0
SEQEND
  8
LAYER-1
  0
ARC
  8
LAYER-1
 62
  7
 10
58.378094
 20
40.652790
 30
0.000000
 40
0.183667
 50
90.000000
 51
180.000000
  0
ARC
  8
LAYER-1
 62
  7
 10
58.378094
 20
39.968849
 30
0.000000
 40
0.183667
 50
180.000000
 51
270.000000
  0
ARC
  8
LAYER-1
 62
  7
 10
58.400799
 20
39.968849
 30
0.000000
 40
0.183667
 50
270.000000
 51
0.000000
  0
ARC
  8
LAYER-1
 62
  7
 10
58.400799
 20
40.652790
 30
0.000000
 40
0.183667
 50
0.000000
 51
90.000000
  0
POLYLINE
  8
LAYER-1
 66
  1
 70
  1
 62
  7
  0
VERTEX
  8
LAYER-1
 10
58.314430
 20
39.895771
 30
0.000000
  0
VERTEX
  8
LAYER-1
 10
58.464468
 20
39.895771
 30
0.000000
  0
VERTEX
  8
LAYER-1
 10
58.464468
 20
38.605788
 30
0.000000
  0
VERTEX
  8
LAYER-1
 10
58.314430
 20
38.605788
 30
0.000000
  0
SEQEND
  8
LAYER-1
  0
POLYLINE
  8
LAYER-1
 66
  1
 70
  1
 62
  7
  0
VERTEX
  8
LAYER-1
 10
58.314430
 20
41.235863
 30
0.000000
  0
VERTEX
  8
LAYER-1
 10
58.464468
 20
41.235863
 30
0.000000
  0
VERTEX
  8
LAYER-1
 10
58.464468
 20
40.665842
 30
0.000000
  0
VERTEX
  8
LAYER-1
 10
58.314430
 20
40.665842
 30
0.000000
  0
SEQEND
  8
LAYER-1
  0
POLYLINE
  8
LAYER-1
 66
  1
 70
  0
 62
  7
 10
58.370253
 20
34.542748
 30
0.000000
  0
VERTEX
  8
LAYER-1
 10
58.370253
 20
34.542748
 30
0.000000
  0
VERTEX
  8
LAYER-1
 10
58.408644
 20
34.542748
 30
0.000000
  0
SEQEND
  8
LAYER-1
  0
POLYLINE
  8
LAYER-1
 66
  1
 70
  0
 62
  7
 10
58.719464
 20
34.231929
 30
0.000000
  0
VERTEX
  8
LAYER-1
 10
58.719464
 20
34.231929
 30
0.000000
  0
VERTEX
  8
LAYER-1
 10
58.719464
 20
33.469651
 30
0.000000
  0
SEQEND
  8
LAYER-1
  0
POLYLINE
  8
LAYER-1
 66
  1
 70
  0
 62
  7
 10
58.408644
 20
33.158828
 30
0.000000
  0
VERTEX
  8
LAYER-1
 10
58.408644
 20
33.158828
 30
0.000000
  0
VERTEX
  8
LAYER-1
 10
58.370253
 20
33.158828
 30
0.000000
  0
SEQEND
  8
LAYER-1
  0
POLYLINE
  8
LAYER-1
 66
  1
 70
  0
 62
  7
 10
58.059429
 20
33.469651
 30
0.000000
  0
VERTEX
  8
LAYER-1
 10
58.059429
 20
33.469651
 30
0.000000
  0
VERTEX
  8
LAYER-1
 10
58.059429
 20
34.231929
 30
0.000000
  0
SEQEND
  8
LAYER-1
  0
ARC
  8
LAYER-1
 62
  7
 10
58.370253
 20
34.231929
 30
0.000000
 40
0.310821
 50
90.000000
 51
180.000000
  0
ARC
  8
LAYER-1
 62
  7
 10
58.370253
 20
33.469651
 30
0.000000
 40
0.310821
 50
180.000000
 51
270.000000
  0
ARC
  8
LAYER-1
 62
  7
 10
58.408644
 20
33.469651
 30
0.000000
 40
0.310821
 50
270.000000
 51
0.000000
  0
ARC
  8
LAYER-1
 62
  7
 10
58.408644
 20
34.231929
 30
0.000000
 40
0.310821
 50
0.000000
 51
90.000000
  0
POLYLINE
  8
LAYER-1
 66
  1
 70
  0
 62
  7
 10
58.378094
 20
34.356450
 30
0.000000
  0
VERTEX
  8
LAYER-1
 10
58.378094
 20
34.356450
 30
0.000000
  0
VERTEX
  8
LAYER-1
 10
58.400799
 20
34.356450
 30
0.000000
  0
SEQEND
  8
LAYER-1
  0
POLYLINE
  8
LAYER-1
 66
  1
 70
  0
 62
  7
 10
58.584468
 20
34.172781
 30
0.000000
  0
VERTEX
  8
LAYER-1
 10
58.584468
 20
34.172781
 30
0.000000
  0
VERTEX
  8
LAYER-1
 10
58.584468
 20
33.488840
 30
0.000000
  0
SEQEND
  8
LAYER-1
  0
POLYLINE
  8
LAYER-1
 66
  1
 70
  0
 62
  7
 10
58.400799
 20
33.305176
 30
0.000000
  0
VERTEX
  8
LAYER-1
 10
58.400799
 20
33.305176
 30
0.000000
  0
VERTEX
  8
LAYER-1
 10
58.378094
 20
33.305176
 30
0.000000
  0
SEQEND
  8
LAYER-1
  0
POLYLINE
  8
LAYER-1
 66
  1
 70
  0
 62
  7
 10
58.194430
 20
33.488840
 30
0.000000
  0
VERTEX
  8
LAYER-1
 10
58.194430
 20
33.488840
 30
0.000000
  0
VERTEX
  8
LAYER-1
 10
58.194430
 20
34.172781
 30
0.000000
  0
SEQEND
  8
LAYER-1
  0
ARC
  8
LAYER-1
 62
  7
 10
58.378094
 20
34.172781
 30
0.000000
 40
0.183667
 50
90.000000
 51
180.000000
  0
ARC
  8
LAYER-1
 62
  7
 10
58.378094
 20
33.488840
 30
0.000000
 40
0.183667
 50
180.000000
 51
270.000000
  0
ARC
  8
LAYER-1
 62
  7
 10
58.400799
 20
33.488840
 30
0.000000
 40
0.183667
 50
270.000000
 51
0.000000
  0
ARC
  8
LAYER-1
 62
  7
 10
58.400799
 20
34.172781
 30
0.000000
 40
0.183667
 50
0.000000
 51
90.000000
  0
POLYLINE
  8
LAYER-1
 66
  1
 70
  1
 62
  7
  0
VERTEX
  8
LAYER-1
 10
58.464468
 20
34.150771
 30
0.000000
  0
VERTEX
  8
LAYER-1
 10
58.314430
 20
34.150771
 30
0.000000
  0
VERTEX
  8
LAYER-1
 10
58.314430
 20
35.440801
 30
0.000000
  0
VERTEX
  8
LAYER-1
 10
58.464468
 20
35.440801
 30
0.000000
  0
SEQEND
  8
LAYER-1
  0
POLYLINE
  8
LAYER-1
 66
  1
 70
  0
 62
  7
 10
58.370253
 20
32.705247
 30
0.000000
  0
VERTEX
  8
LAYER-1
 10
58.370253
 20
32.705247
 30
0.000000
  0
VERTEX
  8
LAYER-1
 10
58.408644
 20
32.705247
 30
0.000000
  0
SEQEND
  8
LAYER-1
  0
POLYLINE
  8
LAYER-1
 66
  1
 70
  0
 62
  7
 10
58.719464
 20
32.394428
 30
0.000000
  0
VERTEX
  8
LAYER-1
 10
58.719464
 20
32.394428
 30
0.000000
  0
VERTEX
  8
LAYER-1
 10
58.719464
 20
31.632146
 30
0.000000
  0
SEQEND
  8
LAYER-1
  0
POLYLINE
  8
LAYER-1
 66
  1
 70
  0
 62
  7
 10
58.408644
 20
31.321327
 30
0.000000
  0
VERTEX
  8
LAYER-1
 10
58.408644
 20
31.321327
 30
0.000000
  0
VERTEX
  8
LAYER-1
 10
58.370253
 20
31.321327
 30
0.000000
  0
SEQEND
  8
LAYER-1
  0
POLYLINE
  8
LAYER-1
 66
  1
 70
  0
 62
  7
 10
58.059429
 20
31.632146
 30
0.000000
  0
VERTEX
  8
LAYER-1
 10
58.059429
 20
31.632146
 30
0.000000
  0
VERTEX
  8
LAYER-1
 10
58.059429
 20
32.394428
 30
0.000000
  0
SEQEND
  8
LAYER-1
  0
ARC
  8
LAYER-1
 62
  7
 10
58.370253
 20
32.394428
 30
0.000000
 40
0.310821
 50
90.000000
 51
180.000000
  0
ARC
  8
LAYER-1
 62
  7
 10
58.370253
 20
31.632146
 30
0.000000
 40
0.310821
 50
180.000000
 51
270.000000
  0
ARC
  8
LAYER-1
 62
  7
 10
58.408644
 20
31.632146
 30
0.000000
 40
0.310821
 50
270.000000
 51
0.000000
  0
ARC
  8
LAYER-1
 62
  7
 10
58.408644
 20
32.394428
 30
0.000000
 40
0.310821
 50
0.000000
 51
90.000000
  0
POLYLINE
  8
LAYER-1
 66
  1
 70
  0
 62
  7
 10
58.378094
 20
32.518944
 30
0.000000
  0
VERTEX
  8
LAYER-1
 10
58.378094
 20
32.518944
 30
0.000000
  0
VERTEX
  8
LAYER-1
 10
58.400799
 20
32.518944
 30
0.000000
  0
SEQEND
  8
LAYER-1
  0
POLYLINE
  8
LAYER-1
 66
  1
 70
  0
 62
  7
 10
58.584468
 20
32.335280
 30
0.000000
  0
VERTEX
  8
LAYER-1
 10
58.584468
 20
32.335280
 30
0.000000
  0
VERTEX
  8
LAYER-1
 10
58.584468
 20
31.651339
 30
0.000000
  0
SEQEND
  8
LAYER-1
  0
POLYLINE
  8
LAYER-1
 66
  1
 70
  0
 62
  7
 10
58.400799
 20
31.467675
 30
0.000000
  0
VERTEX
  8
LAYER-1
 10
58.400799
 20
31.467675
 30
0.000000
  0
VERTEX
  8
LAYER-1
 10
58.378094
 20
31.467675
 30
0.000000
  0
SEQEND
  8
LAYER-1
  0
POLYLINE
  8
LAYER-1
 66
  1
 70
  0
 62
  7
 10
58.194430
 20
31.651339
 30
0.000000
  0
VERTEX
  8
LAYER-1
 10
58.194430
 20
31.651339
 30
0.000000
  0
VERTEX
  8
LAYER-1
 10
58.194430
 20
32.335280
 30
0.000000
  0
SEQEND
  8
LAYER-1
  0
ARC
  8
LAYER-1
 62
  7
 10
58.378094
 20
32.335280
 30
0.000000
 40
0.183667
 50
90.000000
 51
180.000000
  0
ARC
  8
LAYER-1
 62
  7
 10
58.378094
 20
31.651339
 30
0.000000
 40
0.183667
 50
180.000000
 51
270.000000
  0
ARC
  8
LAYER-1
 62
  7
 10
58.400799
 20
31.651339
 30
0.000000
 40
0.183667
 50
270.000000
 51
0.000000
  0
ARC
  8
LAYER-1
 62
  7
 10
58.400799
 20
32.335280
 30
0.000000
 40
0.183667
 50
0.000000
 51
90.000000
  0
POLYLINE
  8
LAYER-1
 66
  1
 70
  1
 62
  7
  0
VERTEX
  8
LAYER-1
 10
58.464468
 20
32.313270
 30
0.000000
  0
VERTEX
  8
LAYER-1
 10
58.314430
 20
32.313270
 30
0.000000
  0
VERTEX
  8
LAYER-1
 10
58.314430
 20
33.603300
 30
0.000000
  0
VERTEX
  8
LAYER-1
 10
58.464468
 20
33.603300
 30
0.000000
  0
SEQEND
  8
LAYER-1
  0
TEXT
  8
LAYER-1
 62
  7
 10
56.875524
 20
12.711557
 30
0.000000
 40
0.980769
  1
L
 72
  5
 11
58.260139
 21
12.711557
 31
0.000000
  0
TEXT
  8
LAYER-1
 62
  7
 10
56.875524
 20
10.557711
 30
0.000000
 40
0.980769
  1
bracket
 72
  5
 11
63.337062
 21
10.557711
 31
0.000000
  0
TEXT
  8
LAYER-1
 62
  7
 10
40.567831
 20
3.557711
 30
0.000000
 40
0.980769
  1
Hoist
 72
  5
 11
45.106293
 21
3.557711
 31
0.000000
  0
TEXT
  8
LAYER-1
 62
  7
 10
40.567831
 20
1.403865
 30
0.000000
 40
0.980769
  1
box
 72
  5
 11
43.875524
 21
1.403865
 31
0.000000
  0
TEXT
  8
LAYER-1
 62
  7
 10
40.644755
 20
-1.211520
 30
0.000000
 40
0.980769
  1
Chain
 72
  5
 11
45.875524
 21
-1.211520
 31
0.000000
  0
TEXT
  8
LAYER-1
 62
  7
 10
58.337062
 20
51.403865
 30
0.000000
 40
0.980769
  1
Collars
 72
  5
 11
64.490908
 21
51.403865
 31
0.000000
  0
POLYLINE
  8
LAYER-1
 66
  1
 70
  0
 62
  7
 10
60.106295
 20
52.711557
 30
0.000000
  0
VERTEX
  8
LAYER-1
 10
60.106295
 20
52.711557
 30
0.000000
  0
VERTEX
  8
LAYER-1
 10
60.730981
 20
49.362708
 30
0.000000
  0
SEQEND
  8
LAYER-1
  0
POLYLINE
  8
LAYER-1
 66
  1
 70
  1
 62
  7
  0
VERTEX
  8
LAYER-1
 10
60.734591
 20
49.343356
 30
0.000000
  0
VERTEX
  8
LAYER-1
 10
60.437209
 20
49.679133
 30
0.000000
  0
VERTEX
  8
LAYER-1
 10
60.664062
 20
49.721454
 30
0.000000
  0
VERTEX
  8
LAYER-1
 10
60.890916
 20
49.763770
 30
0.000000
  0
VERTEX
  8
LAYER-1
 10
60.734591
 20
49.343356
 30
0.000000
  0
SEQEND
  8
LAYER-1
  0
POLYLINE
  8
LAYER-1
 66
  1
 70
  0
 62
  7
 10
56.773053
 20
52.711557
 30
0.000000
  0
VERTEX
  8
LAYER-1
 10
56.773053
 20
52.711557
 30
0.000000
  0
VERTEX
  8
LAYER-1
 10
56.148367
 20
49.362713
 30
0.000000
  0
SEQEND
  8
LAYER-1
  0
POLYLINE
  8
LAYER-1
 66
  1
 70
  1
 62
  7
  0
VERTEX
  8
LAYER-1
 10
56.144757
 20
49.343365
 30
0.000000
  0
VERTEX
  8
LAYER-1
 10
55.988427
 20
49.763775
 30
0.000000
  0
VERTEX
  8
LAYER-1
 10
56.215285
 20
49.721454
 30
0.000000
  0
VERTEX
  8
LAYER-1
 10
56.442143
 20
49.679143
 30
0.000000
  0
VERTEX
  8
LAYER-1
 10
56.144757
 20
49.343365
 30
0.000000
  0
SEQEND
  8
LAYER-1
  0
POLYLINE
  8
LAYER-1
 66
  1
 70
  0
 62
  7
 10
44.875526
 20
25.326942
 30
0.000000
  0
VERTEX
  8
LAYER-1
 10
44.875526
 20
25.326942
 30
0.000000
  0
VERTEX
  8
LAYER-1
 10
46.132775
 20
23.688707
 30
0.000000
  0
SEQEND
  8
LAYER-1
  0
POLYLINE
  8
LAYER-1
 66
  1
 70
  1
 62
  7
  0
VERTEX
  8
LAYER-1
 10
46.144761
 20
23.673091
 30
0.000000
  0
VERTEX
  8
LAYER-1
 10
45.727525
 20
23.837712
 30
0.000000
  0
VERTEX
  8
LAYER-1
 10
45.910598
 20
23.978210
 30
0.000000
  0
VERTEX
  8
LAYER-1
 10
46.093670
 20
24.118709
 30
0.000000
  0
VERTEX
  8
LAYER-1
 10
46.144761
 20
23.673091
 30
0.000000
  0
SEQEND
  8
LAYER-1
  0
POLYLINE
  8
LAYER-1
 66
  1
 70
  0
 62
  7
 10
42.183218
 20
1.634634
 30
0.000000
  0
VERTEX
  8
LAYER-1
 10
42.183218
 20
1.634634
 30
0.000000
  0
VERTEX
  8
LAYER-1
 10
43.935636
 20
2.701332
 30
0.000000
  0
SEQEND
  8
LAYER-1
  0
POLYLINE
  8
LAYER-1
 66
  1
 70
  1
 62
  7
  0
VERTEX
  8
LAYER-1
 10
43.952449
 20
2.711567
 30
0.000000
  0
VERTEX
  8
LAYER-1
 10
43.743896
 20
2.314463
 30
0.000000
  0
VERTEX
  8
LAYER-1
 10
43.623911
 20
2.511587
 30
0.000000
  0
VERTEX
  8
LAYER-1
 10
43.503925
 20
2.708712
 30
0.000000
  0
VERTEX
  8
LAYER-1
 10
43.952449
 20
2.711567
 30
0.000000
  0
SEQEND
  8
LAYER-1
  0
POLYLINE
  8
LAYER-1
 66
  1
 70
  0
 62
  7
 10
54.760141
 20
14.980788
 30
0.000000
  0
VERTEX
  8
LAYER-1
 10
54.760141
 20
14.980788
 30
0.000000
  0
VERTEX
  8
LAYER-1
 10
52.710421
 20
18.208182
 30
0.000000
  0
SEQEND
  8
LAYER-1
  0
POLYLINE
  8
LAYER-1
 66
  1
 70
  1
 62
  7
  0
VERTEX
  8
LAYER-1
 10
52.699867
 20
18.224797
 30
0.000000
  0
VERTEX
  8
LAYER-1
 10
53.100868
 20
18.023851
 30
0.000000
  0
VERTEX
  8
LAYER-1
 10
52.906067
 20
17.900128
 30
0.000000
  0
VERTEX
  8
LAYER-1
 10
52.711266
 20
17.776405
 30
0.000000
  0
VERTEX
  8
LAYER-1
 10
52.699867
 20
18.224797
 30
0.000000
  0
SEQEND
  8
LAYER-1
  0
POLYLINE
  8
LAYER-1
 66
  1
 70
  0
 62
  7
 10
41.413987
 20
6.711562
 30
0.000000
  0
VERTEX
  8
LAYER-1
 10
41.413987
 20
6.711562
 30
0.000000
  0
VERTEX
  8
LAYER-1
 10
42.982751
 20
10.155184
 30
0.000000
  0
SEQEND
  8
LAYER-1
  0
POLYLINE
  8
LAYER-1
 66
  1
 70
  1
 62
  7
  0
VERTEX
  8
LAYER-1
 10
42.990915
 20
10.173100
 30
0.000000
  0
VERTEX
  8
LAYER-1
 10
43.041471
 20
9.727422
 30
0.000000
  0
VERTEX
  8
LAYER-1
 10
42.831468
 20
9.823092
 30
0.000000
  0
VERTEX
  8
LAYER-1
 10
42.621465
 20
9.918762
 30
0.000000
  0
VERTEX
  8
LAYER-1
 10
42.990915
 20
10.173100
 30
0.000000
  0
SEQEND
  8
LAYER-1
  0
TEXT
  8
LAYER-1
 62
  7
 10
43.029370
 20
33.403865
 30
0.000000
 40
0.980769
  1
Tube
 72
  5
 11
47.644755
 21
33.403865
 31
0.000000
  0
TEXT
  8
LAYER-1
 62
  7
 10
43.029370
 20
31.250019
 30
0.000000
 40
0.980769
  1
support
 72
  5
 11
49.721678
 21
31.250019
 31
0.000000
  0
POLYLINE
  8
LAYER-1
 66
  1
 70
  0
 62
  7
 10
44.952449
 20
35.634634
 30
0.000000
  0
VERTEX
  8
LAYER-1
 10
44.952449
 20
35.634634
 30
0.000000
  0
VERTEX
  8
LAYER-1
 10
49.818017
 20
36.898916
 30
0.000000
  0
SEQEND
  8
LAYER-1
  0
POLYLINE
  8
LAYER-1
 66
  1
 70
  1
 62
  7
  0
VERTEX
  8
LAYER-1
 10
49.837069
 20
36.903865
 30
0.000000
  0
VERTEX
  8
LAYER-1
 10
49.522851
 20
36.583787
 30
0.000000
  0
VERTEX
  8
LAYER-1
 10
49.464816
 20
36.807138
 30
0.000000
  0
VERTEX
  8
LAYER-1
 10
49.406781
 20
37.030489
 30
0.000000
  0
VERTEX
  8
LAYER-1
 10
49.837069
 20
36.903865
 30
0.000000
  0
SEQEND
  8
LAYER-1
  0
POLYLINE
  8
LAYER-1
 66
  1
 70
  0
 62
  7
 10
50.133019
 20
48.861929
 30
0.000000
  0
VERTEX
  8
LAYER-1
 10
50.133019
 20
48.861929
 30
0.000000
  0
VERTEX
  8
LAYER-1
 10
50.133019
 20
46.931368
 30
0.000000
  0
SEQEND
  8
LAYER-1
  0
POLYLINE
  8
LAYER-1
 66
  1
 70
  0
 62
  7
 10
49.542743
 20
46.931368
 30
0.000000
  0
VERTEX
  8
LAYER-1
 10
49.542743
 20
46.931368
 30
0.000000
  0
VERTEX
  8
LAYER-1
 10
49.542743
 20
48.861929
 30
0.000000
  0
SEQEND
  8
LAYER-1
  0
ARC
  8
LAYER-1
 62
  7
 10
49.837881
 20
48.153611
 30
0.000000
 40
0.767347
 50
67.379852
 51
112.620148
  0
ARC
  8
LAYER-1
 62
  7
 10
49.837881
 20
47.639691
 30
0.000000
 40
0.767347
 50
247.379852
 51
292.620148
  0
POLYLINE
  8
LAYER-1
  6
LTYPE01
 66
  1
 70
  0
 62
  7
  6
LTYPE01
 10
49.542743
 20
48.396653
 30
0.000000
  0
VERTEX
  8
LAYER-1
  6
LTYPE01
 10
49.542743
 20
48.396653
 30
0.000000
  0
VERTEX
  8
LAYER-1
  6
LTYPE01
 10
50.605243
 20
48.396653
 30
0.000000
  0
SEQEND
  8
LAYER-1
  0
POLYLINE
  8
LAYER-1
  6
LTYPE01
 66
  1
 70
  0
 62
  7
  6
LTYPE01
 10
49.542743
 20
47.396649
 30
0.000000
  0
VERTEX
  8
LAYER-1
  6
LTYPE01
 10
49.542743
 20
47.396649
 30
0.000000
  0
VERTEX
  8
LAYER-1
  6
LTYPE01
 10
50.605243
 20
47.396649
 30
0.000000
  0
SEQEND
  8
LAYER-1
  0
POLYLINE
  8
LAYER-1
 66
  1
 70
  0
 62
  7
 10
50.605243
 20
47.233455
 30
0.000000
  0
VERTEX
  8
LAYER-1
 10
50.605243
 20
47.233455
 30
0.000000
  0
VERTEX
  8
LAYER-1
 10
50.605243
 20
48.563317
 30
0.000000
  0
SEQEND
  8
LAYER-1
  0
POLYLINE
  8
LAYER-1
 66
  1
 70
  0
 62
  7
 10
50.133019
 20
48.563317
 30
0.000000
  0
VERTEX
  8
LAYER-1
 10
50.133019
 20
48.563317
 30
0.000000
  0
VERTEX
  8
LAYER-1
 10
50.605243
 20
48.563317
 30
0.000000
  0
SEQEND
  8
LAYER-1
  0
POLYLINE
  8
LAYER-1
 66
  1
 70
  0
 62
  7
 10
50.133019
 20
47.233455
 30
0.000000
  0
VERTEX
  8
LAYER-1
 10
50.133019
 20
47.233455
 30
0.000000
  0
VERTEX
  8
LAYER-1
 10
50.605243
 20
47.233455
 30
0.000000
  0
SEQEND
  8
LAYER-1
  0
POLYLINE
  8
LAYER-1
 66
  1
 70
  1
 62
  7
  0
VERTEX
  8
LAYER-1
 10
50.285626
 20
47.233351
 30
0.000000
  0
VERTEX
  8
LAYER-1
 10
50.529813
 20
47.233351
 30
0.000000
  0
VERTEX
  8
LAYER-1
 10
50.529813
 20
47.120098
 30
0.000000
  0
VERTEX
  8
LAYER-1
 10
50.285626
 20
47.120098
 30
0.000000
  0
SEQEND
  8
LAYER-1
  0
POLYLINE
  8
LAYER-1
  6
LTYPE01
 66
  1
 70
  0
 62
  7
  6
LTYPE01
 10
50.526884
 20
48.139940
 30
0.000000
  0
VERTEX
  8
LAYER-1
  6
LTYPE01
 10
50.526884
 20
48.139940
 30
0.000000
  0
VERTEX
  8
LAYER-1
  6
LTYPE01
 10
50.491291
 20
48.214820
 30
0.000000
  0
VERTEX
  8
LAYER-1
  6
LTYPE01
 10
50.405358
 20
48.245840
 30
0.000000
  0
VERTEX
  8
LAYER-1
  6
LTYPE01
 10
50.319425
 20
48.214820
 30
0.000000
  0
VERTEX
  8
LAYER-1
  6
LTYPE01
 10
50.283828
 20
48.139940
 30
0.000000
  0
VERTEX
  8
LAYER-1
  6
LTYPE01
 10
50.319425
 20
48.065054
 30
0.000000
  0
VERTEX
  8
LAYER-1
  6
LTYPE01
 10
50.405358
 20
48.034034
 30
0.000000
  0
VERTEX
  8
LAYER-1
  6
LTYPE01
 10
50.491291
 20
48.065054
 30
0.000000
  0
VERTEX
  8
LAYER-1
  6
LTYPE01
 10
50.526884
 20
48.139940
 30
0.000000
  0
SEQEND
  8
LAYER-1
  0
POLYLINE
  8
LAYER-1
  6
LTYPE01
 66
  1
 70
  0
 62
  7
  6
LTYPE01
 10
50.285626
 20
47.233351
 30
0.000000
  0
VERTEX
  8
LAYER-1
  6
LTYPE01
 10
50.285626
 20
47.233351
 30
0.000000
  0
VERTEX
  8
LAYER-1
  6
LTYPE01
 10
50.285626
 20
47.396649
 30
0.000000
  0
SEQEND
  8
LAYER-1
  0
POLYLINE
  8
LAYER-1
  6
LTYPE01
 66
  1
 70
  0
 62
  7
  6
LTYPE01
 10
50.529813
 20
47.233351
 30
0.000000
  0
VERTEX
  8
LAYER-1
  6
LTYPE01
 10
50.529813
 20
47.233351
 30
0.000000
  0
VERTEX
  8
LAYER-1
  6
LTYPE01
 10
50.529813
 20
47.396649
 30
0.000000
  0
SEQEND
  8
LAYER-1
  0
POLYLINE
  8
LAYER-1
 66
  1
 70
  0
 62
  7
 10
49.768170
 20
48.094567
 30
0.000000
  0
VERTEX
  8
LAYER-1
 10
49.768170
 20
48.094567
 30
0.000000
  0
VERTEX
  8
LAYER-1
 10
49.573726
 20
48.094567
 30
0.000000
  0
SEQEND
  8
LAYER-1
  0
POLYLINE
  8
LAYER-1
 66
  1
 70
  0
 62
  7
 10
49.768170
 20
47.705679
 30
0.000000
  0
VERTEX
  8
LAYER-1
 10
49.768170
 20
47.705679
 30
0.000000
  0
VERTEX
  8
LAYER-1
 10
49.573726
 20
47.705679
 30
0.000000
  0
SEQEND
  8
LAYER-1
  0
POLYLINE
  8
LAYER-1
 66
  1
 70
  0
 62
  7
 10
49.684176
 20
47.799424
 30
0.000000
  0
VERTEX
  8
LAYER-1
 10
49.684176
 20
47.799424
 30
0.000000
  0
VERTEX
  8
LAYER-1
 10
49.684176
 20
48.046819
 30
0.000000
  0
SEQEND
  8
LAYER-1
  0
POLYLINE
  8
LAYER-1
 66
  1
 70
  0
 62
  7
 10
48.895630
 20
48.040673
 30
0.000000
  0
VERTEX
  8
LAYER-1
 10
48.895630
 20
48.040673
 30
0.000000
  0
VERTEX
  8
LAYER-1
 10
48.895630
 20
47.798415
 30
0.000000
  0
SEQEND
  8
LAYER-1
  0
POLYLINE
  8
LAYER-1
 66
  1
 70
  0
 62
  7
 10
48.907659
 20
47.798415
 30
0.000000
  0
VERTEX
  8
LAYER-1
 10
48.907659
 20
47.798415
 30
0.000000
  0
VERTEX
  8
LAYER-1
 10
48.895630
 20
47.798415
 30
0.000000
  0
SEQEND
  8
LAYER-1
  0
POLYLINE
  8
LAYER-1
 66
  1
 70
  0
 62
  7
 10
48.940768
 20
48.040673
 30
0.000000
  0
VERTEX
  8
LAYER-1
 10
48.940768
 20
48.040673
 30
0.000000
  0
VERTEX
  8
LAYER-1
 10
48.895630
 20
48.040673
 30
0.000000
  0
SEQEND
  8
LAYER-1
  0
POLYLINE
  8
LAYER-1
 66
  1
 70
  0
 62
  7
 10
49.683533
 20
48.041466
 30
0.000000
  0
VERTEX
  8
LAYER-1
 10
49.683533
 20
48.041466
 30
0.000000
  0
VERTEX
  8
LAYER-1
 10
49.671382
 20
48.071852
 30
0.000000
  0
SEQEND
  8
LAYER-1
  0
POLYLINE
  8
LAYER-1
 66
  1
 70
  0
 62
  7
 10
49.671382
 20
48.071852
 30
0.000000
  0
VERTEX
  8
LAYER-1
 10
49.671382
 20
48.071852
 30
0.000000
  0
VERTEX
  8
LAYER-1
 10
49.652142
 20
48.071852
 30
0.000000
  0
SEQEND
  8
LAYER-1
  0
POLYLINE
  8
LAYER-1
 66
  1
 70
  0
 62
  7
 10
49.684176
 20
47.799424
 30
0.000000
  0
VERTEX
  8
LAYER-1
 10
49.684176
 20
47.799424
 30
0.000000
  0
VERTEX
  8
LAYER-1
 10
49.655527
 20
47.799424
 30
0.000000
  0
SEQEND
  8
LAYER-1
  0
POLYLINE
  8
LAYER-1
 66
  1
 70
  0
 62
  7
 10
49.652142
 20
48.071852
 30
0.000000
  0
VERTEX
  8
LAYER-1
 10
49.652142
 20
48.071852
 30
0.000000
  0
VERTEX
  8
LAYER-1
 10
49.628845
 20
47.762968
 30
0.000000
  0
SEQEND
  8
LAYER-1
  0
POLYLINE
  8
LAYER-1
 66
  1
 70
  0
 62
  7
 10
49.628845
 20
47.762968
 30
0.000000
  0
VERTEX
  8
LAYER-1
 10
49.628845
 20
47.762968
 30
0.000000
  0
VERTEX
  8
LAYER-1
 10
49.650114
 20
47.762968
 30
0.000000
  0
SEQEND
  8
LAYER-1
  0
POLYLINE
  8
LAYER-1
 66
  1
 70
  0
 62
  7
 10
49.650114
 20
47.762968
 30
0.000000
  0
VERTEX
  8
LAYER-1
 10
49.650114
 20
47.762968
 30
0.000000
  0
VERTEX
  8
LAYER-1
 10
49.671382
 20
48.071852
 30
0.000000
  0
SEQEND
  8
LAYER-1
  0
POLYLINE
  8
LAYER-1
 66
  1
 70
  0
 62
  7
 10
49.650114
 20
47.762968
 30
0.000000
  0
VERTEX
  8
LAYER-1
 10
49.650114
 20
47.762968
 30
0.000000
  0
VERTEX
  8
LAYER-1
 10
49.684176
 20
48.046819
 30
0.000000
  0
SEQEND
  8
LAYER-1
  0
POLYLINE
  8
LAYER-1
 66
  1
 70
  0
 62
  7
 10
49.628845
 20
47.762968
 30
0.000000
  0
VERTEX
  8
LAYER-1
 10
49.628845
 20
47.762968
 30
0.000000
  0
VERTEX
  8
LAYER-1
 10
49.615680
 20
47.798415
 30
0.000000
  0
SEQEND
  8
LAYER-1
  0
POLYLINE
  8
LAYER-1
 66
  1
 70
  0
 62
  7
 10
49.615680
 20
47.798415
 30
0.000000
  0
VERTEX
  8
LAYER-1
 10
49.615680
 20
47.798415
 30
0.000000
  0
VERTEX
  8
LAYER-1
 10
49.652142
 20
48.071852
 30
0.000000
  0
SEQEND
  8
LAYER-1
  0
POLYLINE
  8
LAYER-1
 66
  1
 70
  0
 62
  7
 10
49.647827
 20
48.041466
 30
0.000000
  0
VERTEX
  8
LAYER-1
 10
49.647827
 20
48.041466
 30
0.000000
  0
VERTEX
  8
LAYER-1
 10
49.624540
 20
48.041466
 30
0.000000
  0
SEQEND
  8
LAYER-1
  0
POLYLINE
  8
LAYER-1
 66
  1
 70
  0
 62
  7
 10
49.624540
 20
48.041466
 30
0.000000
  0
VERTEX
  8
LAYER-1
 10
49.624540
 20
48.041466
 30
0.000000
  0
VERTEX
  8
LAYER-1
 10
49.612380
 20
48.071852
 30
0.000000
  0
SEQEND
  8
LAYER-1
  0
POLYLINE
  8
LAYER-1
 66
  1
 70
  0
 62
  7
 10
49.612380
 20
48.071852
 30
0.000000
  0
VERTEX
  8
LAYER-1
 10
49.612380
 20
48.071852
 30
0.000000
  0
VERTEX
  8
LAYER-1
 10
49.593140
 20
48.071852
 30
0.000000
  0
SEQEND
  8
LAYER-1
  0
POLYLINE
  8
LAYER-1
 66
  1
 70
  0
 62
  7
 10
49.618455
 20
47.799424
 30
0.000000
  0
VERTEX
  8
LAYER-1
 10
49.618455
 20
47.799424
 30
0.000000
  0
VERTEX
  8
LAYER-1
 10
49.596177
 20
47.799424
 30
0.000000
  0
SEQEND
  8
LAYER-1
  0
POLYLINE
  8
LAYER-1
 66
  1
 70
  0
 62
  7
 10
49.593140
 20
48.071852
 30
0.000000
  0
VERTEX
  8
LAYER-1
 10
49.593140
 20
48.071852
 30
0.000000
  0
VERTEX
  8
LAYER-1
 10
49.569852
 20
47.762968
 30
0.000000
  0
SEQEND
  8
LAYER-1
  0
POLYLINE
  8
LAYER-1
 66
  1
 70
  0
 62
  7
 10
49.569852
 20
47.762968
 30
0.000000
  0
VERTEX
  8
LAYER-1
 10
49.569852
 20
47.762968
 30
0.000000
  0
VERTEX
  8
LAYER-1
 10
49.591111
 20
47.762968
 30
0.000000
  0
SEQEND
  8
LAYER-1
  0
POLYLINE
  8
LAYER-1
 66
  1
 70
  0
 62
  7
 10
49.591111
 20
47.762968
 30
0.000000
  0
VERTEX
  8
LAYER-1
 10
49.591111
 20
47.762968
 30
0.000000
  0
VERTEX
  8
LAYER-1
 10
49.612380
 20
48.071852
 30
0.000000
  0
SEQEND
  8
LAYER-1
  0
POLYLINE
  8
LAYER-1
 66
  1
 70
  0
 62
  7
 10
49.624540
 20
48.041466
 30
0.000000
  0
VERTEX
  8
LAYER-1
 10
49.624540
 20
48.041466
 30
0.000000
  0
VERTEX
  8
LAYER-1
 10
49.591111
 20
47.762968
 30
0.000000
  0
SEQEND
  8
LAYER-1
  0
POLYLINE
  8
LAYER-1
 66
  1
 70
  0
 62
  7
 10
49.569852
 20
47.762968
 30
0.000000
  0
VERTEX
  8
LAYER-1
 10
49.569852
 20
47.762968
 30
0.000000
  0
VERTEX
  8
LAYER-1
 10
49.556688
 20
47.798415
 30
0.000000
  0
SEQEND
  8
LAYER-1
  0
POLYLINE
  8
LAYER-1
 66
  1
 70
  0
 62
  7
 10
49.556688
 20
47.798415
 30
0.000000
  0
VERTEX
  8
LAYER-1
 10
49.556688
 20
47.798415
 30
0.000000
  0
VERTEX
  8
LAYER-1
 10
49.593140
 20
48.071852
 30
0.000000
  0
SEQEND
  8
LAYER-1
  0
POLYLINE
  8
LAYER-1
 66
  1
 70
  0
 62
  7
 10
49.588830
 20
48.041466
 30
0.000000
  0
VERTEX
  8
LAYER-1
 10
49.588830
 20
48.041466
 30
0.000000
  0
VERTEX
  8
LAYER-1
 10
49.565538
 20
48.041466
 30
0.000000
  0
SEQEND
  8
LAYER-1
  0
POLYLINE
  8
LAYER-1
 66
  1
 70
  0
 62
  7
 10
49.565538
 20
48.041466
 30
0.000000
  0
VERTEX
  8
LAYER-1
 10
49.565538
 20
48.041466
 30
0.000000
  0
VERTEX
  8
LAYER-1
 10
49.553378
 20
48.071852
 30
0.000000
  0
SEQEND
  8
LAYER-1
  0
POLYLINE
  8
LAYER-1
 66
  1
 70
  0
 62
  7
 10
49.553378
 20
48.071852
 30
0.000000
  0
VERTEX
  8
LAYER-1
 10
49.553378
 20
48.071852
 30
0.000000
  0
VERTEX
  8
LAYER-1
 10
49.534142
 20
48.071852
 30
0.000000
  0
SEQEND
  8
LAYER-1
  0
POLYLINE
  8
LAYER-1
 66
  1
 70
  0
 62
  7
 10
49.559462
 20
47.799424
 30
0.000000
  0
VERTEX
  8
LAYER-1
 10
49.559462
 20
47.799424
 30
0.000000
  0
VERTEX
  8
LAYER-1
 10
49.537180
 20
47.799424
 30
0.000000
  0
SEQEND
  8
LAYER-1
  0
POLYLINE
  8
LAYER-1
 66
  1
 70
  0
 62
  7
 10
49.534142
 20
48.071852
 30
0.000000
  0
VERTEX
  8
LAYER-1
 10
49.534142
 20
48.071852
 30
0.000000
  0
VERTEX
  8
LAYER-1
 10
49.510850
 20
47.762968
 30
0.000000
  0
SEQEND
  8
LAYER-1
  0
POLYLINE
  8
LAYER-1
 66
  1
 70
  0
 62
  7
 10
49.510850
 20
47.762968
 30
0.000000
  0
VERTEX
  8
LAYER-1
 10
49.510850
 20
47.762968
 30
0.000000
  0
VERTEX
  8
LAYER-1
 10
49.532119
 20
47.762968
 30
0.000000
  0
SEQEND
  8
LAYER-1
  0
POLYLINE
  8
LAYER-1
 66
  1
 70
  0
 62
  7
 10
49.532119
 20
47.762968
 30
0.000000
  0
VERTEX
  8
LAYER-1
 10
49.532119
 20
47.762968
 30
0.000000
  0
VERTEX
  8
LAYER-1
 10
49.553378
 20
48.071852
 30
0.000000
  0
SEQEND
  8
LAYER-1
  0
POLYLINE
  8
LAYER-1
 66
  1
 70
  0
 62
  7
 10
49.565538
 20
48.041466
 30
0.000000
  0
VERTEX
  8
LAYER-1
 10
49.565538
 20
48.041466
 30
0.000000
  0
VERTEX
  8
LAYER-1
 10
49.532119
 20
47.762968
 30
0.000000
  0
SEQEND
  8
LAYER-1
  0
POLYLINE
  8
LAYER-1
 66
  1
 70
  0
 62
  7
 10
49.510850
 20
47.762968
 30
0.000000
  0
VERTEX
  8
LAYER-1
 10
49.510850
 20
47.762968
 30
0.000000
  0
VERTEX
  8
LAYER-1
 10
49.497685
 20
47.798415
 30
0.000000
  0
SEQEND
  8
LAYER-1
  0
POLYLINE
  8
LAYER-1
 66
  1
 70
  0
 62
  7
 10
49.497685
 20
47.798415
 30
0.000000
  0
VERTEX
  8
LAYER-1
 10
49.497685
 20
47.798415
 30
0.000000
  0
VERTEX
  8
LAYER-1
 10
49.534142
 20
48.071852
 30
0.000000
  0
SEQEND
  8
LAYER-1
  0
POLYLINE
  8
LAYER-1
 66
  1
 70
  0
 62
  7
 10
49.529827
 20
48.041466
 30
0.000000
  0
VERTEX
  8
LAYER-1
 10
49.529827
 20
48.041466
 30
0.000000
  0
VERTEX
  8
LAYER-1
 10
49.506535
 20
48.041466
 30
0.000000
  0
SEQEND
  8
LAYER-1
  0
POLYLINE
  8
LAYER-1
 66
  1
 70
  0
 62
  7
 10
49.506535
 20
48.041466
 30
0.000000
  0
VERTEX
  8
LAYER-1
 10
49.506535
 20
48.041466
 30
0.000000
  0
VERTEX
  8
LAYER-1
 10
49.494385
 20
48.071852
 30
0.000000
  0
SEQEND
  8
LAYER-1
  0
POLYLINE
  8
LAYER-1
 66
  1
 70
  0
 62
  7
 10
49.494385
 20
48.071852
 30
0.000000
  0
VERTEX
  8
LAYER-1
 10
49.494385
 20
48.071852
 30
0.000000
  0
VERTEX
  8
LAYER-1
 10
49.475140
 20
48.071852
 30
0.000000
  0
SEQEND
  8
LAYER-1
  0
POLYLINE
  8
LAYER-1
 66
  1
 70
  0
 62
  7
 10
49.500460
 20
47.799424
 30
0.000000
  0
VERTEX
  8
LAYER-1
 10
49.500460
 20
47.799424
 30
0.000000
  0
VERTEX
  8
LAYER-1
 10
49.478178
 20
47.799424
 30
0.000000
  0
SEQEND
  8
LAYER-1
  0
POLYLINE
  8
LAYER-1
 66
  1
 70
  0
 62
  7
 10
49.475140
 20
48.071852
 30
0.000000
  0
VERTEX
  8
LAYER-1
 10
49.475140
 20
48.071852
 30
0.000000
  0
VERTEX
  8
LAYER-1
 10
49.451848
 20
47.762968
 30
0.000000
  0
SEQEND
  8
LAYER-1
  0
POLYLINE
  8
LAYER-1
 66
  1
 70
  0
 62
  7
 10
49.451848
 20
47.762968
 30
0.000000
  0
VERTEX
  8
LAYER-1
 10
49.451848
 20
47.762968
 30
0.000000
  0
VERTEX
  8
LAYER-1
 10
49.473116
 20
47.762968
 30
0.000000
  0
SEQEND
  8
LAYER-1
  0
POLYLINE
  8
LAYER-1
 66
  1
 70
  0
 62
  7
 10
49.473116
 20
47.762968
 30
0.000000
  0
VERTEX
  8
LAYER-1
 10
49.473116
 20
47.762968
 30
0.000000
  0
VERTEX
  8
LAYER-1
 10
49.494385
 20
48.071852
 30
0.000000
  0
SEQEND
  8
LAYER-1
  0
POLYLINE
  8
LAYER-1
 66
  1
 70
  0
 62
  7
 10
49.506535
 20
48.041466
 30
0.000000
  0
VERTEX
  8
LAYER-1
 10
49.506535
 20
48.041466
 30
0.000000
  0
VERTEX
  8
LAYER-1
 10
49.473116
 20
47.762968
 30
0.000000
  0
SEQEND
  8
LAYER-1
  0
POLYLINE
  8
LAYER-1
 66
  1
 70
  0
 62
  7
 10
49.451848
 20
47.762968
 30
0.000000
  0
VERTEX
  8
LAYER-1
 10
49.451848
 20
47.762968
 30
0.000000
  0
VERTEX
  8
LAYER-1
 10
49.438683
 20
47.798415
 30
0.000000
  0
SEQEND
  8
LAYER-1
  0
POLYLINE
  8
LAYER-1
 66
  1
 70
  0
 62
  7
 10
49.438683
 20
47.798415
 30
0.000000
  0
VERTEX
  8
LAYER-1
 10
49.438683
 20
47.798415
 30
0.000000
  0
VERTEX
  8
LAYER-1
 10
49.475140
 20
48.071852
 30
0.000000
  0
SEQEND
  8
LAYER-1
  0
POLYLINE
  8
LAYER-1
 66
  1
 70
  0
 62
  7
 10
49.470825
 20
48.041466
 30
0.000000
  0
VERTEX
  8
LAYER-1
 10
49.470825
 20
48.041466
 30
0.000000
  0
VERTEX
  8
LAYER-1
 10
49.447533
 20
48.041466
 30
0.000000
  0
SEQEND
  8
LAYER-1
  0
POLYLINE
  8
LAYER-1
 66
  1
 70
  0
 62
  7
 10
49.447533
 20
48.041466
 30
0.000000
  0
VERTEX
  8
LAYER-1
 10
49.447533
 20
48.041466
 30
0.000000
  0
VERTEX
  8
LAYER-1
 10
49.435383
 20
48.071852
 30
0.000000
  0
SEQEND
  8
LAYER-1
  0
POLYLINE
  8
LAYER-1
 66
  1
 70
  0
 62
  7
 10
49.435383
 20
48.071852
 30
0.000000
  0
VERTEX
  8
LAYER-1
 10
49.435383
 20
48.071852
 30
0.000000
  0
VERTEX
  8
LAYER-1
 10
49.416138
 20
48.071852
 30
0.000000
  0
SEQEND
  8
LAYER-1
  0
POLYLINE
  8
LAYER-1
 66
  1
 70
  0
 62
  7
 10
49.441458
 20
47.799424
 30
0.000000
  0
VERTEX
  8
LAYER-1
 10
49.441458
 20
47.799424
 30
0.000000
  0
VERTEX
  8
LAYER-1
 10
49.419175
 20
47.799424
 30
0.000000
  0
SEQEND
  8
LAYER-1
  0
POLYLINE
  8
LAYER-1
 66
  1
 70
  0
 62
  7
 10
49.416138
 20
48.071852
 30
0.000000
  0
VERTEX
  8
LAYER-1
 10
49.416138
 20
48.071852
 30
0.000000
  0
VERTEX
  8
LAYER-1
 10
49.392846
 20
47.762968
 30
0.000000
  0
SEQEND
  8
LAYER-1
  0
POLYLINE
  8
LAYER-1
 66
  1
 70
  0
 62
  7
 10
49.392846
 20
47.762968
 30
0.000000
  0
VERTEX
  8
LAYER-1
 10
49.392846
 20
47.762968
 30
0.000000
  0
VERTEX
  8
LAYER-1
 10
49.414114
 20
47.762968
 30
0.000000
  0
SEQEND
  8
LAYER-1
  0
POLYLINE
  8
LAYER-1
 66
  1
 70
  0
 62
  7
 10
49.414114
 20
47.762968
 30
0.000000
  0
VERTEX
  8
LAYER-1
 10
49.414114
 20
47.762968
 30
0.000000
  0
VERTEX
  8
LAYER-1
 10
49.435383
 20
48.071852
 30
0.000000
  0
SEQEND
  8
LAYER-1
  0
POLYLINE
  8
LAYER-1
 66
  1
 70
  0
 62
  7
 10
49.447533
 20
48.041466
 30
0.000000
  0
VERTEX
  8
LAYER-1
 10
49.447533
 20
48.041466
 30
0.000000
  0
VERTEX
  8
LAYER-1
 10
49.414114
 20
47.762968
 30
0.000000
  0
SEQEND
  8
LAYER-1
  0
POLYLINE
  8
LAYER-1
 66
  1
 70
  0
 62
  7
 10
49.392846
 20
47.762968
 30
0.000000
  0
VERTEX
  8
LAYER-1
 10
49.392846
 20
47.762968
 30
0.000000
  0
VERTEX
  8
LAYER-1
 10
49.379681
 20
47.798415
 30
0.000000
  0
SEQEND
  8
LAYER-1
  0
POLYLINE
  8
LAYER-1
 66
  1
 70
  0
 62
  7
 10
49.379681
 20
47.798415
 30
0.000000
  0
VERTEX
  8
LAYER-1
 10
49.379681
 20
47.798415
 30
0.000000
  0
VERTEX
  8
LAYER-1
 10
49.416138
 20
48.071852
 30
0.000000
  0
SEQEND
  8
LAYER-1
  0
POLYLINE
  8
LAYER-1
 66
  1
 70
  0
 62
  7
 10
49.411823
 20
48.041466
 30
0.000000
  0
VERTEX
  8
LAYER-1
 10
49.411823
 20
48.041466
 30
0.000000
  0
VERTEX
  8
LAYER-1
 10
49.388531
 20
48.041466
 30
0.000000
  0
SEQEND
  8
LAYER-1
  0
POLYLINE
  8
LAYER-1
 66
  1
 70
  0
 62
  7
 10
49.388531
 20
48.041466
 30
0.000000
  0
VERTEX
  8
LAYER-1
 10
49.388531
 20
48.041466
 30
0.000000
  0
VERTEX
  8
LAYER-1
 10
49.376385
 20
48.071852
 30
0.000000
  0
SEQEND
  8
LAYER-1
  0
POLYLINE
  8
LAYER-1
 66
  1
 70
  0
 62
  7
 10
49.376385
 20
48.071852
 30
0.000000
  0
VERTEX
  8
LAYER-1
 10
49.376385
 20
48.071852
 30
0.000000
  0
VERTEX
  8
LAYER-1
 10
49.357145
 20
48.071852
 30
0.000000
  0
SEQEND
  8
LAYER-1
  0
POLYLINE
  8
LAYER-1
 66
  1
 70
  0
 62
  7
 10
49.382456
 20
47.799424
 30
0.000000
  0
VERTEX
  8
LAYER-1
 10
49.382456
 20
47.799424
 30
0.000000
  0
VERTEX
  8
LAYER-1
 10
49.360183
 20
47.799424
 30
0.000000
  0
SEQEND
  8
LAYER-1
  0
POLYLINE
  8
LAYER-1
 66
  1
 70
  0
 62
  7
 10
49.357145
 20
48.071852
 30
0.000000
  0
VERTEX
  8
LAYER-1
 10
49.357145
 20
48.071852
 30
0.000000
  0
VERTEX
  8
LAYER-1
 10
49.333844
 20
47.762968
 30
0.000000
  0
SEQEND
  8
LAYER-1
  0
POLYLINE
  8
LAYER-1
 66
  1
 70
  0
 62
  7
 10
49.333844
 20
47.762968
 30
0.000000
  0
VERTEX
  8
LAYER-1
 10
49.333844
 20
47.762968
 30
0.000000
  0
VERTEX
  8
LAYER-1
 10
49.355112
 20
47.762968
 30
0.000000
  0
SEQEND
  8
LAYER-1
  0
POLYLINE
  8
LAYER-1
 66
  1
 70
  0
 62
  7
 10
49.355112
 20
47.762968
 30
0.000000
  0
VERTEX
  8
LAYER-1
 10
49.355112
 20
47.762968
 30
0.000000
  0
VERTEX
  8
LAYER-1
 10
49.376385
 20
48.071852
 30
0.000000
  0
SEQEND
  8
LAYER-1
  0
POLYLINE
  8
LAYER-1
 66
  1
 70
  0
 62
  7
 10
49.388531
 20
48.041466
 30
0.000000
  0
VERTEX
  8
LAYER-1
 10
49.388531
 20
48.041466
 30
0.000000
  0
VERTEX
  8
LAYER-1
 10
49.355112
 20
47.762968
 30
0.000000
  0
SEQEND
  8
LAYER-1
  0
POLYLINE
  8
LAYER-1
 66
  1
 70
  0
 62
  7
 10
49.333844
 20
47.762968
 30
0.000000
  0
VERTEX
  8
LAYER-1
 10
49.333844
 20
47.762968
 30
0.000000
  0
VERTEX
  8
LAYER-1
 10
49.320679
 20
47.798415
 30
0.000000
  0
SEQEND
  8
LAYER-1
  0
POLYLINE
  8
LAYER-1
 66
  1
 70
  0
 62
  7
 10
49.320679
 20
47.798415
 30
0.000000
  0
VERTEX
  8
LAYER-1
 10
49.320679
 20
47.798415
 30
0.000000
  0
VERTEX
  8
LAYER-1
 10
49.357145
 20
48.071852
 30
0.000000
  0
SEQEND
  8
LAYER-1
  0
POLYLINE
  8
LAYER-1
 66
  1
 70
  0
 62
  7
 10
49.352830
 20
48.041466
 30
0.000000
  0
VERTEX
  8
LAYER-1
 10
49.352830
 20
48.041466
 30
0.000000
  0
VERTEX
  8
LAYER-1
 10
49.329538
 20
48.041466
 30
0.000000
  0
SEQEND
  8
LAYER-1
  0
POLYLINE
  8
LAYER-1
 66
  1
 70
  0
 62
  7
 10
49.329538
 20
48.041466
 30
0.000000
  0
VERTEX
  8
LAYER-1
 10
49.329538
 20
48.041466
 30
0.000000
  0
VERTEX
  8
LAYER-1
 10
49.317383
 20
48.071852
 30
0.000000
  0
SEQEND
  8
LAYER-1
  0
POLYLINE
  8
LAYER-1
 66
  1
 70
  0
 62
  7
 10
49.317383
 20
48.071852
 30
0.000000
  0
VERTEX
  8
LAYER-1
 10
49.317383
 20
48.071852
 30
0.000000
  0
VERTEX
  8
LAYER-1
 10
49.298143
 20
48.071852
 30
0.000000
  0
SEQEND
  8
LAYER-1
  0
POLYLINE
  8
LAYER-1
 66
  1
 70
  0
 62
  7
 10
49.323458
 20
47.799424
 30
0.000000
  0
VERTEX
  8
LAYER-1
 10
49.323458
 20
47.799424
 30
0.000000
  0
VERTEX
  8
LAYER-1
 10
49.301180
 20
47.799424
 30
0.000000
  0
SEQEND
  8
LAYER-1
  0
POLYLINE
  8
LAYER-1
 66
  1
 70
  0
 62
  7
 10
49.298143
 20
48.071852
 30
0.000000
  0
VERTEX
  8
LAYER-1
 10
49.298143
 20
48.071852
 30
0.000000
  0
VERTEX
  8
LAYER-1
 10
49.274851
 20
47.762968
 30
0.000000
  0
SEQEND
  8
LAYER-1
  0
POLYLINE
  8
LAYER-1
 66
  1
 70
  0
 62
  7
 10
49.274851
 20
47.762968
 30
0.000000
  0
VERTEX
  8
LAYER-1
 10
49.274851
 20
47.762968
 30
0.000000
  0
VERTEX
  8
LAYER-1
 10
49.296114
 20
47.762968
 30
0.000000
  0
SEQEND
  8
LAYER-1
  0
POLYLINE
  8
LAYER-1
 66
  1
 70
  0
 62
  7
 10
49.296114
 20
47.762968
 30
0.000000
  0
VERTEX
  8
LAYER-1
 10
49.296114
 20
47.762968
 30
0.000000
  0
VERTEX
  8
LAYER-1
 10
49.317383
 20
48.071852
 30
0.000000
  0
SEQEND
  8
LAYER-1
  0
POLYLINE
  8
LAYER-1
 66
  1
 70
  0
 62
  7
 10
49.329538
 20
48.041466
 30
0.000000
  0
VERTEX
  8
LAYER-1
 10
49.329538
 20
48.041466
 30
0.000000
  0
VERTEX
  8
LAYER-1
 10
49.296114
 20
47.762968
 30
0.000000
  0
SEQEND
  8
LAYER-1
  0
POLYLINE
  8
LAYER-1
 66
  1
 70
  0
 62
  7
 10
49.274851
 20
47.762968
 30
0.000000
  0
VERTEX
  8
LAYER-1
 10
49.274851
 20
47.762968
 30
0.000000
  0
VERTEX
  8
LAYER-1
 10
49.261686
 20
47.798415
 30
0.000000
  0
SEQEND
  8
LAYER-1
  0
POLYLINE
  8
LAYER-1
 66
  1
 70
  0
 62
  7
 10
49.261686
 20
47.798415
 30
0.000000
  0
VERTEX
  8
LAYER-1
 10
49.261686
 20
47.798415
 30
0.000000
  0
VERTEX
  8
LAYER-1
 10
49.298143
 20
48.071852
 30
0.000000
  0
SEQEND
  8
LAYER-1
  0
POLYLINE
  8
LAYER-1
 66
  1
 70
  0
 62
  7
 10
49.293828
 20
48.041466
 30
0.000000
  0
VERTEX
  8
LAYER-1
 10
49.293828
 20
48.041466
 30
0.000000
  0
VERTEX
  8
LAYER-1
 10
49.270536
 20
48.041466
 30
0.000000
  0
SEQEND
  8
LAYER-1
  0
POLYLINE
  8
LAYER-1
 66
  1
 70
  0
 62
  7
 10
49.270536
 20
48.041466
 30
0.000000
  0
VERTEX
  8
LAYER-1
 10
49.270536
 20
48.041466
 30
0.000000
  0
VERTEX
  8
LAYER-1
 10
49.258381
 20
48.071852
 30
0.000000
  0
SEQEND
  8
LAYER-1
  0
POLYLINE
  8
LAYER-1
 66
  1
 70
  0
 62
  7
 10
49.258381
 20
48.071852
 30
0.000000
  0
VERTEX
  8
LAYER-1
 10
49.258381
 20
48.071852
 30
0.000000
  0
VERTEX
  8
LAYER-1
 10
49.239140
 20
48.071852
 30
0.000000
  0
SEQEND
  8
LAYER-1
  0
POLYLINE
  8
LAYER-1
 66
  1
 70
  0
 62
  7
 10
49.264461
 20
47.799424
 30
0.000000
  0
VERTEX
  8
LAYER-1
 10
49.264461
 20
47.799424
 30
0.000000
  0
VERTEX
  8
LAYER-1
 10
49.242178
 20
47.799424
 30
0.000000
  0
SEQEND
  8
LAYER-1
  0
POLYLINE
  8
LAYER-1
 66
  1
 70
  0
 62
  7
 10
49.239140
 20
48.071852
 30
0.000000
  0
VERTEX
  8
LAYER-1
 10
49.239140
 20
48.071852
 30
0.000000
  0
VERTEX
  8
LAYER-1
 10
49.215848
 20
47.762968
 30
0.000000
  0
SEQEND
  8
LAYER-1
  0
POLYLINE
  8
LAYER-1
 66
  1
 70
  0
 62
  7
 10
49.215848
 20
47.762968
 30
0.000000
  0
VERTEX
  8
LAYER-1
 10
49.215848
 20
47.762968
 30
0.000000
  0
VERTEX
  8
LAYER-1
 10
49.237117
 20
47.762968
 30
0.000000
  0
SEQEND
  8
LAYER-1
  0
POLYLINE
  8
LAYER-1
 66
  1
 70
  0
 62
  7
 10
49.237117
 20
47.762968
 30
0.000000
  0
VERTEX
  8
LAYER-1
 10
49.237117
 20
47.762968
 30
0.000000
  0
VERTEX
  8
LAYER-1
 10
49.258381
 20
48.071852
 30
0.000000
  0
SEQEND
  8
LAYER-1
  0
POLYLINE
  8
LAYER-1
 66
  1
 70
  0
 62
  7
 10
49.270536
 20
48.041466
 30
0.000000
  0
VERTEX
  8
LAYER-1
 10
49.270536
 20
48.041466
 30
0.000000
  0
VERTEX
  8
LAYER-1
 10
49.237117
 20
47.762968
 30
0.000000
  0
SEQEND
  8
LAYER-1
  0
POLYLINE
  8
LAYER-1
 66
  1
 70
  0
 62
  7
 10
49.215848
 20
47.762968
 30
0.000000
  0
VERTEX
  8
LAYER-1
 10
49.215848
 20
47.762968
 30
0.000000
  0
VERTEX
  8
LAYER-1
 10
49.202684
 20
47.798415
 30
0.000000
  0
SEQEND
  8
LAYER-1
  0
POLYLINE
  8
LAYER-1
 66
  1
 70
  0
 62
  7
 10
49.202684
 20
47.798415
 30
0.000000
  0
VERTEX
  8
LAYER-1
 10
49.202684
 20
47.798415
 30
0.000000
  0
VERTEX
  8
LAYER-1
 10
49.239140
 20
48.071852
 30
0.000000
  0
SEQEND
  8
LAYER-1
  0
POLYLINE
  8
LAYER-1
 66
  1
 70
  0
 62
  7
 10
49.234826
 20
48.041466
 30
0.000000
  0
VERTEX
  8
LAYER-1
 10
49.234826
 20
48.041466
 30
0.000000
  0
VERTEX
  8
LAYER-1
 10
49.211538
 20
48.041466
 30
0.000000
  0
SEQEND
  8
LAYER-1
  0
POLYLINE
  8
LAYER-1
 66
  1
 70
  0
 62
  7
 10
49.211538
 20
48.041466
 30
0.000000
  0
VERTEX
  8
LAYER-1
 10
49.211538
 20
48.041466
 30
0.000000
  0
VERTEX
  8
LAYER-1
 10
49.199378
 20
48.071852
 30
0.000000
  0
SEQEND
  8
LAYER-1
  0
POLYLINE
  8
LAYER-1
 66
  1
 70
  0
 62
  7
 10
49.199378
 20
48.071852
 30
0.000000
  0
VERTEX
  8
LAYER-1
 10
49.199378
 20
48.071852
 30
0.000000
  0
VERTEX
  8
LAYER-1
 10
49.180138
 20
48.071852
 30
0.000000
  0
SEQEND
  8
LAYER-1
  0
POLYLINE
  8
LAYER-1
 66
  1
 70
  0
 62
  7
 10
49.205463
 20
47.799424
 30
0.000000
  0
VERTEX
  8
LAYER-1
 10
49.205463
 20
47.799424
 30
0.000000
  0
VERTEX
  8
LAYER-1
 10
49.183176
 20
47.799424
 30
0.000000
  0
SEQEND
  8
LAYER-1
  0
POLYLINE
  8
LAYER-1
 66
  1
 70
  0
 62
  7
 10
49.180138
 20
48.071852
 30
0.000000
  0
VERTEX
  8
LAYER-1
 10
49.180138
 20
48.071852
 30
0.000000
  0
VERTEX
  8
LAYER-1
 10
49.156851
 20
47.762968
 30
0.000000
  0
SEQEND
  8
LAYER-1
  0
POLYLINE
  8
LAYER-1
 66
  1
 70
  0
 62
  7
 10
49.156851
 20
47.762968
 30
0.000000
  0
VERTEX
  8
LAYER-1
 10
49.156851
 20
47.762968
 30
0.000000
  0
VERTEX
  8
LAYER-1
 10
49.178119
 20
47.762968
 30
0.000000
  0
SEQEND
  8
LAYER-1
  0
POLYLINE
  8
LAYER-1
 66
  1
 70
  0
 62
  7
 10
49.178119
 20
47.762968
 30
0.000000
  0
VERTEX
  8
LAYER-1
 10
49.178119
 20
47.762968
 30
0.000000
  0
VERTEX
  8
LAYER-1
 10
49.199378
 20
48.071852
 30
0.000000
  0
SEQEND
  8
LAYER-1
  0
POLYLINE
  8
LAYER-1
 66
  1
 70
  0
 62
  7
 10
49.211538
 20
48.041466
 30
0.000000
  0
VERTEX
  8
LAYER-1
 10
49.211538
 20
48.041466
 30
0.000000
  0
VERTEX
  8
LAYER-1
 10
49.178119
 20
47.762968
 30
0.000000
  0
SEQEND
  8
LAYER-1
  0
POLYLINE
  8
LAYER-1
 66
  1
 70
  0
 62
  7
 10
49.156851
 20
47.762968
 30
0.000000
  0
VERTEX
  8
LAYER-1
 10
49.156851
 20
47.762968
 30
0.000000
  0
VERTEX
  8
LAYER-1
 10
49.143686
 20
47.798415
 30
0.000000
  0
SEQEND
  8
LAYER-1
  0
POLYLINE
  8
LAYER-1
 66
  1
 70
  0
 62
  7
 10
49.143686
 20
47.798415
 30
0.000000
  0
VERTEX
  8
LAYER-1
 10
49.143686
 20
47.798415
 30
0.000000
  0
VERTEX
  8
LAYER-1
 10
49.180138
 20
48.071852
 30
0.000000
  0
SEQEND
  8
LAYER-1
  0
POLYLINE
  8
LAYER-1
 66
  1
 70
  0
 62
  7
 10
49.175828
 20
48.041466
 30
0.000000
  0
VERTEX
  8
LAYER-1
 10
49.175828
 20
48.041466
 30
0.000000
  0
VERTEX
  8
LAYER-1
 10
49.152536
 20
48.041466
 30
0.000000
  0
SEQEND
  8
LAYER-1
  0
POLYLINE
  8
LAYER-1
 66
  1
 70
  0
 62
  7
 10
49.152536
 20
48.041466
 30
0.000000
  0
VERTEX
  8
LAYER-1
 10
49.152536
 20
48.041466
 30
0.000000
  0
VERTEX
  8
LAYER-1
 10
49.140386
 20
48.071852
 30
0.000000
  0
SEQEND
  8
LAYER-1
  0
POLYLINE
  8
LAYER-1
 66
  1
 70
  0
 62
  7
 10
49.140386
 20
48.071852
 30
0.000000
  0
VERTEX
  8
LAYER-1
 10
49.140386
 20
48.071852
 30
0.000000
  0
VERTEX
  8
LAYER-1
 10
49.121141
 20
48.071852
 30
0.000000
  0
SEQEND
  8
LAYER-1
  0
POLYLINE
  8
LAYER-1
 66
  1
 70
  0
 62
  7
 10
49.146461
 20
47.799424
 30
0.000000
  0
VERTEX
  8
LAYER-1
 10
49.146461
 20
47.799424
 30
0.000000
  0
VERTEX
  8
LAYER-1
 10
49.124178
 20
47.799424
 30
0.000000
  0
SEQEND
  8
LAYER-1
  0
POLYLINE
  8
LAYER-1
 66
  1
 70
  0
 62
  7
 10
49.121141
 20
48.071852
 30
0.000000
  0
VERTEX
  8
LAYER-1
 10
49.121141
 20
48.071852
 30
0.000000
  0
VERTEX
  8
LAYER-1
 10
49.097849
 20
47.762968
 30
0.000000
  0
SEQEND
  8
LAYER-1
  0
POLYLINE
  8
LAYER-1
 66
  1
 70
  0
 62
  7
 10
49.097849
 20
47.762968
 30
0.000000
  0
VERTEX
  8
LAYER-1
 10
49.097849
 20
47.762968
 30
0.000000
  0
VERTEX
  8
LAYER-1
 10
49.119117
 20
47.762968
 30
0.000000
  0
SEQEND
  8
LAYER-1
  0
POLYLINE
  8
LAYER-1
 66
  1
 70
  0
 62
  7
 10
49.119117
 20
47.762968
 30
0.000000
  0
VERTEX
  8
LAYER-1
 10
49.119117
 20
47.762968
 30
0.000000
  0
VERTEX
  8
LAYER-1
 10
49.140386
 20
48.071852
 30
0.000000
  0
SEQEND
  8
LAYER-1
  0
POLYLINE
  8
LAYER-1
 66
  1
 70
  0
 62
  7
 10
49.152536
 20
48.041466
 30
0.000000
  0
VERTEX
  8
LAYER-1
 10
49.152536
 20
48.041466
 30
0.000000
  0
VERTEX
  8
LAYER-1
 10
49.119117
 20
47.762968
 30
0.000000
  0
SEQEND
  8
LAYER-1
  0
POLYLINE
  8
LAYER-1
 66
  1
 70
  0
 62
  7
 10
49.097849
 20
47.762968
 30
0.000000
  0
VERTEX
  8
LAYER-1
 10
49.097849
 20
47.762968
 30
0.000000
  0
VERTEX
  8
LAYER-1
 10
49.084684
 20
47.798415
 30
0.000000
  0
SEQEND
  8
LAYER-1
  0
POLYLINE
  8
LAYER-1
 66
  1
 70
  0
 62
  7
 10
49.084684
 20
47.798415
 30
0.000000
  0
VERTEX
  8
LAYER-1
 10
49.084684
 20
47.798415
 30
0.000000
  0
VERTEX
  8
LAYER-1
 10
49.121141
 20
48.071852
 30
0.000000
  0
SEQEND
  8
LAYER-1
  0
POLYLINE
  8
LAYER-1
 66
  1
 70
  0
 62
  7
 10
49.116826
 20
48.041466
 30
0.000000
  0
VERTEX
  8
LAYER-1
 10
49.116826
 20
48.041466
 30
0.000000
  0
VERTEX
  8
LAYER-1
 10
49.093534
 20
48.041466
 30
0.000000
  0
SEQEND
  8
LAYER-1
  0
POLYLINE
  8
LAYER-1
 66
  1
 70
  0
 62
  7
 10
49.093534
 20
48.041466
 30
0.000000
  0
VERTEX
  8
LAYER-1
 10
49.093534
 20
48.041466
 30
0.000000
  0
VERTEX
  8
LAYER-1
 10
49.081383
 20
48.071852
 30
0.000000
  0
SEQEND
  8
LAYER-1
  0
POLYLINE
  8
LAYER-1
 66
  1
 70
  0
 62
  7
 10
49.081383
 20
48.071852
 30
0.000000
  0
VERTEX
  8
LAYER-1
 10
49.081383
 20
48.071852
 30
0.000000
  0
VERTEX
  8
LAYER-1
 10
49.062143
 20
48.071852
 30
0.000000
  0
SEQEND
  8
LAYER-1
  0
POLYLINE
  8
LAYER-1
 66
  1
 70
  0
 62
  7
 10
49.087459
 20
47.799424
 30
0.000000
  0
VERTEX
  8
LAYER-1
 10
49.087459
 20
47.799424
 30
0.000000
  0
VERTEX
  8
LAYER-1
 10
49.065181
 20
47.799424
 30
0.000000
  0
SEQEND
  8
LAYER-1
  0
POLYLINE
  8
LAYER-1
 66
  1
 70
  0
 62
  7
 10
49.062143
 20
48.071852
 30
0.000000
  0
VERTEX
  8
LAYER-1
 10
49.062143
 20
48.071852
 30
0.000000
  0
VERTEX
  8
LAYER-1
 10
49.038847
 20
47.762968
 30
0.000000
  0
SEQEND
  8
LAYER-1
  0
POLYLINE
  8
LAYER-1
 66
  1
 70
  0
 62
  7
 10
49.038847
 20
47.762968
 30
0.000000
  0
VERTEX
  8
LAYER-1
 10
49.038847
 20
47.762968
 30
0.000000
  0
VERTEX
  8
LAYER-1
 10
49.060115
 20
47.762968
 30
0.000000
  0
SEQEND
  8
LAYER-1
  0
POLYLINE
  8
LAYER-1
 66
  1
 70
  0
 62
  7
 10
49.060115
 20
47.762968
 30
0.000000
  0
VERTEX
  8
LAYER-1
 10
49.060115
 20
47.762968
 30
0.000000
  0
VERTEX
  8
LAYER-1
 10
49.081383
 20
48.071852
 30
0.000000
  0
SEQEND
  8
LAYER-1
  0
POLYLINE
  8
LAYER-1
 66
  1
 70
  0
 62
  7
 10
49.093534
 20
48.041466
 30
0.000000
  0
VERTEX
  8
LAYER-1
 10
49.093534
 20
48.041466
 30
0.000000
  0
VERTEX
  8
LAYER-1
 10
49.060115
 20
47.762968
 30
0.000000
  0
SEQEND
  8
LAYER-1
  0
POLYLINE
  8
LAYER-1
 66
  1
 70
  0
 62
  7
 10
49.038847
 20
47.762968
 30
0.000000
  0
VERTEX
  8
LAYER-1
 10
49.038847
 20
47.762968
 30
0.000000
  0
VERTEX
  8
LAYER-1
 10
49.025682
 20
47.798415
 30
0.000000
  0
SEQEND
  8
LAYER-1
  0
POLYLINE
  8
LAYER-1
 66
  1
 70
  0
 62
  7
 10
49.025682
 20
47.798415
 30
0.000000
  0
VERTEX
  8
LAYER-1
 10
49.025682
 20
47.798415
 30
0.000000
  0
VERTEX
  8
LAYER-1
 10
49.062143
 20
48.071852
 30
0.000000
  0
SEQEND
  8
LAYER-1
  0
POLYLINE
  8
LAYER-1
 66
  1
 70
  0
 62
  7
 10
49.057833
 20
48.041466
 30
0.000000
  0
VERTEX
  8
LAYER-1
 10
49.057833
 20
48.041466
 30
0.000000
  0
VERTEX
  8
LAYER-1
 10
49.034541
 20
48.041466
 30
0.000000
  0
SEQEND
  8
LAYER-1
  0
POLYLINE
  8
LAYER-1
 66
  1
 70
  0
 62
  7
 10
49.034541
 20
48.041466
 30
0.000000
  0
VERTEX
  8
LAYER-1
 10
49.034541
 20
48.041466
 30
0.000000
  0
VERTEX
  8
LAYER-1
 10
49.022381
 20
48.071852
 30
0.000000
  0
SEQEND
  8
LAYER-1
  0
POLYLINE
  8
LAYER-1
 66
  1
 70
  0
 62
  7
 10
49.022381
 20
48.071852
 30
0.000000
  0
VERTEX
  8
LAYER-1
 10
49.022381
 20
48.071852
 30
0.000000
  0
VERTEX
  8
LAYER-1
 10
49.003146
 20
48.071852
 30
0.000000
  0
SEQEND
  8
LAYER-1
  0
POLYLINE
  8
LAYER-1
 66
  1
 70
  0
 62
  7
 10
49.028456
 20
47.799424
 30
0.000000
  0
VERTEX
  8
LAYER-1
 10
49.028456
 20
47.799424
 30
0.000000
  0
VERTEX
  8
LAYER-1
 10
49.006183
 20
47.799424
 30
0.000000
  0
SEQEND
  8
LAYER-1
  0
POLYLINE
  8
LAYER-1
 66
  1
 70
  0
 62
  7
 10
49.003146
 20
48.071852
 30
0.000000
  0
VERTEX
  8
LAYER-1
 10
49.003146
 20
48.071852
 30
0.000000
  0
VERTEX
  8
LAYER-1
 10
48.979854
 20
47.762968
 30
0.000000
  0
SEQEND
  8
LAYER-1
  0
POLYLINE
  8
LAYER-1
 66
  1
 70
  0
 62
  7
 10
48.979854
 20
47.762968
 30
0.000000
  0
VERTEX
  8
LAYER-1
 10
48.979854
 20
47.762968
 30
0.000000
  0
VERTEX
  8
LAYER-1
 10
49.001113
 20
47.762968
 30
0.000000
  0
SEQEND
  8
LAYER-1
  0
POLYLINE
  8
LAYER-1
 66
  1
 70
  0
 62
  7
 10
49.001113
 20
47.762968
 30
0.000000
  0
VERTEX
  8
LAYER-1
 10
49.001113
 20
47.762968
 30
0.000000
  0
VERTEX
  8
LAYER-1
 10
49.022381
 20
48.071852
 30
0.000000
  0
SEQEND
  8
LAYER-1
  0
POLYLINE
  8
LAYER-1
 66
  1
 70
  0
 62
  7
 10
49.034541
 20
48.041466
 30
0.000000
  0
VERTEX
  8
LAYER-1
 10
49.034541
 20
48.041466
 30
0.000000
  0
VERTEX
  8
LAYER-1
 10
49.001113
 20
47.762968
 30
0.000000
  0
SEQEND
  8
LAYER-1
  0
POLYLINE
  8
LAYER-1
 66
  1
 70
  0
 62
  7
 10
48.979854
 20
47.762968
 30
0.000000
  0
VERTEX
  8
LAYER-1
 10
48.979854
 20
47.762968
 30
0.000000
  0
VERTEX
  8
LAYER-1
 10
48.966679
 20
47.798415
 30
0.000000
  0
SEQEND
  8
LAYER-1
  0
POLYLINE
  8
LAYER-1
 66
  1
 70
  0
 62
  7
 10
48.966679
 20
47.798415
 30
0.000000
  0
VERTEX
  8
LAYER-1
 10
48.966679
 20
47.798415
 30
0.000000
  0
VERTEX
  8
LAYER-1
 10
49.003146
 20
48.071852
 30
0.000000
  0
SEQEND
  8
LAYER-1
  0
POLYLINE
  8
LAYER-1
 66
  1
 70
  0
 62
  7
 10
48.999798
 20
48.041936
 30
0.000000
  0
VERTEX
  8
LAYER-1
 10
48.999798
 20
48.041936
 30
0.000000
  0
VERTEX
  8
LAYER-1
 10
48.976501
 20
48.041936
 30
0.000000
  0
SEQEND
  8
LAYER-1
  0
POLYLINE
  8
LAYER-1
 66
  1
 70
  0
 62
  7
 10
48.976501
 20
48.041936
 30
0.000000
  0
VERTEX
  8
LAYER-1
 10
48.976501
 20
48.041936
 30
0.000000
  0
VERTEX
  8
LAYER-1
 10
48.964351
 20
48.072313
 30
0.000000
  0
SEQEND
  8
LAYER-1
  0
POLYLINE
  8
LAYER-1
 66
  1
 70
  0
 62
  7
 10
48.964351
 20
48.072313
 30
0.000000
  0
VERTEX
  8
LAYER-1
 10
48.964351
 20
48.072313
 30
0.000000
  0
VERTEX
  8
LAYER-1
 10
48.945111
 20
48.072313
 30
0.000000
  0
SEQEND
  8
LAYER-1
  0
POLYLINE
  8
LAYER-1
 66
  1
 70
  0
 62
  7
 10
48.970426
 20
47.799889
 30
0.000000
  0
VERTEX
  8
LAYER-1
 10
48.970426
 20
47.799889
 30
0.000000
  0
VERTEX
  8
LAYER-1
 10
48.948148
 20
47.799889
 30
0.000000
  0
SEQEND
  8
LAYER-1
  0
POLYLINE
  8
LAYER-1
 66
  1
 70
  0
 62
  7
 10
48.945111
 20
48.072313
 30
0.000000
  0
VERTEX
  8
LAYER-1
 10
48.945111
 20
48.072313
 30
0.000000
  0
VERTEX
  8
LAYER-1
 10
48.921814
 20
47.763437
 30
0.000000
  0
SEQEND
  8
LAYER-1
  0
POLYLINE
  8
LAYER-1
 66
  1
 70
  0
 62
  7
 10
48.921814
 20
47.763437
 30
0.000000
  0
VERTEX
  8
LAYER-1
 10
48.921814
 20
47.763437
 30
0.000000
  0
VERTEX
  8
LAYER-1
 10
48.943082
 20
47.763437
 30
0.000000
  0
SEQEND
  8
LAYER-1
  0
POLYLINE
  8
LAYER-1
 66
  1
 70
  0
 62
  7
 10
48.943082
 20
47.763437
 30
0.000000
  0
VERTEX
  8
LAYER-1
 10
48.943082
 20
47.763437
 30
0.000000
  0
VERTEX
  8
LAYER-1
 10
48.964351
 20
48.072313
 30
0.000000
  0
SEQEND
  8
LAYER-1
  0
POLYLINE
  8
LAYER-1
 66
  1
 70
  0
 62
  7
 10
48.976501
 20
48.041936
 30
0.000000
  0
VERTEX
  8
LAYER-1
 10
48.976501
 20
48.041936
 30
0.000000
  0
VERTEX
  8
LAYER-1
 10
48.943082
 20
47.763437
 30
0.000000
  0
SEQEND
  8
LAYER-1
  0
POLYLINE
  8
LAYER-1
 66
  1
 70
  0
 62
  7
 10
48.921814
 20
47.763437
 30
0.000000
  0
VERTEX
  8
LAYER-1
 10
48.921814
 20
47.763437
 30
0.000000
  0
VERTEX
  8
LAYER-1
 10
48.908654
 20
47.798875
 30
0.000000
  0
SEQEND
  8
LAYER-1
  0
POLYLINE
  8
LAYER-1
 66
  1
 70
  0
 62
  7
 10
48.908654
 20
47.798875
 30
0.000000
  0
VERTEX
  8
LAYER-1
 10
48.908654
 20
47.798875
 30
0.000000
  0
VERTEX
  8
LAYER-1
 10
48.945111
 20
48.072313
 30
0.000000
  0
SEQEND
  8
LAYER-1
  0
POLYLINE
  8
LAYER-1
 66
  1
 70
  1
 62
  7
  0
VERTEX
  8
LAYER-1
 10
49.683584
 20
48.083369
 30
0.000000
  0
VERTEX
  8
LAYER-1
 10
49.750606
 20
48.083369
 30
0.000000
  0
VERTEX
  8
LAYER-1
 10
49.750606
 20
47.757446
 30
0.000000
  0
VERTEX
  8
LAYER-1
 10
49.683584
 20
47.757446
 30
0.000000
  0
SEQEND
  8
LAYER-1
  0
POLYLINE
  8
LAYER-1
 66
  1
 70
  1
 62
  7
  0
VERTEX
  8
LAYER-1
 10
49.750606
 20
48.092614
 30
0.000000
  0
VERTEX
  8
LAYER-1
 10
49.917044
 20
48.092614
 30
0.000000
  0
VERTEX
  8
LAYER-1
 10
49.917044
 20
47.745887
 30
0.000000
  0
VERTEX
  8
LAYER-1
 10
49.750606
 20
47.745887
 30
0.000000
  0
SEQEND
  8
LAYER-1
  0
POLYLINE
  8
LAYER-1
 66
  1
 70
  0
 62
  7
 10
49.977154
 20
48.272912
 30
0.000000
  0
VERTEX
  8
LAYER-1
 10
49.977154
 20
48.272912
 30
0.000000
  0
VERTEX
  8
LAYER-1
 10
49.917044
 20
48.252113
 30
0.000000
  0
SEQEND
  8
LAYER-1
  0
POLYLINE
  8
LAYER-1
 66
  1
 70
  0
 62
  7
 10
49.917044
 20
47.588703
 30
0.000000
  0
VERTEX
  8
LAYER-1
 10
49.917044
 20
47.588703
 30
0.000000
  0
VERTEX
  8
LAYER-1
 10
49.917044
 20
48.252113
 30
0.000000
  0
SEQEND
  8
LAYER-1
  0
POLYLINE
  8
LAYER-1
 66
  1
 70
  0
 62
  7
 10
49.977154
 20
47.567899
 30
0.000000
  0
VERTEX
  8
LAYER-1
 10
49.977154
 20
47.567899
 30
0.000000
  0
VERTEX
  8
LAYER-1
 10
49.917044
 20
47.588703
 30
0.000000
  0
SEQEND
  8
LAYER-1
  0
POLYLINE
  8
LAYER-1
 66
  1
 70
  0
 62
  7
 10
49.977154
 20
47.567899
 30
0.000000
  0
VERTEX
  8
LAYER-1
 10
49.977154
 20
47.567899
 30
0.000000
  0
VERTEX
  8
LAYER-1
 10
49.977154
 20
48.272912
 30
0.000000
  0
SEQEND
  8
LAYER-1
  0
POLYLINE
  8
LAYER-1
 66
  1
 70
  0
 62
  7
 10
50.083477
 20
47.812923
 30
0.000000
  0
VERTEX
  8
LAYER-1
 10
50.083477
 20
47.812923
 30
0.000000
  0
VERTEX
  8
LAYER-1
 10
50.083477
 20
48.025583
 30
0.000000
  0
SEQEND
  8
LAYER-1
  0
POLYLINE
  8
LAYER-1
 66
  1
 70
  0
 62
  7
 10
50.083468
 20
48.025583
 30
0.000000
  0
VERTEX
  8
LAYER-1
 10
50.083468
 20
48.025583
 30
0.000000
  0
VERTEX
  8
LAYER-1
 10
50.026992
 20
48.199519
 30
0.000000
  0
VERTEX
  8
LAYER-1
 10
49.977140
 20
48.272921
 30
0.000000
  0
SEQEND
  8
LAYER-1
  0
POLYLINE
  8
LAYER-1
 66
  1
 70
  0
 62
  7
 10
49.977154
 20
47.567899
 30
0.000000
  0
VERTEX
  8
LAYER-1
 10
49.977154
 20
47.567899
 30
0.000000
  0
VERTEX
  8
LAYER-1
 10
50.079975
 20
47.807772
 30
0.000000
  0
VERTEX
  8
LAYER-1
 10
50.083482
 20
47.812923
 30
0.000000
  0
SEQEND
  8
LAYER-1
  0
POLYLINE
  8
LAYER-1
 66
  1
 70
  0
 62
  7
 10
49.769813
 20
49.275118
 30
0.000000
  0
VERTEX
  8
LAYER-1
 10
49.769813
 20
49.275118
 30
0.000000
  0
VERTEX
  8
LAYER-1
 10
49.769813
 20
46.525128
 30
0.000000
  0
SEQEND
  8
LAYER-1
  0
POLYLINE
  8
LAYER-1
 66
  1
 70
  0
 62
  7
 10
49.838590
 20
49.275118
 30
0.000000
  0
VERTEX
  8
LAYER-1
 10
49.838590
 20
49.275118
 30
0.000000
  0
VERTEX
  8
LAYER-1
 10
49.838590
 20
46.525128
 30
0.000000
  0
SEQEND
  8
LAYER-1
  0
POLYLINE
  8
LAYER-1
 66
  1
 70
  0
 62
  7
 10
49.533701
 20
46.872310
 30
0.000000
  0
VERTEX
  8
LAYER-1
 10
49.533701
 20
46.872310
 30
0.000000
  0
VERTEX
  8
LAYER-1
 10
49.533701
 20
48.927866
 30
0.000000
  0
SEQEND
  8
LAYER-1
  0
POLYLINE
  8
LAYER-1
 66
  1
 70
  0
 62
  7
 10
49.769813
 20
49.025090
 30
0.000000
  0
VERTEX
  8
LAYER-1
 10
49.769813
 20
49.025090
 30
0.000000
  0
VERTEX
  8
LAYER-1
 10
49.533701
 20
48.927866
 30
0.000000
  0
SEQEND
  8
LAYER-1
  0
POLYLINE
  8
LAYER-1
 66
  1
 70
  0
 62
  7
 10
49.769813
 20
46.775090
 30
0.000000
  0
VERTEX
  8
LAYER-1
 10
49.769813
 20
46.775090
 30
0.000000
  0
VERTEX
  8
LAYER-1
 10
49.533701
 20
46.872310
 30
0.000000
  0
SEQEND
  8
LAYER-1
  0
POLYLINE
  8
LAYER-1
 66
  1
 70
  0
 62
  7
 10
49.839219
 20
48.087628
 30
0.000000
  0
VERTEX
  8
LAYER-1
 10
49.839219
 20
48.087628
 30
0.000000
  0
VERTEX
  8
LAYER-1
 10
49.769775
 20
48.087628
 30
0.000000
  0
SEQEND
  8
LAYER-1
  0
POLYLINE
  8
LAYER-1
 66
  1
 70
  0
 62
  7
 10
49.839219
 20
47.712628
 30
0.000000
  0
VERTEX
  8
LAYER-1
 10
49.839219
 20
47.712628
 30
0.000000
  0
VERTEX
  8
LAYER-1
 10
49.769775
 20
47.712628
 30
0.000000
  0
SEQEND
  8
LAYER-1
  0
POLYLINE
  8
LAYER-1
 66
  1
 70
  0
 62
  7
 10
49.838590
 20
49.275118
 30
0.000000
  0
VERTEX
  8
LAYER-1
 10
49.838590
 20
49.275118
 30
0.000000
  0
VERTEX
  8
LAYER-1
 10
49.769813
 20
49.275118
 30
0.000000
  0
SEQEND
  8
LAYER-1
  0
POLYLINE
  8
LAYER-1
 66
  1
 70
  0
 62
  7
 10
49.838590
 20
46.525128
 30
0.000000
  0
VERTEX
  8
LAYER-1
 10
49.838590
 20
46.525128
 30
0.000000
  0
VERTEX
  8
LAYER-1
 10
49.769813
 20
46.525128
 30
0.000000
  0
SEQEND
  8
LAYER-1
  0
POLYLINE
  8
LAYER-1
 66
  1
 70
  0
 62
  7
 10
49.909696
 20
46.525128
 30
0.000000
  0
VERTEX
  8
LAYER-1
 10
49.909696
 20
46.525128
 30
0.000000
  0
VERTEX
  8
LAYER-1
 10
49.909696
 20
49.275128
 30
0.000000
  0
SEQEND
  8
LAYER-1
  0
POLYLINE
  8
LAYER-1
 66
  1
 70
  0
 62
  7
 10
49.840919
 20
46.525128
 30
0.000000
  0
VERTEX
  8
LAYER-1
 10
49.840919
 20
46.525128
 30
0.000000
  0
VERTEX
  8
LAYER-1
 10
49.840919
 20
49.275128
 30
0.000000
  0
SEQEND
  8
LAYER-1
  0
POLYLINE
  8
LAYER-1
 66
  1
 70
  0
 62
  7
 10
50.145808
 20
48.927941
 30
0.000000
  0
VERTEX
  8
LAYER-1
 10
50.145808
 20
48.927941
 30
0.000000
  0
VERTEX
  8
LAYER-1
 10
50.145808
 20
46.872380
 30
0.000000
  0
SEQEND
  8
LAYER-1
  0
POLYLINE
  8
LAYER-1
 66
  1
 70
  0
 62
  7
 10
49.909696
 20
46.775156
 30
0.000000
  0
VERTEX
  8
LAYER-1
 10
49.909696
 20
46.775156
 30
0.000000
  0
VERTEX
  8
LAYER-1
 10
50.145808
 20
46.872380
 30
0.000000
  0
SEQEND
  8
LAYER-1
  0
POLYLINE
  8
LAYER-1
 66
  1
 70
  0
 62
  7
 10
49.909696
 20
49.025161
 30
0.000000
  0
VERTEX
  8
LAYER-1
 10
49.909696
 20
49.025161
 30
0.000000
  0
VERTEX
  8
LAYER-1
 10
50.145808
 20
48.927941
 30
0.000000
  0
SEQEND
  8
LAYER-1
  0
POLYLINE
  8
LAYER-1
 66
  1
 70
  0
 62
  7
 10
49.840290
 20
47.712628
 30
0.000000
  0
VERTEX
  8
LAYER-1
 10
49.840290
 20
47.712628
 30
0.000000
  0
VERTEX
  8
LAYER-1
 10
49.909734
 20
47.712628
 30
0.000000
  0
SEQEND
  8
LAYER-1
  0
POLYLINE
  8
LAYER-1
 66
  1
 70
  0
 62
  7
 10
49.840290
 20
48.087628
 30
0.000000
  0
VERTEX
  8
LAYER-1
 10
49.840290
 20
48.087628
 30
0.000000
  0
VERTEX
  8
LAYER-1
 10
49.909734
 20
48.087628
 30
0.000000
  0
SEQEND
  8
LAYER-1
  0
POLYLINE
  8
LAYER-1
 66
  1
 70
  0
 62
  7
 10
49.840919
 20
46.525128
 30
0.000000
  0
VERTEX
  8
LAYER-1
 10
49.840919
 20
46.525128
 30
0.000000
  0
VERTEX
  8
LAYER-1
 10
49.909696
 20
46.525128
 30
0.000000
  0
SEQEND
  8
LAYER-1
  0
POLYLINE
  8
LAYER-1
 66
  1
 70
  0
 62
  7
 10
49.840919
 20
49.275128
 30
0.000000
  0
VERTEX
  8
LAYER-1
 10
49.840919
 20
49.275128
 30
0.000000
  0
VERTEX
  8
LAYER-1
 10
49.909696
 20
49.275128
 30
0.000000
  0
SEQEND
  8
LAYER-1
  0
POLYLINE
  8
LAYER-1
 66
  1
 70
  1
 62
  7
  0
VERTEX
  8
LAYER-1
 10
49.483821
 20
48.198468
 30
0.000000
  0
VERTEX
  8
LAYER-1
 10
49.575162
 20
48.198468
 30
0.000000
  0
VERTEX
  8
LAYER-1
 10
49.575162
 20
47.621544
 30
0.000000
  0
VERTEX
  8
LAYER-1
 10
49.483821
 20
47.621544
 30
0.000000
  0
SEQEND
  8
LAYER-1
  0
POLYLINE
  8
LAYER-1
 66
  1
 70
  1
 62
255
  0
VERTEX
  8
LAYER-1
 10
49.217947
 20
48.166288
 30
0.000000
  0
VERTEX
  8
LAYER-1
 10
49.481844
 20
48.166288
 30
0.000000
  0
VERTEX
  8
LAYER-1
 10
49.481844
 20
47.657607
 30
0.000000
  0
VERTEX
  8
LAYER-1
 10
49.217947
 20
47.657607
 30
0.000000
  0
SEQEND
  8
LAYER-1
  0
POLYLINE
  8
LAYER-1
 66
  1
 70
  0
 62
  7
 10
49.249146
 20
48.197482
 30
0.000000
  0
VERTEX
  8
LAYER-1
 10
49.249146
 20
48.197482
 30
0.000000
  0
VERTEX
  8
LAYER-1
 10
49.450641
 20
48.197482
 30
0.000000
  0
SEQEND
  8
LAYER-1
  0
POLYLINE
  8
LAYER-1
 66
  1
 70
  0
 62
  7
 10
49.481844
 20
48.166288
 30
0.000000
  0
VERTEX
  8
LAYER-1
 10
49.481844
 20
48.166288
 30
0.000000
  0
VERTEX
  8
LAYER-1
 10
49.481844
 20
47.657607
 30
0.000000
  0
SEQEND
  8
LAYER-1
  0
POLYLINE
  8
LAYER-1
 66
  1
 70
  0
 62
  7
 10
49.247469
 20
47.628089
 30
0.000000
  0
VERTEX
  8
LAYER-1
 10
49.247469
 20
47.628089
 30
0.000000
  0
VERTEX
  8
LAYER-1
 10
49.452322
 20
47.628089
 30
0.000000
  0
SEQEND
  8
LAYER-1
  0
POLYLINE
  8
LAYER-1
 66
  1
 70
  0
 62
  7
 10
49.217947
 20
48.166288
 30
0.000000
  0
VERTEX
  8
LAYER-1
 10
49.217947
 20
48.166288
 30
0.000000
  0
VERTEX
  8
LAYER-1
 10
49.217947
 20
47.657607
 30
0.000000
  0
SEQEND
  8
LAYER-1
  0
POLYLINE
  8
LAYER-1
  6
LTYPE01
 66
  1
 70
  0
 62
  7
  6
LTYPE01
 10
49.217947
 20
48.037814
 30
0.000000
  0
VERTEX
  8
LAYER-1
  6
LTYPE01
 10
49.217947
 20
48.037814
 30
0.000000
  0
VERTEX
  8
LAYER-1
  6
LTYPE01
 10
49.481844
 20
48.037814
 30
0.000000
  0
SEQEND
  8
LAYER-1
  0
POLYLINE
  8
LAYER-1
  6
LTYPE01
 66
  1
 70
  0
 62
  7
  6
LTYPE01
 10
49.217947
 20
47.784339
 30
0.000000
  0
VERTEX
  8
LAYER-1
  6
LTYPE01
 10
49.217947
 20
47.784339
 30
0.000000
  0
VERTEX
  8
LAYER-1
  6
LTYPE01
 10
49.481844
 20
47.784339
 30
0.000000
  0
SEQEND
  8
LAYER-1
  0
ARC
  8
LAYER-1
 62
  7
 10
49.530757
 20
47.909565
 30
0.000000
 40
0.309420
 50
151.195801
 51
207.438416
  0
ARC
  8
LAYER-1
 62
  7
 10
49.199402
 20
47.912814
 30
0.000000
 40
0.275577
 50
328.049347
 51
31.950653
  0
ARC
  8
LAYER-1
 62
  7
 10
49.401522
 20
48.175467
 30
0.000000
 40
0.183801
 50
182.863251
 51
219.462448
  0
ARC
  8
LAYER-1
 62
  7
 10
49.314707
 20
48.176974
 30
0.000000
 40
0.167482
 50
315.047913
 51
356.340302
  0
ARC
  8
LAYER-1
 62
  7
 10
49.240920
 20
47.616014
 30
0.000000
 40
0.244491
 50
9.794708
 51
38.132141
  0
POLYLINE
  8
LAYER-1
 66
  1
 70
  0
 62
  7
 10
49.259620
 20
48.058650
 30
0.000000
  0
VERTEX
  8
LAYER-1
 10
49.259620
 20
48.058650
 30
0.000000
  0
VERTEX
  8
LAYER-1
 10
49.433232
 20
48.058650
 30
0.000000
  0
SEQEND
  8
LAYER-1
  0
POLYLINE
  8
LAYER-1
 66
  1
 70
  0
 62
  7
 10
49.256141
 20
47.766982
 30
0.000000
  0
VERTEX
  8
LAYER-1
 10
49.256141
 20
47.766982
 30
0.000000
  0
VERTEX
  8
LAYER-1
 10
49.433232
 20
47.766982
 30
0.000000
  0
SEQEND
  8
LAYER-1
  0
POLYLINE
  8
LAYER-1
 66
  1
 70
  0
 62
  7
 10
49.249146
 20
48.197482
 30
0.000000
  0
VERTEX
  8
LAYER-1
 10
49.249146
 20
48.197482
 30
0.000000
  0
VERTEX
  8
LAYER-1
 10
49.217947
 20
48.166288
 30
0.000000
  0
SEQEND
  8
LAYER-1
  0
POLYLINE
  8
LAYER-1
 66
  1
 70
  0
 62
  7
 10
49.450641
 20
48.197482
 30
0.000000
  0
VERTEX
  8
LAYER-1
 10
49.450641
 20
48.197482
 30
0.000000
  0
VERTEX
  8
LAYER-1
 10
49.481844
 20
48.166288
 30
0.000000
  0
SEQEND
  8
LAYER-1
  0
POLYLINE
  8
LAYER-1
 66
  1
 70
  0
 62
  7
 10
49.247469
 20
47.628089
 30
0.000000
  0
VERTEX
  8
LAYER-1
 10
49.247469
 20
47.628089
 30
0.000000
  0
VERTEX
  8
LAYER-1
 10
49.217947
 20
47.657607
 30
0.000000
  0
SEQEND
  8
LAYER-1
  0
POLYLINE
  8
LAYER-1
 66
  1
 70
  0
 62
  7
 10
49.452322
 20
47.628089
 30
0.000000
  0
VERTEX
  8
LAYER-1
 10
49.452322
 20
47.628089
 30
0.000000
  0
VERTEX
  8
LAYER-1
 10
49.481844
 20
47.657607
 30
0.000000
  0
SEQEND
  8
LAYER-1
  0
ARC
  8
LAYER-1
 62
  7
 10
49.464041
 20
47.633028
 30
0.000000
 40
0.247321
 50
147.205475
 51
174.296326
  0
POLYLINE
  8
LAYER-1
 66
  1
 70
  0
 62
  7
 10
52.644879
 20
43.673096
 30
0.000000
  0
VERTEX
  8
LAYER-1
 10
52.644879
 20
43.673096
 30
0.000000
  0
VERTEX
  8
LAYER-1
 10
47.735126
 20
43.673096
 30
0.000000
  0
SEQEND
  8
LAYER-1
  0
POLYLINE
  8
LAYER-1
 66
  1
 70
  0
 62
  7
 10
52.644879
 20
43.363732
 30
0.000000
  0
VERTEX
  8
LAYER-1
 10
52.644879
 20
43.363732
 30
0.000000
  0
VERTEX
  8
LAYER-1
 10
47.735126
 20
43.363732
 30
0.000000
  0
SEQEND
  8
LAYER-1
  0
POLYLINE
  8
LAYER-1
 66
  1
 70
  0
 62
  7
 10
52.644879
 20
50.017437
 30
0.000000
  0
VERTEX
  8
LAYER-1
 10
52.644879
 20
50.017437
 30
0.000000
  0
VERTEX
  8
LAYER-1
 10
47.735126
 20
50.017437
 30
0.000000
  0
SEQEND
  8
LAYER-1
  0
POLYLINE
  8
LAYER-1
 66
  1
 70
  0
 62
  7
 10
52.644879
 20
49.708074
 30
0.000000
  0
VERTEX
  8
LAYER-1
 10
52.644879
 20
49.708074
 30
0.000000
  0
VERTEX
  8
LAYER-1
 10
47.735126
 20
49.708074
 30
0.000000
  0
SEQEND
  8
LAYER-1
  0
TEXT
  8
LAYER-1
 62
  7
 10
58.413985
 20
53.634634
 30
0.000000
 40
0.980769
  1
140mm
 72
  5
 11
64.875524
 21
53.634634
 31
0.000000
  0
ENDSEC
  0
EOF
