  0
SECTION
  2
HEADER
999
MacDraft 5.0\0
  9
$ACADVER
  1
AC1006
  9
$CLAYER
  8
LAYER-1
  9
$EXTMIN
 10
0.000000
 20
0.000000
  9
$EXTMAX
 10
7.414643
 20
10.296717
  9
$FASTZOOM
 70
0
  9
$FILLMODE
 70
1
  0
ENDSEC
  0
SECTION
  2
TABLES
  0
TABLE
  2
LTYPE
 70
16
  0
LTYPE
  2
CONTINUOUS
 70
64
  3
Solid Line
 72
65
 73
0
 40
0.000000
  0
LTYPE
  2
LTYPE01
 70
64
  3
CUSTOM
 72
65
 73
2
 40
0.072727
 49
0.054545
 49
-0.018182
  0
LTYPE
  2
LTYPE02
 70
64
  3
CUSTOM
 72
65
 73
2
 40
0.127273
 49
0.109091
 49
-0.018182
  0
LTYPE
  2
LTYPE03
 70
64
  3
CUSTOM
 72
65
 73
2
 40
0.245455
 49
0.218182
 49
-0.027273
  0
LTYPE
  2
LTYPE04
 70
64
  3
CUSTOM
 72
65
 73
2
 40
0.472727
 49
0.436364
 49
-0.036364
  0
LTYPE
  2
LTYPE05
 70
64
  3
CUSTOM
 72
65
 73
4
 40
0.100000
 49
0.054545
 49
-0.018182
 49
0.009091
 49
-0.018182
  0
LTYPE
  2
LTYPE06
 70
64
  3
CUSTOM
 72
65
 73
4
 40
0.154545
 49
0.109091
 49
-0.018182
 49
0.009091
 49
-0.018182
  0
LTYPE
  2
LTYPE07
 70
64
  3
CUSTOM
 72
65
 73
4
 40
0.290909
 49
0.218182
 49
-0.027273
 49
0.018182
 49
-0.027273
  0
LTYPE
  2
LTYPE08
 70
64
  3
CUSTOM
 72
65
 73
4
 40
0.527273
 49
0.436364
 49
-0.036364
 49
0.018182
 49
-0.036364
  0
LTYPE
  2
LTYPE09
 70
64
  3
CUSTOM
 72
65
 73
6
 40
0.127273
 49
0.054545
 49
-0.018182
 49
0.009091
 49
-0.018182
 49
0.009091
 49
-0.018182
  0
LTYPE
  2
LTYPE10
 70
64
  3
CUSTOM
 72
65
 73
6
 40
0.181818
 49
0.109091
 49
-0.018182
 49
0.009091
 49
-0.018182
 49
0.009091
 49
-0.018182
  0
LTYPE
  2
LTYPE11
 70
64
  3
CUSTOM
 72
65
 73
6
 40
0.327273
 49
0.218182
 49
-0.027273
 49
0.018182
 49
-0.018182
 49
0.018182
 49
-0.027273
  0
LTYPE
  2
LTYPE12
 70
64
  3
CUSTOM
 72
65
 73
6
 40
0.563636
 49
0.436364
 49
-0.036364
 49
0.018182
 49
-0.018182
 49
0.018182
 49
-0.036364
  0
LTYPE
  2
LTYPE13
 70
64
  3
CUSTOM
 72
65
 73
8
 40
0.209091
 49
0.109091
 49
-0.018182
 49
0.009091
 49
-0.018182
 49
0.009091
 49
-0.018182
 49
0.009091
 49
-0.018182
  0
LTYPE
  2
LTYPE14
 70
64
  3
CUSTOM
 72
65
 73
8
 40
0.363636
 49
0.218182
 49
-0.027273
 49
0.018182
 49
-0.018182
 49
0.018182
 49
-0.018182
 49
0.018182
 49
-0.027273
  0
LTYPE
  2
LTYPE15
 70
64
  3
CUSTOM
 72
65
 73
8
 40
0.618182
 49
0.436364
 49
-0.036364
 49
0.018182
 49
-0.027273
 49
0.018182
 49
-0.027273
 49
0.018182
 49
-0.036364
  0
ENDTAB
  0
TABLE
  2
LAYER
 70
1
  0
LAYER
  2
LAYER-1
 70
0
 62
7
  6
CONTINUOUS
  0
ENDTAB
  0
ENDSEC
  0
SECTION
  2
BLOCKS
  0
ENDSEC
  0
SECTION
  2
ENTITIES
  0
POLYLINE
  8
LAYER-1
 66
  1
 70
  1
 62
  7
  0
VERTEX
  8
LAYER-1
 10
0.790331
 20
7.025118
 30
0.000000
  0
VERTEX
  8
LAYER-1
 10
1.476786
 20
7.025118
 30
0.000000
  0
VERTEX
  8
LAYER-1
 10
1.476786
 20
6.240597
 30
0.000000
  0
VERTEX
  8
LAYER-1
 10
0.790331
 20
6.240597
 30
0.000000
  0
SEQEND
  8
LAYER-1
  0
ARC
  8
LAYER-1
 62
  7
 10
5.398005
 20
9.233985
 30
0.000000
 40
0.254425
 50
270.000000
 51
90.000000
  0
POLYLINE
  8
LAYER-1
 66
  1
 70
  0
 62
  7
 10
5.398005
 20
9.488411
 30
0.000000
  0
VERTEX
  8
LAYER-1
 10
5.398005
 20
9.488411
 30
0.000000
  0
VERTEX
  8
LAYER-1
 10
1.733083
 20
9.488411
 30
0.000000
  0
SEQEND
  8
LAYER-1
  0
POLYLINE
  8
LAYER-1
 66
  1
 70
  0
 62
  7
 10
1.733083
 20
9.488411
 30
0.000000
  0
VERTEX
  8
LAYER-1
 10
1.733083
 20
9.488411
 30
0.000000
  0
VERTEX
  8
LAYER-1
 10
1.733083
 20
8.979561
 30
0.000000
  0
SEQEND
  8
LAYER-1
  0
POLYLINE
  8
LAYER-1
 66
  1
 70
  0
 62
  7
 10
5.398005
 20
8.979561
 30
0.000000
  0
VERTEX
  8
LAYER-1
 10
5.398005
 20
8.979561
 30
0.000000
  0
VERTEX
  8
LAYER-1
 10
1.733083
 20
8.979561
 30
0.000000
  0
SEQEND
  8
LAYER-1
  0
TEXT
  8
LAYER-1
 62
  7
 10
3.524422
 20
9.787318
 30
0.000000
 40
0.340909
  1
MobilFlex
 72
  5
 11
5.733513
 21
9.787318
 31
0.000000
  0
POLYLINE
  8
LAYER-1
 66
  1
 70
  1
 62
  7
  0
VERTEX
  8
LAYER-1
 10
1.734586
 20
10.295627
 30
0.000000
  0
VERTEX
  8
LAYER-1
 10
1.972433
 20
10.295627
 30
0.000000
  0
VERTEX
  8
LAYER-1
 10
1.972433
 20
9.778681
 30
0.000000
  0
VERTEX
  8
LAYER-1
 10
1.734586
 20
9.778681
 30
0.000000
  0
SEQEND
  8
LAYER-1
  0
POLYLINE
  8
LAYER-1
 66
  1
 70
  1
 62
  7
  0
VERTEX
  8
LAYER-1
 10
2.047086
 20
10.295627
 30
0.000000
  0
VERTEX
  8
LAYER-1
 10
2.284933
 20
10.295627
 30
0.000000
  0
VERTEX
  8
LAYER-1
 10
2.284933
 20
9.778681
 30
0.000000
  0
VERTEX
  8
LAYER-1
 10
2.047086
 20
9.778681
 30
0.000000
  0
SEQEND
  8
LAYER-1
  0
POLYLINE
  8
LAYER-1
 66
  1
 70
  1
 62
  7
  0
VERTEX
  8
LAYER-1
 10
2.347433
 20
10.295627
 30
0.000000
  0
VERTEX
  8
LAYER-1
 10
2.585281
 20
10.295627
 30
0.000000
  0
VERTEX
  8
LAYER-1
 10
2.585281
 20
9.778681
 30
0.000000
  0
VERTEX
  8
LAYER-1
 10
2.347433
 20
9.778681
 30
0.000000
  0
SEQEND
  8
LAYER-1
  0
POLYLINE
  8
LAYER-1
 66
  1
 70
  1
 62
  7
  0
VERTEX
  8
LAYER-1
 10
2.651253
 20
10.295627
 30
0.000000
  0
VERTEX
  8
LAYER-1
 10
2.889100
 20
10.295627
 30
0.000000
  0
VERTEX
  8
LAYER-1
 10
2.889100
 20
9.778681
 30
0.000000
  0
VERTEX
  8
LAYER-1
 10
2.651253
 20
9.778681
 30
0.000000
  0
SEQEND
  8
LAYER-1
  0
POLYLINE
  8
LAYER-1
 66
  1
 70
  1
 62
  7
  0
VERTEX
  8
LAYER-1
 10
2.968093
 20
10.291711
 30
0.000000
  0
VERTEX
  8
LAYER-1
 10
3.343527
 20
10.291711
 30
0.000000
  0
VERTEX
  8
LAYER-1
 10
3.343527
 20
10.153690
 30
0.000000
  0
VERTEX
  8
LAYER-1
 10
2.968093
 20
10.153690
 30
0.000000
  0
SEQEND
  8
LAYER-1
  0
POLYLINE
  8
LAYER-1
 66
  1
 70
  1
 62
  7
  0
VERTEX
  8
LAYER-1
 10
2.967659
 20
10.064280
 30
0.000000
  0
VERTEX
  8
LAYER-1
 10
3.275819
 20
10.064280
 30
0.000000
  0
VERTEX
  8
LAYER-1
 10
3.275819
 20
9.930166
 30
0.000000
  0
VERTEX
  8
LAYER-1
 10
2.967659
 20
9.930166
 30
0.000000
  0
SEQEND
  8
LAYER-1
  0
POLYLINE
  8
LAYER-1
 66
  1
 70
  1
 62
  7
  0
VERTEX
  8
LAYER-1
 10
1.734586
 20
9.694054
 30
0.000000
  0
VERTEX
  8
LAYER-1
 10
5.652989
 20
9.694054
 30
0.000000
  0
VERTEX
  8
LAYER-1
 10
5.652989
 20
9.650651
 30
0.000000
  0
VERTEX
  8
LAYER-1
 10
1.734586
 20
9.650651
 30
0.000000
  0
SEQEND
  8
LAYER-1
  0
POLYLINE
  8
LAYER-1
 66
  1
 70
  1
 62
  7
  0
VERTEX
  8
LAYER-1
 10
0.070492
 20
1.266324
 30
0.000000
  0
VERTEX
  8
LAYER-1
 10
1.731114
 20
1.266324
 30
0.000000
  0
VERTEX
  8
LAYER-1
 10
1.731114
 20
1.229649
 30
0.000000
  0
VERTEX
  8
LAYER-1
 10
0.070492
 20
1.229649
 30
0.000000
  0
SEQEND
  8
LAYER-1
  0
TEXT
  8
LAYER-1
 62
  7
 10
1.951695
 20
9.123682
 30
0.000000
 40
0.190909
  1
End plate details & Pack-off
 72
  5
 11
5.178968
 21
9.123682
 31
0.000000
  0
POLYLINE
  8
LAYER-1
  6
LTYPE02
 66
  1
 70
  0
 62
  7
  6
LTYPE02
 10
0.974805
 20
6.696883
 30
0.000000
  0
VERTEX
  8
LAYER-1
  6
LTYPE02
 10
0.974805
 20
6.696883
 30
0.000000
  0
VERTEX
  8
LAYER-1
  6
LTYPE02
 10
0.926744
 20
6.525820
 30
0.000000
  0
VERTEX
  8
LAYER-1
  6
LTYPE02
 10
0.897833
 20
6.349104
 30
0.000000
  0
VERTEX
  8
LAYER-1
  6
LTYPE02
 10
0.890419
 20
6.232217
 30
0.000000
  0
SEQEND
  8
LAYER-1
  0
POLYLINE
  8
LAYER-1
 66
  1
 70
  0
 62
  7
 10
0.070492
 20
1.297634
 30
0.000000
  0
VERTEX
  8
LAYER-1
 10
0.070492
 20
1.297634
 30
0.000000
  0
VERTEX
  8
LAYER-1
 10
0.070492
 20
1.863359
 30
0.000000
  0
SEQEND
  8
LAYER-1
  0
POLYLINE
  8
LAYER-1
 66
  1
 70
  0
 62
  7
 10
0.101802
 20
1.894669
 30
0.000000
  0
VERTEX
  8
LAYER-1
 10
0.101802
 20
1.894669
 30
0.000000
  0
VERTEX
  8
LAYER-1
 10
0.667099
 20
1.894669
 30
0.000000
  0
SEQEND
  8
LAYER-1
  0
POLYLINE
  8
LAYER-1
 66
  1
 70
  0
 62
  7
 10
0.698409
 20
1.863359
 30
0.000000
  0
VERTEX
  8
LAYER-1
 10
0.698409
 20
1.863359
 30
0.000000
  0
VERTEX
  8
LAYER-1
 10
0.698409
 20
1.297634
 30
0.000000
  0
SEQEND
  8
LAYER-1
  0
POLYLINE
  8
LAYER-1
 66
  1
 70
  0
 62
  7
 10
0.667099
 20
1.266324
 30
0.000000
  0
VERTEX
  8
LAYER-1
 10
0.667099
 20
1.266324
 30
0.000000
  0
VERTEX
  8
LAYER-1
 10
0.101802
 20
1.266324
 30
0.000000
  0
SEQEND
  8
LAYER-1
  0
ARC
  8
LAYER-1
 62
  7
 10
0.101802
 20
1.297634
 30
0.000000
 40
0.031310
 50
180.000000
 51
270.000000
  0
ARC
  8
LAYER-1
 62
  7
 10
0.667099
 20
1.297634
 30
0.000000
 40
0.031310
 50
270.000000
 51
0.000000
  0
ARC
  8
LAYER-1
 62
  7
 10
0.667099
 20
1.863359
 30
0.000000
 40
0.031310
 50
0.000000
 51
90.000000
  0
ARC
  8
LAYER-1
 62
  7
 10
0.101802
 20
1.863359
 30
0.000000
 40
0.031310
 50
90.000000
 51
180.000000
  0
POLYLINE
  8
LAYER-1
 66
  1
 70
  0
 62
  7
 10
0.195733
 20
1.894669
 30
0.000000
  0
VERTEX
  8
LAYER-1
 10
0.195733
 20
1.894669
 30
0.000000
  0
VERTEX
  8
LAYER-1
 10
0.070063
 20
1.769000
 30
0.000000
  0
SEQEND
  8
LAYER-1
  0
POLYLINE
  8
LAYER-1
 66
  1
 70
  0
 62
  7
 10
0.415652
 20
1.894669
 30
0.000000
  0
VERTEX
  8
LAYER-1
 10
0.415652
 20
1.894669
 30
0.000000
  0
VERTEX
  8
LAYER-1
 10
0.070063
 20
1.549079
 30
0.000000
  0
SEQEND
  8
LAYER-1
  0
POLYLINE
  8
LAYER-1
 66
  1
 70
  0
 62
  7
 10
0.478489
 20
1.894669
 30
0.000000
  0
VERTEX
  8
LAYER-1
 10
0.478489
 20
1.894669
 30
0.000000
  0
VERTEX
  8
LAYER-1
 10
0.070063
 20
1.486246
 30
0.000000
  0
SEQEND
  8
LAYER-1
  0
POLYLINE
  8
LAYER-1
 66
  1
 70
  0
 62
  7
 10
0.698409
 20
1.863253
 30
0.000000
  0
VERTEX
  8
LAYER-1
 10
0.698409
 20
1.863253
 30
0.000000
  0
VERTEX
  8
LAYER-1
 10
0.101481
 20
1.266324
 30
0.000000
  0
SEQEND
  8
LAYER-1
  0
POLYLINE
  8
LAYER-1
 66
  1
 70
  0
 62
  7
 10
0.698409
 20
1.769000
 30
0.000000
  0
VERTEX
  8
LAYER-1
 10
0.698409
 20
1.769000
 30
0.000000
  0
VERTEX
  8
LAYER-1
 10
0.195733
 20
1.266324
 30
0.000000
  0
SEQEND
  8
LAYER-1
  0
POLYLINE
  8
LAYER-1
 66
  1
 70
  0
 62
  7
 10
0.698409
 20
1.423409
 30
0.000000
  0
VERTEX
  8
LAYER-1
 10
0.698409
 20
1.423409
 30
0.000000
  0
VERTEX
  8
LAYER-1
 10
0.541322
 20
1.266324
 30
0.000000
  0
SEQEND
  8
LAYER-1
  0
POLYLINE
  8
LAYER-1
 66
  1
 70
  0
 62
  7
 10
0.698409
 20
1.549079
 30
0.000000
  0
VERTEX
  8
LAYER-1
 10
0.698409
 20
1.549079
 30
0.000000
  0
VERTEX
  8
LAYER-1
 10
0.415652
 20
1.266324
 30
0.000000
  0
SEQEND
  8
LAYER-1
  0
POLYLINE
  8
LAYER-1
 66
  1
 70
  0
 62
  7
 10
0.096766
 20
1.311275
 30
0.000000
  0
VERTEX
  8
LAYER-1
 10
0.096766
 20
1.311275
 30
0.000000
  0
VERTEX
  8
LAYER-1
 10
0.096766
 20
1.849728
 30
0.000000
  0
SEQEND
  8
LAYER-1
  0
POLYLINE
  8
LAYER-1
 66
  1
 70
  0
 62
  7
 10
0.114655
 20
1.867616
 30
0.000000
  0
VERTEX
  8
LAYER-1
 10
0.114655
 20
1.867616
 30
0.000000
  0
VERTEX
  8
LAYER-1
 10
0.653106
 20
1.867616
 30
0.000000
  0
SEQEND
  8
LAYER-1
  0
POLYLINE
  8
LAYER-1
 66
  1
 70
  0
 62
  7
 10
0.670995
 20
1.849728
 30
0.000000
  0
VERTEX
  8
LAYER-1
 10
0.670995
 20
1.849728
 30
0.000000
  0
VERTEX
  8
LAYER-1
 10
0.670995
 20
1.311275
 30
0.000000
  0
SEQEND
  8
LAYER-1
  0
POLYLINE
  8
LAYER-1
 66
  1
 70
  0
 62
  7
 10
0.653106
 20
1.293386
 30
0.000000
  0
VERTEX
  8
LAYER-1
 10
0.653106
 20
1.293386
 30
0.000000
  0
VERTEX
  8
LAYER-1
 10
0.114655
 20
1.293386
 30
0.000000
  0
SEQEND
  8
LAYER-1
  0
ARC
  8
LAYER-1
 62
  7
 10
0.114655
 20
1.311275
 30
0.000000
 40
0.017888
 50
180.000000
 51
270.000000
  0
ARC
  8
LAYER-1
 62
  7
 10
0.653106
 20
1.311275
 30
0.000000
 40
0.017888
 50
270.000000
 51
0.000000
  0
ARC
  8
LAYER-1
 62
  7
 10
0.653106
 20
1.849728
 30
0.000000
 40
0.017888
 50
0.000000
 51
90.000000
  0
ARC
  8
LAYER-1
 62
  7
 10
0.114655
 20
1.849728
 30
0.000000
 40
0.017888
 50
90.000000
 51
180.000000
  0
TEXT
  8
LAYER-1
 62
  7
 10
0.888059
 20
1.423682
 30
0.000000
 40
0.102273
  1
END PLATE
 72
  5
 11
1.669877
 21
1.423682
 31
0.000000
  0
POLYLINE
  8
LAYER-1
 66
  1
 70
  0
 62
  7
 10
0.986397
 20
1.370492
 30
0.000000
  0
VERTEX
  8
LAYER-1
 10
0.986397
 20
1.370492
 30
0.000000
  0
VERTEX
  8
LAYER-1
 10
0.899389
 20
1.284503
 30
0.000000
  0
SEQEND
  8
LAYER-1
  0
POLYLINE
  8
LAYER-1
 66
  1
 70
  1
 62
  7
  0
VERTEX
  8
LAYER-1
 10
0.885387
 20
1.270665
 30
0.000000
  0
VERTEX
  8
LAYER-1
 10
0.898546
 20
1.322015
 30
0.000000
  0
VERTEX
  8
LAYER-1
 10
0.917717
 20
1.302617
 30
0.000000
  0
VERTEX
  8
LAYER-1
 10
0.936888
 20
1.283219
 30
0.000000
  0
VERTEX
  8
LAYER-1
 10
0.885387
 20
1.270665
 30
0.000000
  0
SEQEND
  8
LAYER-1
  0
POLYLINE
  8
LAYER-1
  6
LTYPE05
 66
  1
 70
  0
 62
  7
  6
LTYPE05
 10
0.487858
 20
2.009819
 30
0.000000
  0
VERTEX
  8
LAYER-1
  6
LTYPE05
 10
0.487858
 20
2.009819
 30
0.000000
  0
VERTEX
  8
LAYER-1
  6
LTYPE05
 10
0.488059
 20
0.649723
 30
0.000000
  0
SEQEND
  8
LAYER-1
  0
LINE
  8
LAYER-1
 62
  7
 10
0.090177
 20
0.538279
 30
0.000000
 11
0.468374
 21
0.538279
 31
0.000000
  0
LINE
  8
LAYER-1
 62
  7
 10
0.070492
 20
1.167149
 30
0.000000
 11
0.070492
 21
0.413279
 31
0.000000
  0
LINE
  8
LAYER-1
 62
  7
 10
0.488059
 20
0.587223
 30
0.000000
 11
0.488059
 21
0.413279
 31
0.000000
  0
POLYLINE
  8
LAYER-1
 66
  1
 70
  1
 62
  7
  0
VERTEX
  8
LAYER-1
 10
0.070492
 20
0.538279
 30
0.000000
  0
VERTEX
  8
LAYER-1
 10
0.115947
 20
0.511006
 30
0.000000
  0
VERTEX
  8
LAYER-1
 10
0.115947
 20
0.538279
 30
0.000000
  0
VERTEX
  8
LAYER-1
 10
0.115947
 20
0.565552
 30
0.000000
  0
VERTEX
  8
LAYER-1
 10
0.070492
 20
0.538279
 30
0.000000
  0
SEQEND
  8
LAYER-1
  0
POLYLINE
  8
LAYER-1
 66
  1
 70
  1
 62
  7
  0
VERTEX
  8
LAYER-1
 10
0.488059
 20
0.538279
 30
0.000000
  0
VERTEX
  8
LAYER-1
 10
0.442604
 20
0.511006
 30
0.000000
  0
VERTEX
  8
LAYER-1
 10
0.442604
 20
0.538279
 30
0.000000
  0
VERTEX
  8
LAYER-1
 10
0.442604
 20
0.565552
 30
0.000000
  0
VERTEX
  8
LAYER-1
 10
0.488059
 20
0.538279
 30
0.000000
  0
SEQEND
  8
LAYER-1
  0
TEXT
  8
LAYER-1
 62
  7
 10
0.204594
 20
0.383524
 30
0.000000
 40
0.081818
  1
"Z"
  0
TEXT
  8
LAYER-1
 62
  7
 10
0.524422
 20
0.350954
 30
0.000000
 40
0.102273
  1
PACK-OFF
 72
  5
 11
1.251695
 21
0.350954
 31
0.000000
  0
TEXT
  8
LAYER-1
 62
  7
 10
0.897150
 20
1.805500
 30
0.000000
 40
0.102273
  1
TUBE
 72
  5
 11
1.297150
 21
1.805500
 31
0.000000
  0
TEXT
  8
LAYER-1
 62
  7
 10
0.897150
 20
1.650954
 30
0.000000
 40
0.102273
  1
SUPPORT
 72
  5
 11
1.597150
 21
1.650954
 31
0.000000
  0
POLYLINE
  8
LAYER-1
 66
  1
 70
  0
 62
  7
 10
0.875559
 20
1.811526
 30
0.000000
  0
VERTEX
  8
LAYER-1
 10
0.875559
 20
1.811526
 30
0.000000
  0
VERTEX
  8
LAYER-1
 10
0.719836
 20
1.768280
 30
0.000000
  0
SEQEND
  8
LAYER-1
  0
POLYLINE
  8
LAYER-1
 66
  1
 70
  1
 62
  7
  0
VERTEX
  8
LAYER-1
 10
0.700868
 20
1.763013
 30
0.000000
  0
VERTEX
  8
LAYER-1
 10
0.737368
 20
1.801454
 30
0.000000
  0
VERTEX
  8
LAYER-1
 10
0.744665
 20
1.775176
 30
0.000000
  0
VERTEX
  8
LAYER-1
 10
0.751963
 20
1.748897
 30
0.000000
  0
VERTEX
  8
LAYER-1
 10
0.700868
 20
1.763013
 30
0.000000
  0
SEQEND
  8
LAYER-1
  0
TEXT
  8
LAYER-1
 62
  7
 10
0.897150
 20
0.969136
 30
0.000000
 40
0.102273
  1
CENTER
 72
  5
 11
1.497150
 21
0.969136
 31
0.000000
  0
TEXT
  8
LAYER-1
 62
  7
 10
0.897150
 20
0.814591
 30
0.000000
 40
0.102273
  1
OF GUIDE
 72
  5
 11
1.578968
 21
0.814591
 31
0.000000
  0
POLYLINE
  8
LAYER-1
 66
  1
 70
  0
 62
  7
 10
0.878684
 20
0.952848
 30
0.000000
  0
VERTEX
  8
LAYER-1
 10
0.878684
 20
0.952848
 30
0.000000
  0
VERTEX
  8
LAYER-1
 10
0.509225
 20
0.951520
 30
0.000000
  0
SEQEND
  8
LAYER-1
  0
POLYLINE
  8
LAYER-1
 66
  1
 70
  1
 62
  7
  0
VERTEX
  8
LAYER-1
 10
0.489540
 20
0.951450
 30
0.000000
  0
VERTEX
  8
LAYER-1
 10
0.534897
 20
0.978886
 30
0.000000
  0
VERTEX
  8
LAYER-1
 10
0.534995
 20
0.951614
 30
0.000000
  0
VERTEX
  8
LAYER-1
 10
0.535093
 20
0.924341
 30
0.000000
  0
VERTEX
  8
LAYER-1
 10
0.489540
 20
0.951450
 30
0.000000
  0
SEQEND
  8
LAYER-1
  0
TEXT
  8
LAYER-1
 62
  7
 10
0.424422
 20
1.505500
 30
0.000000
 40
0.102273
  1
C
 72
  5
 11
0.569877
 21
1.505500
 31
0.000000
  0
TEXT
  8
LAYER-1
 62
  7
 10
0.460786
 20
1.450954
 30
0.000000
 40
0.102273
  1
L
 72
  5
 11
0.578968
 21
1.450954
 31
0.000000
  0
TEXT
  8
LAYER-1
 62
  7
 10
1.733513
 20
8.787318
 30
0.000000
 40
0.122727
  1
IMPERIAL
 72
  5
 11
2.542604
 21
8.787318
 31
0.000000
  0
TEXT
  8
LAYER-1
 62
  7
 10
0.469877
 20
0.087318
 30
0.000000
 40
0.122727
  1
PLAN VIEW
 72
  5
 11
1.406241
 21
0.087318
 31
0.000000
  0
POLYLINE
  8
LAYER-1
 66
  1
 70
  1
 62
  7
 10
1.447383
 20
1.290907
 30
0.000000
  0
VERTEX
  8
LAYER-1
 10
1.447383
 20
1.290907
 30
0.000000
  0
VERTEX
  8
LAYER-1
 10
1.345820
 20
1.160699
 30
0.000000
  0
VERTEX
  8
LAYER-1
 10
1.478632
 20
1.200629
 30
0.000000
  0
VERTEX
  8
LAYER-1
 10
1.585403
 20
1.350803
 30
0.000000
  0
SEQEND
  8
LAYER-1
  0
POLYLINE
  8
LAYER-1
 66
  1
 70
  0
 62
  7
 10
1.556757
 20
1.352540
 30
0.000000
  0
VERTEX
  8
LAYER-1
 10
1.556757
 20
1.352540
 30
0.000000
  0
VERTEX
  8
LAYER-1
 10
1.479500
 20
1.244032
 30
0.000000
  0
SEQEND
  8
LAYER-1
  0
POLYLINE
  8
LAYER-1
 66
  1
 70
  0
 62
  7
 10
1.479500
 20
1.244032
 30
0.000000
  0
VERTEX
  8
LAYER-1
 10
1.479500
 20
1.244032
 30
0.000000
  0
VERTEX
  8
LAYER-1
 10
1.447383
 20
1.290907
 30
0.000000
  0
SEQEND
  8
LAYER-1
  0
POLYLINE
  8
LAYER-1
 66
  1
 70
  0
 62
  7
 10
1.447383
 20
1.290907
 30
0.000000
  0
VERTEX
  8
LAYER-1
 10
1.447383
 20
1.290907
 30
0.000000
  0
VERTEX
  8
LAYER-1
 10
1.345820
 20
1.160699
 30
0.000000
  0
SEQEND
  8
LAYER-1
  0
POLYLINE
  8
LAYER-1
 66
  1
 70
  0
 62
  7
 10
1.585403
 20
1.350803
 30
0.000000
  0
VERTEX
  8
LAYER-1
 10
1.585403
 20
1.350803
 30
0.000000
  0
VERTEX
  8
LAYER-1
 10
1.478632
 20
1.200629
 30
0.000000
  0
SEQEND
  8
LAYER-1
  0
POLYLINE
  8
LAYER-1
 66
  1
 70
  0
 62
  7
 10
1.478632
 20
1.200629
 30
0.000000
  0
VERTEX
  8
LAYER-1
 10
1.478632
 20
1.200629
 30
0.000000
  0
VERTEX
  8
LAYER-1
 10
1.443910
 20
1.249240
 30
0.000000
  0
SEQEND
  8
LAYER-1
  0
POLYLINE
  8
LAYER-1
 66
  1
 70
  0
 62
  7
 10
1.443910
 20
1.249240
 30
0.000000
  0
VERTEX
  8
LAYER-1
 10
1.443910
 20
1.249240
 30
0.000000
  0
VERTEX
  8
LAYER-1
 10
1.373598
 20
1.157227
 30
0.000000
  0
SEQEND
  8
LAYER-1
  0
TEXT
  8
LAYER-1
 62
  7
 10
3.124422
 20
8.196409
 30
0.000000
 40
0.115909
  1
6-5/8" dia  BARREL  -  CEILING HEIGHT
 72
  5
 11
5.997150
 21
8.196409
 31
0.000000
  0
TEXT
  8
LAYER-1
 62
  7
 10
3.969877
 20
8.014591
 30
0.000000
 40
0.102273
  1
ROLL-126 
 72
  5
 11
4.669877
 21
8.014591
 31
0.000000
  0
TEXT
  8
LAYER-1
 62
  7
 10
4.669877
 20
8.014591
 30
0.000000
 40
0.061364
  1
&
 72
  5
 11
4.769877
 21
8.014591
 31
0.000000
  0
TEXT
  8
LAYER-1
 62
  7
 10
3.888059
 20
7.860045
 30
0.000000
 40
0.102273
  1
ROLL-GUARD
 72
  5
 11
4.806241
 21
7.860045
 31
0.000000
  0
TEXT
  8
LAYER-1
 62
  7
 10
5.433513
 20
7.950954
 30
0.000000
 40
0.102273
  1
ROLL-99
 72
  5
 11
6.024422
 21
7.950954
 31
0.000000
  0
TEXT
  8
LAYER-1
 62
  7
 10
4.451695
 20
7.732773
 30
0.000000
 40
0.075000
  1
NO HOOD
 72
  5
 11
4.933513
 21
7.732773
 31
0.000000
  0
TEXT
  8
LAYER-1
 62
  7
 10
3.706241
 20
7.732773
 30
0.000000
 40
0.075000
  1
WITH HOOD
 72
  5
 11
4.278968
 21
7.732773
 31
0.000000
  0
TEXT
  8
LAYER-1
 62
  7
 10
5.824422
 20
7.732773
 30
0.000000
 40
0.075000
  1
NO HOOD
 72
  5
 11
6.306241
 21
7.732773
 31
0.000000
  0
TEXT
  8
LAYER-1
 62
  7
 10
5.088059
 20
7.732773
 30
0.000000
 40
0.075000
  1
WITH HOOD
 72
  5
 11
5.660786
 21
7.732773
 31
0.000000
  0
POLYLINE
  8
LAYER-1
 66
  1
 70
  0
 62
  7
 10
2.292778
 20
7.832929
 30
0.000000
  0
VERTEX
  8
LAYER-1
 10
2.292778
 20
7.832929
 30
0.000000
  0
VERTEX
  8
LAYER-1
 10
6.411672
 20
7.829287
 30
0.000000
  0
SEQEND
  8
LAYER-1
  0
TEXT
  8
LAYER-1
 62
  7
 10
2.515332
 20
8.014591
 30
0.000000
 40
0.102273
  1
ROLL-VISION,
 72
  5
 11
3.424422
 21
8.014591
 31
0.000000
  0
TEXT
  8
LAYER-1
 62
  7
 10
2.333513
 20
7.860045
 30
0.000000
 40
0.102273
  1
R-AIR
 72
  5
 11
2.733513
 21
7.860045
 31
0.000000
  0
TEXT
  8
LAYER-1
 62
  7
 10
2.733513
 20
7.860045
 30
0.000000
 40
0.061364
  1
 & 
 72
  5
 11
2.888059
 21
7.860045
 31
0.000000
  0
TEXT
  8
LAYER-1
 62
  7
 10
2.888059
 20
7.860045
 30
0.000000
 40
0.102273
  1
R-SHUTTER
 72
  5
 11
3.706241
 21
7.860045
 31
0.000000
  0
TEXT
  8
LAYER-1
 62
  7
 10
2.388059
 20
7.732773
 30
0.000000
 40
0.075000
  1
WITH 
 72
  5
 11
2.688059
 21
7.732773
 31
0.000000
  0
TEXT
  8
LAYER-1
 62
  7
 10
2.688059
 20
7.732773
 30
0.000000
 40
0.061364
  1
OR
 72
  5
 11
2.851695
 21
7.732773
 31
0.000000
  0
TEXT
  8
LAYER-1
 62
  7
 10
2.851695
 20
7.732773
 30
0.000000
 40
0.075000
  1
 WITHOUT HOOD
 72
  5
 11
3.642604
 21
7.732773
 31
0.000000
  0
TEXT
  8
LAYER-1
 62
  7
 10
6.433513
 20
8.005500
 30
0.000000
 40
0.115909
  1
END PLATE
 72
  5
 11
7.297150
 21
8.005500
 31
0.000000
  0
TEXT
  8
LAYER-1
 62
  7
 10
6.506241
 20
7.823682
 30
0.000000
 40
0.115909
  1
"X"  x  "Y"
 72
  5
 11
7.215332
 21
7.823682
 31
0.000000
  0
TEXT
  8
LAYER-1
 62
  7
 10
6.542604
 20
6.432773
 30
0.000000
 40
0.115909
  1
16" x 18"
 72
  5
 11
7.178968
 21
6.432773
 31
0.000000
  0
POLYLINE
  8
LAYER-1
 66
  1
 70
  0
 62
  7
 40
0.018182
 41
0.018182
 10
2.292778
 20
8.338651
 30
0.000000
  0
VERTEX
  8
LAYER-1
 10
2.292778
 20
8.338651
 30
0.000000
  0
VERTEX
  8
LAYER-1
 10
7.319445
 20
8.338651
 30
0.000000
  0
SEQEND
  8
LAYER-1
  0
POLYLINE
  8
LAYER-1
 66
  1
 70
  0
 62
  7
 40
0.018182
 41
0.018182
 10
7.319445
 20
8.338651
 30
0.000000
  0
VERTEX
  8
LAYER-1
 10
7.319445
 20
8.338651
 30
0.000000
  0
VERTEX
  8
LAYER-1
 10
7.319445
 20
5.956218
 30
0.000000
  0
SEQEND
  8
LAYER-1
  0
POLYLINE
  8
LAYER-1
 66
  1
 70
  0
 62
  7
 40
0.018182
 41
0.018182
 10
2.292778
 20
7.669682
 30
0.000000
  0
VERTEX
  8
LAYER-1
 10
2.292778
 20
7.669682
 30
0.000000
  0
VERTEX
  8
LAYER-1
 10
7.319445
 20
7.666604
 30
0.000000
  0
SEQEND
  8
LAYER-1
  0
POLYLINE
  8
LAYER-1
 66
  1
 70
  0
 62
  7
 10
2.292778
 20
8.127936
 30
0.000000
  0
VERTEX
  8
LAYER-1
 10
2.292778
 20
8.127936
 30
0.000000
  0
VERTEX
  8
LAYER-1
 10
6.411945
 20
8.127124
 30
0.000000
  0
SEQEND
  8
LAYER-1
  0
POLYLINE
  8
LAYER-1
 66
  1
 70
  0
 62
  7
 10
6.411945
 20
5.956218
 30
0.000000
  0
VERTEX
  8
LAYER-1
 10
6.411945
 20
5.956218
 30
0.000000
  0
VERTEX
  8
LAYER-1
 10
6.411945
 20
8.338651
 30
0.000000
  0
SEQEND
  8
LAYER-1
  0
TEXT
  8
LAYER-1
 62
  7
 10
6.560786
 20
6.678227
 30
0.000000
 40
0.081818
  1
min for motor
 72
  5
 11
7.269877
 21
6.678227
 31
0.000000
  0
TEXT
  8
LAYER-1
 62
  7
 10
6.578968
 20
6.323682
 30
0.000000
 40
0.081818
  1
min for 4"x4"
 72
  5
 11
7.242604
 21
6.323682
 31
0.000000
  0
TEXT
  8
LAYER-1
 62
  7
 10
6.515332
 20
7.032773
 30
0.000000
 40
0.081818
  1
use 5" C.wheel
 72
  5
 11
7.315332
 21
7.032773
 31
0.000000
  0
TEXT
  8
LAYER-1
 62
  7
 10
6.542604
 20
7.460045
 30
0.000000
 40
0.115909
  1
10" x 10"
 72
  5
 11
7.178968
 21
7.460045
 31
0.000000
  0
TEXT
  8
LAYER-1
 62
  7
 10
6.515332
 20
7.350954
 30
0.000000
 40
0.081818
  1
use 2" Support
 72
  5
 11
7.297150
 21
7.350954
 31
0.000000
  0
TEXT
  8
LAYER-1
 62
  7
 10
2.260786
 20
8.432773
 30
0.000000
 40
0.122727
  1
End plate sizes ( For doors maximum 22' wide )
 72
  5
 11
5.978968
 21
8.432773
 31
0.000000
  0
POLYLINE
  8
LAYER-1
 66
  1
 70
  0
 62
  7
 10
5.721945
 20
5.956218
 30
0.000000
  0
VERTEX
  8
LAYER-1
 10
5.721945
 20
5.956218
 30
0.000000
  0
VERTEX
  8
LAYER-1
 10
5.720676
 20
7.829898
 30
0.000000
  0
SEQEND
  8
LAYER-1
  0
POLYLINE
  8
LAYER-1
 66
  1
 70
  0
 62
  7
 10
5.031945
 20
5.956218
 30
0.000000
  0
VERTEX
  8
LAYER-1
 10
5.031945
 20
5.956218
 30
0.000000
  0
VERTEX
  8
LAYER-1
 10
5.033199
 20
8.120954
 30
0.000000
  0
SEQEND
  8
LAYER-1
  0
POLYLINE
  8
LAYER-1
 66
  1
 70
  0
 62
  7
 10
4.341945
 20
5.956218
 30
0.000000
  0
VERTEX
  8
LAYER-1
 10
4.341945
 20
5.956218
 30
0.000000
  0
VERTEX
  8
LAYER-1
 10
4.342233
 20
7.831117
 30
0.000000
  0
SEQEND
  8
LAYER-1
  0
POLYLINE
  8
LAYER-1
 66
  1
 70
  0
 62
  7
 10
3.651945
 20
5.956218
 30
0.000000
  0
VERTEX
  8
LAYER-1
 10
3.651945
 20
5.956218
 30
0.000000
  0
VERTEX
  8
LAYER-1
 10
3.651255
 20
8.120954
 30
0.000000
  0
SEQEND
  8
LAYER-1
  0
POLYLINE
  8
LAYER-1
 66
  1
 70
  0
 62
  7
 40
0.018182
 41
0.018182
 10
2.292778
 20
5.956203
 30
0.000000
  0
VERTEX
  8
LAYER-1
 10
2.292778
 20
5.956203
 30
0.000000
  0
VERTEX
  8
LAYER-1
 10
2.292778
 20
8.338651
 30
0.000000
  0
SEQEND
  8
LAYER-1
  0
POLYLINE
  8
LAYER-1
 66
  1
 70
  0
 62
  7
 10
2.292778
 20
7.325863
 30
0.000000
  0
VERTEX
  8
LAYER-1
 10
2.292778
 20
7.325863
 30
0.000000
  0
VERTEX
  8
LAYER-1
 10
7.319445
 20
7.324604
 30
0.000000
  0
SEQEND
  8
LAYER-1
  0
POLYLINE
  8
LAYER-1
 66
  1
 70
  0
 62
  7
 10
2.292778
 20
6.985653
 30
0.000000
  0
VERTEX
  8
LAYER-1
 10
2.292778
 20
6.985653
 30
0.000000
  0
VERTEX
  8
LAYER-1
 10
7.319445
 20
6.982604
 30
0.000000
  0
SEQEND
  8
LAYER-1
  0
POLYLINE
  8
LAYER-1
 66
  1
 70
  0
 62
  7
 10
2.292778
 20
6.641835
 30
0.000000
  0
VERTEX
  8
LAYER-1
 10
2.292778
 20
6.641835
 30
0.000000
  0
VERTEX
  8
LAYER-1
 10
7.319445
 20
6.640603
 30
0.000000
  0
SEQEND
  8
LAYER-1
  0
POLYLINE
  8
LAYER-1
 66
  1
 70
  0
 62
  7
 10
2.292778
 20
6.298013
 30
0.000000
  0
VERTEX
  8
LAYER-1
 10
2.292778
 20
6.298013
 30
0.000000
  0
VERTEX
  8
LAYER-1
 10
7.319445
 20
6.298602
 30
0.000000
  0
SEQEND
  8
LAYER-1
  0
POLYLINE
  8
LAYER-1
 66
  1
 70
  0
 62
  7
 40
0.018182
 41
0.018182
 10
2.292778
 20
5.956203
 30
0.000000
  0
VERTEX
  8
LAYER-1
 10
2.292778
 20
5.956203
 30
0.000000
  0
VERTEX
  8
LAYER-1
 10
7.319445
 20
5.956601
 30
0.000000
  0
SEQEND
  8
LAYER-1
  0
TEXT
  8
LAYER-1
 62
  7
 10
6.542604
 20
7.132773
 30
0.000000
 40
0.115909
  1
12" x 12"
 72
  5
 11
7.178968
 21
7.132773
 31
0.000000
  0
TEXT
  8
LAYER-1
 62
  7
 10
6.542604
 20
6.769136
 30
0.000000
 40
0.115909
  1
14" x 16"
 72
  5
 11
7.178968
 21
6.769136
 31
0.000000
  0
TEXT
  8
LAYER-1
 62
  7
 10
6.551695
 20
6.078227
 30
0.000000
 40
0.115909
  1
18" x 20"
 72
  5
 11
7.188059
 21
6.078227
 31
0.000000
  0
TEXT
  8
LAYER-1
 62
  7
 10
3.778968
 20
7.487318
 30
0.000000
 40
0.075000
  1
10" x 10"
 72
  5
 11
4.224422
 21
7.487318
 31
0.000000
  0
TEXT
  8
LAYER-1
 62
  7
 10
3.697150
 20
7.378227
 30
0.000000
 40
0.075000
  1
Not available
 72
  5
 11
4.297150
 21
7.378227
 31
0.000000
  0
TEXT
  8
LAYER-1
 62
  7
 10
2.751695
 20
6.132773
 30
0.000000
 40
0.075000
  1
Over 20'
 72
  5
 11
3.169877
 21
6.132773
 31
0.000000
  0
TEXT
  8
LAYER-1
 62
  7
 10
2.660786
 20
6.023682
 30
0.000000
 40
0.075000
  1
Not available
 72
  5
 11
3.260786
 21
6.023682
 31
0.000000
  0
TEXT
  8
LAYER-1
 62
  7
 10
5.160786
 20
6.132773
 30
0.000000
 40
0.075000
  1
Over 20'
 72
  5
 11
5.578968
 21
6.132773
 31
0.000000
  0
TEXT
  8
LAYER-1
 62
  7
 10
5.069877
 20
6.023682
 30
0.000000
 40
0.075000
  1
Not available
 72
  5
 11
5.669877
 21
6.023682
 31
0.000000
  0
TEXT
  8
LAYER-1
 62
  7
 10
5.860786
 20
6.132773
 30
0.000000
 40
0.075000
  1
Over 20'
 72
  5
 11
6.278968
 21
6.132773
 31
0.000000
  0
TEXT
  8
LAYER-1
 62
  7
 10
5.769877
 20
6.023682
 30
0.000000
 40
0.075000
  1
Not available
 72
  5
 11
6.369877
 21
6.023682
 31
0.000000
  0
TEXT
  8
LAYER-1
 62
  7
 10
4.469877
 20
7.487318
 30
0.000000
 40
0.075000
  1
10" x 10"
 72
  5
 11
4.915332
 21
7.487318
 31
0.000000
  0
TEXT
  8
LAYER-1
 62
  7
 10
4.388059
 20
7.378227
 30
0.000000
 40
0.075000
  1
Not available
 72
  5
 11
4.988059
 21
7.378227
 31
0.000000
  0
TEXT
  8
LAYER-1
 62
  7
 10
5.160786
 20
7.496409
 30
0.000000
 40
0.075000
  1
10" x 10"
 72
  5
 11
5.606241
 21
7.496409
 31
0.000000
  0
TEXT
  8
LAYER-1
 62
  7
 10
5.078968
 20
7.387318
 30
0.000000
 40
0.075000
  1
Not available
 72
  5
 11
5.678968
 21
7.387318
 31
0.000000
  0
TEXT
  8
LAYER-1
 62
  7
 10
5.842604
 20
7.496409
 30
0.000000
 40
0.075000
  1
10" x 10"
 72
  5
 11
6.288059
 21
7.496409
 31
0.000000
  0
TEXT
  8
LAYER-1
 62
  7
 10
5.760786
 20
7.387318
 30
0.000000
 40
0.075000
  1
Not available
 72
  5
 11
6.360786
 21
7.387318
 31
0.000000
  0
TEXT
  8
LAYER-1
 62
  7
 10
2.533513
 20
7.432773
 30
0.000000
 40
0.115909
  1
up to 6'   
 72
  5
 11
3.197150
 21
7.432773
 31
0.000000
  0
TEXT
  8
LAYER-1
 62
  7
 10
2.588059
 20
6.750954
 30
0.000000
 40
0.115909
  1
10' to 18'
 72
  5
 11
3.224422
 21
6.750954
 31
0.000000
  0
TEXT
  8
LAYER-1
 62
  7
 10
2.588059
 20
6.387318
 30
0.000000
 40
0.115909
  1
18' to 20'
 72
  5
 11
3.224422
 21
6.387318
 31
0.000000
  0
TEXT
  8
LAYER-1
 62
  7
 10
2.724422
 20
7.114591
 30
0.000000
 40
0.115909
  1
6' to 10'
 72
  5
 11
3.278968
 21
7.114591
 31
0.000000
  0
TEXT
  8
LAYER-1
 62
  7
 10
3.715332
 20
6.750954
 30
0.000000
 40
0.115909
  1
6' to 10'
 72
  5
 11
4.269877
 21
6.750954
 31
0.000000
  0
TEXT
  8
LAYER-1
 62
  7
 10
3.633513
 20
6.387318
 30
0.000000
 40
0.115909
  1
10' to 15'
 72
  5
 11
4.269877
 21
6.387318
 31
0.000000
  0
TEXT
  8
LAYER-1
 62
  7
 10
3.633513
 20
6.023682
 30
0.000000
 40
0.115909
  1
15' to 20'
 72
  5
 11
4.269877
 21
6.023682
 31
0.000000
  0
TEXT
  8
LAYER-1
 62
  7
 10
3.706241
 20
7.069136
 30
0.000000
 40
0.115909
  1
up to 6'
 72
  5
 11
4.233513
 21
7.069136
 31
0.000000
  0
TEXT
  8
LAYER-1
 62
  7
 10
4.397150
 20
6.750954
 30
0.000000
 40
0.115909
  1
6' to 12'
 72
  5
 11
4.951695
 21
6.750954
 31
0.000000
  0
TEXT
  8
LAYER-1
 62
  7
 10
4.324422
 20
6.387318
 30
0.000000
 40
0.115909
  1
12' to 17'
 72
  5
 11
4.960786
 21
6.387318
 31
0.000000
  0
TEXT
  8
LAYER-1
 62
  7
 10
4.324422
 20
6.023682
 30
0.000000
 40
0.115909
  1
17' to 20'
 72
  5
 11
4.960786
 21
6.023682
 31
0.000000
  0
TEXT
  8
LAYER-1
 62
  7
 10
4.397150
 20
7.069136
 30
0.000000
 40
0.115909
  1
up to 6'
 72
  5
 11
4.924422
 21
7.069136
 31
0.000000
  0
TEXT
  8
LAYER-1
 62
  7
 10
5.097150
 20
6.750954
 30
0.000000
 40
0.115909
  1
6' to 13'
 72
  5
 11
5.651695
 21
6.750954
 31
0.000000
  0
TEXT
  8
LAYER-1
 62
  7
 10
5.015332
 20
6.387318
 30
0.000000
 40
0.115909
  1
13' to 20'
 72
  5
 11
5.651695
 21
6.387318
 31
0.000000
  0
TEXT
  8
LAYER-1
 62
  7
 10
5.097150
 20
7.069136
 30
0.000000
 40
0.115909
  1
up to 6'
 72
  5
 11
5.624422
 21
7.069136
 31
0.000000
  0
TEXT
  8
LAYER-1
 62
  7
 10
5.788059
 20
6.750954
 30
0.000000
 40
0.115909
  1
6' to 16'
 72
  5
 11
6.342604
 21
6.750954
 31
0.000000
  0
TEXT
  8
LAYER-1
 62
  7
 10
5.706241
 20
6.387318
 30
0.000000
 40
0.115909
  1
16' to 20'
 72
  5
 11
6.342604
 21
6.387318
 31
0.000000
  0
TEXT
  8
LAYER-1
 62
  7
 10
5.769877
 20
7.069136
 30
0.000000
 40
0.115909
  1
up to 6'
 72
  5
 11
6.297150
 21
7.069136
 31
0.000000
  0
TEXT
  8
LAYER-1
 62
  7
 10
2.260786
 20
5.660045
 30
0.000000
 40
0.122727
  1
End plate sizes ( For doors over 22' wide / maximum 30' wide )
 72
  5
 11
7.133513
 21
5.660045
 31
0.000000
  0
TEXT
  8
LAYER-1
 62
  7
 10
3.124422
 20
5.405500
 30
0.000000
 40
0.115909
  1
8-5/8" dia  BARREL  -  CEILING HEIGHT
 72
  5
 11
5.997150
 21
5.405500
 31
0.000000
  0
TEXT
  8
LAYER-1
 62
  7
 10
6.433513
 20
5.232773
 30
0.000000
 40
0.115909
  1
END PLATE
 72
  5
 11
7.297150
 21
5.232773
 31
0.000000
  0
TEXT
  8
LAYER-1
 62
  7
 10
6.506241
 20
5.050954
 30
0.000000
 40
0.115909
  1
"X"  x  "Y"
 72
  5
 11
7.215332
 21
5.050954
 31
0.000000
  0
TEXT
  8
LAYER-1
 62
  7
 10
6.542604
 20
4.387318
 30
0.000000
 40
0.115909
  1
16" x 18"
 72
  5
 11
7.178968
 21
4.387318
 31
0.000000
  0
TEXT
  8
LAYER-1
 62
  7
 10
6.642604
 20
4.205500
 30
0.000000
 40
0.061364
  1
min for 4"x4"
 72
  5
 11
7.160786
 21
4.205500
 31
0.000000
  0
POLYLINE
  8
LAYER-1
 66
  1
 70
  0
 62
  7
 40
0.018182
 41
0.018182
 10
2.293131
 20
5.564026
 30
0.000000
  0
VERTEX
  8
LAYER-1
 10
2.293131
 20
5.564026
 30
0.000000
  0
VERTEX
  8
LAYER-1
 10
7.319797
 20
5.564026
 30
0.000000
  0
SEQEND
  8
LAYER-1
  0
POLYLINE
  8
LAYER-1
 66
  1
 70
  0
 62
  7
 40
0.018182
 41
0.018182
 10
7.319797
 20
5.564026
 30
0.000000
  0
VERTEX
  8
LAYER-1
 10
7.319797
 20
5.564026
 30
0.000000
  0
VERTEX
  8
LAYER-1
 10
7.319797
 20
3.523978
 30
0.000000
  0
SEQEND
  8
LAYER-1
  0
POLYLINE
  8
LAYER-1
 66
  1
 70
  0
 62
  7
 40
0.018182
 41
0.018182
 10
2.293131
 20
4.891778
 30
0.000000
  0
VERTEX
  8
LAYER-1
 10
2.293131
 20
4.891778
 30
0.000000
  0
VERTEX
  8
LAYER-1
 10
7.319797
 20
4.891978
 30
0.000000
  0
SEQEND
  8
LAYER-1
  0
POLYLINE
  8
LAYER-1
 66
  1
 70
  0
 62
  7
 10
2.293131
 20
5.346700
 30
0.000000
  0
VERTEX
  8
LAYER-1
 10
2.293131
 20
5.346700
 30
0.000000
  0
VERTEX
  8
LAYER-1
 10
6.412297
 20
5.345554
 30
0.000000
  0
SEQEND
  8
LAYER-1
  0
POLYLINE
  8
LAYER-1
 66
  1
 70
  0
 62
  7
 10
6.412297
 20
5.564026
 30
0.000000
  0
VERTEX
  8
LAYER-1
 10
6.412297
 20
5.564026
 30
0.000000
  0
VERTEX
  8
LAYER-1
 10
6.412297
 20
3.523978
 30
0.000000
  0
SEQEND
  8
LAYER-1
  0
TEXT
  8
LAYER-1
 62
  7
 10
6.633513
 20
4.541863
 30
0.000000
 40
0.061364
  1
min for motor
 72
  5
 11
7.169877
 21
4.541863
 31
0.000000
  0
TEXT
  8
LAYER-1
 62
  7
 10
2.478968
 20
4.650954
 30
0.000000
 40
0.115909
  1
up to 15'   
 72
  5
 11
3.224422
 21
4.650954
 31
0.000000
  0
TEXT
  8
LAYER-1
 62
  7
 10
2.588059
 20
4.287318
 30
0.000000
 40
0.115909
  1
15' to 20'
 72
  5
 11
3.224422
 21
4.287318
 31
0.000000
  0
POLYLINE
  8
LAYER-1
 66
  1
 70
  0
 62
  7
 10
5.720671
 20
5.048645
 30
0.000000
  0
VERTEX
  8
LAYER-1
 10
5.720671
 20
5.048645
 30
0.000000
  0
VERTEX
  8
LAYER-1
 10
5.722081
 20
3.523978
 30
0.000000
  0
SEQEND
  8
LAYER-1
  0
POLYLINE
  8
LAYER-1
 66
  1
 70
  0
 62
  7
 10
5.033550
 20
5.346328
 30
0.000000
  0
VERTEX
  8
LAYER-1
 10
5.033550
 20
5.346328
 30
0.000000
  0
VERTEX
  8
LAYER-1
 10
5.032495
 20
3.523978
 30
0.000000
  0
SEQEND
  8
LAYER-1
  0
POLYLINE
  8
LAYER-1
 66
  1
 70
  0
 62
  7
 10
4.338699
 20
5.049867
 30
0.000000
  0
VERTEX
  8
LAYER-1
 10
4.338699
 20
5.049867
 30
0.000000
  0
VERTEX
  8
LAYER-1
 10
4.342347
 20
3.523978
 30
0.000000
  0
SEQEND
  8
LAYER-1
  0
POLYLINE
  8
LAYER-1
 66
  1
 70
  0
 62
  7
 10
3.651607
 20
5.346328
 30
0.000000
  0
VERTEX
  8
LAYER-1
 10
3.651607
 20
5.346328
 30
0.000000
  0
VERTEX
  8
LAYER-1
 10
3.652188
 20
3.523978
 30
0.000000
  0
SEQEND
  8
LAYER-1
  0
POLYLINE
  8
LAYER-1
 66
  1
 70
  0
 62
  7
 40
0.018182
 41
0.018182
 10
2.293131
 20
5.564026
 30
0.000000
  0
VERTEX
  8
LAYER-1
 10
2.293131
 20
5.564026
 30
0.000000
  0
VERTEX
  8
LAYER-1
 10
2.293131
 20
3.523978
 30
0.000000
  0
SEQEND
  8
LAYER-1
  0
POLYLINE
  8
LAYER-1
 66
  1
 70
  0
 62
  7
 10
2.293131
 20
4.551569
 30
0.000000
  0
VERTEX
  8
LAYER-1
 10
2.293131
 20
4.551569
 30
0.000000
  0
VERTEX
  8
LAYER-1
 10
7.319797
 20
4.549978
 30
0.000000
  0
SEQEND
  8
LAYER-1
  0
POLYLINE
  8
LAYER-1
 66
  1
 70
  0
 62
  7
 10
2.293131
 20
4.207747
 30
0.000000
  0
VERTEX
  8
LAYER-1
 10
2.293131
 20
4.207747
 30
0.000000
  0
VERTEX
  8
LAYER-1
 10
7.319797
 20
4.207979
 30
0.000000
  0
SEQEND
  8
LAYER-1
  0
POLYLINE
  8
LAYER-1
 66
  1
 70
  0
 62
  7
 10
2.293131
 20
3.867540
 30
0.000000
  0
VERTEX
  8
LAYER-1
 10
2.293131
 20
3.867540
 30
0.000000
  0
VERTEX
  8
LAYER-1
 10
7.319797
 20
3.865978
 30
0.000000
  0
SEQEND
  8
LAYER-1
  0
POLYLINE
  8
LAYER-1
 66
  1
 70
  0
 62
  7
 40
0.018182
 41
0.018182
 10
2.293131
 20
3.523978
 30
0.000000
  0
VERTEX
  8
LAYER-1
 10
2.293131
 20
3.523978
 30
0.000000
  0
VERTEX
  8
LAYER-1
 10
7.319797
 20
3.523978
 30
0.000000
  0
SEQEND
  8
LAYER-1
  0
TEXT
  8
LAYER-1
 62
  7
 10
6.542604
 20
4.732773
 30
0.000000
 40
0.115909
  1
14" x 16"
 72
  5
 11
7.178968
 21
4.732773
 31
0.000000
  0
TEXT
  8
LAYER-1
 62
  7
 10
6.551695
 20
3.641863
 30
0.000000
 40
0.115909
  1
20" x 22"
 72
  5
 11
7.188059
 21
3.641863
 31
0.000000
  0
TEXT
  8
LAYER-1
 62
  7
 10
5.433513
 20
5.169136
 30
0.000000
 40
0.102273
  1
ROLL-99
 72
  5
 11
6.024422
 21
5.169136
 31
0.000000
  0
TEXT
  8
LAYER-1
 62
  7
 10
4.451695
 20
4.950954
 30
0.000000
 40
0.075000
  1
NO HOOD
 72
  5
 11
4.933513
 21
4.950954
 31
0.000000
  0
TEXT
  8
LAYER-1
 62
  7
 10
3.706241
 20
4.950954
 30
0.000000
 40
0.075000
  1
WITH HOOD
 72
  5
 11
4.278968
 21
4.950954
 31
0.000000
  0
TEXT
  8
LAYER-1
 62
  7
 10
5.824422
 20
4.950954
 30
0.000000
 40
0.075000
  1
NO HOOD
 72
  5
 11
6.306241
 21
4.950954
 31
0.000000
  0
TEXT
  8
LAYER-1
 62
  7
 10
5.088059
 20
4.950954
 30
0.000000
 40
0.075000
  1
WITH HOOD
 72
  5
 11
5.660786
 21
4.950954
 31
0.000000
  0
POLYLINE
  8
LAYER-1
 66
  1
 70
  0
 62
  7
 10
2.292778
 20
5.051676
 30
0.000000
  0
VERTEX
  8
LAYER-1
 10
2.292778
 20
5.051676
 30
0.000000
  0
VERTEX
  8
LAYER-1
 10
6.411672
 20
5.048034
 30
0.000000
  0
SEQEND
  8
LAYER-1
  0
TEXT
  8
LAYER-1
 62
  7
 10
2.515332
 20
5.232773
 30
0.000000
 40
0.102273
  1
ROLL-VISION,
 72
  5
 11
3.424422
 21
5.232773
 31
0.000000
  0
TEXT
  8
LAYER-1
 62
  7
 10
2.333513
 20
5.078227
 30
0.000000
 40
0.102273
  1
R-AIR
 72
  5
 11
2.733513
 21
5.078227
 31
0.000000
  0
TEXT
  8
LAYER-1
 62
  7
 10
2.733513
 20
5.078227
 30
0.000000
 40
0.061364
  1
 & 
 72
  5
 11
2.888059
 21
5.078227
 31
0.000000
  0
TEXT
  8
LAYER-1
 62
  7
 10
2.888059
 20
5.078227
 30
0.000000
 40
0.102273
  1
R-SHUTTER
 72
  5
 11
3.706241
 21
5.078227
 31
0.000000
  0
TEXT
  8
LAYER-1
 62
  7
 10
2.388059
 20
4.950954
 30
0.000000
 40
0.075000
  1
WITH 
 72
  5
 11
2.688059
 21
4.950954
 31
0.000000
  0
TEXT
  8
LAYER-1
 62
  7
 10
2.688059
 20
4.950954
 30
0.000000
 40
0.061364
  1
OR
 72
  5
 11
2.851695
 21
4.950954
 31
0.000000
  0
TEXT
  8
LAYER-1
 62
  7
 10
2.851695
 20
4.950954
 30
0.000000
 40
0.075000
  1
 WITHOUT HOOD
 72
  5
 11
3.642604
 21
4.950954
 31
0.000000
  0
TEXT
  8
LAYER-1
 62
  7
 10
2.751695
 20
3.696409
 30
0.000000
 40
0.075000
  1
Over 20'
 72
  5
 11
3.169877
 21
3.696409
 31
0.000000
  0
TEXT
  8
LAYER-1
 62
  7
 10
2.660786
 20
3.587318
 30
0.000000
 40
0.075000
  1
Not available
 72
  5
 11
3.260786
 21
3.587318
 31
0.000000
  0
TEXT
  8
LAYER-1
 62
  7
 10
5.160786
 20
3.705500
 30
0.000000
 40
0.075000
  1
Over 20'
 72
  5
 11
5.578968
 21
3.705500
 31
0.000000
  0
TEXT
  8
LAYER-1
 62
  7
 10
5.069877
 20
3.596409
 30
0.000000
 40
0.075000
  1
Not available
 72
  5
 11
5.669877
 21
3.596409
 31
0.000000
  0
TEXT
  8
LAYER-1
 62
  7
 10
5.860786
 20
3.705500
 30
0.000000
 40
0.075000
  1
Over 20'
 72
  5
 11
6.278968
 21
3.705500
 31
0.000000
  0
TEXT
  8
LAYER-1
 62
  7
 10
5.769877
 20
3.596409
 30
0.000000
 40
0.075000
  1
Not available
 72
  5
 11
6.369877
 21
3.596409
 31
0.000000
  0
TEXT
  8
LAYER-1
 62
  7
 10
2.751695
 20
4.032773
 30
0.000000
 40
0.075000
  1
Over 20'
 72
  5
 11
3.169877
 21
4.032773
 31
0.000000
  0
TEXT
  8
LAYER-1
 62
  7
 10
2.660786
 20
3.923682
 30
0.000000
 40
0.075000
  1
Not available
 72
  5
 11
3.260786
 21
3.923682
 31
0.000000
  0
TEXT
  8
LAYER-1
 62
  7
 10
5.860786
 20
4.032773
 30
0.000000
 40
0.075000
  1
Over 20'
 72
  5
 11
6.278968
 21
4.032773
 31
0.000000
  0
TEXT
  8
LAYER-1
 62
  7
 10
5.769877
 20
3.923682
 30
0.000000
 40
0.075000
  1
Not available
 72
  5
 11
6.369877
 21
3.923682
 31
0.000000
  0
TEXT
  8
LAYER-1
 62
  7
 10
3.978968
 20
5.232773
 30
0.000000
 40
0.102273
  1
ROLL-126 
 72
  5
 11
4.678968
 21
5.232773
 31
0.000000
  0
TEXT
  8
LAYER-1
 62
  7
 10
4.678968
 20
5.232773
 30
0.000000
 40
0.061364
  1
&
 72
  5
 11
4.778968
 21
5.232773
 31
0.000000
  0
TEXT
  8
LAYER-1
 62
  7
 10
3.897150
 20
5.078227
 30
0.000000
 40
0.102273
  1
ROLL-GUARD
 72
  5
 11
4.815332
 21
5.078227
 31
0.000000
  0
TEXT
  8
LAYER-1
 62
  7
 10
6.669877
 20
4.678227
 30
0.000000
 40
0.061364
  1
(1" shaft)
 72
  5
 11
7.060786
 21
4.678227
 31
0.000000
  0
TEXT
  8
LAYER-1
 62
  7
 10
6.597150
 20
4.332773
 30
0.000000
 40
0.061364
  1
(1 1/4" shaft)
 72
  5
 11
7.133513
 21
4.332773
 31
0.000000
  0
TEXT
  8
LAYER-1
 62
  7
 10
6.551695
 20
3.996409
 30
0.000000
 40
0.115909
  1
18" x 20"
 72
  5
 11
7.188059
 21
3.996409
 31
0.000000
  0
TEXT
  8
LAYER-1
 62
  7
 10
3.715332
 20
4.296409
 30
0.000000
 40
0.115909
  1
8' to 13'
 72
  5
 11
4.269877
 21
4.296409
 31
0.000000
  0
TEXT
  8
LAYER-1
 62
  7
 10
3.633513
 20
3.969136
 30
0.000000
 40
0.115909
  1
13' to 15'
 72
  5
 11
4.269877
 21
3.969136
 31
0.000000
  0
TEXT
  8
LAYER-1
 62
  7
 10
3.633513
 20
3.605500
 30
0.000000
 40
0.115909
  1
15' to 20'
 72
  5
 11
4.269877
 21
3.605500
 31
0.000000
  0
TEXT
  8
LAYER-1
 62
  7
 10
3.706241
 20
4.650954
 30
0.000000
 40
0.115909
  1
up to 8'
 72
  5
 11
4.233513
 21
4.650954
 31
0.000000
  0
TEXT
  8
LAYER-1
 62
  7
 10
4.315332
 20
4.296409
 30
0.000000
 40
0.115909
  1
10' to 15'
 72
  5
 11
4.951695
 21
4.296409
 31
0.000000
  0
TEXT
  8
LAYER-1
 62
  7
 10
4.324422
 20
3.969136
 30
0.000000
 40
0.115909
  1
15' to 17'
 72
  5
 11
4.960786
 21
3.969136
 31
0.000000
  0
TEXT
  8
LAYER-1
 62
  7
 10
4.324422
 20
3.605500
 30
0.000000
 40
0.115909
  1
17' to 20'
 72
  5
 11
4.960786
 21
3.605500
 31
0.000000
  0
TEXT
  8
LAYER-1
 62
  7
 10
4.342604
 20
4.650954
 30
0.000000
 40
0.115909
  1
up to 10'
 72
  5
 11
4.951695
 21
4.650954
 31
0.000000
  0
TEXT
  8
LAYER-1
 62
  7
 10
5.706241
 20
4.296409
 30
0.000000
 40
0.115909
  1
14' to 20'
 72
  5
 11
6.342604
 21
4.296409
 31
0.000000
  0
TEXT
  8
LAYER-1
 62
  7
 10
5.733513
 20
4.650954
 30
0.000000
 40
0.115909
  1
up to 14'
 72
  5
 11
6.342604
 21
4.650954
 31
0.000000
  0
TEXT
  8
LAYER-1
 62
  7
 10
5.006241
 20
4.296409
 30
0.000000
 40
0.115909
  1
11' to 18'
 72
  5
 11
5.642604
 21
4.296409
 31
0.000000
  0
TEXT
  8
LAYER-1
 62
  7
 10
5.024422
 20
4.650954
 30
0.000000
 40
0.115909
  1
up to 11'
 72
  5
 11
5.633513
 21
4.650954
 31
0.000000
  0
TEXT
  8
LAYER-1
 62
  7
 10
5.060786
 20
4.005500
 30
0.000000
 40
0.115909
  1
18' to 20'
 72
  5
 11
5.697150
 21
4.005500
 31
0.000000
  0
POLYLINE
  8
LAYER-1
 66
  1
 70
  0
 62
  7
 40
0.018182
 41
0.018182
 10
7.319798
 20
1.380539
 30
0.000000
  0
VERTEX
  8
LAYER-1
 10
7.319798
 20
1.380539
 30
0.000000
  0
VERTEX
  8
LAYER-1
 10
7.319798
 20
0.242480
 30
0.000000
  0
SEQEND
  8
LAYER-1
  0
POLYLINE
  8
LAYER-1
 66
  1
 70
  0
 62
  7
 40
0.018182
 41
0.018182
 10
2.293131
 20
0.242480
 30
0.000000
  0
VERTEX
  8
LAYER-1
 10
2.293131
 20
0.242480
 30
0.000000
  0
VERTEX
  8
LAYER-1
 10
2.293131
 20
1.380539
 30
0.000000
  0
SEQEND
  8
LAYER-1
  0
TEXT
  8
LAYER-1
 62
  7
 10
2.351695
 20
0.705500
 30
0.000000
 40
0.115909
  1
CEILING HEIGHT
 72
  5
 11
3.606241
 21
0.705500
 31
0.000000
  0
TEXT
  8
LAYER-1
 62
  7
 10
2.333513
 20
0.369136
 30
0.000000
 40
0.115909
  1
PACK-OFF  "Z"
 72
  5
 11
3.469877
 21
0.369136
 31
0.000000
  0
POLYLINE
  8
LAYER-1
 66
  1
 70
  0
 62
  7
 40
0.018182
 41
0.018182
 10
2.293131
 20
1.380539
 30
0.000000
  0
VERTEX
  8
LAYER-1
 10
2.293131
 20
1.380539
 30
0.000000
  0
VERTEX
  8
LAYER-1
 10
7.319798
 20
1.380539
 30
0.000000
  0
SEQEND
  8
LAYER-1
  0
POLYLINE
  8
LAYER-1
 66
  1
 70
  0
 62
  7
 10
2.293131
 20
0.922481
 30
0.000000
  0
VERTEX
  8
LAYER-1
 10
2.293131
 20
0.922481
 30
0.000000
  0
VERTEX
  8
LAYER-1
 10
7.319798
 20
0.922481
 30
0.000000
  0
SEQEND
  8
LAYER-1
  0
POLYLINE
  8
LAYER-1
 66
  1
 70
  0
 62
  7
 10
2.293131
 20
0.582481
 30
0.000000
  0
VERTEX
  8
LAYER-1
 10
2.293131
 20
0.582481
 30
0.000000
  0
VERTEX
  8
LAYER-1
 10
7.319798
 20
0.582481
 30
0.000000
  0
SEQEND
  8
LAYER-1
  0
POLYLINE
  8
LAYER-1
 66
  1
 70
  0
 62
  7
 40
0.018182
 41
0.018182
 10
2.293131
 20
0.242480
 30
0.000000
  0
VERTEX
  8
LAYER-1
 10
2.293131
 20
0.242480
 30
0.000000
  0
VERTEX
  8
LAYER-1
 10
7.319798
 20
0.242480
 30
0.000000
  0
SEQEND
  8
LAYER-1
  0
TEXT
  8
LAYER-1
 62
  7
 10
3.678968
 20
0.669136
 30
0.000000
 40
0.115909
  1
up to 10'
 72
  5
 11
4.288059
 21
0.669136
 31
0.000000
  0
TEXT
  8
LAYER-1
 62
  7
 10
4.369877
 20
0.669136
 30
0.000000
 40
0.115909
  1
10' to 13'
 72
  5
 11
5.006241
 21
0.669136
 31
0.000000
  0
TEXT
  8
LAYER-1
 62
  7
 10
5.133513
 20
0.669136
 30
0.000000
 40
0.115909
  1
13' to 16'
 72
  5
 11
5.769877
 21
0.669136
 31
0.000000
  0
TEXT
  8
LAYER-1
 62
  7
 10
5.851695
 20
0.669136
 30
0.000000
 40
0.115909
  1
up to 11'
 72
  5
 11
6.460786
 21
0.669136
 31
0.000000
  0
TEXT
  8
LAYER-1
 62
  7
 10
6.515332
 20
0.669136
 30
0.000000
 40
0.115909
  1
11' and up
 72
  5
 11
7.251695
 21
0.669136
 31
0.000000
  0
TEXT
  8
LAYER-1
 62
  7
 10
5.951695
 20
1.132773
 30
0.000000
 40
0.122727
  1
For 
 72
  5
 11
6.306241
 21
1.132773
 31
0.000000
  0
TEXT
  8
LAYER-1
 62
  7
 10
6.306241
 20
1.132773
 30
0.000000
 40
0.115909
  1
4" x 4" tubes
 72
  5
 11
7.278968
 21
1.132773
 31
0.000000
  0
TEXT
  8
LAYER-1
 62
  7
 10
3.951695
 20
1.214591
 30
0.000000
 40
0.122727
  1
For 
 72
  5
 11
4.306241
 21
1.214591
 31
0.000000
  0
TEXT
  8
LAYER-1
 62
  7
 10
4.306241
 20
1.214591
 30
0.000000
 40
0.115909
  1
3" x 3" tubes and
 72
  5
 11
5.588059
 21
1.214591
 31
0.000000
  0
TEXT
  8
LAYER-1
 62
  7
 10
3.951695
 20
1.032773
 30
0.000000
 40
0.115909
  1
1 3/4" x 4" Alum tubes
 72
  5
 11
5.578968
 21
1.032773
 31
0.000000
  0
TEXT
  8
LAYER-1
 62
  7
 10
3.951695
 20
0.369136
 30
0.000000
 40
0.122727
  1
2"
 72
  5
 11
4.142604
 21
0.369136
 31
0.000000
  0
POLYLINE
  8
LAYER-1
 66
  1
 70
  0
 62
  7
 10
3.654725
 20
0.242480
 30
0.000000
  0
VERTEX
  8
LAYER-1
 10
3.654725
 20
0.242480
 30
0.000000
  0
VERTEX
  8
LAYER-1
 10
3.654725
 20
1.380539
 30
0.000000
  0
SEQEND
  8
LAYER-1
  0
POLYLINE
  8
LAYER-1
 66
  1
 70
  0
 62
  7
 10
4.388725
 20
0.242480
 30
0.000000
  0
VERTEX
  8
LAYER-1
 10
4.388725
 20
0.242480
 30
0.000000
  0
VERTEX
  8
LAYER-1
 10
4.388725
 20
0.919064
 30
0.000000
  0
SEQEND
  8
LAYER-1
  0
POLYLINE
  8
LAYER-1
 66
  1
 70
  0
 62
  7
 10
5.122726
 20
0.242480
 30
0.000000
  0
VERTEX
  8
LAYER-1
 10
5.122726
 20
0.242480
 30
0.000000
  0
VERTEX
  8
LAYER-1
 10
5.122726
 20
0.919064
 30
0.000000
  0
SEQEND
  8
LAYER-1
  0
POLYLINE
  8
LAYER-1
 66
  1
 70
  0
 62
  7
 10
5.856726
 20
0.242480
 30
0.000000
  0
VERTEX
  8
LAYER-1
 10
5.856726
 20
0.242480
 30
0.000000
  0
VERTEX
  8
LAYER-1
 10
5.856726
 20
1.377396
 30
0.000000
  0
SEQEND
  8
LAYER-1
  0
POLYLINE
  8
LAYER-1
 66
  1
 70
  0
 62
  7
 10
6.559475
 20
0.242480
 30
0.000000
  0
VERTEX
  8
LAYER-1
 10
6.559475
 20
0.242480
 30
0.000000
  0
VERTEX
  8
LAYER-1
 10
6.559475
 20
0.919064
 30
0.000000
  0
SEQEND
  8
LAYER-1
  0
TEXT
  8
LAYER-1
 62
  7
 10
4.542604
 20
0.369136
 30
0.000000
 40
0.122727
  1
2 1/4"
 72
  5
 11
5.006241
 21
0.369136
 31
0.000000
  0
TEXT
  8
LAYER-1
 62
  7
 10
5.260786
 20
0.369136
 30
0.000000
 40
0.122727
  1
2 1/2"
 72
  5
 11
5.724422
 21
0.369136
 31
0.000000
  0
TEXT
  8
LAYER-1
 62
  7
 10
5.988059
 20
0.369136
 30
0.000000
 40
0.122727
  1
2 1/4"
 72
  5
 11
6.451695
 21
0.369136
 31
0.000000
  0
TEXT
  8
LAYER-1
 62
  7
 10
6.706241
 20
0.369136
 30
0.000000
 40
0.122727
  1
2 1/2"
 72
  5
 11
7.169877
 21
0.369136
 31
0.000000
  0
TEXT
  8
LAYER-1
 62
  7
 10
2.388059
 20
1.114591
 30
0.000000
 40
0.115909
  1
SUPPORT
 72
  5
 11
3.160786
 21
1.114591
 31
0.000000
  0
TEXT
  8
LAYER-1
 62
  7
 10
2.269877
 20
0.069136
 30
0.000000
 40
0.122727
  1
* For Angle support, pre-drilled holes indicate pack-off.
 72
  5
 11
6.260786
 21
0.069136
 31
0.000000
  0
TEXT
  8
LAYER-1
 62
  7
 10
2.297150
 20
1.496409
 30
0.000000
 40
0.122727
  1
Pack-off  "Z"
 72
  5
 11
3.342604
 21
1.496409
 31
0.000000
  0
POLYLINE
  8
LAYER-1
 66
  1
 70
  1
 62
  7
  0
VERTEX
  8
LAYER-1
 10
0.070057
 20
2.678451
 30
0.000000
  0
VERTEX
  8
LAYER-1
 10
1.725631
 20
2.678451
 30
0.000000
  0
VERTEX
  8
LAYER-1
 10
1.725631
 20
2.403303
 30
0.000000
  0
VERTEX
  8
LAYER-1
 10
0.070057
 20
2.403303
 30
0.000000
  0
SEQEND
  8
LAYER-1
  0
POLYLINE
  8
LAYER-1
 66
  1
 70
  1
 62
  7
 10
0.120495
 20
2.577485
 30
0.000000
  0
VERTEX
  8
LAYER-1
 10
0.120495
 20
2.577485
 30
0.000000
  0
VERTEX
  8
LAYER-1
 10
0.096607
 20
2.573585
 30
0.000000
  0
VERTEX
  8
LAYER-1
 10
0.125110
 20
2.550205
 30
0.000000
  0
SEQEND
  8
LAYER-1
  0
POLYLINE
  8
LAYER-1
 66
  1
 70
  1
 62
  7
 10
0.154480
 20
2.634468
 30
0.000000
  0
VERTEX
  8
LAYER-1
 10
0.154480
 20
2.634468
 30
0.000000
  0
VERTEX
  8
LAYER-1
 10
0.147212
 20
2.618950
 30
0.000000
  0
VERTEX
  8
LAYER-1
 10
0.159325
 20
2.605824
 30
0.000000
  0
SEQEND
  8
LAYER-1
  0
POLYLINE
  8
LAYER-1
 66
  1
 70
  1
 62
  7
 10
0.304308
 20
2.618061
 30
0.000000
  0
VERTEX
  8
LAYER-1
 10
0.304308
 20
2.618061
 30
0.000000
  0
VERTEX
  8
LAYER-1
 10
0.297043
 20
2.602547
 30
0.000000
  0
VERTEX
  8
LAYER-1
 10
0.309157
 20
2.589418
 30
0.000000
  0
SEQEND
  8
LAYER-1
  0
POLYLINE
  8
LAYER-1
 66
  1
 70
  1
 62
  7
 10
0.349438
 20
2.625311
 30
0.000000
  0
VERTEX
  8
LAYER-1
 10
0.349438
 20
2.625311
 30
0.000000
  0
VERTEX
  8
LAYER-1
 10
0.373507
 20
2.617534
 30
0.000000
  0
VERTEX
  8
LAYER-1
 10
0.378583
 20
2.645950
 30
0.000000
  0
SEQEND
  8
LAYER-1
  0
POLYLINE
  8
LAYER-1
 66
  1
 70
  1
 62
  7
 10
0.451031
 20
2.606169
 30
0.000000
  0
VERTEX
  8
LAYER-1
 10
0.451031
 20
2.606169
 30
0.000000
  0
VERTEX
  8
LAYER-1
 10
0.457032
 20
2.589118
 30
0.000000
  0
VERTEX
  8
LAYER-1
 10
0.462107
 20
2.617534
 30
0.000000
  0
SEQEND
  8
LAYER-1
  0
POLYLINE
  8
LAYER-1
 66
  1
 70
  1
 62
  7
 10
0.375238
 20
2.527130
 30
0.000000
  0
VERTEX
  8
LAYER-1
 10
0.375238
 20
2.527130
 30
0.000000
  0
VERTEX
  8
LAYER-1
 10
0.364307
 20
2.535140
 30
0.000000
  0
VERTEX
  8
LAYER-1
 10
0.346199
 20
2.524903
 30
0.000000
  0
SEQEND
  8
LAYER-1
  0
POLYLINE
  8
LAYER-1
 66
  1
 70
  1
 62
  7
 10
0.472992
 20
2.446070
 30
0.000000
  0
VERTEX
  8
LAYER-1
 10
0.472992
 20
2.446070
 30
0.000000
  0
VERTEX
  8
LAYER-1
 10
0.479911
 20
2.460845
 30
0.000000
  0
VERTEX
  8
LAYER-1
 10
0.468375
 20
2.473350
 30
0.000000
  0
SEQEND
  8
LAYER-1
  0
POLYLINE
  8
LAYER-1
 66
  1
 70
  1
 62
  7
 10
0.356911
 20
2.448171
 30
0.000000
  0
VERTEX
  8
LAYER-1
 10
0.356911
 20
2.448171
 30
0.000000
  0
VERTEX
  8
LAYER-1
 10
0.337570
 20
2.460471
 30
0.000000
  0
VERTEX
  8
LAYER-1
 10
0.294063
 20
2.444505
 30
0.000000
  0
SEQEND
  8
LAYER-1
  0
POLYLINE
  8
LAYER-1
 66
  1
 70
  1
 62
  7
 10
0.178331
 20
2.480356
 30
0.000000
  0
VERTEX
  8
LAYER-1
 10
0.178331
 20
2.480356
 30
0.000000
  0
VERTEX
  8
LAYER-1
 10
0.184631
 20
2.462453
 30
0.000000
  0
VERTEX
  8
LAYER-1
 10
0.189961
 20
2.492289
 30
0.000000
  0
SEQEND
  8
LAYER-1
  0
POLYLINE
  8
LAYER-1
 66
  1
 70
  1
 62
  7
 10
0.239028
 20
2.495039
 30
0.000000
  0
VERTEX
  8
LAYER-1
 10
0.239028
 20
2.495039
 30
0.000000
  0
VERTEX
  8
LAYER-1
 10
0.254437
 20
2.510089
 30
0.000000
  0
VERTEX
  8
LAYER-1
 10
0.230046
 20
2.545072
 30
0.000000
  0
SEQEND
  8
LAYER-1
  0
POLYLINE
  8
LAYER-1
 66
  1
 70
  1
 62
  7
 10
0.260857
 20
2.638864
 30
0.000000
  0
VERTEX
  8
LAYER-1
 10
0.260857
 20
2.638864
 30
0.000000
  0
VERTEX
  8
LAYER-1
 10
0.216690
 20
2.629432
 30
0.000000
  0
VERTEX
  8
LAYER-1
 10
0.239004
 20
2.621124
 30
0.000000
  0
SEQEND
  8
LAYER-1
  0
POLYLINE
  8
LAYER-1
 66
  1
 70
  1
 62
  7
 10
0.508532
 20
2.551152
 30
0.000000
  0
VERTEX
  8
LAYER-1
 10
0.508532
 20
2.551152
 30
0.000000
  0
VERTEX
  8
LAYER-1
 10
0.501263
 20
2.535637
 30
0.000000
  0
VERTEX
  8
LAYER-1
 10
0.513377
 20
2.522509
 30
0.000000
  0
SEQEND
  8
LAYER-1
  0
POLYLINE
  8
LAYER-1
 66
  1
 70
  1
 62
  7
 10
0.608212
 20
2.650417
 30
0.000000
  0
VERTEX
  8
LAYER-1
 10
0.608212
 20
2.650417
 30
0.000000
  0
VERTEX
  8
LAYER-1
 10
0.584326
 20
2.646517
 30
0.000000
  0
VERTEX
  8
LAYER-1
 10
0.612830
 20
2.623137
 30
0.000000
  0
SEQEND
  8
LAYER-1
  0
POLYLINE
  8
LAYER-1
 66
  1
 70
  1
 62
  7
 10
0.687640
 20
2.636852
 30
0.000000
  0
VERTEX
  8
LAYER-1
 10
0.687640
 20
2.636852
 30
0.000000
  0
VERTEX
  8
LAYER-1
 10
0.680370
 20
2.621335
 30
0.000000
  0
VERTEX
  8
LAYER-1
 10
0.692486
 20
2.608209
 30
0.000000
  0
SEQEND
  8
LAYER-1
  0
POLYLINE
  8
LAYER-1
 66
  1
 70
  1
 62
  7
 10
0.790032
 20
2.645223
 30
0.000000
  0
VERTEX
  8
LAYER-1
 10
0.790032
 20
2.645223
 30
0.000000
  0
VERTEX
  8
LAYER-1
 10
0.805548
 20
2.637956
 30
0.000000
  0
VERTEX
  8
LAYER-1
 10
0.818676
 20
2.650070
 30
0.000000
  0
SEQEND
  8
LAYER-1
  0
POLYLINE
  8
LAYER-1
 66
  1
 70
  1
 62
  7
 10
0.762679
 20
2.567427
 30
0.000000
  0
VERTEX
  8
LAYER-1
 10
0.762679
 20
2.567427
 30
0.000000
  0
VERTEX
  8
LAYER-1
 10
0.786744
 20
2.559650
 30
0.000000
  0
VERTEX
  8
LAYER-1
 10
0.791822
 20
2.588066
 30
0.000000
  0
SEQEND
  8
LAYER-1
  0
POLYLINE
  8
LAYER-1
 66
  1
 70
  1
 62
  7
 10
0.901495
 20
2.520108
 30
0.000000
  0
VERTEX
  8
LAYER-1
 10
0.901495
 20
2.520108
 30
0.000000
  0
VERTEX
  8
LAYER-1
 10
0.882156
 20
2.532409
 30
0.000000
  0
VERTEX
  8
LAYER-1
 10
0.838648
 20
2.516441
 30
0.000000
  0
SEQEND
  8
LAYER-1
  0
POLYLINE
  8
LAYER-1
 66
  1
 70
  1
 62
  7
 10
0.801787
 20
2.448456
 30
0.000000
  0
VERTEX
  8
LAYER-1
 10
0.801787
 20
2.448456
 30
0.000000
  0
VERTEX
  8
LAYER-1
 10
0.795488
 20
2.466360
 30
0.000000
  0
VERTEX
  8
LAYER-1
 10
0.790160
 20
2.436525
 30
0.000000
  0
SEQEND
  8
LAYER-1
  0
POLYLINE
  8
LAYER-1
 66
  1
 70
  1
 62
  7
 10
0.617398
 20
2.460666
 30
0.000000
  0
VERTEX
  8
LAYER-1
 10
0.617398
 20
2.460666
 30
0.000000
  0
VERTEX
  8
LAYER-1
 10
0.605917
 20
2.469080
 30
0.000000
  0
VERTEX
  8
LAYER-1
 10
0.586906
 20
2.458327
 30
0.000000
  0
SEQEND
  8
LAYER-1
  0
POLYLINE
  8
LAYER-1
 66
  1
 70
  1
 62
  7
 10
0.666591
 20
2.420923
 30
0.000000
  0
VERTEX
  8
LAYER-1
 10
0.666591
 20
2.420923
 30
0.000000
  0
VERTEX
  8
LAYER-1
 10
0.682000
 20
2.435973
 30
0.000000
  0
VERTEX
  8
LAYER-1
 10
0.657610
 20
2.470956
 30
0.000000
  0
SEQEND
  8
LAYER-1
  0
POLYLINE
  8
LAYER-1
 66
  1
 70
  1
 62
  7
 10
0.651615
 20
2.560526
 30
0.000000
  0
VERTEX
  8
LAYER-1
 10
0.651615
 20
2.560526
 30
0.000000
  0
VERTEX
  8
LAYER-1
 10
0.579829
 20
2.556534
 30
0.000000
  0
VERTEX
  8
LAYER-1
 10
0.601385
 20
2.539581
 30
0.000000
  0
SEQEND
  8
LAYER-1
  0
POLYLINE
  8
LAYER-1
 66
  1
 70
  1
 62
  7
 10
0.949152
 20
2.581684
 30
0.000000
  0
VERTEX
  8
LAYER-1
 10
0.949152
 20
2.581684
 30
0.000000
  0
VERTEX
  8
LAYER-1
 10
0.955452
 20
2.563783
 30
0.000000
  0
VERTEX
  8
LAYER-1
 10
0.960782
 20
2.593620
 30
0.000000
  0
SEQEND
  8
LAYER-1
  0
POLYLINE
  8
LAYER-1
 66
  1
 70
  1
 62
  7
 10
1.014233
 20
2.643448
 30
0.000000
  0
VERTEX
  8
LAYER-1
 10
1.014233
 20
2.643448
 30
0.000000
  0
VERTEX
  8
LAYER-1
 10
0.990345
 20
2.639548
 30
0.000000
  0
VERTEX
  8
LAYER-1
 10
1.018848
 20
2.616169
 30
0.000000
  0
SEQEND
  8
LAYER-1
  0
POLYLINE
  8
LAYER-1
 66
  1
 70
  1
 62
  7
 10
1.218099
 20
2.613364
 30
0.000000
  0
VERTEX
  8
LAYER-1
 10
1.218099
 20
2.613364
 30
0.000000
  0
VERTEX
  8
LAYER-1
 10
1.210832
 20
2.597850
 30
0.000000
  0
VERTEX
  8
LAYER-1
 10
1.222947
 20
2.584721
 30
0.000000
  0
SEQEND
  8
LAYER-1
  0
POLYLINE
  8
LAYER-1
 66
  1
 70
  1
 62
  7
 10
1.263229
 20
2.620615
 30
0.000000
  0
VERTEX
  8
LAYER-1
 10
1.263229
 20
2.620615
 30
0.000000
  0
VERTEX
  8
LAYER-1
 10
1.287296
 20
2.612837
 30
0.000000
  0
VERTEX
  8
LAYER-1
 10
1.292373
 20
2.641254
 30
0.000000
  0
SEQEND
  8
LAYER-1
  0
POLYLINE
  8
LAYER-1
 66
  1
 70
  1
 62
  7
 10
1.364821
 20
2.601473
 30
0.000000
  0
VERTEX
  8
LAYER-1
 10
1.364821
 20
2.601473
 30
0.000000
  0
VERTEX
  8
LAYER-1
 10
1.407975
 20
2.566132
 30
0.000000
  0
VERTEX
  8
LAYER-1
 10
1.416569
 20
2.578546
 30
0.000000
  0
SEQEND
  8
LAYER-1
  0
POLYLINE
  8
LAYER-1
 66
  1
 70
  1
 62
  7
 10
1.341326
 20
2.471494
 30
0.000000
  0
VERTEX
  8
LAYER-1
 10
1.341326
 20
2.471494
 30
0.000000
  0
VERTEX
  8
LAYER-1
 10
1.335327
 20
2.488545
 30
0.000000
  0
VERTEX
  8
LAYER-1
 10
1.330250
 20
2.460130
 30
0.000000
  0
SEQEND
  8
LAYER-1
  0
POLYLINE
  8
LAYER-1
 66
  1
 70
  1
 62
  7
 10
1.226951
 20
2.491258
 30
0.000000
  0
VERTEX
  8
LAYER-1
 10
1.226951
 20
2.491258
 30
0.000000
  0
VERTEX
  8
LAYER-1
 10
1.246290
 20
2.478956
 30
0.000000
  0
VERTEX
  8
LAYER-1
 10
1.289798
 20
2.494924
 30
0.000000
  0
SEQEND
  8
LAYER-1
  0
POLYLINE
  8
LAYER-1
 66
  1
 70
  1
 62
  7
 10
1.182420
 20
2.441376
 30
0.000000
  0
VERTEX
  8
LAYER-1
 10
1.182420
 20
2.441376
 30
0.000000
  0
VERTEX
  8
LAYER-1
 10
1.176121
 20
2.459278
 30
0.000000
  0
VERTEX
  8
LAYER-1
 10
1.170791
 20
2.429443
 30
0.000000
  0
SEQEND
  8
LAYER-1
  0
POLYLINE
  8
LAYER-1
 66
  1
 70
  1
 62
  7
 10
0.930883
 20
2.481036
 30
0.000000
  0
VERTEX
  8
LAYER-1
 10
0.930883
 20
2.481036
 30
0.000000
  0
VERTEX
  8
LAYER-1
 10
0.941872
 20
2.448762
 30
0.000000
  0
VERTEX
  8
LAYER-1
 10
0.954917
 20
2.491639
 30
0.000000
  0
SEQEND
  8
LAYER-1
  0
POLYLINE
  8
LAYER-1
 66
  1
 70
  1
 62
  7
 10
0.998029
 20
2.453584
 30
0.000000
  0
VERTEX
  8
LAYER-1
 10
0.998029
 20
2.453584
 30
0.000000
  0
VERTEX
  8
LAYER-1
 10
0.986548
 20
2.461999
 30
0.000000
  0
VERTEX
  8
LAYER-1
 10
0.967536
 20
2.451246
 30
0.000000
  0
SEQEND
  8
LAYER-1
  0
POLYLINE
  8
LAYER-1
 66
  1
 70
  1
 62
  7
 10
1.117865
 20
2.521285
 30
0.000000
  0
VERTEX
  8
LAYER-1
 10
1.117865
 20
2.521285
 30
0.000000
  0
VERTEX
  8
LAYER-1
 10
1.135771
 20
2.527585
 30
0.000000
  0
VERTEX
  8
LAYER-1
 10
1.105933
 20
2.532915
 30
0.000000
  0
SEQEND
  8
LAYER-1
  0
POLYLINE
  8
LAYER-1
 66
  1
 70
  1
 62
  7
 10
1.072610
 20
2.413955
 30
0.000000
  0
VERTEX
  8
LAYER-1
 10
1.072610
 20
2.413955
 30
0.000000
  0
VERTEX
  8
LAYER-1
 10
1.088017
 20
2.429004
 30
0.000000
  0
VERTEX
  8
LAYER-1
 10
1.063628
 20
2.463988
 30
0.000000
  0
SEQEND
  8
LAYER-1
  0
POLYLINE
  8
LAYER-1
 66
  1
 70
  1
 62
  7
 10
1.174648
 20
2.634169
 30
0.000000
  0
VERTEX
  8
LAYER-1
 10
1.174648
 20
2.634169
 30
0.000000
  0
VERTEX
  8
LAYER-1
 10
1.130481
 20
2.624735
 30
0.000000
  0
VERTEX
  8
LAYER-1
 10
1.152796
 20
2.616428
 30
0.000000
  0
SEQEND
  8
LAYER-1
  0
POLYLINE
  8
LAYER-1
 66
  1
 70
  1
 62
  7
 10
1.477183
 20
2.591681
 30
0.000000
  0
VERTEX
  8
LAYER-1
 10
1.477183
 20
2.591681
 30
0.000000
  0
VERTEX
  8
LAYER-1
 10
1.505420
 20
2.551507
 30
0.000000
  0
VERTEX
  8
LAYER-1
 10
1.482029
 20
2.563039
 30
0.000000
  0
SEQEND
  8
LAYER-1
  0
POLYLINE
  8
LAYER-1
 66
  1
 70
  1
 62
  7
 10
1.522002
 20
2.645719
 30
0.000000
  0
VERTEX
  8
LAYER-1
 10
1.522002
 20
2.645719
 30
0.000000
  0
VERTEX
  8
LAYER-1
 10
1.498116
 20
2.641820
 30
0.000000
  0
VERTEX
  8
LAYER-1
 10
1.526619
 20
2.618440
 30
0.000000
  0
SEQEND
  8
LAYER-1
  0
POLYLINE
  8
LAYER-1
 66
  1
 70
  1
 62
  7
 10
1.585896
 20
2.619046
 30
0.000000
  0
VERTEX
  8
LAYER-1
 10
1.585896
 20
2.619046
 30
0.000000
  0
VERTEX
  8
LAYER-1
 10
1.601414
 20
2.611777
 30
0.000000
  0
VERTEX
  8
LAYER-1
 10
1.614539
 20
2.623892
 30
0.000000
  0
SEQEND
  8
LAYER-1
  0
POLYLINE
  8
LAYER-1
 66
  1
 70
  1
 62
  7
 10
1.512904
 20
2.443761
 30
0.000000
  0
VERTEX
  8
LAYER-1
 10
1.512904
 20
2.443761
 30
0.000000
  0
VERTEX
  8
LAYER-1
 10
1.521319
 20
2.455240
 30
0.000000
  0
VERTEX
  8
LAYER-1
 10
1.510567
 20
2.474253
 30
0.000000
  0
SEQEND
  8
LAYER-1
  0
POLYLINE
  8
LAYER-1
 66
  1
 70
  1
 62
  7
 10
1.603838
 20
2.501047
 30
0.000000
  0
VERTEX
  8
LAYER-1
 10
1.603838
 20
2.501047
 30
0.000000
  0
VERTEX
  8
LAYER-1
 10
1.588787
 20
2.516457
 30
0.000000
  0
VERTEX
  8
LAYER-1
 10
1.553805
 20
2.492068
 30
0.000000
  0
SEQEND
  8
LAYER-1
  0
POLYLINE
  8
LAYER-1
 66
  1
 70
  1
 62
  7
 10
1.715579
 20
2.443761
 30
0.000000
  0
VERTEX
  8
LAYER-1
 10
1.715579
 20
2.443761
 30
0.000000
  0
VERTEX
  8
LAYER-1
 10
1.709279
 20
2.461663
 30
0.000000
  0
VERTEX
  8
LAYER-1
 10
1.703951
 20
2.431828
 30
0.000000
  0
SEQEND
  8
LAYER-1
  0
POLYLINE
  8
LAYER-1
 66
  1
 70
  1
 62
  7
 10
1.414350
 20
2.469420
 30
0.000000
  0
VERTEX
  8
LAYER-1
 10
1.414350
 20
2.469420
 30
0.000000
  0
VERTEX
  8
LAYER-1
 10
1.425339
 20
2.437145
 30
0.000000
  0
VERTEX
  8
LAYER-1
 10
1.438381
 20
2.480022
 30
0.000000
  0
SEQEND
  8
LAYER-1
  0
POLYLINE
  8
LAYER-1
 66
  1
 70
  1
 62
  7
 10
1.681391
 20
2.531425
 30
0.000000
  0
VERTEX
  8
LAYER-1
 10
1.681391
 20
2.531425
 30
0.000000
  0
VERTEX
  8
LAYER-1
 10
1.677398
 20
2.603212
 30
0.000000
  0
VERTEX
  8
LAYER-1
 10
1.660447
 20
2.581655
 30
0.000000
  0
SEQEND
  8
LAYER-1
  0
POLYLINE
  8
LAYER-1
 66
  1
 70
  1
 62
  7
  0
VERTEX
  8
LAYER-1
 10
0.790331
 20
6.240460
 30
0.000000
  0
VERTEX
  8
LAYER-1
 10
0.860389
 20
6.240460
 30
0.000000
  0
VERTEX
  8
LAYER-1
 10
0.860389
 20
2.677800
 30
0.000000
  0
VERTEX
  8
LAYER-1
 10
0.790331
 20
2.677800
 30
0.000000
  0
SEQEND
  8
LAYER-1
  0
POLYLINE
  8
LAYER-1
 66
  1
 70
  1
 62
  7
  0
VERTEX
  8
LAYER-1
 10
0.918576
 20
6.240460
 30
0.000000
  0
VERTEX
  8
LAYER-1
 10
0.934015
 20
6.240460
 30
0.000000
  0
VERTEX
  8
LAYER-1
 10
0.934015
 20
2.679297
 30
0.000000
  0
VERTEX
  8
LAYER-1
 10
0.918576
 20
2.679297
 30
0.000000
  0
SEQEND
  8
LAYER-1
  0
LINE
  8
LAYER-1
 62
  7
 10
0.246439
 20
6.260282
 30
0.000000
 11
0.246439
 21
7.005322
 31
0.000000
  0
LINE
  8
LAYER-1
 62
  7
 10
0.727831
 20
6.240597
 30
0.000000
 11
0.121439
 21
6.240597
 31
0.000000
  0
LINE
  8
LAYER-1
 62
  7
 10
0.727508
 20
7.025008
 30
0.000000
 11
0.121439
 21
7.025008
 31
0.000000
  0
POLYLINE
  8
LAYER-1
 66
  1
 70
  1
 62
  7
  0
VERTEX
  8
LAYER-1
 10
0.246439
 20
6.240597
 30
0.000000
  0
VERTEX
  8
LAYER-1
 10
0.273712
 20
6.286051
 30
0.000000
  0
VERTEX
  8
LAYER-1
 10
0.246439
 20
6.286051
 30
0.000000
  0
VERTEX
  8
LAYER-1
 10
0.219166
 20
6.286051
 30
0.000000
  0
VERTEX
  8
LAYER-1
 10
0.246439
 20
6.240597
 30
0.000000
  0
SEQEND
  8
LAYER-1
  0
POLYLINE
  8
LAYER-1
 66
  1
 70
  1
 62
  7
  0
VERTEX
  8
LAYER-1
 10
0.246439
 20
7.025008
 30
0.000000
  0
VERTEX
  8
LAYER-1
 10
0.273711
 20
6.979553
 30
0.000000
  0
VERTEX
  8
LAYER-1
 10
0.246439
 20
6.979553
 30
0.000000
  0
VERTEX
  8
LAYER-1
 10
0.219166
 20
6.979553
 30
0.000000
  0
VERTEX
  8
LAYER-1
 10
0.246439
 20
7.025008
 30
0.000000
  0
SEQEND
  8
LAYER-1
  0
TEXT
  8
LAYER-1
 62
  7
 10
0.149056
 20
6.535957
 30
0.000000
 40
0.095455
  1
"Y"
 50
90.000000
  0
LINE
  8
LAYER-1
 62
  7
 10
0.246367
 20
2.697973
 30
0.000000
 11
0.246367
 21
6.220912
 31
0.000000
  0
LINE
  8
LAYER-1
 62
  7
 10
0.132557
 20
2.678288
 30
0.000000
 11
0.371367
 21
2.678288
 31
0.000000
  0
LINE
  8
LAYER-1
 62
  7
 10
0.727831
 20
6.240597
 30
0.000000
 11
0.121367
 21
6.240597
 31
0.000000
  0
LINE
  8
LAYER-1
 62
  7
 10
0.246367
 20
5.384052
 30
0.000000
 11
0.246367
 21
2.678288
 31
0.000000
  0
POLYLINE
  8
LAYER-1
 66
  1
 70
  1
 62
  7
  0
VERTEX
  8
LAYER-1
 10
0.246367
 20
2.678288
 30
0.000000
  0
VERTEX
  8
LAYER-1
 10
0.273640
 20
2.723743
 30
0.000000
  0
VERTEX
  8
LAYER-1
 10
0.246367
 20
2.723743
 30
0.000000
  0
VERTEX
  8
LAYER-1
 10
0.219095
 20
2.723743
 30
0.000000
  0
VERTEX
  8
LAYER-1
 10
0.246367
 20
2.678288
 30
0.000000
  0
SEQEND
  8
LAYER-1
  0
POLYLINE
  8
LAYER-1
 66
  1
 70
  1
 62
  7
  0
VERTEX
  8
LAYER-1
 10
0.246367
 20
6.240597
 30
0.000000
  0
VERTEX
  8
LAYER-1
 10
0.273640
 20
6.195142
 30
0.000000
  0
VERTEX
  8
LAYER-1
 10
0.246367
 20
6.195142
 30
0.000000
  0
VERTEX
  8
LAYER-1
 10
0.219094
 20
6.195142
 30
0.000000
  0
VERTEX
  8
LAYER-1
 10
0.246367
 20
6.240597
 30
0.000000
  0
SEQEND
  8
LAYER-1
  0
TEXT
  8
LAYER-1
 62
  7
 10
0.151665
 20
5.192539
 30
0.000000
 40
0.081818
  1
 
 50
90.000000
  0
CIRCLE
  8
LAYER-1
 62
  7
 10
0.863881
 20
6.951569
 30
0.000000
 40
0.013790
  0
CIRCLE
  8
LAYER-1
 62
  7
 10
0.839367
 20
6.632860
 30
0.000000
 40
0.009806
  0
CIRCLE
  8
LAYER-1
 62
  7
 10
0.839367
 20
6.289629
 30
0.000000
 40
0.009806
  0
CIRCLE
  8
LAYER-1
 62
  7
 10
1.134684
 20
6.656726
 30
0.000000
 40
0.159301
  0
POLYLINE
  8
LAYER-1
  6
LTYPE02
 66
  1
 70
  0
 62
  7
  6
LTYPE02
 10
0.890419
 20
6.232217
 30
0.000000
  0
VERTEX
  8
LAYER-1
  6
LTYPE02
 10
0.890419
 20
6.232217
 30
0.000000
  0
VERTEX
  8
LAYER-1
  6
LTYPE02
 10
0.890837
 20
2.845903
 30
0.000000
  0
SEQEND
  8
LAYER-1
  0
POLYLINE
  8
LAYER-1
  6
LTYPE02
 66
  1
 70
  0
 62
  7
  6
LTYPE02
 10
1.251248
 20
6.773289
 30
0.000000
  0
VERTEX
  8
LAYER-1
  6
LTYPE02
 10
1.251248
 20
6.773289
 30
0.000000
  0
VERTEX
  8
LAYER-1
  6
LTYPE02
 10
1.224299
 20
6.795760
 30
0.000000
  0
VERTEX
  8
LAYER-1
  6
LTYPE02
 10
1.195800
 20
6.810993
 30
0.000000
  0
VERTEX
  8
LAYER-1
  6
LTYPE02
 10
1.164876
 20
6.820374
 30
0.000000
  0
VERTEX
  8
LAYER-1
  6
LTYPE02
 10
1.132716
 20
6.823541
 30
0.000000
  0
VERTEX
  8
LAYER-1
  6
LTYPE02
 10
1.100556
 20
6.820374
 30
0.000000
  0
VERTEX
  8
LAYER-1
  6
LTYPE02
 10
1.069632
 20
6.810993
 30
0.000000
  0
VERTEX
  8
LAYER-1
  6
LTYPE02
 10
1.041132
 20
6.795759
 30
0.000000
  0
VERTEX
  8
LAYER-1
  6
LTYPE02
 10
1.016152
 20
6.775259
 30
0.000000
  0
VERTEX
  8
LAYER-1
  6
LTYPE02
 10
0.995651
 20
6.750279
 30
0.000000
  0
VERTEX
  8
LAYER-1
  6
LTYPE02
 10
0.980418
 20
6.721778
 30
0.000000
  0
VERTEX
  8
LAYER-1
  6
LTYPE02
 10
0.974805
 20
6.696884
 30
0.000000
  0
SEQEND
  8
LAYER-1
  0
POLYLINE
  8
LAYER-1
 66
  1
 70
  1
 62
  7
  0
VERTEX
  8
LAYER-1
 10
0.790008
 20
8.265312
 30
0.000000
  0
VERTEX
  8
LAYER-1
 10
0.934015
 20
8.265312
 30
0.000000
  0
VERTEX
  8
LAYER-1
 10
0.934015
 20
7.025008
 30
0.000000
  0
VERTEX
  8
LAYER-1
 10
0.790008
 20
7.025008
 30
0.000000
  0
SEQEND
  8
LAYER-1
  0
POLYLINE
  8
LAYER-1
 66
  1
 70
  1
 62
  7
  0
VERTEX
  8
LAYER-1
 10
0.059158
 20
8.338634
 30
0.000000
  0
VERTEX
  8
LAYER-1
 10
1.720783
 20
8.338634
 30
0.000000
  0
VERTEX
  8
LAYER-1
 10
1.720783
 20
8.256590
 30
0.000000
  0
VERTEX
  8
LAYER-1
 10
0.059158
 20
8.256590
 30
0.000000
  0
SEQEND
  8
LAYER-1
  0
LINE
  8
LAYER-1
 62
  7
 10
0.790485
 20
4.494674
 30
0.000000
 11
0.890240
 21
4.494674
 31
0.000000
  0
LINE
  8
LAYER-1
 62
  7
 10
0.790485
 20
4.476136
 30
0.000000
 11
0.790485
 21
4.619674
 31
0.000000
  0
LINE
  8
LAYER-1
 62
  7
 10
0.890240
 20
4.469354
 30
0.000000
 11
0.890240
 21
4.619674
 31
0.000000
  0
LINE
  8
LAYER-1
 62
  7
 10
0.890240
 20
4.494674
 30
0.000000
 11
1.730044
 21
4.494674
 31
0.000000
  0
LINE
  8
LAYER-1
 62
  7
 10
0.809769
 20
4.513959
 30
0.000000
 11
0.771200
 21
4.475390
 31
0.000000
  0
LINE
  8
LAYER-1
 62
  7
 10
0.909525
 20
4.513959
 30
0.000000
 11
0.870955
 21
4.475390
 31
0.000000
  0
TEXT
  8
LAYER-1
 62
  7
 10
1.633728
 20
4.572500
 30
0.000000
 40
0.068182
  1
 
  0
TEXT
  8
LAYER-1
 62
  7
 10
0.942604
 20
4.341863
 30
0.000000
 40
0.115909
  1
PACK-OFF
 72
  5
 11
1.742604
 21
4.341863
 31
0.000000
  0
POLYLINE
  8
LAYER-1
  6
LTYPE01
 66
  1
 70
  0
 62
  7
  6
LTYPE01
 10
0.934015
 20
7.025008
 30
0.000000
  0
VERTEX
  8
LAYER-1
  6
LTYPE01
 10
0.934015
 20
7.025008
 30
0.000000
  0
VERTEX
  8
LAYER-1
  6
LTYPE01
 10
0.934015
 20
6.239587
 30
0.000000
  0
SEQEND
  8
LAYER-1
  0
TEXT
  8
LAYER-1
 62
  7
 10
0.178968
 20
3.923682
 30
0.000000
 40
0.122727
  1
BOTTOM OF
 50
90.000000
 72
  5
 11
0.178968
 21
4.941863
 31
0.000000
  0
TEXT
  8
LAYER-1
 62
  7
 10
0.460786
 20
3.796409
 30
0.000000
 40
0.122727
  1
END PLATE  "H"
 50
90.000000
 72
  5
 11
0.460786
 21
5.069136
 31
0.000000
  0
TEXT
  8
LAYER-1
 62
  7
 10
1.024422
 20
7.378227
 30
0.000000
 40
0.122727
  1
"X"
 72
  5
 11
1.288059
 21
7.378227
 31
0.000000
  0
CIRCLE
  8
LAYER-1
 62
253
  6
LTYPE01
 10
1.134701
 20
6.654589
 30
0.000000
 40
0.042413
  0
TEXT
  8
LAYER-1
 62
  7
 10
0.824422
 20
5.041863
 30
0.000000
 40
0.095455
  1
C
 72
  5
 11
0.960786
 21
5.041863
 31
0.000000
  0
TEXT
  8
LAYER-1
 62
  7
 10
0.860786
 20
5.005500
 30
0.000000
 40
0.095455
  1
L
 72
  5
 11
0.978968
 21
5.005500
 31
0.000000
  0
POLYLINE
  8
LAYER-1
 66
  1
 70
  1
 62
  7
 10
0.923347
 20
2.725902
 30
0.000000
  0
VERTEX
  8
LAYER-1
 10
0.923347
 20
2.725902
 30
0.000000
  0
VERTEX
  8
LAYER-1
 10
0.923347
 20
2.846527
 30
0.000000
  0
VERTEX
  8
LAYER-1
 10
0.853034
 20
2.846527
 30
0.000000
  0
VERTEX
  8
LAYER-1
 10
0.853034
 20
2.725902
 30
0.000000
  0
VERTEX
  8
LAYER-1
 10
0.821679
 20
2.707800
 30
0.000000
  0
VERTEX
  8
LAYER-1
 10
0.821679
 20
2.679295
 30
0.000000
  0
VERTEX
  8
LAYER-1
 10
0.954701
 20
2.679295
 30
0.000000
  0
VERTEX
  8
LAYER-1
 10
0.954701
 20
2.707800
 30
0.000000
  0
SEQEND
  8
LAYER-1
  0
LINE
  8
LAYER-1
 62
  7
 10
0.809693
 20
7.339647
 30
0.000000
 11
1.457101
 21
7.339646
 31
0.000000
  0
LINE
  8
LAYER-1
 62
  7
 10
0.790008
 20
7.087508
 30
0.000000
 11
0.790008
 21
7.464646
 31
0.000000
  0
LINE
  8
LAYER-1
 62
  7
 10
1.476786
 20
7.087618
 30
0.000000
 11
1.476786
 21
7.464646
 31
0.000000
  0
POLYLINE
  8
LAYER-1
 66
  1
 70
  1
 62
  7
  0
VERTEX
  8
LAYER-1
 10
0.790008
 20
7.339646
 30
0.000000
  0
VERTEX
  8
LAYER-1
 10
0.835463
 20
7.312374
 30
0.000000
  0
VERTEX
  8
LAYER-1
 10
0.835462
 20
7.339647
 30
0.000000
  0
VERTEX
  8
LAYER-1
 10
0.835462
 20
7.366920
 30
0.000000
  0
VERTEX
  8
LAYER-1
 10
0.790008
 20
7.339646
 30
0.000000
  0
SEQEND
  8
LAYER-1
  0
POLYLINE
  8
LAYER-1
 66
  1
 70
  1
 62
  7
  0
VERTEX
  8
LAYER-1
 10
1.476786
 20
7.339646
 30
0.000000
  0
VERTEX
  8
LAYER-1
 10
1.431332
 20
7.312373
 30
0.000000
  0
VERTEX
  8
LAYER-1
 10
1.431331
 20
7.339646
 30
0.000000
  0
VERTEX
  8
LAYER-1
 10
1.431331
 20
7.366919
 30
0.000000
  0
VERTEX
  8
LAYER-1
 10
1.476786
 20
7.339646
 30
0.000000
  0
SEQEND
  8
LAYER-1
  0
TEXT
  8
LAYER-1
 62
  7
 10
1.141602
 20
7.438642
 30
0.000000
 40
0.095455
  1
 
  0
TEXT
  8
LAYER-1
 62
  7
 10
1.197150
 20
4.569136
 30
0.000000
 40
0.122727
  1
"Z"
 72
  5
 11
1.451695
 21
4.569136
 31
0.000000
  0
POLYLINE
  8
LAYER-1
 66
  1
 70
  0
 62
  7
 40
0.018182
 41
0.018182
 10
1.725631
 20
2.678451
 30
0.000000
  0
VERTEX
  8
LAYER-1
 10
1.725631
 20
2.678451
 30
0.000000
  0
VERTEX
  8
LAYER-1
 10
0.070057
 20
2.678288
 30
0.000000
  0
SEQEND
  8
LAYER-1
  0
POLYLINE
  8
LAYER-1
 66
  1
 70
  1
 62
  7
  0
VERTEX
  8
LAYER-1
 10
0.471652
 20
2.626285
 30
0.000000
  0
VERTEX
  8
LAYER-1
 10
1.256808
 20
2.626285
 30
0.000000
  0
VERTEX
  8
LAYER-1
 10
1.256808
 20
2.434880
 30
0.000000
  0
VERTEX
  8
LAYER-1
 10
0.471652
 20
2.434880
 30
0.000000
  0
SEQEND
  8
LAYER-1
  0
TEXT
  8
LAYER-1
 62
  7
 10
0.478968
 20
2.496409
 30
0.000000
 40
0.122727
  1
SECTION
 72
  5
 11
1.251695
 21
2.496409
 31
0.000000
  0
TEXT
  8
LAYER-1
 62
  7
 10
0.033513
 20
7.823682
 30
0.000000
 40
0.102273
  1
TUBE
 72
  5
 11
0.433513
 21
7.823682
 31
0.000000
  0
TEXT
  8
LAYER-1
 62
  7
 10
0.033513
 20
7.669136
 30
0.000000
 40
0.102273
  1
SUPPORT
 72
  5
 11
0.733513
 21
7.669136
 31
0.000000
  0
POLYLINE
  8
LAYER-1
 66
  1
 70
  0
 62
  7
 10
0.477642
 20
7.859793
 30
0.000000
  0
VERTEX
  8
LAYER-1
 10
0.477642
 20
7.859793
 30
0.000000
  0
VERTEX
  8
LAYER-1
 10
0.770457
 20
7.859793
 30
0.000000
  0
SEQEND
  8
LAYER-1
  0
POLYLINE
  8
LAYER-1
 66
  1
 70
  1
 62
  7
  0
VERTEX
  8
LAYER-1
 10
0.790142
 20
7.859793
 30
0.000000
  0
VERTEX
  8
LAYER-1
 10
0.744688
 20
7.832520
 30
0.000000
  0
VERTEX
  8
LAYER-1
 10
0.744687
 20
7.859793
 30
0.000000
  0
VERTEX
  8
LAYER-1
 10
0.744687
 20
7.887066
 30
0.000000
  0
VERTEX
  8
LAYER-1
 10
0.790142
 20
7.859793
 30
0.000000
  0
SEQEND
  8
LAYER-1
  0
POLYLINE
  8
LAYER-1
 66
  1
 70
  0
 62
  7
 10
0.920811
 20
6.214658
 30
0.000000
  0
VERTEX
  8
LAYER-1
 10
0.920811
 20
6.214658
 30
0.000000
  0
VERTEX
  8
LAYER-1
 10
0.932531
 20
6.239053
 30
0.000000
  0
SEQEND
  8
LAYER-1
  0
POLYLINE
  8
LAYER-1
 66
  1
 70
  0
 62
  7
 10
0.920811
 20
6.214739
 30
0.000000
  0
VERTEX
  8
LAYER-1
 10
0.920811
 20
6.214739
 30
0.000000
  0
VERTEX
  8
LAYER-1
 10
0.918161
 20
6.215062
 30
0.000000
  0
VERTEX
  8
LAYER-1
 10
0.917626
 20
6.213364
 30
0.000000
  0
VERTEX
  8
LAYER-1
 10
0.917240
 20
6.211625
 30
0.000000
  0
VERTEX
  8
LAYER-1
 10
0.917008
 20
6.209859
 30
0.000000
  0
VERTEX
  8
LAYER-1
 10
0.918898
 20
6.206111
 30
0.000000
  0
SEQEND
  8
LAYER-1
  0
POLYLINE
  8
LAYER-1
 66
  1
 70
  0
 62
  7
 10
0.908514
 20
6.214291
 30
0.000000
  0
VERTEX
  8
LAYER-1
 10
0.908514
 20
6.214291
 30
0.000000
  0
VERTEX
  8
LAYER-1
 10
0.914224
 20
6.226175
 30
0.000000
  0
SEQEND
  8
LAYER-1
  0
POLYLINE
  8
LAYER-1
 66
  1
 70
  0
 62
  7
 10
0.908514
 20
6.214372
 30
0.000000
  0
VERTEX
  8
LAYER-1
 10
0.908514
 20
6.214372
 30
0.000000
  0
VERTEX
  8
LAYER-1
 10
0.905864
 20
6.214696
 30
0.000000
  0
VERTEX
  8
LAYER-1
 10
0.905328
 20
6.212997
 30
0.000000
  0
VERTEX
  8
LAYER-1
 10
0.904943
 20
6.211258
 30
0.000000
  0
VERTEX
  8
LAYER-1
 10
0.904710
 20
6.209493
 30
0.000000
  0
VERTEX
  8
LAYER-1
 10
0.906601
 20
6.205744
 30
0.000000
  0
SEQEND
  8
LAYER-1
  0
POLYLINE
  8
LAYER-1
 66
  1
 70
  0
 62
  7
 10
0.932531
 20
6.239053
 30
0.000000
  0
VERTEX
  8
LAYER-1
 10
0.932531
 20
6.239053
 30
0.000000
  0
VERTEX
  8
LAYER-1
 10
0.914224
 20
6.226175
 30
0.000000
  0
SEQEND
  8
LAYER-1
  0
POLYLINE
  8
LAYER-1
 66
  1
 70
  0
 62
  7
 10
0.918576
 20
6.240460
 30
0.000000
  0
VERTEX
  8
LAYER-1
 10
0.918576
 20
6.240460
 30
0.000000
  0
VERTEX
  8
LAYER-1
 10
0.918576
 20
6.229522
 30
0.000000
  0
SEQEND
  8
LAYER-1
  0
POLYLINE
  8
LAYER-1
 66
  1
 70
  0
 62
  7
 10
0.914201
 20
6.240460
 30
0.000000
  0
VERTEX
  8
LAYER-1
 10
0.914201
 20
6.240460
 30
0.000000
  0
VERTEX
  8
LAYER-1
 10
0.914201
 20
6.225585
 30
0.000000
  0
SEQEND
  8
LAYER-1
  0
POLYLINE
  8
LAYER-1
 66
  1
 70
  0
 62
  7
 10
0.907303
 20
6.201922
 30
0.000000
  0
VERTEX
  8
LAYER-1
 10
0.907303
 20
6.201922
 30
0.000000
  0
VERTEX
  8
LAYER-1
 10
0.925487
 20
6.201922
 30
0.000000
  0
SEQEND
  8
LAYER-1
  0
POLYLINE
  8
LAYER-1
 66
  1
 70
  0
 62
  7
 10
0.926870
 20
6.200539
 30
0.000000
  0
VERTEX
  8
LAYER-1
 10
0.926870
 20
6.200539
 30
0.000000
  0
VERTEX
  8
LAYER-1
 10
0.926870
 20
6.154347
 30
0.000000
  0
SEQEND
  8
LAYER-1
  0
POLYLINE
  8
LAYER-1
 66
  1
 70
  0
 62
  7
 10
0.925487
 20
6.152964
 30
0.000000
  0
VERTEX
  8
LAYER-1
 10
0.925487
 20
6.152964
 30
0.000000
  0
VERTEX
  8
LAYER-1
 10
0.907303
 20
6.152964
 30
0.000000
  0
SEQEND
  8
LAYER-1
  0
POLYLINE
  8
LAYER-1
 66
  1
 70
  0
 62
  7
 10
0.905920
 20
6.154347
 30
0.000000
  0
VERTEX
  8
LAYER-1
 10
0.905920
 20
6.154347
 30
0.000000
  0
VERTEX
  8
LAYER-1
 10
0.905920
 20
6.200539
 30
0.000000
  0
SEQEND
  8
LAYER-1
  0
ARC
  8
LAYER-1
 62
  7
 10
0.907303
 20
6.200539
 30
0.000000
 40
0.001383
 50
270.000000
 51
0.000000
  0
ARC
  8
LAYER-1
 62
  7
 10
0.907303
 20
6.154347
 30
0.000000
 40
0.001383
 50
0.000000
 51
90.000000
  0
ARC
  8
LAYER-1
 62
  7
 10
0.925487
 20
6.154347
 30
0.000000
 40
0.001383
 50
90.000000
 51
180.000000
  0
ARC
  8
LAYER-1
 62
  7
 10
0.925487
 20
6.200539
 30
0.000000
 40
0.001383
 50
180.000000
 51
270.000000
  0
POLYLINE
  8
LAYER-1
 66
  1
 70
  1
 62
  7
 10
0.925331
 20
6.154330
 30
0.000000
  0
VERTEX
  8
LAYER-1
 10
0.925331
 20
6.154330
 30
0.000000
  0
VERTEX
  8
LAYER-1
 10
0.907183
 20
6.154330
 30
0.000000
  0
VERTEX
  8
LAYER-1
 10
0.907183
 20
6.200672
 30
0.000000
  0
VERTEX
  8
LAYER-1
 10
0.925331
 20
6.200672
 30
0.000000
  0
SEQEND
  8
LAYER-1
  0
POLYLINE
  8
LAYER-1
 66
  1
 70
  0
 62
  7
 10
0.919173
 20
6.200672
 30
0.000000
  0
VERTEX
  8
LAYER-1
 10
0.919173
 20
6.200672
 30
0.000000
  0
VERTEX
  8
LAYER-1
 10
0.919173
 20
6.154330
 30
0.000000
  0
SEQEND
  8
LAYER-1
  0
POLYLINE
  8
LAYER-1
 66
  1
 70
  0
 62
  7
 10
0.925331
 20
6.200672
 30
0.000000
  0
VERTEX
  8
LAYER-1
 10
0.925331
 20
6.200672
 30
0.000000
  0
VERTEX
  8
LAYER-1
 10
0.920670
 20
6.169835
 30
0.000000
  0
VERTEX
  8
LAYER-1
 10
0.925331
 20
6.154329
 30
0.000000
  0
SEQEND
  8
LAYER-1
  0
POLYLINE
  8
LAYER-1
 66
  1
 70
  0
 62
  7
 10
0.907183
 20
6.200671
 30
0.000000
  0
VERTEX
  8
LAYER-1
 10
0.907183
 20
6.200671
 30
0.000000
  0
VERTEX
  8
LAYER-1
 10
0.913476
 20
6.198545
 30
0.000000
  0
VERTEX
  8
LAYER-1
 10
0.922213
 20
6.201491
 30
0.000000
  0
VERTEX
  8
LAYER-1
 10
0.925331
 20
6.200671
 30
0.000000
  0
SEQEND
  8
LAYER-1
  0
POLYLINE
  8
LAYER-1
 66
  1
 70
  0
 62
  7
 10
0.925331
 20
6.154330
 30
0.000000
  0
VERTEX
  8
LAYER-1
 10
0.925331
 20
6.154330
 30
0.000000
  0
VERTEX
  8
LAYER-1
 10
0.915636
 20
6.160616
 30
0.000000
  0
VERTEX
  8
LAYER-1
 10
0.907120
 20
6.158204
 30
0.000000
  0
VERTEX
  8
LAYER-1
 10
0.907183
 20
6.154330
 30
0.000000
  0
SEQEND
  8
LAYER-1
  0
POLYLINE
  8
LAYER-1
 66
  1
 70
  0
 62
  7
 10
0.907183
 20
6.154330
 30
0.000000
  0
VERTEX
  8
LAYER-1
 10
0.907183
 20
6.154330
 30
0.000000
  0
VERTEX
  8
LAYER-1
 10
0.908350
 20
6.186878
 30
0.000000
  0
VERTEX
  8
LAYER-1
 10
0.907183
 20
6.200672
 30
0.000000
  0
SEQEND
  8
LAYER-1
  0
POLYLINE
  8
LAYER-1
 66
  1
 70
  0
 62
  7
 40
0.018182
 41
0.018182
 10
4.342504
 20
1.924950
 30
0.000000
  0
VERTEX
  8
LAYER-1
 10
4.342504
 20
1.924950
 30
0.000000
  0
VERTEX
  8
LAYER-1
 10
4.342504
 20
2.944950
 30
0.000000
  0
SEQEND
  8
LAYER-1
  0
POLYLINE
  8
LAYER-1
 66
  1
 70
  0
 62
  7
 10
6.398197
 20
2.947986
 30
0.000000
  0
VERTEX
  8
LAYER-1
 10
6.398197
 20
2.947986
 30
0.000000
  0
VERTEX
  8
LAYER-1
 10
6.398197
 20
1.925416
 30
0.000000
  0
SEQEND
  8
LAYER-1
  0
TEXT
  8
LAYER-1
 62
  7
 10
4.733513
 20
2.787318
 30
0.000000
 40
0.115909
  1
CEILING HEIGHT
 72
  5
 11
5.988059
 21
2.787318
 31
0.000000
  0
TEXT
  8
LAYER-1
 62
  7
 10
6.415332
 20
2.787318
 30
0.000000
 40
0.115909
  1
END PLATE
 72
  5
 11
7.306241
 21
2.787318
 31
0.000000
  0
TEXT
  8
LAYER-1
 62
  7
 10
6.542604
 20
2.005500
 30
0.000000
 40
0.115909
  1
10" x 10"
 72
  5
 11
7.178968
 21
2.005500
 31
0.000000
  0
TEXT
  8
LAYER-1
 62
  7
 10
6.624422
 20
2.369136
 30
0.000000
 40
0.115909
  1
8" x 8"
 72
  5
 11
7.097150
 21
2.369136
 31
0.000000
  0
TEXT
  8
LAYER-1
 62
  7
 10
4.342604
 20
3.223682
 30
0.000000
 40
0.122727
  1
End plate sizes
 72
  5
 11
5.569877
 21
3.223682
 31
0.000000
  0
TEXT
  8
LAYER-1
 62
  7
 10
5.569877
 20
3.223682
 30
0.000000
 40
0.115909
  1
: 4" & 4 
 72
  5
 11
6.197150
 21
3.223682
 31
0.000000
  0
TEXT
  8
LAYER-1
 62
  7
 10
6.197150
 20
3.223682
 30
0.000000
 40
0.095455
  1
1/2
 72
  5
 11
6.424422
 21
3.223682
 31
0.000000
  0
TEXT
  8
LAYER-1
 62
  7
 10
6.424422
 20
3.223682
 30
0.000000
 40
0.115909
  1
" dia Barrel
 72
  5
 11
7.278968
 21
3.223682
 31
0.000000
  0
TEXT
  8
LAYER-1
 62
  7
 10
4.342604
 20
3.032773
 30
0.000000
 40
0.122727
  1
( For Counter Shutter & SLIM models )
 72
  5
 11
7.360786
 21
3.032773
 31
0.000000
  0
POLYLINE
  8
LAYER-1
 66
  1
 70
  0
 62
  7
 40
0.018182
 41
0.018182
 10
7.321392
 20
2.946247
 30
0.000000
  0
VERTEX
  8
LAYER-1
 10
7.321392
 20
2.946247
 30
0.000000
  0
VERTEX
  8
LAYER-1
 10
7.321392
 20
1.924950
 30
0.000000
  0
SEQEND
  8
LAYER-1
  0
POLYLINE
  8
LAYER-1
 66
  1
 70
  0
 62
  7
 10
4.351267
 20
2.264951
 30
0.000000
  0
VERTEX
  8
LAYER-1
 10
4.351267
 20
2.264951
 30
0.000000
  0
VERTEX
  8
LAYER-1
 10
7.321393
 20
2.264951
 30
0.000000
  0
SEQEND
  8
LAYER-1
  0
POLYLINE
  8
LAYER-1
 66
  1
 70
  0
 62
  7
 10
4.344517
 20
2.604950
 30
0.000000
  0
VERTEX
  8
LAYER-1
 10
4.344517
 20
2.604950
 30
0.000000
  0
VERTEX
  8
LAYER-1
 10
7.321393
 20
2.604950
 30
0.000000
  0
SEQEND
  8
LAYER-1
  0
POLYLINE
  8
LAYER-1
 66
  1
 70
  0
 62
  7
 40
0.018182
 41
0.018182
 10
4.348391
 20
2.944950
 30
0.000000
  0
VERTEX
  8
LAYER-1
 10
4.348391
 20
2.944950
 30
0.000000
  0
VERTEX
  8
LAYER-1
 10
7.321392
 20
2.944950
 30
0.000000
  0
SEQEND
  8
LAYER-1
  0
POLYLINE
  8
LAYER-1
 66
  1
 70
  0
 62
  7
 40
0.018182
 41
0.018182
 10
4.348391
 20
1.924950
 30
0.000000
  0
VERTEX
  8
LAYER-1
 10
4.348391
 20
1.924950
 30
0.000000
  0
VERTEX
  8
LAYER-1
 10
7.321392
 20
1.924950
 30
0.000000
  0
SEQEND
  8
LAYER-1
  0
TEXT
  8
LAYER-1
 62
  7
 10
5.569877
 20
2.378227
 30
0.000000
 40
0.115909
  1
up to  7'
 72
  5
 11
6.142604
 21
2.378227
 31
0.000000
  0
TEXT
  8
LAYER-1
 62
  7
 10
5.642604
 20
2.060045
 30
0.000000
 40
0.115909
  1
7'  to 12'
 72
  5
 11
6.242604
 21
2.060045
 31
0.000000
  0
TEXT
  8
LAYER-1
 62
  7
 10
5.669877
 20
2.641863
 30
0.000000
 40
0.075000
  1
NO HOOD
 72
  5
 11
6.151695
 21
2.641863
 31
0.000000
  0
TEXT
  8
LAYER-1
 62
  7
 10
4.578968
 20
2.641863
 30
0.000000
 40
0.075000
  1
WITH HOOD
 72
  5
 11
5.151695
 21
2.641863
 31
0.000000
  0
POLYLINE
  8
LAYER-1
 66
  1
 70
  0
 62
  7
 10
4.344517
 20
2.741863
 30
0.000000
  0
VERTEX
  8
LAYER-1
 10
4.344517
 20
2.741863
 30
0.000000
  0
VERTEX
  8
LAYER-1
 10
6.398197
 20
2.741863
 30
0.000000
  0
SEQEND
  8
LAYER-1
  0
POLYLINE
  8
LAYER-1
 66
  1
 70
  0
 62
  7
 10
5.378968
 20
2.741863
 30
0.000000
  0
VERTEX
  8
LAYER-1
 10
5.378968
 20
2.741863
 30
0.000000
  0
VERTEX
  8
LAYER-1
 10
5.378968
 20
1.925416
 30
0.000000
  0
SEQEND
  8
LAYER-1
  0
TEXT
  8
LAYER-1
 62
  7
 10
4.569877
 20
2.378227
 30
0.000000
 40
0.115909
  1
up to  6'
 72
  5
 11
5.142604
 21
2.378227
 31
0.000000
  0
TEXT
  8
LAYER-1
 62
  7
 10
4.642604
 20
2.060045
 30
0.000000
 40
0.115909
  1
6'  to 10'
 72
  5
 11
5.242604
 21
2.060045
 31
0.000000
  0
POLYLINE
  8
LAYER-1
 66
  1
 70
  0
 62
  7
 10
0.316902
 20
0.814677
 30
0.000000
  0
VERTEX
  8
LAYER-1
 10
0.316902
 20
0.814677
 30
0.000000
  0
VERTEX
  8
LAYER-1
 10
0.316902
 20
0.716010
 30
0.000000
  0
SEQEND
  8
LAYER-1
  0
POLYLINE
  8
LAYER-1
 66
  1
 70
  0
 62
  7
 10
0.316902
 20
0.814677
 30
0.000000
  0
VERTEX
  8
LAYER-1
 10
0.316902
 20
0.814677
 30
0.000000
  0
VERTEX
  8
LAYER-1
 10
0.316882
 20
0.820977
 30
0.000000
  0
SEQEND
  8
LAYER-1
  0
POLYLINE
  8
LAYER-1
 66
  1
 70
  0
 62
  7
 10
0.316882
 20
0.820977
 30
0.000000
  0
VERTEX
  8
LAYER-1
 10
0.316882
 20
0.820977
 30
0.000000
  0
VERTEX
  8
LAYER-1
 10
0.316882
 20
1.040685
 30
0.000000
  0
SEQEND
  8
LAYER-1
  0
POLYLINE
  8
LAYER-1
 66
  1
 70
  0
 62
  7
 10
0.316882
 20
1.040685
 30
0.000000
  0
VERTEX
  8
LAYER-1
 10
0.316882
 20
1.040685
 30
0.000000
  0
VERTEX
  8
LAYER-1
 10
0.316882
 20
1.046985
 30
0.000000
  0
SEQEND
  8
LAYER-1
  0
POLYLINE
  8
LAYER-1
 66
  1
 70
  0
 62
  7
 10
0.316882
 20
1.046985
 30
0.000000
  0
VERTEX
  8
LAYER-1
 10
0.316882
 20
1.046985
 30
0.000000
  0
VERTEX
  8
LAYER-1
 10
0.316882
 20
1.264319
 30
0.000000
  0
SEQEND
  8
LAYER-1
  0
POLYLINE
  8
LAYER-1
 66
  1
 70
  0
 62
  7
 10
0.320032
 20
1.267469
 30
0.000000
  0
VERTEX
  8
LAYER-1
 10
0.320032
 20
1.267469
 30
0.000000
  0
VERTEX
  8
LAYER-1
 10
0.316882
 20
1.264319
 30
0.000000
  0
SEQEND
  8
LAYER-1
  0
POLYLINE
  8
LAYER-1
 66
  1
 70
  0
 62
  7
 10
0.336862
 20
1.250717
 30
0.000000
  0
VERTEX
  8
LAYER-1
 10
0.336862
 20
1.250717
 30
0.000000
  0
VERTEX
  8
LAYER-1
 10
0.320032
 20
1.267469
 30
0.000000
  0
SEQEND
  8
LAYER-1
  0
POLYLINE
  8
LAYER-1
 66
  1
 70
  0
 62
  7
 10
0.336862
 20
1.250717
 30
0.000000
  0
VERTEX
  8
LAYER-1
 10
0.336862
 20
1.250717
 30
0.000000
  0
VERTEX
  8
LAYER-1
 10
0.333711
 20
1.247566
 30
0.000000
  0
SEQEND
  8
LAYER-1
  0
POLYLINE
  8
LAYER-1
 66
  1
 70
  0
 62
  7
 10
0.333711
 20
1.238177
 30
0.000000
  0
VERTEX
  8
LAYER-1
 10
0.333711
 20
1.238177
 30
0.000000
  0
VERTEX
  8
LAYER-1
 10
0.333711
 20
1.247566
 30
0.000000
  0
SEQEND
  8
LAYER-1
  0
POLYLINE
  8
LAYER-1
 66
  1
 70
  0
 62
  7
 10
0.333711
 20
1.238177
 30
0.000000
  0
VERTEX
  8
LAYER-1
 10
0.333711
 20
1.238177
 30
0.000000
  0
VERTEX
  8
LAYER-1
 10
0.336862
 20
1.235028
 30
0.000000
  0
SEQEND
  8
LAYER-1
  0
POLYLINE
  8
LAYER-1
 66
  1
 70
  0
 62
  7
 10
0.353091
 20
1.235026
 30
0.000000
  0
VERTEX
  8
LAYER-1
 10
0.353091
 20
1.235026
 30
0.000000
  0
VERTEX
  8
LAYER-1
 10
0.336862
 20
1.235026
 30
0.000000
  0
SEQEND
  8
LAYER-1
  0
POLYLINE
  8
LAYER-1
 66
  1
 70
  0
 62
  7
 10
0.356241
 20
1.231876
 30
0.000000
  0
VERTEX
  8
LAYER-1
 10
0.356241
 20
1.231876
 30
0.000000
  0
VERTEX
  8
LAYER-1
 10
0.353091
 20
1.235026
 30
0.000000
  0
SEQEND
  8
LAYER-1
  0
POLYLINE
  8
LAYER-1
 66
  1
 70
  0
 62
  7
 10
0.356241
 20
1.217176
 30
0.000000
  0
VERTEX
  8
LAYER-1
 10
0.356241
 20
1.217176
 30
0.000000
  0
VERTEX
  8
LAYER-1
 10
0.356241
 20
1.231876
 30
0.000000
  0
SEQEND
  8
LAYER-1
  0
POLYLINE
  8
LAYER-1
 66
  1
 70
  0
 62
  7
 10
0.353091
 20
1.214026
 30
0.000000
  0
VERTEX
  8
LAYER-1
 10
0.353091
 20
1.214026
 30
0.000000
  0
VERTEX
  8
LAYER-1
 10
0.356241
 20
1.217176
 30
0.000000
  0
SEQEND
  8
LAYER-1
  0
POLYLINE
  8
LAYER-1
 66
  1
 70
  0
 62
  7
 10
0.336831
 20
1.214026
 30
0.000000
  0
VERTEX
  8
LAYER-1
 10
0.336831
 20
1.214026
 30
0.000000
  0
VERTEX
  8
LAYER-1
 10
0.353091
 20
1.214026
 30
0.000000
  0
SEQEND
  8
LAYER-1
  0
POLYLINE
  8
LAYER-1
 66
  1
 70
  0
 62
  7
 10
0.336831
 20
1.214026
 30
0.000000
  0
VERTEX
  8
LAYER-1
 10
0.336831
 20
1.214026
 30
0.000000
  0
VERTEX
  8
LAYER-1
 10
0.333681
 20
1.210876
 30
0.000000
  0
SEQEND
  8
LAYER-1
  0
POLYLINE
  8
LAYER-1
 66
  1
 70
  0
 62
  7
 10
0.333681
 20
1.201366
 30
0.000000
  0
VERTEX
  8
LAYER-1
 10
0.333681
 20
1.201366
 30
0.000000
  0
VERTEX
  8
LAYER-1
 10
0.333681
 20
1.210876
 30
0.000000
  0
SEQEND
  8
LAYER-1
  0
POLYLINE
  8
LAYER-1
 66
  1
 70
  0
 62
  7
 10
0.333681
 20
1.201366
 30
0.000000
  0
VERTEX
  8
LAYER-1
 10
0.333681
 20
1.201366
 30
0.000000
  0
VERTEX
  8
LAYER-1
 10
0.336831
 20
1.198217
 30
0.000000
  0
SEQEND
  8
LAYER-1
  0
POLYLINE
  8
LAYER-1
 66
  1
 70
  0
 62
  7
 10
0.382498
 20
1.198217
 30
0.000000
  0
VERTEX
  8
LAYER-1
 10
0.382498
 20
1.198217
 30
0.000000
  0
VERTEX
  8
LAYER-1
 10
0.336831
 20
1.198217
 30
0.000000
  0
SEQEND
  8
LAYER-1
  0
POLYLINE
  8
LAYER-1
 66
  1
 70
  0
 62
  7
 10
0.385648
 20
1.195067
 30
0.000000
  0
VERTEX
  8
LAYER-1
 10
0.385648
 20
1.195067
 30
0.000000
  0
VERTEX
  8
LAYER-1
 10
0.382498
 20
1.198217
 30
0.000000
  0
SEQEND
  8
LAYER-1
  0
POLYLINE
  8
LAYER-1
 66
  1
 70
  0
 62
  7
 10
0.385648
 20
1.184567
 30
0.000000
  0
VERTEX
  8
LAYER-1
 10
0.385648
 20
1.184567
 30
0.000000
  0
VERTEX
  8
LAYER-1
 10
0.385648
 20
1.195067
 30
0.000000
  0
SEQEND
  8
LAYER-1
  0
POLYLINE
  8
LAYER-1
 66
  1
 70
  0
 62
  7
 10
0.382498
 20
1.181416
 30
0.000000
  0
VERTEX
  8
LAYER-1
 10
0.382498
 20
1.181416
 30
0.000000
  0
VERTEX
  8
LAYER-1
 10
0.385648
 20
1.184567
 30
0.000000
  0
SEQEND
  8
LAYER-1
  0
POLYLINE
  8
LAYER-1
 66
  1
 70
  0
 62
  7
 10
0.336864
 20
1.181416
 30
0.000000
  0
VERTEX
  8
LAYER-1
 10
0.336864
 20
1.181416
 30
0.000000
  0
VERTEX
  8
LAYER-1
 10
0.382498
 20
1.181416
 30
0.000000
  0
SEQEND
  8
LAYER-1
  0
POLYLINE
  8
LAYER-1
 66
  1
 70
  0
 62
  7
 10
0.336864
 20
1.181416
 30
0.000000
  0
VERTEX
  8
LAYER-1
 10
0.336864
 20
1.181416
 30
0.000000
  0
VERTEX
  8
LAYER-1
 10
0.333714
 20
1.178266
 30
0.000000
  0
SEQEND
  8
LAYER-1
  0
POLYLINE
  8
LAYER-1
 66
  1
 70
  0
 62
  7
 10
0.333714
 20
1.137779
 30
0.000000
  0
VERTEX
  8
LAYER-1
 10
0.333714
 20
1.137779
 30
0.000000
  0
VERTEX
  8
LAYER-1
 10
0.333714
 20
1.178266
 30
0.000000
  0
SEQEND
  8
LAYER-1
  0
POLYLINE
  8
LAYER-1
 66
  1
 70
  0
 62
  7
 10
0.333714
 20
1.137779
 30
0.000000
  0
VERTEX
  8
LAYER-1
 10
0.333714
 20
1.137779
 30
0.000000
  0
VERTEX
  8
LAYER-1
 10
0.336864
 20
1.134628
 30
0.000000
  0
SEQEND
  8
LAYER-1
  0
POLYLINE
  8
LAYER-1
 66
  1
 70
  0
 62
  7
 10
0.336862
 20
1.108311
 30
0.000000
  0
VERTEX
  8
LAYER-1
 10
0.336862
 20
1.108311
 30
0.000000
  0
VERTEX
  8
LAYER-1
 10
0.336864
 20
1.134628
 30
0.000000
  0
SEQEND
  8
LAYER-1
  0
POLYLINE
  8
LAYER-1
 66
  1
 70
  0
 62
  7
 10
0.336862
 20
1.108310
 30
0.000000
  0
VERTEX
  8
LAYER-1
 10
0.336862
 20
1.108310
 30
0.000000
  0
VERTEX
  8
LAYER-1
 10
0.333711
 20
1.105159
 30
0.000000
  0
SEQEND
  8
LAYER-1
  0
POLYLINE
  8
LAYER-1
 66
  1
 70
  0
 62
  7
 10
0.333711
 20
1.105159
 30
0.000000
  0
VERTEX
  8
LAYER-1
 10
0.333711
 20
1.105159
 30
0.000000
  0
VERTEX
  8
LAYER-1
 10
0.333711
 20
1.094720
 30
0.000000
  0
SEQEND
  8
LAYER-1
  0
POLYLINE
  8
LAYER-1
 66
  1
 70
  0
 62
  7
 10
0.333711
 20
1.094720
 30
0.000000
  0
VERTEX
  8
LAYER-1
 10
0.333711
 20
1.094720
 30
0.000000
  0
VERTEX
  8
LAYER-1
 10
0.336862
 20
1.091570
 30
0.000000
  0
SEQEND
  8
LAYER-1
  0
POLYLINE
  8
LAYER-1
 66
  1
 70
  0
 62
  7
 10
0.353090
 20
1.091570
 30
0.000000
  0
VERTEX
  8
LAYER-1
 10
0.353090
 20
1.091570
 30
0.000000
  0
VERTEX
  8
LAYER-1
 10
0.336862
 20
1.091570
 30
0.000000
  0
SEQEND
  8
LAYER-1
  0
POLYLINE
  8
LAYER-1
 66
  1
 70
  0
 62
  7
 10
0.356240
 20
1.088421
 30
0.000000
  0
VERTEX
  8
LAYER-1
 10
0.356240
 20
1.088421
 30
0.000000
  0
VERTEX
  8
LAYER-1
 10
0.353090
 20
1.091570
 30
0.000000
  0
SEQEND
  8
LAYER-1
  0
POLYLINE
  8
LAYER-1
 66
  1
 70
  0
 62
  7
 10
0.356241
 20
1.088421
 30
0.000000
  0
VERTEX
  8
LAYER-1
 10
0.356241
 20
1.088421
 30
0.000000
  0
VERTEX
  8
LAYER-1
 10
0.356241
 20
1.073720
 30
0.000000
  0
SEQEND
  8
LAYER-1
  0
POLYLINE
  8
LAYER-1
 66
  1
 70
  0
 62
  7
 10
0.353090
 20
1.070570
 30
0.000000
  0
VERTEX
  8
LAYER-1
 10
0.353090
 20
1.070570
 30
0.000000
  0
VERTEX
  8
LAYER-1
 10
0.356240
 20
1.073720
 30
0.000000
  0
SEQEND
  8
LAYER-1
  0
POLYLINE
  8
LAYER-1
 66
  1
 70
  0
 62
  7
 10
0.336831
 20
1.070570
 30
0.000000
  0
VERTEX
  8
LAYER-1
 10
0.336831
 20
1.070570
 30
0.000000
  0
VERTEX
  8
LAYER-1
 10
0.353090
 20
1.070570
 30
0.000000
  0
SEQEND
  8
LAYER-1
  0
POLYLINE
  8
LAYER-1
 66
  1
 70
  0
 62
  7
 10
0.336831
 20
1.070570
 30
0.000000
  0
VERTEX
  8
LAYER-1
 10
0.336831
 20
1.070570
 30
0.000000
  0
VERTEX
  8
LAYER-1
 10
0.333681
 20
1.067419
 30
0.000000
  0
SEQEND
  8
LAYER-1
  0
POLYLINE
  8
LAYER-1
 66
  1
 70
  0
 62
  7
 10
0.333681
 20
1.056860
 30
0.000000
  0
VERTEX
  8
LAYER-1
 10
0.333681
 20
1.056860
 30
0.000000
  0
VERTEX
  8
LAYER-1
 10
0.333681
 20
1.067419
 30
0.000000
  0
SEQEND
  8
LAYER-1
  0
POLYLINE
  8
LAYER-1
 66
  1
 70
  0
 62
  7
 10
0.333681
 20
1.056860
 30
0.000000
  0
VERTEX
  8
LAYER-1
 10
0.333681
 20
1.056860
 30
0.000000
  0
VERTEX
  8
LAYER-1
 10
0.336831
 20
1.053710
 30
0.000000
  0
SEQEND
  8
LAYER-1
  0
POLYLINE
  8
LAYER-1
 66
  1
 70
  0
 62
  7
 10
0.382498
 20
1.053710
 30
0.000000
  0
VERTEX
  8
LAYER-1
 10
0.382498
 20
1.053710
 30
0.000000
  0
VERTEX
  8
LAYER-1
 10
0.336831
 20
1.053710
 30
0.000000
  0
SEQEND
  8
LAYER-1
  0
POLYLINE
  8
LAYER-1
 66
  1
 70
  0
 62
  7
 10
0.385648
 20
1.050560
 30
0.000000
  0
VERTEX
  8
LAYER-1
 10
0.385648
 20
1.050560
 30
0.000000
  0
VERTEX
  8
LAYER-1
 10
0.382498
 20
1.053710
 30
0.000000
  0
SEQEND
  8
LAYER-1
  0
POLYLINE
  8
LAYER-1
 66
  1
 70
  0
 62
  7
 10
0.385648
 20
1.050560
 30
0.000000
  0
VERTEX
  8
LAYER-1
 10
0.385648
 20
1.050560
 30
0.000000
  0
VERTEX
  8
LAYER-1
 10
0.385648
 20
1.036910
 30
0.000000
  0
SEQEND
  8
LAYER-1
  0
POLYLINE
  8
LAYER-1
 66
  1
 70
  0
 62
  7
 10
0.382498
 20
1.033760
 30
0.000000
  0
VERTEX
  8
LAYER-1
 10
0.382498
 20
1.033760
 30
0.000000
  0
VERTEX
  8
LAYER-1
 10
0.385648
 20
1.036910
 30
0.000000
  0
SEQEND
  8
LAYER-1
  0
POLYLINE
  8
LAYER-1
 66
  1
 70
  0
 62
  7
 10
0.382498
 20
1.033760
 30
0.000000
  0
VERTEX
  8
LAYER-1
 10
0.382498
 20
1.033760
 30
0.000000
  0
VERTEX
  8
LAYER-1
 10
0.340014
 20
1.033760
 30
0.000000
  0
SEQEND
  8
LAYER-1
  0
POLYLINE
  8
LAYER-1
 66
  1
 70
  0
 62
  7
 10
0.340014
 20
1.033760
 30
0.000000
  0
VERTEX
  8
LAYER-1
 10
0.340014
 20
1.033760
 30
0.000000
  0
VERTEX
  8
LAYER-1
 10
0.336864
 20
1.030610
 30
0.000000
  0
SEQEND
  8
LAYER-1
  0
POLYLINE
  8
LAYER-1
 66
  1
 70
  0
 62
  7
 10
0.336864
 20
1.030610
 30
0.000000
  0
VERTEX
  8
LAYER-1
 10
0.336864
 20
1.030610
 30
0.000000
  0
VERTEX
  8
LAYER-1
 10
0.336864
 20
0.794770
 30
0.000000
  0
SEQEND
  8
LAYER-1
  0
POLYLINE
  8
LAYER-1
 66
  1
 70
  0
 62
  7
 10
0.336864
 20
0.794770
 30
0.000000
  0
VERTEX
  8
LAYER-1
 10
0.336864
 20
0.794770
 30
0.000000
  0
VERTEX
  8
LAYER-1
 10
0.340014
 20
0.791620
 30
0.000000
  0
SEQEND
  8
LAYER-1
  0
POLYLINE
  8
LAYER-1
 66
  1
 70
  0
 62
  7
 10
0.397114
 20
0.791620
 30
0.000000
  0
VERTEX
  8
LAYER-1
 10
0.397114
 20
0.791620
 30
0.000000
  0
VERTEX
  8
LAYER-1
 10
0.340014
 20
0.791620
 30
0.000000
  0
SEQEND
  8
LAYER-1
  0
POLYLINE
  8
LAYER-1
 66
  1
 70
  0
 62
  7
 10
0.408664
 20
0.780071
 30
0.000000
  0
VERTEX
  8
LAYER-1
 10
0.408664
 20
0.780071
 30
0.000000
  0
VERTEX
  8
LAYER-1
 10
0.403313
 20
0.790207
 30
0.000000
  0
VERTEX
  8
LAYER-1
 10
0.397114
 20
0.791620
 30
0.000000
  0
SEQEND
  8
LAYER-1
  0
POLYLINE
  8
LAYER-1
 66
  1
 70
  0
 62
  7
 10
0.408664
 20
0.766696
 30
0.000000
  0
VERTEX
  8
LAYER-1
 10
0.408664
 20
0.766696
 30
0.000000
  0
VERTEX
  8
LAYER-1
 10
0.408664
 20
0.780071
 30
0.000000
  0
SEQEND
  8
LAYER-1
  0
POLYLINE
  8
LAYER-1
 66
  1
 70
  0
 62
  7
 10
0.405514
 20
0.763546
 30
0.000000
  0
VERTEX
  8
LAYER-1
 10
0.405514
 20
0.763546
 30
0.000000
  0
VERTEX
  8
LAYER-1
 10
0.408664
 20
0.766696
 30
0.000000
  0
SEQEND
  8
LAYER-1
  0
POLYLINE
  8
LAYER-1
 66
  1
 70
  0
 62
  7
 10
0.403548
 20
0.763545
 30
0.000000
  0
VERTEX
  8
LAYER-1
 10
0.403548
 20
0.763545
 30
0.000000
  0
VERTEX
  8
LAYER-1
 10
0.405514
 20
0.763545
 30
0.000000
  0
SEQEND
  8
LAYER-1
  0
POLYLINE
  8
LAYER-1
 66
  1
 70
  0
 62
  7
 10
0.400398
 20
0.766696
 30
0.000000
  0
VERTEX
  8
LAYER-1
 10
0.400398
 20
0.766696
 30
0.000000
  0
VERTEX
  8
LAYER-1
 10
0.403548
 20
0.763546
 30
0.000000
  0
SEQEND
  8
LAYER-1
  0
POLYLINE
  8
LAYER-1
 66
  1
 70
  0
 62
  7
 10
0.400398
 20
0.766696
 30
0.000000
  0
VERTEX
  8
LAYER-1
 10
0.400398
 20
0.766696
 30
0.000000
  0
VERTEX
  8
LAYER-1
 10
0.400398
 20
0.776919
 30
0.000000
  0
SEQEND
  8
LAYER-1
  0
POLYLINE
  8
LAYER-1
 66
  1
 70
  0
 62
  7
 10
0.400398
 20
0.776919
 30
0.000000
  0
VERTEX
  8
LAYER-1
 10
0.400398
 20
0.776919
 30
0.000000
  0
VERTEX
  8
LAYER-1
 10
0.397248
 20
0.780069
 30
0.000000
  0
SEQEND
  8
LAYER-1
  0
POLYLINE
  8
LAYER-1
 66
  1
 70
  0
 62
  7
 10
0.397248
 20
0.780070
 30
0.000000
  0
VERTEX
  8
LAYER-1
 10
0.397248
 20
0.780070
 30
0.000000
  0
VERTEX
  8
LAYER-1
 10
0.385372
 20
0.780070
 30
0.000000
  0
SEQEND
  8
LAYER-1
  0
POLYLINE
  8
LAYER-1
 66
  1
 70
  0
 62
  7
 10
0.385372
 20
0.780069
 30
0.000000
  0
VERTEX
  8
LAYER-1
 10
0.385372
 20
0.780069
 30
0.000000
  0
VERTEX
  8
LAYER-1
 10
0.382222
 20
0.776919
 30
0.000000
  0
SEQEND
  8
LAYER-1
  0
POLYLINE
  8
LAYER-1
 66
  1
 70
  0
 62
  7
 10
0.382222
 20
0.776919
 30
0.000000
  0
VERTEX
  8
LAYER-1
 10
0.382222
 20
0.776919
 30
0.000000
  0
VERTEX
  8
LAYER-1
 10
0.382222
 20
0.766676
 30
0.000000
  0
SEQEND
  8
LAYER-1
  0
POLYLINE
  8
LAYER-1
 66
  1
 70
  0
 62
  7
 10
0.379068
 20
0.763527
 30
0.000000
  0
VERTEX
  8
LAYER-1
 10
0.379068
 20
0.763527
 30
0.000000
  0
VERTEX
  8
LAYER-1
 10
0.382222
 20
0.766676
 30
0.000000
  0
SEQEND
  8
LAYER-1
  0
POLYLINE
  8
LAYER-1
 66
  1
 70
  0
 62
  7
 10
0.379068
 20
0.763527
 30
0.000000
  0
VERTEX
  8
LAYER-1
 10
0.379068
 20
0.763527
 30
0.000000
  0
VERTEX
  8
LAYER-1
 10
0.364305
 20
0.763545
 30
0.000000
  0
SEQEND
  8
LAYER-1
  0
POLYLINE
  8
LAYER-1
 66
  1
 70
  0
 62
  7
 10
0.361159
 20
0.766696
 30
0.000000
  0
VERTEX
  8
LAYER-1
 10
0.361159
 20
0.766696
 30
0.000000
  0
VERTEX
  8
LAYER-1
 10
0.364305
 20
0.763546
 30
0.000000
  0
SEQEND
  8
LAYER-1
  0
POLYLINE
  8
LAYER-1
 66
  1
 70
  0
 62
  7
 10
0.361159
 20
0.766696
 30
0.000000
  0
VERTEX
  8
LAYER-1
 10
0.361159
 20
0.766696
 30
0.000000
  0
VERTEX
  8
LAYER-1
 10
0.361159
 20
0.776919
 30
0.000000
  0
SEQEND
  8
LAYER-1
  0
POLYLINE
  8
LAYER-1
 66
  1
 70
  0
 62
  7
 10
0.361159
 20
0.776919
 30
0.000000
  0
VERTEX
  8
LAYER-1
 10
0.361159
 20
0.776919
 30
0.000000
  0
VERTEX
  8
LAYER-1
 10
0.358009
 20
0.780069
 30
0.000000
  0
SEQEND
  8
LAYER-1
  0
POLYLINE
  8
LAYER-1
 66
  1
 70
  0
 62
  7
 10
0.358009
 20
0.780070
 30
0.000000
  0
VERTEX
  8
LAYER-1
 10
0.358009
 20
0.780070
 30
0.000000
  0
VERTEX
  8
LAYER-1
 10
0.331538
 20
0.780070
 30
0.000000
  0
SEQEND
  8
LAYER-1
  0
POLYLINE
  8
LAYER-1
 66
  1
 70
  0
 62
  7
 10
0.331538
 20
0.780069
 30
0.000000
  0
VERTEX
  8
LAYER-1
 10
0.331538
 20
0.780069
 30
0.000000
  0
VERTEX
  8
LAYER-1
 10
0.328388
 20
0.776919
 30
0.000000
  0
SEQEND
  8
LAYER-1
  0
POLYLINE
  8
LAYER-1
 66
  1
 70
  0
 62
  7
 10
0.328388
 20
0.716020
 30
0.000000
  0
VERTEX
  8
LAYER-1
 10
0.328388
 20
0.716020
 30
0.000000
  0
VERTEX
  8
LAYER-1
 10
0.328388
 20
0.776919
 30
0.000000
  0
SEQEND
  8
LAYER-1
  0
POLYLINE
  8
LAYER-1
 66
  1
 70
  0
 62
  7
 10
0.328388
 20
0.716020
 30
0.000000
  0
VERTEX
  8
LAYER-1
 10
0.328388
 20
0.716020
 30
0.000000
  0
VERTEX
  8
LAYER-1
 10
0.330663
 20
0.707741
 30
0.000000
  0
VERTEX
  8
LAYER-1
 10
0.342878
 20
0.701530
 30
0.000000
  0
SEQEND
  8
LAYER-1
  0
POLYLINE
  8
LAYER-1
 66
  1
 70
  0
 62
  7
 10
0.342878
 20
0.701530
 30
0.000000
  0
VERTEX
  8
LAYER-1
 10
0.342878
 20
0.701530
 30
0.000000
  0
VERTEX
  8
LAYER-1
 10
0.358009
 20
0.701530
 30
0.000000
  0
SEQEND
  8
LAYER-1
  0
POLYLINE
  8
LAYER-1
 66
  1
 70
  0
 62
  7
 10
0.358009
 20
0.701530
 30
0.000000
  0
VERTEX
  8
LAYER-1
 10
0.358009
 20
0.701530
 30
0.000000
  0
VERTEX
  8
LAYER-1
 10
0.361159
 20
0.704680
 30
0.000000
  0
SEQEND
  8
LAYER-1
  0
POLYLINE
  8
LAYER-1
 66
  1
 70
  0
 62
  7
 10
0.361159
 20
0.704680
 30
0.000000
  0
VERTEX
  8
LAYER-1
 10
0.361159
 20
0.704680
 30
0.000000
  0
VERTEX
  8
LAYER-1
 10
0.361159
 20
0.714936
 30
0.000000
  0
SEQEND
  8
LAYER-1
  0
POLYLINE
  8
LAYER-1
 66
  1
 70
  0
 62
  7
 10
0.364309
 20
0.718085
 30
0.000000
  0
VERTEX
  8
LAYER-1
 10
0.364309
 20
0.718085
 30
0.000000
  0
VERTEX
  8
LAYER-1
 10
0.361159
 20
0.714936
 30
0.000000
  0
SEQEND
  8
LAYER-1
  0
POLYLINE
  8
LAYER-1
 66
  1
 70
  0
 62
  7
 10
0.364309
 20
0.718085
 30
0.000000
  0
VERTEX
  8
LAYER-1
 10
0.364309
 20
0.718085
 30
0.000000
  0
VERTEX
  8
LAYER-1
 10
0.379072
 20
0.718085
 30
0.000000
  0
SEQEND
  8
LAYER-1
  0
POLYLINE
  8
LAYER-1
 66
  1
 70
  0
 62
  7
 10
0.382222
 20
0.714936
 30
0.000000
  0
VERTEX
  8
LAYER-1
 10
0.382222
 20
0.714936
 30
0.000000
  0
VERTEX
  8
LAYER-1
 10
0.379072
 20
0.718085
 30
0.000000
  0
SEQEND
  8
LAYER-1
  0
POLYLINE
  8
LAYER-1
 66
  1
 70
  0
 62
  7
 10
0.382222
 20
0.714936
 30
0.000000
  0
VERTEX
  8
LAYER-1
 10
0.382222
 20
0.714936
 30
0.000000
  0
VERTEX
  8
LAYER-1
 10
0.382222
 20
0.704680
 30
0.000000
  0
SEQEND
  8
LAYER-1
  0
POLYLINE
  8
LAYER-1
 66
  1
 70
  0
 62
  7
 10
0.382222
 20
0.704680
 30
0.000000
  0
VERTEX
  8
LAYER-1
 10
0.382222
 20
0.704680
 30
0.000000
  0
VERTEX
  8
LAYER-1
 10
0.385372
 20
0.701530
 30
0.000000
  0
SEQEND
  8
LAYER-1
  0
POLYLINE
  8
LAYER-1
 66
  1
 70
  0
 62
  7
 10
0.385372
 20
0.701530
 30
0.000000
  0
VERTEX
  8
LAYER-1
 10
0.385372
 20
0.701530
 30
0.000000
  0
VERTEX
  8
LAYER-1
 10
0.397248
 20
0.701530
 30
0.000000
  0
SEQEND
  8
LAYER-1
  0
POLYLINE
  8
LAYER-1
 66
  1
 70
  0
 62
  7
 10
0.397248
 20
0.701530
 30
0.000000
  0
VERTEX
  8
LAYER-1
 10
0.397248
 20
0.701530
 30
0.000000
  0
VERTEX
  8
LAYER-1
 10
0.400398
 20
0.704680
 30
0.000000
  0
SEQEND
  8
LAYER-1
  0
POLYLINE
  8
LAYER-1
 66
  1
 70
  0
 62
  7
 10
0.400398
 20
0.704680
 30
0.000000
  0
VERTEX
  8
LAYER-1
 10
0.400398
 20
0.704680
 30
0.000000
  0
VERTEX
  8
LAYER-1
 10
0.400398
 20
0.714936
 30
0.000000
  0
SEQEND
  8
LAYER-1
  0
POLYLINE
  8
LAYER-1
 66
  1
 70
  0
 62
  7
 10
0.403548
 20
0.718085
 30
0.000000
  0
VERTEX
  8
LAYER-1
 10
0.403548
 20
0.718085
 30
0.000000
  0
VERTEX
  8
LAYER-1
 10
0.400398
 20
0.714936
 30
0.000000
  0
SEQEND
  8
LAYER-1
  0
POLYLINE
  8
LAYER-1
 66
  1
 70
  0
 62
  7
 10
0.403548
 20
0.718085
 30
0.000000
  0
VERTEX
  8
LAYER-1
 10
0.403548
 20
0.718085
 30
0.000000
  0
VERTEX
  8
LAYER-1
 10
0.405514
 20
0.718085
 30
0.000000
  0
SEQEND
  8
LAYER-1
  0
POLYLINE
  8
LAYER-1
 66
  1
 70
  0
 62
  7
 10
0.408664
 20
0.714936
 30
0.000000
  0
VERTEX
  8
LAYER-1
 10
0.408664
 20
0.714936
 30
0.000000
  0
VERTEX
  8
LAYER-1
 10
0.405514
 20
0.718085
 30
0.000000
  0
SEQEND
  8
LAYER-1
  0
POLYLINE
  8
LAYER-1
 66
  1
 70
  0
 62
  7
 10
0.408664
 20
0.714936
 30
0.000000
  0
VERTEX
  8
LAYER-1
 10
0.408664
 20
0.714936
 30
0.000000
  0
VERTEX
  8
LAYER-1
 10
0.408664
 20
0.701520
 30
0.000000
  0
SEQEND
  8
LAYER-1
  0
POLYLINE
  8
LAYER-1
 66
  1
 70
  0
 62
  7
 10
0.397114
 20
0.689970
 30
0.000000
  0
VERTEX
  8
LAYER-1
 10
0.397114
 20
0.689970
 30
0.000000
  0
VERTEX
  8
LAYER-1
 10
0.403313
 20
0.695321
 30
0.000000
  0
VERTEX
  8
LAYER-1
 10
0.408664
 20
0.701520
 30
0.000000
  0
SEQEND
  8
LAYER-1
  0
POLYLINE
  8
LAYER-1
 66
  1
 70
  0
 62
  7
 10
0.397114
 20
0.689969
 30
0.000000
  0
VERTEX
  8
LAYER-1
 10
0.397114
 20
0.689969
 30
0.000000
  0
VERTEX
  8
LAYER-1
 10
0.342942
 20
0.689969
 30
0.000000
  0
SEQEND
  8
LAYER-1
  0
POLYLINE
  8
LAYER-1
 66
  1
 70
  0
 62
  7
 10
0.316902
 20
0.716010
 30
0.000000
  0
VERTEX
  8
LAYER-1
 10
0.316902
 20
0.716010
 30
0.000000
  0
VERTEX
  8
LAYER-1
 10
0.322560
 20
0.699565
 30
0.000000
  0
VERTEX
  8
LAYER-1
 10
0.342942
 20
0.689969
 30
0.000000
  0
SEQEND
  8
LAYER-1
  0
POLYLINE
  8
LAYER-1
 66
  1
 70
  0
 62
  7
 10
0.638153
 20
1.250717
 30
0.000000
  0
VERTEX
  8
LAYER-1
 10
0.638153
 20
1.250717
 30
0.000000
  0
VERTEX
  8
LAYER-1
 10
0.336862
 20
1.250717
 30
0.000000
  0
SEQEND
  8
LAYER-1
  0
POLYLINE
  8
LAYER-1
 66
  1
 70
  0
 62
  7
 10
0.320032
 20
1.267469
 30
0.000000
  0
VERTEX
  8
LAYER-1
 10
0.320032
 20
1.267469
 30
0.000000
  0
VERTEX
  8
LAYER-1
 10
0.336862
 20
1.250717
 30
0.000000
  0
SEQEND
  8
LAYER-1
  0
POLYLINE
  8
LAYER-1
 66
  1
 70
  0
 62
  7
 10
0.484341
 20
1.267469
 30
0.000000
  0
VERTEX
  8
LAYER-1
 10
0.484341
 20
1.267469
 30
0.000000
  0
VERTEX
  8
LAYER-1
 10
0.320032
 20
1.267469
 30
0.000000
  0
SEQEND
  8
LAYER-1
  0
POLYLINE
  8
LAYER-1
 66
  1
 70
  0
 62
  7
 10
0.484341
 20
1.267469
 30
0.000000
  0
VERTEX
  8
LAYER-1
 10
0.484341
 20
1.267469
 30
0.000000
  0
VERTEX
  8
LAYER-1
 10
0.490641
 20
1.267469
 30
0.000000
  0
SEQEND
  8
LAYER-1
  0
POLYLINE
  8
LAYER-1
 66
  1
 70
  0
 62
  7
 10
0.490641
 20
1.267469
 30
0.000000
  0
VERTEX
  8
LAYER-1
 10
0.490641
 20
1.267469
 30
0.000000
  0
VERTEX
  8
LAYER-1
 10
0.654982
 20
1.267469
 30
0.000000
  0
SEQEND
  8
LAYER-1
  0
POLYLINE
  8
LAYER-1
 66
  1
 70
  0
 62
  7
 10
0.658133
 20
1.264319
 30
0.000000
  0
VERTEX
  8
LAYER-1
 10
0.658133
 20
1.264319
 30
0.000000
  0
VERTEX
  8
LAYER-1
 10
0.658133
 20
1.046985
 30
0.000000
  0
SEQEND
  8
LAYER-1
  0
POLYLINE
  8
LAYER-1
 66
  1
 70
  0
 62
  7
 10
0.658230
 20
0.814677
 30
0.000000
  0
VERTEX
  8
LAYER-1
 10
0.658230
 20
0.814677
 30
0.000000
  0
VERTEX
  8
LAYER-1
 10
0.658230
 20
0.716010
 30
0.000000
  0
SEQEND
  8
LAYER-1
  0
POLYLINE
  8
LAYER-1
 66
  1
 70
  0
 62
  7
 10
0.658249
 20
0.820977
 30
0.000000
  0
VERTEX
  8
LAYER-1
 10
0.658249
 20
0.820977
 30
0.000000
  0
VERTEX
  8
LAYER-1
 10
0.658230
 20
0.814677
 30
0.000000
  0
SEQEND
  8
LAYER-1
  0
POLYLINE
  8
LAYER-1
 66
  1
 70
  0
 62
  7
 10
0.658249
 20
0.820977
 30
0.000000
  0
VERTEX
  8
LAYER-1
 10
0.658249
 20
0.820977
 30
0.000000
  0
VERTEX
  8
LAYER-1
 10
0.658249
 20
1.040685
 30
0.000000
  0
SEQEND
  8
LAYER-1
  0
POLYLINE
  8
LAYER-1
 66
  1
 70
  0
 62
  7
 10
0.658249
 20
1.046985
 30
0.000000
  0
VERTEX
  8
LAYER-1
 10
0.658249
 20
1.046985
 30
0.000000
  0
VERTEX
  8
LAYER-1
 10
0.658249
 20
1.040685
 30
0.000000
  0
SEQEND
  8
LAYER-1
  0
POLYLINE
  8
LAYER-1
 66
  1
 70
  0
 62
  7
 10
0.658249
 20
1.046985
 30
0.000000
  0
VERTEX
  8
LAYER-1
 10
0.658249
 20
1.046985
 30
0.000000
  0
VERTEX
  8
LAYER-1
 10
0.658249
 20
1.264319
 30
0.000000
  0
SEQEND
  8
LAYER-1
  0
POLYLINE
  8
LAYER-1
 66
  1
 70
  0
 62
  7
 10
0.658249
 20
1.264319
 30
0.000000
  0
VERTEX
  8
LAYER-1
 10
0.658249
 20
1.264319
 30
0.000000
  0
VERTEX
  8
LAYER-1
 10
0.655099
 20
1.267469
 30
0.000000
  0
SEQEND
  8
LAYER-1
  0
POLYLINE
  8
LAYER-1
 66
  1
 70
  0
 62
  7
 10
0.638270
 20
1.250717
 30
0.000000
  0
VERTEX
  8
LAYER-1
 10
0.638270
 20
1.250717
 30
0.000000
  0
VERTEX
  8
LAYER-1
 10
0.655099
 20
1.267469
 30
0.000000
  0
SEQEND
  8
LAYER-1
  0
POLYLINE
  8
LAYER-1
 66
  1
 70
  0
 62
  7
 10
0.641420
 20
1.247566
 30
0.000000
  0
VERTEX
  8
LAYER-1
 10
0.641420
 20
1.247566
 30
0.000000
  0
VERTEX
  8
LAYER-1
 10
0.638270
 20
1.250717
 30
0.000000
  0
SEQEND
  8
LAYER-1
  0
POLYLINE
  8
LAYER-1
 66
  1
 70
  0
 62
  7
 10
0.641420
 20
1.238177
 30
0.000000
  0
VERTEX
  8
LAYER-1
 10
0.641420
 20
1.238177
 30
0.000000
  0
VERTEX
  8
LAYER-1
 10
0.641420
 20
1.247566
 30
0.000000
  0
SEQEND
  8
LAYER-1
  0
POLYLINE
  8
LAYER-1
 66
  1
 70
  0
 62
  7
 10
0.638270
 20
1.235028
 30
0.000000
  0
VERTEX
  8
LAYER-1
 10
0.638270
 20
1.235028
 30
0.000000
  0
VERTEX
  8
LAYER-1
 10
0.641420
 20
1.238177
 30
0.000000
  0
SEQEND
  8
LAYER-1
  0
POLYLINE
  8
LAYER-1
 66
  1
 70
  0
 62
  7
 10
0.622041
 20
1.235026
 30
0.000000
  0
VERTEX
  8
LAYER-1
 10
0.622041
 20
1.235026
 30
0.000000
  0
VERTEX
  8
LAYER-1
 10
0.638270
 20
1.235026
 30
0.000000
  0
SEQEND
  8
LAYER-1
  0
POLYLINE
  8
LAYER-1
 66
  1
 70
  0
 62
  7
 10
0.622041
 20
1.235026
 30
0.000000
  0
VERTEX
  8
LAYER-1
 10
0.622041
 20
1.235026
 30
0.000000
  0
VERTEX
  8
LAYER-1
 10
0.618891
 20
1.231876
 30
0.000000
  0
SEQEND
  8
LAYER-1
  0
POLYLINE
  8
LAYER-1
 66
  1
 70
  0
 62
  7
 10
0.618891
 20
1.217176
 30
0.000000
  0
VERTEX
  8
LAYER-1
 10
0.618891
 20
1.217176
 30
0.000000
  0
VERTEX
  8
LAYER-1
 10
0.618891
 20
1.231876
 30
0.000000
  0
SEQEND
  8
LAYER-1
  0
POLYLINE
  8
LAYER-1
 66
  1
 70
  0
 62
  7
 10
0.618891
 20
1.217176
 30
0.000000
  0
VERTEX
  8
LAYER-1
 10
0.618891
 20
1.217176
 30
0.000000
  0
VERTEX
  8
LAYER-1
 10
0.622041
 20
1.214026
 30
0.000000
  0
SEQEND
  8
LAYER-1
  0
POLYLINE
  8
LAYER-1
 66
  1
 70
  0
 62
  7
 10
0.638301
 20
1.214026
 30
0.000000
  0
VERTEX
  8
LAYER-1
 10
0.638301
 20
1.214026
 30
0.000000
  0
VERTEX
  8
LAYER-1
 10
0.622041
 20
1.214026
 30
0.000000
  0
SEQEND
  8
LAYER-1
  0
POLYLINE
  8
LAYER-1
 66
  1
 70
  0
 62
  7
 10
0.641451
 20
1.210876
 30
0.000000
  0
VERTEX
  8
LAYER-1
 10
0.641451
 20
1.210876
 30
0.000000
  0
VERTEX
  8
LAYER-1
 10
0.638301
 20
1.214026
 30
0.000000
  0
SEQEND
  8
LAYER-1
  0
POLYLINE
  8
LAYER-1
 66
  1
 70
  0
 62
  7
 10
0.641451
 20
1.201366
 30
0.000000
  0
VERTEX
  8
LAYER-1
 10
0.641451
 20
1.201366
 30
0.000000
  0
VERTEX
  8
LAYER-1
 10
0.641451
 20
1.210876
 30
0.000000
  0
SEQEND
  8
LAYER-1
  0
POLYLINE
  8
LAYER-1
 66
  1
 70
  0
 62
  7
 10
0.638301
 20
1.198217
 30
0.000000
  0
VERTEX
  8
LAYER-1
 10
0.638301
 20
1.198217
 30
0.000000
  0
VERTEX
  8
LAYER-1
 10
0.641451
 20
1.201366
 30
0.000000
  0
SEQEND
  8
LAYER-1
  0
POLYLINE
  8
LAYER-1
 66
  1
 70
  0
 62
  7
 10
0.592633
 20
1.198217
 30
0.000000
  0
VERTEX
  8
LAYER-1
 10
0.592633
 20
1.198217
 30
0.000000
  0
VERTEX
  8
LAYER-1
 10
0.638301
 20
1.198217
 30
0.000000
  0
SEQEND
  8
LAYER-1
  0
POLYLINE
  8
LAYER-1
 66
  1
 70
  0
 62
  7
 10
0.592633
 20
1.198217
 30
0.000000
  0
VERTEX
  8
LAYER-1
 10
0.592633
 20
1.198217
 30
0.000000
  0
VERTEX
  8
LAYER-1
 10
0.589484
 20
1.195067
 30
0.000000
  0
SEQEND
  8
LAYER-1
  0
POLYLINE
  8
LAYER-1
 66
  1
 70
  0
 62
  7
 10
0.589484
 20
1.184567
 30
0.000000
  0
VERTEX
  8
LAYER-1
 10
0.589484
 20
1.184567
 30
0.000000
  0
VERTEX
  8
LAYER-1
 10
0.589484
 20
1.195067
 30
0.000000
  0
SEQEND
  8
LAYER-1
  0
POLYLINE
  8
LAYER-1
 66
  1
 70
  0
 62
  7
 10
0.589484
 20
1.184567
 30
0.000000
  0
VERTEX
  8
LAYER-1
 10
0.589484
 20
1.184567
 30
0.000000
  0
VERTEX
  8
LAYER-1
 10
0.592633
 20
1.181416
 30
0.000000
  0
SEQEND
  8
LAYER-1
  0
POLYLINE
  8
LAYER-1
 66
  1
 70
  0
 62
  7
 10
0.638268
 20
1.181416
 30
0.000000
  0
VERTEX
  8
LAYER-1
 10
0.638268
 20
1.181416
 30
0.000000
  0
VERTEX
  8
LAYER-1
 10
0.592633
 20
1.181416
 30
0.000000
  0
SEQEND
  8
LAYER-1
  0
POLYLINE
  8
LAYER-1
 66
  1
 70
  0
 62
  7
 10
0.641418
 20
1.178266
 30
0.000000
  0
VERTEX
  8
LAYER-1
 10
0.641418
 20
1.178266
 30
0.000000
  0
VERTEX
  8
LAYER-1
 10
0.638268
 20
1.181416
 30
0.000000
  0
SEQEND
  8
LAYER-1
  0
POLYLINE
  8
LAYER-1
 66
  1
 70
  0
 62
  7
 10
0.641418
 20
1.137779
 30
0.000000
  0
VERTEX
  8
LAYER-1
 10
0.641418
 20
1.137779
 30
0.000000
  0
VERTEX
  8
LAYER-1
 10
0.641418
 20
1.178266
 30
0.000000
  0
SEQEND
  8
LAYER-1
  0
POLYLINE
  8
LAYER-1
 66
  1
 70
  0
 62
  7
 10
0.638268
 20
1.134628
 30
0.000000
  0
VERTEX
  8
LAYER-1
 10
0.638268
 20
1.134628
 30
0.000000
  0
VERTEX
  8
LAYER-1
 10
0.641418
 20
1.137779
 30
0.000000
  0
SEQEND
  8
LAYER-1
  0
POLYLINE
  8
LAYER-1
 66
  1
 70
  0
 62
  7
 10
0.638270
 20
1.108311
 30
0.000000
  0
VERTEX
  8
LAYER-1
 10
0.638270
 20
1.108311
 30
0.000000
  0
VERTEX
  8
LAYER-1
 10
0.638268
 20
1.134628
 30
0.000000
  0
SEQEND
  8
LAYER-1
  0
POLYLINE
  8
LAYER-1
 66
  1
 70
  0
 62
  7
 10
0.641420
 20
1.105159
 30
0.000000
  0
VERTEX
  8
LAYER-1
 10
0.641420
 20
1.105159
 30
0.000000
  0
VERTEX
  8
LAYER-1
 10
0.638270
 20
1.108310
 30
0.000000
  0
SEQEND
  8
LAYER-1
  0
POLYLINE
  8
LAYER-1
 66
  1
 70
  0
 62
  7
 10
0.641420
 20
1.105159
 30
0.000000
  0
VERTEX
  8
LAYER-1
 10
0.641420
 20
1.105159
 30
0.000000
  0
VERTEX
  8
LAYER-1
 10
0.641420
 20
1.094720
 30
0.000000
  0
SEQEND
  8
LAYER-1
  0
POLYLINE
  8
LAYER-1
 66
  1
 70
  0
 62
  7
 10
0.638270
 20
1.091570
 30
0.000000
  0
VERTEX
  8
LAYER-1
 10
0.638270
 20
1.091570
 30
0.000000
  0
VERTEX
  8
LAYER-1
 10
0.641420
 20
1.094720
 30
0.000000
  0
SEQEND
  8
LAYER-1
  0
POLYLINE
  8
LAYER-1
 66
  1
 70
  0
 62
  7
 10
0.622041
 20
1.091570
 30
0.000000
  0
VERTEX
  8
LAYER-1
 10
0.622041
 20
1.091570
 30
0.000000
  0
VERTEX
  8
LAYER-1
 10
0.638270
 20
1.091570
 30
0.000000
  0
SEQEND
  8
LAYER-1
  0
POLYLINE
  8
LAYER-1
 66
  1
 70
  0
 62
  7
 10
0.622041
 20
1.091570
 30
0.000000
  0
VERTEX
  8
LAYER-1
 10
0.622041
 20
1.091570
 30
0.000000
  0
VERTEX
  8
LAYER-1
 10
0.618891
 20
1.088421
 30
0.000000
  0
SEQEND
  8
LAYER-1
  0
POLYLINE
  8
LAYER-1
 66
  1
 70
  0
 62
  7
 10
0.618891
 20
1.088421
 30
0.000000
  0
VERTEX
  8
LAYER-1
 10
0.618891
 20
1.088421
 30
0.000000
  0
VERTEX
  8
LAYER-1
 10
0.618891
 20
1.073720
 30
0.000000
  0
SEQEND
  8
LAYER-1
  0
POLYLINE
  8
LAYER-1
 66
  1
 70
  0
 62
  7
 10
0.618891
 20
1.073720
 30
0.000000
  0
VERTEX
  8
LAYER-1
 10
0.618891
 20
1.073720
 30
0.000000
  0
VERTEX
  8
LAYER-1
 10
0.622041
 20
1.070570
 30
0.000000
  0
SEQEND
  8
LAYER-1
  0
POLYLINE
  8
LAYER-1
 66
  1
 70
  0
 62
  7
 10
0.638301
 20
1.070570
 30
0.000000
  0
VERTEX
  8
LAYER-1
 10
0.638301
 20
1.070570
 30
0.000000
  0
VERTEX
  8
LAYER-1
 10
0.622041
 20
1.070570
 30
0.000000
  0
SEQEND
  8
LAYER-1
  0
POLYLINE
  8
LAYER-1
 66
  1
 70
  0
 62
  7
 10
0.641451
 20
1.067419
 30
0.000000
  0
VERTEX
  8
LAYER-1
 10
0.641451
 20
1.067419
 30
0.000000
  0
VERTEX
  8
LAYER-1
 10
0.638301
 20
1.070570
 30
0.000000
  0
SEQEND
  8
LAYER-1
  0
POLYLINE
  8
LAYER-1
 66
  1
 70
  0
 62
  7
 10
0.641451
 20
1.056860
 30
0.000000
  0
VERTEX
  8
LAYER-1
 10
0.641451
 20
1.056860
 30
0.000000
  0
VERTEX
  8
LAYER-1
 10
0.641451
 20
1.067419
 30
0.000000
  0
SEQEND
  8
LAYER-1
  0
POLYLINE
  8
LAYER-1
 66
  1
 70
  0
 62
  7
 10
0.638301
 20
1.053710
 30
0.000000
  0
VERTEX
  8
LAYER-1
 10
0.638301
 20
1.053710
 30
0.000000
  0
VERTEX
  8
LAYER-1
 10
0.641451
 20
1.056860
 30
0.000000
  0
SEQEND
  8
LAYER-1
  0
POLYLINE
  8
LAYER-1
 66
  1
 70
  0
 62
  7
 10
0.592633
 20
1.053710
 30
0.000000
  0
VERTEX
  8
LAYER-1
 10
0.592633
 20
1.053710
 30
0.000000
  0
VERTEX
  8
LAYER-1
 10
0.638301
 20
1.053710
 30
0.000000
  0
SEQEND
  8
LAYER-1
  0
POLYLINE
  8
LAYER-1
 66
  1
 70
  0
 62
  7
 10
0.592633
 20
1.053710
 30
0.000000
  0
VERTEX
  8
LAYER-1
 10
0.592633
 20
1.053710
 30
0.000000
  0
VERTEX
  8
LAYER-1
 10
0.589484
 20
1.050560
 30
0.000000
  0
SEQEND
  8
LAYER-1
  0
POLYLINE
  8
LAYER-1
 66
  1
 70
  0
 62
  7
 10
0.589484
 20
1.050560
 30
0.000000
  0
VERTEX
  8
LAYER-1
 10
0.589484
 20
1.050560
 30
0.000000
  0
VERTEX
  8
LAYER-1
 10
0.589484
 20
1.036910
 30
0.000000
  0
SEQEND
  8
LAYER-1
  0
POLYLINE
  8
LAYER-1
 66
  1
 70
  0
 62
  7
 10
0.589484
 20
1.036910
 30
0.000000
  0
VERTEX
  8
LAYER-1
 10
0.589484
 20
1.036910
 30
0.000000
  0
VERTEX
  8
LAYER-1
 10
0.592633
 20
1.033760
 30
0.000000
  0
SEQEND
  8
LAYER-1
  0
POLYLINE
  8
LAYER-1
 66
  1
 70
  0
 62
  7
 10
0.592633
 20
1.033760
 30
0.000000
  0
VERTEX
  8
LAYER-1
 10
0.592633
 20
1.033760
 30
0.000000
  0
VERTEX
  8
LAYER-1
 10
0.635118
 20
1.033760
 30
0.000000
  0
SEQEND
  8
LAYER-1
  0
POLYLINE
  8
LAYER-1
 66
  1
 70
  0
 62
  7
 10
0.638268
 20
1.030610
 30
0.000000
  0
VERTEX
  8
LAYER-1
 10
0.638268
 20
1.030610
 30
0.000000
  0
VERTEX
  8
LAYER-1
 10
0.635118
 20
1.033760
 30
0.000000
  0
SEQEND
  8
LAYER-1
  0
POLYLINE
  8
LAYER-1
 66
  1
 70
  0
 62
  7
 10
0.638268
 20
1.030610
 30
0.000000
  0
VERTEX
  8
LAYER-1
 10
0.638268
 20
1.030610
 30
0.000000
  0
VERTEX
  8
LAYER-1
 10
0.638268
 20
0.794770
 30
0.000000
  0
SEQEND
  8
LAYER-1
  0
POLYLINE
  8
LAYER-1
 66
  1
 70
  0
 62
  7
 10
0.635118
 20
0.791620
 30
0.000000
  0
VERTEX
  8
LAYER-1
 10
0.635118
 20
0.791620
 30
0.000000
  0
VERTEX
  8
LAYER-1
 10
0.638268
 20
0.794770
 30
0.000000
  0
SEQEND
  8
LAYER-1
  0
POLYLINE
  8
LAYER-1
 66
  1
 70
  0
 62
  7
 10
0.578017
 20
0.791620
 30
0.000000
  0
VERTEX
  8
LAYER-1
 10
0.578017
 20
0.791620
 30
0.000000
  0
VERTEX
  8
LAYER-1
 10
0.635118
 20
0.791620
 30
0.000000
  0
SEQEND
  8
LAYER-1
  0
POLYLINE
  8
LAYER-1
 66
  1
 70
  0
 62
  7
 10
0.578017
 20
0.791620
 30
0.000000
  0
VERTEX
  8
LAYER-1
 10
0.578017
 20
0.791620
 30
0.000000
  0
VERTEX
  8
LAYER-1
 10
0.567881
 20
0.790207
 30
0.000000
  0
VERTEX
  8
LAYER-1
 10
0.566467
 20
0.780071
 30
0.000000
  0
SEQEND
  8
LAYER-1
  0
POLYLINE
  8
LAYER-1
 66
  1
 70
  0
 62
  7
 10
0.566467
 20
0.766696
 30
0.000000
  0
VERTEX
  8
LAYER-1
 10
0.566467
 20
0.766696
 30
0.000000
  0
VERTEX
  8
LAYER-1
 10
0.566467
 20
0.780071
 30
0.000000
  0
SEQEND
  8
LAYER-1
  0
POLYLINE
  8
LAYER-1
 66
  1
 70
  0
 62
  7
 10
0.566467
 20
0.766696
 30
0.000000
  0
VERTEX
  8
LAYER-1
 10
0.566467
 20
0.766696
 30
0.000000
  0
VERTEX
  8
LAYER-1
 10
0.569617
 20
0.763546
 30
0.000000
  0
SEQEND
  8
LAYER-1
  0
POLYLINE
  8
LAYER-1
 66
  1
 70
  0
 62
  7
 10
0.571583
 20
0.763545
 30
0.000000
  0
VERTEX
  8
LAYER-1
 10
0.571583
 20
0.763545
 30
0.000000
  0
VERTEX
  8
LAYER-1
 10
0.569617
 20
0.763545
 30
0.000000
  0
SEQEND
  8
LAYER-1
  0
POLYLINE
  8
LAYER-1
 66
  1
 70
  0
 62
  7
 10
0.571583
 20
0.763546
 30
0.000000
  0
VERTEX
  8
LAYER-1
 10
0.571583
 20
0.763546
 30
0.000000
  0
VERTEX
  8
LAYER-1
 10
0.574733
 20
0.766696
 30
0.000000
  0
SEQEND
  8
LAYER-1
  0
POLYLINE
  8
LAYER-1
 66
  1
 70
  0
 62
  7
 10
0.574733
 20
0.766696
 30
0.000000
  0
VERTEX
  8
LAYER-1
 10
0.574733
 20
0.766696
 30
0.000000
  0
VERTEX
  8
LAYER-1
 10
0.574733
 20
0.776919
 30
0.000000
  0
SEQEND
  8
LAYER-1
  0
POLYLINE
  8
LAYER-1
 66
  1
 70
  0
 62
  7
 10
0.577884
 20
0.780069
 30
0.000000
  0
VERTEX
  8
LAYER-1
 10
0.577884
 20
0.780069
 30
0.000000
  0
VERTEX
  8
LAYER-1
 10
0.574734
 20
0.776919
 30
0.000000
  0
SEQEND
  8
LAYER-1
  0
POLYLINE
  8
LAYER-1
 66
  1
 70
  0
 62
  7
 10
0.577884
 20
0.780070
 30
0.000000
  0
VERTEX
  8
LAYER-1
 10
0.577884
 20
0.780070
 30
0.000000
  0
VERTEX
  8
LAYER-1
 10
0.589760
 20
0.780070
 30
0.000000
  0
SEQEND
  8
LAYER-1
  0
POLYLINE
  8
LAYER-1
 66
  1
 70
  0
 62
  7
 10
0.592910
 20
0.776919
 30
0.000000
  0
VERTEX
  8
LAYER-1
 10
0.592910
 20
0.776919
 30
0.000000
  0
VERTEX
  8
LAYER-1
 10
0.589760
 20
0.780069
 30
0.000000
  0
SEQEND
  8
LAYER-1
  0
POLYLINE
  8
LAYER-1
 66
  1
 70
  0
 62
  7
 10
0.592910
 20
0.776919
 30
0.000000
  0
VERTEX
  8
LAYER-1
 10
0.592910
 20
0.776919
 30
0.000000
  0
VERTEX
  8
LAYER-1
 10
0.592910
 20
0.766676
 30
0.000000
  0
SEQEND
  8
LAYER-1
  0
POLYLINE
  8
LAYER-1
 66
  1
 70
  0
 62
  7
 10
0.592910
 20
0.766676
 30
0.000000
  0
VERTEX
  8
LAYER-1
 10
0.592910
 20
0.766676
 30
0.000000
  0
VERTEX
  8
LAYER-1
 10
0.596064
 20
0.763527
 30
0.000000
  0
SEQEND
  8
LAYER-1
  0
POLYLINE
  8
LAYER-1
 66
  1
 70
  0
 62
  7
 10
0.596064
 20
0.763527
 30
0.000000
  0
VERTEX
  8
LAYER-1
 10
0.596064
 20
0.763527
 30
0.000000
  0
VERTEX
  8
LAYER-1
 10
0.610827
 20
0.763545
 30
0.000000
  0
SEQEND
  8
LAYER-1
  0
POLYLINE
  8
LAYER-1
 66
  1
 70
  0
 62
  7
 10
0.610827
 20
0.763546
 30
0.000000
  0
VERTEX
  8
LAYER-1
 10
0.610827
 20
0.763546
 30
0.000000
  0
VERTEX
  8
LAYER-1
 10
0.613973
 20
0.766696
 30
0.000000
  0
SEQEND
  8
LAYER-1
  0
POLYLINE
  8
LAYER-1
 66
  1
 70
  0
 62
  7
 10
0.613973
 20
0.766696
 30
0.000000
  0
VERTEX
  8
LAYER-1
 10
0.613973
 20
0.766696
 30
0.000000
  0
VERTEX
  8
LAYER-1
 10
0.613973
 20
0.776919
 30
0.000000
  0
SEQEND
  8
LAYER-1
  0
POLYLINE
  8
LAYER-1
 66
  1
 70
  0
 62
  7
 10
0.617123
 20
0.780069
 30
0.000000
  0
VERTEX
  8
LAYER-1
 10
0.617123
 20
0.780069
 30
0.000000
  0
VERTEX
  8
LAYER-1
 10
0.613973
 20
0.776919
 30
0.000000
  0
SEQEND
  8
LAYER-1
  0
POLYLINE
  8
LAYER-1
 66
  1
 70
  0
 62
  7
 10
0.617123
 20
0.780070
 30
0.000000
  0
VERTEX
  8
LAYER-1
 10
0.617123
 20
0.780070
 30
0.000000
  0
VERTEX
  8
LAYER-1
 10
0.643594
 20
0.780070
 30
0.000000
  0
SEQEND
  8
LAYER-1
  0
POLYLINE
  8
LAYER-1
 66
  1
 70
  0
 62
  7
 10
0.646744
 20
0.776919
 30
0.000000
  0
VERTEX
  8
LAYER-1
 10
0.646744
 20
0.776919
 30
0.000000
  0
VERTEX
  8
LAYER-1
 10
0.643594
 20
0.780069
 30
0.000000
  0
SEQEND
  8
LAYER-1
  0
POLYLINE
  8
LAYER-1
 66
  1
 70
  0
 62
  7
 10
0.646744
 20
0.716020
 30
0.000000
  0
VERTEX
  8
LAYER-1
 10
0.646744
 20
0.716020
 30
0.000000
  0
VERTEX
  8
LAYER-1
 10
0.646744
 20
0.776919
 30
0.000000
  0
SEQEND
  8
LAYER-1
  0
POLYLINE
  8
LAYER-1
 66
  1
 70
  0
 62
  7
 10
0.632254
 20
0.701530
 30
0.000000
  0
VERTEX
  8
LAYER-1
 10
0.632254
 20
0.701530
 30
0.000000
  0
VERTEX
  8
LAYER-1
 10
0.640532
 20
0.707741
 30
0.000000
  0
VERTEX
  8
LAYER-1
 10
0.646744
 20
0.716020
 30
0.000000
  0
SEQEND
  8
LAYER-1
  0
POLYLINE
  8
LAYER-1
 66
  1
 70
  0
 62
  7
 10
0.632254
 20
0.701530
 30
0.000000
  0
VERTEX
  8
LAYER-1
 10
0.632254
 20
0.701530
 30
0.000000
  0
VERTEX
  8
LAYER-1
 10
0.617123
 20
0.701530
 30
0.000000
  0
SEQEND
  8
LAYER-1
  0
POLYLINE
  8
LAYER-1
 66
  1
 70
  0
 62
  7
 10
0.613973
 20
0.704680
 30
0.000000
  0
VERTEX
  8
LAYER-1
 10
0.613973
 20
0.704680
 30
0.000000
  0
VERTEX
  8
LAYER-1
 10
0.617123
 20
0.701530
 30
0.000000
  0
SEQEND
  8
LAYER-1
  0
POLYLINE
  8
LAYER-1
 66
  1
 70
  0
 62
  7
 10
0.613973
 20
0.704680
 30
0.000000
  0
VERTEX
  8
LAYER-1
 10
0.613973
 20
0.704680
 30
0.000000
  0
VERTEX
  8
LAYER-1
 10
0.613973
 20
0.714936
 30
0.000000
  0
SEQEND
  8
LAYER-1
  0
POLYLINE
  8
LAYER-1
 66
  1
 70
  0
 62
  7
 10
0.613973
 20
0.714936
 30
0.000000
  0
VERTEX
  8
LAYER-1
 10
0.613973
 20
0.714936
 30
0.000000
  0
VERTEX
  8
LAYER-1
 10
0.610823
 20
0.718085
 30
0.000000
  0
SEQEND
  8
LAYER-1
  0
POLYLINE
  8
LAYER-1
 66
  1
 70
  0
 62
  7
 10
0.610823
 20
0.718085
 30
0.000000
  0
VERTEX
  8
LAYER-1
 10
0.610823
 20
0.718085
 30
0.000000
  0
VERTEX
  8
LAYER-1
 10
0.596060
 20
0.718085
 30
0.000000
  0
SEQEND
  8
LAYER-1
  0
POLYLINE
  8
LAYER-1
 66
  1
 70
  0
 62
  7
 10
0.596060
 20
0.718085
 30
0.000000
  0
VERTEX
  8
LAYER-1
 10
0.596060
 20
0.718085
 30
0.000000
  0
VERTEX
  8
LAYER-1
 10
0.592910
 20
0.714936
 30
0.000000
  0
SEQEND
  8
LAYER-1
  0
POLYLINE
  8
LAYER-1
 66
  1
 70
  0
 62
  7
 10
0.592910
 20
0.714936
 30
0.000000
  0
VERTEX
  8
LAYER-1
 10
0.592910
 20
0.714936
 30
0.000000
  0
VERTEX
  8
LAYER-1
 10
0.592910
 20
0.704680
 30
0.000000
  0
SEQEND
  8
LAYER-1
  0
POLYLINE
  8
LAYER-1
 66
  1
 70
  0
 62
  7
 10
0.589760
 20
0.701530
 30
0.000000
  0
VERTEX
  8
LAYER-1
 10
0.589760
 20
0.701530
 30
0.000000
  0
VERTEX
  8
LAYER-1
 10
0.592910
 20
0.704680
 30
0.000000
  0
SEQEND
  8
LAYER-1
  0
POLYLINE
  8
LAYER-1
 66
  1
 70
  0
 62
  7
 10
0.589760
 20
0.701530
 30
0.000000
  0
VERTEX
  8
LAYER-1
 10
0.589760
 20
0.701530
 30
0.000000
  0
VERTEX
  8
LAYER-1
 10
0.577884
 20
0.701530
 30
0.000000
  0
SEQEND
  8
LAYER-1
  0
POLYLINE
  8
LAYER-1
 66
  1
 70
  0
 62
  7
 10
0.574734
 20
0.704680
 30
0.000000
  0
VERTEX
  8
LAYER-1
 10
0.574734
 20
0.704680
 30
0.000000
  0
VERTEX
  8
LAYER-1
 10
0.577884
 20
0.701530
 30
0.000000
  0
SEQEND
  8
LAYER-1
  0
POLYLINE
  8
LAYER-1
 66
  1
 70
  0
 62
  7
 10
0.574733
 20
0.704680
 30
0.000000
  0
VERTEX
  8
LAYER-1
 10
0.574733
 20
0.704680
 30
0.000000
  0
VERTEX
  8
LAYER-1
 10
0.574733
 20
0.714936
 30
0.000000
  0
SEQEND
  8
LAYER-1
  0
POLYLINE
  8
LAYER-1
 66
  1
 70
  0
 62
  7
 10
0.574734
 20
0.714936
 30
0.000000
  0
VERTEX
  8
LAYER-1
 10
0.574734
 20
0.714936
 30
0.000000
  0
VERTEX
  8
LAYER-1
 10
0.571584
 20
0.718085
 30
0.000000
  0
SEQEND
  8
LAYER-1
  0
POLYLINE
  8
LAYER-1
 66
  1
 70
  0
 62
  7
 10
0.571584
 20
0.718085
 30
0.000000
  0
VERTEX
  8
LAYER-1
 10
0.571584
 20
0.718085
 30
0.000000
  0
VERTEX
  8
LAYER-1
 10
0.569617
 20
0.718085
 30
0.000000
  0
SEQEND
  8
LAYER-1
  0
POLYLINE
  8
LAYER-1
 66
  1
 70
  0
 62
  7
 10
0.569617
 20
0.718085
 30
0.000000
  0
VERTEX
  8
LAYER-1
 10
0.569617
 20
0.718085
 30
0.000000
  0
VERTEX
  8
LAYER-1
 10
0.566467
 20
0.714936
 30
0.000000
  0
SEQEND
  8
LAYER-1
  0
POLYLINE
  8
LAYER-1
 66
  1
 70
  0
 62
  7
 10
0.566467
 20
0.714936
 30
0.000000
  0
VERTEX
  8
LAYER-1
 10
0.566467
 20
0.714936
 30
0.000000
  0
VERTEX
  8
LAYER-1
 10
0.566467
 20
0.701520
 30
0.000000
  0
SEQEND
  8
LAYER-1
  0
POLYLINE
  8
LAYER-1
 66
  1
 70
  0
 62
  7
 10
0.566467
 20
0.701520
 30
0.000000
  0
VERTEX
  8
LAYER-1
 10
0.566467
 20
0.701520
 30
0.000000
  0
VERTEX
  8
LAYER-1
 10
0.567882
 20
0.695321
 30
0.000000
  0
VERTEX
  8
LAYER-1
 10
0.578017
 20
0.689970
 30
0.000000
  0
SEQEND
  8
LAYER-1
  0
POLYLINE
  8
LAYER-1
 66
  1
 70
  0
 62
  7
 10
0.578017
 20
0.689969
 30
0.000000
  0
VERTEX
  8
LAYER-1
 10
0.578017
 20
0.689969
 30
0.000000
  0
VERTEX
  8
LAYER-1
 10
0.632190
 20
0.689969
 30
0.000000
  0
SEQEND
  8
LAYER-1
  0
POLYLINE
  8
LAYER-1
 66
  1
 70
  0
 62
  7
 10
0.632190
 20
0.689969
 30
0.000000
  0
VERTEX
  8
LAYER-1
 10
0.632190
 20
0.689969
 30
0.000000
  0
VERTEX
  8
LAYER-1
 10
0.648634
 20
0.699565
 30
0.000000
  0
VERTEX
  8
LAYER-1
 10
0.658230
 20
0.716010
 30
0.000000
  0
SEQEND
  8
LAYER-1
  0
POLYLINE
  8
LAYER-1
 66
  1
 70
  1
 62
  7
  0
VERTEX
  8
LAYER-1
 10
0.336862
 20
1.108311
 30
0.000000
  0
VERTEX
  8
LAYER-1
 10
0.336862
 20
1.134628
 30
0.000000
  0
VERTEX
  8
LAYER-1
 10
0.638268
 20
1.134628
 30
0.000000
  0
VERTEX
  8
LAYER-1
 10
0.638268
 20
1.108311
 30
0.000000
  0
SEQEND
  8
LAYER-1
  0
POLYLINE
  8
LAYER-1
 66
  1
 70
  0
 62
  7
 10
0.638270
 20
1.250717
 30
0.000000
  0
VERTEX
  8
LAYER-1
 10
0.638270
 20
1.250717
 30
0.000000
  0
VERTEX
  8
LAYER-1
 10
0.655099
 20
1.267469
 30
0.000000
  0
SEQEND
  8
LAYER-1
  0
POLYLINE
  8
LAYER-1
 66
  1
 70
  1
 62
  7
  0
VERTEX
  8
LAYER-1
 10
0.583768
 20
0.774647
 30
0.000000
  0
VERTEX
  8
LAYER-1
 10
0.587223
 20
0.774647
 30
0.000000
  0
VERTEX
  8
LAYER-1
 10
0.587223
 20
0.704646
 30
0.000000
  0
VERTEX
  8
LAYER-1
 10
0.583768
 20
0.704646
 30
0.000000
  0
SEQEND
  8
LAYER-1
  0
POLYLINE
  8
LAYER-1
 66
  1
 70
  0
 62
  7
 10
0.583768
 20
0.741570
 30
0.000000
  0
VERTEX
  8
LAYER-1
 10
0.583768
 20
0.741570
 30
0.000000
  0
VERTEX
  8
LAYER-1
 10
0.544393
 20
0.741570
 30
0.000000
  0
SEQEND
  8
LAYER-1
  0
POLYLINE
  8
LAYER-1
 66
  1
 70
  0
 62
  7
 10
0.583768
 20
0.741570
 30
0.000000
  0
VERTEX
  8
LAYER-1
 10
0.583768
 20
0.741570
 30
0.000000
  0
VERTEX
  8
LAYER-1
 10
0.545182
 20
0.737634
 30
0.000000
  0
SEQEND
  8
LAYER-1
  0
POLYLINE
  8
LAYER-1
 66
  1
 70
  0
 62
  7
 10
0.583768
 20
0.741570
 30
0.000000
  0
VERTEX
  8
LAYER-1
 10
0.583768
 20
0.741570
 30
0.000000
  0
VERTEX
  8
LAYER-1
 10
0.545968
 20
0.732122
 30
0.000000
  0
SEQEND
  8
LAYER-1
  0
POLYLINE
  8
LAYER-1
 66
  1
 70
  0
 62
  7
 10
0.583768
 20
0.741570
 30
0.000000
  0
VERTEX
  8
LAYER-1
 10
0.583768
 20
0.741570
 30
0.000000
  0
VERTEX
  8
LAYER-1
 10
0.545182
 20
0.746298
 30
0.000000
  0
SEQEND
  8
LAYER-1
  0
POLYLINE
  8
LAYER-1
 66
  1
 70
  0
 62
  7
 10
0.583768
 20
0.741570
 30
0.000000
  0
VERTEX
  8
LAYER-1
 10
0.583768
 20
0.741570
 30
0.000000
  0
VERTEX
  8
LAYER-1
 10
0.545182
 20
0.751809
 30
0.000000
  0
SEQEND
  8
LAYER-1
  0
POLYLINE
  8
LAYER-1
 66
  1
 70
  0
 62
  7
 10
0.584326
 20
0.726630
 30
0.000000
  0
VERTEX
  8
LAYER-1
 10
0.584326
 20
0.726630
 30
0.000000
  0
VERTEX
  8
LAYER-1
 10
0.544953
 20
0.726630
 30
0.000000
  0
SEQEND
  8
LAYER-1
  0
POLYLINE
  8
LAYER-1
 66
  1
 70
  0
 62
  7
 10
0.584326
 20
0.726630
 30
0.000000
  0
VERTEX
  8
LAYER-1
 10
0.584326
 20
0.726630
 30
0.000000
  0
VERTEX
  8
LAYER-1
 10
0.545740
 20
0.722693
 30
0.000000
  0
SEQEND
  8
LAYER-1
  0
POLYLINE
  8
LAYER-1
 66
  1
 70
  0
 62
  7
 10
0.584326
 20
0.726630
 30
0.000000
  0
VERTEX
  8
LAYER-1
 10
0.584326
 20
0.726630
 30
0.000000
  0
VERTEX
  8
LAYER-1
 10
0.546527
 20
0.717180
 30
0.000000
  0
SEQEND
  8
LAYER-1
  0
POLYLINE
  8
LAYER-1
 66
  1
 70
  0
 62
  7
 10
0.584326
 20
0.726630
 30
0.000000
  0
VERTEX
  8
LAYER-1
 10
0.584326
 20
0.726630
 30
0.000000
  0
VERTEX
  8
LAYER-1
 10
0.545740
 20
0.731357
 30
0.000000
  0
SEQEND
  8
LAYER-1
  0
POLYLINE
  8
LAYER-1
 66
  1
 70
  0
 62
  7
 10
0.584326
 20
0.726630
 30
0.000000
  0
VERTEX
  8
LAYER-1
 10
0.584326
 20
0.726630
 30
0.000000
  0
VERTEX
  8
LAYER-1
 10
0.545740
 20
0.736867
 30
0.000000
  0
SEQEND
  8
LAYER-1
  0
POLYLINE
  8
LAYER-1
 66
  1
 70
  0
 62
  7
 10
0.584326
 20
0.756030
 30
0.000000
  0
VERTEX
  8
LAYER-1
 10
0.584326
 20
0.756030
 30
0.000000
  0
VERTEX
  8
LAYER-1
 10
0.544954
 20
0.756030
 30
0.000000
  0
SEQEND
  8
LAYER-1
  0
POLYLINE
  8
LAYER-1
 66
  1
 70
  0
 62
  7
 10
0.584326
 20
0.756030
 30
0.000000
  0
VERTEX
  8
LAYER-1
 10
0.584326
 20
0.756030
 30
0.000000
  0
VERTEX
  8
LAYER-1
 10
0.545740
 20
0.752092
 30
0.000000
  0
SEQEND
  8
LAYER-1
  0
POLYLINE
  8
LAYER-1
 66
  1
 70
  0
 62
  7
 10
0.584326
 20
0.756030
 30
0.000000
  0
VERTEX
  8
LAYER-1
 10
0.584326
 20
0.756030
 30
0.000000
  0
VERTEX
  8
LAYER-1
 10
0.546527
 20
0.746581
 30
0.000000
  0
SEQEND
  8
LAYER-1
  0
POLYLINE
  8
LAYER-1
 66
  1
 70
  0
 62
  7
 10
0.584326
 20
0.756030
 30
0.000000
  0
VERTEX
  8
LAYER-1
 10
0.584326
 20
0.756030
 30
0.000000
  0
VERTEX
  8
LAYER-1
 10
0.545740
 20
0.760756
 30
0.000000
  0
SEQEND
  8
LAYER-1
  0
POLYLINE
  8
LAYER-1
 66
  1
 70
  0
 62
  7
 10
0.584326
 20
0.756030
 30
0.000000
  0
VERTEX
  8
LAYER-1
 10
0.584326
 20
0.756030
 30
0.000000
  0
VERTEX
  8
LAYER-1
 10
0.545740
 20
0.766268
 30
0.000000
  0
SEQEND
  8
LAYER-1
  0
POLYLINE
  8
LAYER-1
 66
  1
 70
  1
 62
  7
  0
VERTEX
  8
LAYER-1
 10
0.388138
 20
0.774647
 30
0.000000
  0
VERTEX
  8
LAYER-1
 10
0.391593
 20
0.774647
 30
0.000000
  0
VERTEX
  8
LAYER-1
 10
0.391593
 20
0.704646
 30
0.000000
  0
VERTEX
  8
LAYER-1
 10
0.388138
 20
0.704646
 30
0.000000
  0
SEQEND
  8
LAYER-1
  0
POLYLINE
  8
LAYER-1
 66
  1
 70
  0
 62
  7
 10
0.391593
 20
0.741570
 30
0.000000
  0
VERTEX
  8
LAYER-1
 10
0.391593
 20
0.741570
 30
0.000000
  0
VERTEX
  8
LAYER-1
 10
0.430968
 20
0.741570
 30
0.000000
  0
SEQEND
  8
LAYER-1
  0
POLYLINE
  8
LAYER-1
 66
  1
 70
  0
 62
  7
 10
0.391593
 20
0.741570
 30
0.000000
  0
VERTEX
  8
LAYER-1
 10
0.391593
 20
0.741570
 30
0.000000
  0
VERTEX
  8
LAYER-1
 10
0.430179
 20
0.737634
 30
0.000000
  0
SEQEND
  8
LAYER-1
  0
POLYLINE
  8
LAYER-1
 66
  1
 70
  0
 62
  7
 10
0.391593
 20
0.741570
 30
0.000000
  0
VERTEX
  8
LAYER-1
 10
0.391593
 20
0.741570
 30
0.000000
  0
VERTEX
  8
LAYER-1
 10
0.429393
 20
0.732122
 30
0.000000
  0
SEQEND
  8
LAYER-1
  0
POLYLINE
  8
LAYER-1
 66
  1
 70
  0
 62
  7
 10
0.391593
 20
0.741570
 30
0.000000
  0
VERTEX
  8
LAYER-1
 10
0.391593
 20
0.741570
 30
0.000000
  0
VERTEX
  8
LAYER-1
 10
0.430179
 20
0.746298
 30
0.000000
  0
SEQEND
  8
LAYER-1
  0
POLYLINE
  8
LAYER-1
 66
  1
 70
  0
 62
  7
 10
0.391593
 20
0.741570
 30
0.000000
  0
VERTEX
  8
LAYER-1
 10
0.391593
 20
0.741570
 30
0.000000
  0
VERTEX
  8
LAYER-1
 10
0.430179
 20
0.751809
 30
0.000000
  0
SEQEND
  8
LAYER-1
  0
POLYLINE
  8
LAYER-1
 66
  1
 70
  0
 62
  7
 10
0.391035
 20
0.726630
 30
0.000000
  0
VERTEX
  8
LAYER-1
 10
0.391035
 20
0.726630
 30
0.000000
  0
VERTEX
  8
LAYER-1
 10
0.430408
 20
0.726630
 30
0.000000
  0
SEQEND
  8
LAYER-1
  0
POLYLINE
  8
LAYER-1
 66
  1
 70
  0
 62
  7
 10
0.391035
 20
0.726630
 30
0.000000
  0
VERTEX
  8
LAYER-1
 10
0.391035
 20
0.726630
 30
0.000000
  0
VERTEX
  8
LAYER-1
 10
0.429621
 20
0.722693
 30
0.000000
  0
SEQEND
  8
LAYER-1
  0
POLYLINE
  8
LAYER-1
 66
  1
 70
  0
 62
  7
 10
0.391035
 20
0.726630
 30
0.000000
  0
VERTEX
  8
LAYER-1
 10
0.391035
 20
0.726630
 30
0.000000
  0
VERTEX
  8
LAYER-1
 10
0.428834
 20
0.717180
 30
0.000000
  0
SEQEND
  8
LAYER-1
  0
POLYLINE
  8
LAYER-1
 66
  1
 70
  0
 62
  7
 10
0.391035
 20
0.726630
 30
0.000000
  0
VERTEX
  8
LAYER-1
 10
0.391035
 20
0.726630
 30
0.000000
  0
VERTEX
  8
LAYER-1
 10
0.429621
 20
0.731357
 30
0.000000
  0
SEQEND
  8
LAYER-1
  0
POLYLINE
  8
LAYER-1
 66
  1
 70
  0
 62
  7
 10
0.391035
 20
0.726630
 30
0.000000
  0
VERTEX
  8
LAYER-1
 10
0.391035
 20
0.726630
 30
0.000000
  0
VERTEX
  8
LAYER-1
 10
0.429621
 20
0.736867
 30
0.000000
  0
SEQEND
  8
LAYER-1
  0
POLYLINE
  8
LAYER-1
 66
  1
 70
  0
 62
  7
 10
0.391035
 20
0.756030
 30
0.000000
  0
VERTEX
  8
LAYER-1
 10
0.391035
 20
0.756030
 30
0.000000
  0
VERTEX
  8
LAYER-1
 10
0.430408
 20
0.756030
 30
0.000000
  0
SEQEND
  8
LAYER-1
  0
POLYLINE
  8
LAYER-1
 66
  1
 70
  0
 62
  7
 10
0.391035
 20
0.756030
 30
0.000000
  0
VERTEX
  8
LAYER-1
 10
0.391035
 20
0.756030
 30
0.000000
  0
VERTEX
  8
LAYER-1
 10
0.429621
 20
0.752092
 30
0.000000
  0
SEQEND
  8
LAYER-1
  0
POLYLINE
  8
LAYER-1
 66
  1
 70
  0
 62
  7
 10
0.391035
 20
0.756030
 30
0.000000
  0
VERTEX
  8
LAYER-1
 10
0.391035
 20
0.756030
 30
0.000000
  0
VERTEX
  8
LAYER-1
 10
0.428834
 20
0.746581
 30
0.000000
  0
SEQEND
  8
LAYER-1
  0
POLYLINE
  8
LAYER-1
 66
  1
 70
  0
 62
  7
 10
0.391035
 20
0.756030
 30
0.000000
  0
VERTEX
  8
LAYER-1
 10
0.391035
 20
0.756030
 30
0.000000
  0
VERTEX
  8
LAYER-1
 10
0.429621
 20
0.760756
 30
0.000000
  0
SEQEND
  8
LAYER-1
  0
POLYLINE
  8
LAYER-1
 66
  1
 70
  0
 62
  7
 10
0.391035
 20
0.756030
 30
0.000000
  0
VERTEX
  8
LAYER-1
 10
0.391035
 20
0.756030
 30
0.000000
  0
VERTEX
  8
LAYER-1
 10
0.429621
 20
0.766268
 30
0.000000
  0
SEQEND
  8
LAYER-1
  0
ENDSEC
  0
EOF
