  0
SECTION
  2
HEADER
999
MacDraft 5.0\0
  9
$ACADVER
  1
AC1006
  9
$CLAYER
  8
MERGEDLAYER-1
  9
$EXTMIN
 10
0.000000
 20
0.000000
  9
$EXTMAX
 10
270.288059
 20
205.797160
  9
$FASTZOOM
 70
0
  9
$FILLMODE
 70
1
  0
ENDSEC
  0
SECTION
  2
TABLES
  0
TABLE
  2
LTYPE
 70
16
  0
LTYPE
  2
CONTINUOUS
 70
64
  3
Solid Line
 72
65
 73
0
 40
0.000000
  0
LTYPE
  2
LTYPE01
 70
64
  3
CUSTOM
 72
65
 73
2
 40
1.777778
 49
1.333333
 49
-0.444444
  0
LTYPE
  2
LTYPE02
 70
64
  3
CUSTOM
 72
65
 73
2
 40
3.111111
 49
2.666667
 49
-0.444444
  0
LTYPE
  2
LTYPE03
 70
64
  3
CUSTOM
 72
65
 73
2
 40
6.000000
 49
5.333333
 49
-0.666667
  0
LTYPE
  2
LTYPE04
 70
64
  3
CUSTOM
 72
65
 73
2
 40
11.555556
 49
10.666667
 49
-0.888889
  0
LTYPE
  2
LTYPE05
 70
64
  3
CUSTOM
 72
65
 73
4
 40
2.444444
 49
1.333333
 49
-0.444444
 49
0.222222
 49
-0.444444
  0
LTYPE
  2
LTYPE06
 70
64
  3
CUSTOM
 72
65
 73
4
 40
3.777778
 49
2.666667
 49
-0.444444
 49
0.222222
 49
-0.444444
  0
LTYPE
  2
LTYPE07
 70
64
  3
CUSTOM
 72
65
 73
4
 40
7.111111
 49
5.333333
 49
-0.666667
 49
0.444444
 49
-0.666667
  0
LTYPE
  2
LTYPE08
 70
64
  3
CUSTOM
 72
65
 73
4
 40
12.888889
 49
10.666667
 49
-0.888889
 49
0.444444
 49
-0.888889
  0
LTYPE
  2
LTYPE09
 70
64
  3
CUSTOM
 72
65
 73
6
 40
3.111111
 49
1.333333
 49
-0.444444
 49
0.222222
 49
-0.444444
 49
0.222222
 49
-0.444444
  0
LTYPE
  2
LTYPE10
 70
64
  3
CUSTOM
 72
65
 73
6
 40
4.444444
 49
2.666667
 49
-0.444444
 49
0.222222
 49
-0.444444
 49
0.222222
 49
-0.444444
  0
LTYPE
  2
LTYPE11
 70
64
  3
CUSTOM
 72
65
 73
6
 40
8.000000
 49
5.333333
 49
-0.666667
 49
0.444444
 49
-0.444444
 49
0.444444
 49
-0.666667
  0
LTYPE
  2
LTYPE12
 70
64
  3
CUSTOM
 72
65
 73
6
 40
13.777778
 49
10.666667
 49
-0.888889
 49
0.444444
 49
-0.444444
 49
0.444444
 49
-0.888889
  0
LTYPE
  2
LTYPE13
 70
64
  3
CUSTOM
 72
65
 73
8
 40
5.111111
 49
2.666667
 49
-0.444444
 49
0.222222
 49
-0.444444
 49
0.222222
 49
-0.444444
 49
0.222222
 49
-0.444444
  0
LTYPE
  2
LTYPE14
 70
64
  3
CUSTOM
 72
65
 73
8
 40
8.888889
 49
5.333333
 49
-0.666667
 49
0.444444
 49
-0.444444
 49
0.444444
 49
-0.444444
 49
0.444444
 49
-0.666667
  0
LTYPE
  2
LTYPE15
 70
64
  3
CUSTOM
 72
65
 73
8
 40
15.111111
 49
10.666667
 49
-0.888889
 49
0.444444
 49
-0.666667
 49
0.444444
 49
-0.666667
 49
0.444444
 49
-0.888889
  0
ENDTAB
  0
TABLE
  2
LAYER
 70
1
  0
LAYER
  2
MERGEDLAYER-1
 70
0
 62
7
  6
CONTINUOUS
  0
ENDTAB
  0
ENDSEC
  0
SECTION
  2
BLOCKS
  0
ENDSEC
  0
SECTION
  2
ENTITIES
  0
POLYLINE
  8
MERGEDLAYER-1
 66
  1
 70
  0
 62
  7
 10
0.222222
 20
205.574938
 30
0.000000
  0
VERTEX
  8
MERGEDLAYER-1
 10
0.222222
 20
205.574938
 30
0.000000
  0
VERTEX
  8
MERGEDLAYER-1
 10
0.222222
 20
0.222222
 30
0.000000
  0
SEQEND
  8
MERGEDLAYER-1
  0
POLYLINE
  8
MERGEDLAYER-1
 66
  1
 70
  0
 62
  7
 10
0.222222
 20
205.574938
 30
0.000000
  0
VERTEX
  8
MERGEDLAYER-1
 10
0.222222
 20
205.574938
 30
0.000000
  0
VERTEX
  8
MERGEDLAYER-1
 10
270.043674
 20
205.574938
 30
0.000000
  0
SEQEND
  8
MERGEDLAYER-1
  0
POLYLINE
  8
MERGEDLAYER-1
 66
  1
 70
  0
 62
  7
 10
270.043674
 20
205.574938
 30
0.000000
  0
VERTEX
  8
MERGEDLAYER-1
 10
270.043674
 20
205.574938
 30
0.000000
  0
VERTEX
  8
MERGEDLAYER-1
 10
270.043674
 20
0.222222
 30
0.000000
  0
SEQEND
  8
MERGEDLAYER-1
  0
POLYLINE
  8
MERGEDLAYER-1
 66
  1
 70
  0
 62
  7
 10
0.222222
 20
0.222222
 30
0.000000
  0
VERTEX
  8
MERGEDLAYER-1
 10
0.222222
 20
0.222222
 30
0.000000
  0
VERTEX
  8
MERGEDLAYER-1
 10
270.043674
 20
0.222222
 30
0.000000
  0
SEQEND
  8
MERGEDLAYER-1
  0
POLYLINE
  8
MERGEDLAYER-1
 66
  1
 70
  0
 62
  7
 10
193.257962
 20
205.574938
 30
0.000000
  0
VERTEX
  8
MERGEDLAYER-1
 10
193.257962
 20
205.574938
 30
0.000000
  0
VERTEX
  8
MERGEDLAYER-1
 10
193.257962
 20
0.222222
 30
0.000000
  0
SEQEND
  8
MERGEDLAYER-1
  0
TEXT
  8
MERGEDLAYER-1
 62
  7
 10
178.984469
 20
200.661024
 30
0.000000
 40
2.000000
  1
NOT TO
 72
  5
 11
189.873358
 21
200.661024
 31
0.000000
  0
TEXT
  8
MERGEDLAYER-1
 62
  7
 10
178.984469
 20
197.549913
 30
0.000000
 40
2.000000
  1
SCALE
 72
  5
 11
188.762247
 21
197.549913
 31
0.000000
  0
POLYLINE
  8
MERGEDLAYER-1
 66
  1
 70
  1
 62
  7
  0
VERTEX
  8
MERGEDLAYER-1
 10
182.900011
 20
6.226264
 30
0.000000
  0
VERTEX
  8
MERGEDLAYER-1
 10
193.257975
 20
6.226264
 30
0.000000
  0
VERTEX
  8
MERGEDLAYER-1
 10
193.257975
 20
0.222222
 30
0.000000
  0
VERTEX
  8
MERGEDLAYER-1
 10
182.900011
 20
0.222222
 30
0.000000
  0
SEQEND
  8
MERGEDLAYER-1
  0
TEXT
  8
MERGEDLAYER-1
 62
  7
 10
182.540025
 20
6.438802
 30
0.000000
 40
2.500000
  1
BY:
 72
  5
 11
188.762247
 21
6.438802
 31
0.000000
  0
TEXT
  8
MERGEDLAYER-1
 62
  7
 10
196.317802
 20
198.883247
 30
0.000000
 40
2.500000
  1
NOTES
 72
  5
 11
209.206691
 21
198.883247
 31
0.000000
  0
TEXT
  8
MERGEDLAYER-1
 62
  7
 10
196.540025
 20
194.216580
 30
0.000000
 40
2.500000
  1
MANUAL PUSH-UP
 72
  5
 11
225.651136
 21
194.216580
 31
0.000000
  0
TEXT
  8
MERGEDLAYER-1
 62
  7
 10
196.540025
 20
187.772135
 30
0.000000
 40
2.500000
  1
ALUMINUM GUIDES NOT INCLUDED
 72
  5
 11
251.873358
 21
187.772135
 31
0.000000
  0
TEXT
  8
MERGEDLAYER-1
 62
  7
 10
196.540025
 20
183.772135
 30
0.000000
 40
2.500000
  1
MILLWORK GROOVES AND LINING
 72
  5
 11
250.984469
 21
183.772135
 31
0.000000
  0
TEXT
  8
MERGEDLAYER-1
 62
  7
 10
196.540025
 20
179.994358
 30
0.000000
 40
2.500000
  1
BY OTHERS
 72
  5
 11
216.540025
 21
179.994358
 31
0.000000
  0
TEXT
  8
MERGEDLAYER-1
 62
  7
 10
196.540025
 20
173.549913
 30
0.000000
 40
2.500000
  1
PROVIDE ACCESS AT BACK OF CABINET
 72
  5
 11
261.651136
 21
173.549913
 31
0.000000
  0
TEXT
  8
MERGEDLAYER-1
 62
  7
 10
196.540025
 20
169.772135
 30
0.000000
 40
2.500000
  1
FOR INSTALLATION AND SERVICE 
 72
  5
 11
251.428914
 21
169.772135
 31
0.000000
  0
TEXT
  8
MERGEDLAYER-1
 62
  7
 10
196.540025
 20
163.327691
 30
0.000000
 40
2.500000
  1
BUNGEE CORD: INSERT BOTH
 72
  5
 11
245.651136
 21
163.327691
 31
0.000000
  0
TEXT
  8
MERGEDLAYER-1
 62
  7
 10
196.540025
 20
159.549913
 30
0.000000
 40
2.500000
  1
S-HOOKS IN PREDRILLED BACK SLAT,
 72
  5
 11
257.873358
 21
159.549913
 31
0.000000
  0
TEXT
  8
MERGEDLAYER-1
 62
  7
 10
196.540025
 20
155.772135
 30
0.000000
 40
2.500000
  1
ADJUST BUNGEE CORD LENGTH FOR
 72
  5
 11
257.206691
 21
155.772135
 31
0.000000
  0
TEXT
  8
MERGEDLAYER-1
 62
  7
 10
196.540025
 20
151.994358
 30
0.000000
 40
2.500000
  1
PROPER TENSION TO BE DONE ON SITE
 72
  5
 11
262.095580
 21
151.994358
 31
0.000000
  0
POLYLINE
  8
MERGEDLAYER-1
 66
  1
 70
  1
 62
  7
  0
VERTEX
  8
MERGEDLAYER-1
 10
37.498220
 20
51.293701
 30
0.000000
  0
VERTEX
  8
MERGEDLAYER-1
 10
155.941650
 20
51.293701
 30
0.000000
  0
VERTEX
  8
MERGEDLAYER-1
 10
155.941650
 20
45.040405
 30
0.000000
  0
VERTEX
  8
MERGEDLAYER-1
 10
37.498220
 20
45.040405
 30
0.000000
  0
SEQEND
  8
MERGEDLAYER-1
  0
POLYLINE
  8
MERGEDLAYER-1
 66
  1
 70
  1
 62
  7
  0
VERTEX
  8
MERGEDLAYER-1
 10
32.479848
 20
56.450155
 30
0.000000
  0
VERTEX
  8
MERGEDLAYER-1
 10
36.241977
 20
56.450155
 30
0.000000
  0
VERTEX
  8
MERGEDLAYER-1
 10
36.241977
 20
19.990980
 30
0.000000
  0
VERTEX
  8
MERGEDLAYER-1
 10
32.479848
 20
19.990980
 30
0.000000
  0
SEQEND
  8
MERGEDLAYER-1
  0
POLYLINE
  8
MERGEDLAYER-1
 66
  1
 70
  1
 62
255
  0
VERTEX
  8
MERGEDLAYER-1
 10
32.502479
 20
50.030843
 30
0.000000
  0
VERTEX
  8
MERGEDLAYER-1
 10
36.427555
 20
50.030843
 30
0.000000
  0
VERTEX
  8
MERGEDLAYER-1
 10
36.427555
 20
46.322605
 30
0.000000
  0
VERTEX
  8
MERGEDLAYER-1
 10
32.502479
 20
46.322605
 30
0.000000
  0
SEQEND
  8
MERGEDLAYER-1
  0
POLYLINE
  8
MERGEDLAYER-1
 66
  1
 70
  1
 62
  7
  0
VERTEX
  8
MERGEDLAYER-1
 10
28.717726
 20
56.450155
 30
0.000000
  0
VERTEX
  8
MERGEDLAYER-1
 10
32.479848
 20
56.450155
 30
0.000000
  0
VERTEX
  8
MERGEDLAYER-1
 10
32.479848
 20
19.990980
 30
0.000000
  0
VERTEX
  8
MERGEDLAYER-1
 10
28.717726
 20
19.990980
 30
0.000000
  0
SEQEND
  8
MERGEDLAYER-1
  0
POLYLINE
  8
MERGEDLAYER-1
 66
  1
 70
  0
 62
  7
 10
32.502479
 20
50.030843
 30
0.000000
  0
VERTEX
  8
MERGEDLAYER-1
 10
32.502479
 20
50.030843
 30
0.000000
  0
VERTEX
  8
MERGEDLAYER-1
 10
36.241977
 20
50.030843
 30
0.000000
  0
SEQEND
  8
MERGEDLAYER-1
  0
POLYLINE
  8
MERGEDLAYER-1
 66
  1
 70
  0
 62
  7
 10
32.502479
 20
46.322605
 30
0.000000
  0
VERTEX
  8
MERGEDLAYER-1
 10
32.502479
 20
46.322605
 30
0.000000
  0
VERTEX
  8
MERGEDLAYER-1
 10
36.241977
 20
46.322605
 30
0.000000
  0
SEQEND
  8
MERGEDLAYER-1
  0
POLYLINE
  8
MERGEDLAYER-1
 66
  1
 70
  0
 62
  7
 10
36.241977
 20
50.030843
 30
0.000000
  0
VERTEX
  8
MERGEDLAYER-1
 10
36.241977
 20
50.030843
 30
0.000000
  0
VERTEX
  8
MERGEDLAYER-1
 10
36.241977
 20
56.450155
 30
0.000000
  0
SEQEND
  8
MERGEDLAYER-1
  0
POLYLINE
  8
MERGEDLAYER-1
 66
  1
 70
  0
 62
  7
 10
36.241977
 20
56.450155
 30
0.000000
  0
VERTEX
  8
MERGEDLAYER-1
 10
36.241977
 20
56.450155
 30
0.000000
  0
VERTEX
  8
MERGEDLAYER-1
 10
28.717726
 20
56.450155
 30
0.000000
  0
SEQEND
  8
MERGEDLAYER-1
  0
POLYLINE
  8
MERGEDLAYER-1
 66
  1
 70
  0
 62
  7
 10
28.717726
 20
56.450155
 30
0.000000
  0
VERTEX
  8
MERGEDLAYER-1
 10
28.717726
 20
56.450155
 30
0.000000
  0
VERTEX
  8
MERGEDLAYER-1
 10
28.717726
 20
21.133247
 30
0.000000
  0
SEQEND
  8
MERGEDLAYER-1
  0
POLYLINE
  8
MERGEDLAYER-1
 66
  1
 70
  0
 62
  7
 10
36.241977
 20
46.322605
 30
0.000000
  0
VERTEX
  8
MERGEDLAYER-1
 10
36.241977
 20
46.322605
 30
0.000000
  0
VERTEX
  8
MERGEDLAYER-1
 10
36.241977
 20
21.133247
 30
0.000000
  0
SEQEND
  8
MERGEDLAYER-1
  0
POLYLINE
  8
MERGEDLAYER-1
 66
  1
 70
  1
 62
  7
 10
36.887248
 20
50.664497
 30
0.000000
  0
VERTEX
  8
MERGEDLAYER-1
 10
36.887248
 20
50.664497
 30
0.000000
  0
VERTEX
  8
MERGEDLAYER-1
 10
37.512248
 20
50.664497
 30
0.000000
  0
VERTEX
  8
MERGEDLAYER-1
 10
37.512248
 20
45.664497
 30
0.000000
  0
VERTEX
  8
MERGEDLAYER-1
 10
36.887248
 20
45.664497
 30
0.000000
  0
VERTEX
  8
MERGEDLAYER-1
 10
36.887248
 20
46.601997
 30
0.000000
  0
VERTEX
  8
MERGEDLAYER-1
 10
33.762248
 20
46.601997
 30
0.000000
  0
VERTEX
  8
MERGEDLAYER-1
 10
33.762248
 20
49.726997
 30
0.000000
  0
VERTEX
  8
MERGEDLAYER-1
 10
36.887248
 20
49.726997
 30
0.000000
  0
SEQEND
  8
MERGEDLAYER-1
  0
LINE
  8
MERGEDLAYER-1
 62
  7
 10
32.502479
 20
52.030843
 30
0.000000
 11
32.502479
 21
66.383247
 31
0.000000
  0
LINE
  8
MERGEDLAYER-1
 62
  7
 10
36.241977
 20
58.450155
 30
0.000000
 11
36.241977
 21
66.383247
 31
0.000000
  0
LINE
  8
MERGEDLAYER-1
 62
  7
 10
32.502479
 20
63.383247
 30
0.000000
 11
23.748359
 21
63.383247
 31
0.000000
  0
LINE
  8
MERGEDLAYER-1
 62
  7
 10
32.502479
 20
63.383233
 30
0.000000
 11
26.502479
 21
63.383260
 31
0.000000
  0
POLYLINE
  8
MERGEDLAYER-1
 66
  1
 70
  1
 62
  7
  0
VERTEX
  8
MERGEDLAYER-1
 10
32.502479
 20
63.383247
 30
0.000000
  0
VERTEX
  8
MERGEDLAYER-1
 10
31.391371
 20
64.049913
 30
0.000000
  0
VERTEX
  8
MERGEDLAYER-1
 10
31.391368
 20
63.383247
 30
0.000000
  0
VERTEX
  8
MERGEDLAYER-1
 10
31.391364
 20
62.716580
 30
0.000000
  0
VERTEX
  8
MERGEDLAYER-1
 10
32.502479
 20
63.383247
 30
0.000000
  0
SEQEND
  8
MERGEDLAYER-1
  0
LINE
  8
MERGEDLAYER-1
 62
  7
 10
36.241977
 20
63.383233
 30
0.000000
 11
62.851651
 21
-114.450060
 31
0.000000
  0
POLYLINE
  8
MERGEDLAYER-1
 66
  1
 70
  1
 62
  7
  0
VERTEX
  8
MERGEDLAYER-1
 10
36.241977
 20
63.383247
 30
0.000000
  0
VERTEX
  8
MERGEDLAYER-1
 10
37.353092
 20
64.049913
 30
0.000000
  0
VERTEX
  8
MERGEDLAYER-1
 10
37.353088
 20
63.383247
 30
0.000000
  0
VERTEX
  8
MERGEDLAYER-1
 10
37.353085
 20
62.716580
 30
0.000000
  0
VERTEX
  8
MERGEDLAYER-1
 10
36.241977
 20
63.383247
 30
0.000000
  0
SEQEND
  8
MERGEDLAYER-1
  0
TEXT
  8
MERGEDLAYER-1
 62
  7
 10
24.862246
 20
65.283244
 30
0.000000
 40
1.666667
  1
 
  0
LINE
  8
MERGEDLAYER-1
 62
  7
 10
30.502479
 20
46.322605
 30
0.000000
 11
19.512248
 21
46.322605
 31
0.000000
  0
LINE
  8
MERGEDLAYER-1
 62
  7
 10
30.502479
 20
50.030843
 30
0.000000
 11
19.512248
 21
50.030843
 31
0.000000
  0
LINE
  8
MERGEDLAYER-1
 62
  7
 10
22.512248
 20
50.030843
 30
0.000000
 11
22.512248
 21
40.008247
 31
0.000000
  0
LINE
  8
MERGEDLAYER-1
 62
  7
 10
22.512248
 20
46.322605
 30
0.000000
 11
22.512166
 21
40.322605
 31
0.000000
  0
POLYLINE
  8
MERGEDLAYER-1
 66
  1
 70
  1
 62
  7
  0
VERTEX
  8
MERGEDLAYER-1
 10
22.512248
 20
46.322605
 30
0.000000
  0
VERTEX
  8
MERGEDLAYER-1
 10
21.845564
 20
45.211507
 30
0.000000
  0
VERTEX
  8
MERGEDLAYER-1
 10
22.512231
 20
45.211494
 30
0.000000
  0
VERTEX
  8
MERGEDLAYER-1
 10
23.178897
 20
45.211480
 30
0.000000
  0
VERTEX
  8
MERGEDLAYER-1
 10
22.512248
 20
46.322605
 30
0.000000
  0
SEQEND
  8
MERGEDLAYER-1
  0
LINE
  8
MERGEDLAYER-1
 62
  7
 10
22.512248
 20
50.030830
 30
0.000000
 11
53.984294
 21
-165.695964
 31
0.000000
  0
POLYLINE
  8
MERGEDLAYER-1
 66
  1
 70
  1
 62
  7
  0
VERTEX
  8
MERGEDLAYER-1
 10
22.512248
 20
50.030843
 30
0.000000
  0
VERTEX
  8
MERGEDLAYER-1
 10
21.845595
 20
51.141968
 30
0.000000
  0
VERTEX
  8
MERGEDLAYER-1
 10
22.512261
 20
51.141954
 30
0.000000
  0
VERTEX
  8
MERGEDLAYER-1
 10
23.178928
 20
51.141941
 30
0.000000
  0
VERTEX
  8
MERGEDLAYER-1
 10
22.512248
 20
50.030843
 30
0.000000
  0
SEQEND
  8
MERGEDLAYER-1
  0
TEXT
  8
MERGEDLAYER-1
 62
  7
 10
22.262247
 20
37.483249
 30
0.000000
 40
1.666667
  1
 
  0
POLYLINE
  8
MERGEDLAYER-1
  6
LTYPE05
 66
  1
 70
  1
 62
  7
  0
VERTEX
  8
MERGEDLAYER-1
  6
LTYPE05
 10
30.574748
 20
49.133247
 30
0.000000
  0
VERTEX
  8
MERGEDLAYER-1
  6
LTYPE05
 10
32.449748
 20
49.133247
 30
0.000000
  0
VERTEX
  8
MERGEDLAYER-1
  6
LTYPE05
 10
32.449748
 20
47.258247
 30
0.000000
  0
VERTEX
  8
MERGEDLAYER-1
  6
LTYPE05
 10
30.574748
 20
47.258247
 30
0.000000
  0
SEQEND
  8
MERGEDLAYER-1
  0
POLYLINE
  8
MERGEDLAYER-1
 66
  1
 70
  0
 62
  7
 10
32.502479
 20
50.030843
 30
0.000000
  0
VERTEX
  8
MERGEDLAYER-1
 10
32.502479
 20
50.030843
 30
0.000000
  0
VERTEX
  8
MERGEDLAYER-1
 10
32.502479
 20
46.322605
 30
0.000000
  0
SEQEND
  8
MERGEDLAYER-1
  0
POLYLINE
  8
MERGEDLAYER-1
 66
  1
 70
  0
 62
  7
 10
20.762248
 20
32.661024
 30
0.000000
  0
VERTEX
  8
MERGEDLAYER-1
 10
20.762248
 20
32.661024
 30
0.000000
  0
VERTEX
  8
MERGEDLAYER-1
 10
32.187042
 20
46.003459
 30
0.000000
  0
SEQEND
  8
MERGEDLAYER-1
  0
POLYLINE
  8
MERGEDLAYER-1
 66
  1
 70
  1
 62
  7
  0
VERTEX
  8
MERGEDLAYER-1
 10
32.512248
 20
46.383247
 30
0.000000
  0
VERTEX
  8
MERGEDLAYER-1
 10
32.295966
 20
45.105659
 30
0.000000
  0
VERTEX
  8
MERGEDLAYER-1
 10
31.789575
 20
45.539266
 30
0.000000
  0
VERTEX
  8
MERGEDLAYER-1
 10
31.283183
 20
45.972873
 30
0.000000
  0
VERTEX
  8
MERGEDLAYER-1
 10
32.512248
 20
46.383247
 30
0.000000
  0
SEQEND
  8
MERGEDLAYER-1
  0
POLYLINE
  8
MERGEDLAYER-1
 66
  1
 70
  1
 62
  7
  0
VERTEX
  8
MERGEDLAYER-1
 10
33.215373
 20
49.101997
 30
0.000000
  0
VERTEX
  8
MERGEDLAYER-1
 10
33.387248
 20
49.101997
 30
0.000000
  0
VERTEX
  8
MERGEDLAYER-1
 10
33.387248
 20
47.242622
 30
0.000000
  0
VERTEX
  8
MERGEDLAYER-1
 10
33.215373
 20
47.242622
 30
0.000000
  0
SEQEND
  8
MERGEDLAYER-1
  0
POLYLINE
  8
MERGEDLAYER-1
 66
  1
 70
  0
 62
  7
 10
32.989980
 20
48.654161
 30
0.000000
  0
VERTEX
  8
MERGEDLAYER-1
 10
32.989980
 20
48.654161
 30
0.000000
  0
VERTEX
  8
MERGEDLAYER-1
 10
32.767832
 20
48.482164
 30
0.000000
  0
VERTEX
  8
MERGEDLAYER-1
 10
32.805084
 20
48.348863
 30
0.000000
  0
SEQEND
  8
MERGEDLAYER-1
  0
POLYLINE
  8
MERGEDLAYER-1
 66
  1
 70
  0
 62
  7
 10
33.193868
 20
48.654161
 30
0.000000
  0
VERTEX
  8
MERGEDLAYER-1
 10
33.193868
 20
48.654161
 30
0.000000
  0
VERTEX
  8
MERGEDLAYER-1
 10
32.950890
 20
48.708659
 30
0.000000
  0
VERTEX
  8
MERGEDLAYER-1
 10
32.990031
 20
48.654161
 30
0.000000
  0
SEQEND
  8
MERGEDLAYER-1
  0
POLYLINE
  8
MERGEDLAYER-1
 66
  1
 70
  0
 62
  7
 10
32.805101
 20
47.979031
 30
0.000000
  0
VERTEX
  8
MERGEDLAYER-1
 10
32.805101
 20
47.979031
 30
0.000000
  0
VERTEX
  8
MERGEDLAYER-1
 10
32.858151
 20
47.783854
 30
0.000000
  0
VERTEX
  8
MERGEDLAYER-1
 10
32.990007
 20
47.673733
 30
0.000000
  0
SEQEND
  8
MERGEDLAYER-1
  0
POLYLINE
  8
MERGEDLAYER-1
 66
  1
 70
  0
 62
  7
 10
33.193746
 20
47.673774
 30
0.000000
  0
VERTEX
  8
MERGEDLAYER-1
 10
33.193746
 20
47.673774
 30
0.000000
  0
VERTEX
  8
MERGEDLAYER-1
 10
33.193810
 20
48.654175
 30
0.000000
  0
SEQEND
  8
MERGEDLAYER-1
  0
POLYLINE
  8
MERGEDLAYER-1
 66
  1
 70
  0
 62
  7
 10
32.805054
 20
48.348823
 30
0.000000
  0
VERTEX
  8
MERGEDLAYER-1
 10
32.805054
 20
48.348823
 30
0.000000
  0
VERTEX
  8
MERGEDLAYER-1
 10
32.805101
 20
47.979031
 30
0.000000
  0
SEQEND
  8
MERGEDLAYER-1
  0
POLYLINE
  8
MERGEDLAYER-1
 66
  1
 70
  0
 62
  7
 10
32.989939
 20
47.673733
 30
0.000000
  0
VERTEX
  8
MERGEDLAYER-1
 10
32.989939
 20
47.673733
 30
0.000000
  0
VERTEX
  8
MERGEDLAYER-1
 10
33.193783
 20
47.673733
 30
0.000000
  0
SEQEND
  8
MERGEDLAYER-1
  0
POLYLINE
  8
MERGEDLAYER-1
 66
  1
 70
  1
 62
  7
  0
VERTEX
  8
MERGEDLAYER-1
 10
33.387248
 20
48.789497
 30
0.000000
  0
VERTEX
  8
MERGEDLAYER-1
 10
34.637248
 20
48.789497
 30
0.000000
  0
VERTEX
  8
MERGEDLAYER-1
 10
34.637248
 20
47.539497
 30
0.000000
  0
VERTEX
  8
MERGEDLAYER-1
 10
33.387248
 20
47.539497
 30
0.000000
  0
SEQEND
  8
MERGEDLAYER-1
  0
POLYLINE
  8
MERGEDLAYER-1
 66
  1
 70
  1
 62
  7
  0
VERTEX
  8
MERGEDLAYER-1
 10
33.512248
 20
49.726997
 30
0.000000
  0
VERTEX
  8
MERGEDLAYER-1
 10
34.496623
 20
49.726997
 30
0.000000
  0
VERTEX
  8
MERGEDLAYER-1
 10
34.496623
 20
46.601997
 30
0.000000
  0
VERTEX
  8
MERGEDLAYER-1
 10
33.512248
 20
46.601997
 30
0.000000
  0
SEQEND
  8
MERGEDLAYER-1
  0
POLYLINE
  8
MERGEDLAYER-1
 66
  1
 70
  1
 62
  7
  0
VERTEX
  8
MERGEDLAYER-1
 10
33.512248
 20
49.726997
 30
0.000000
  0
VERTEX
  8
MERGEDLAYER-1
 10
34.496623
 20
49.726997
 30
0.000000
  0
VERTEX
  8
MERGEDLAYER-1
 10
34.496623
 20
46.601997
 30
0.000000
  0
VERTEX
  8
MERGEDLAYER-1
 10
33.512248
 20
46.601997
 30
0.000000
  0
SEQEND
  8
MERGEDLAYER-1
  0
POLYLINE
  8
MERGEDLAYER-1
 66
  1
 70
  1
 62
  7
  0
VERTEX
  8
MERGEDLAYER-1
 10
156.362996
 20
49.626180
 30
0.000000
  0
VERTEX
  8
MERGEDLAYER-1
 10
161.888468
 20
49.626180
 30
0.000000
  0
VERTEX
  8
MERGEDLAYER-1
 10
161.888468
 20
46.731133
 30
0.000000
  0
VERTEX
  8
MERGEDLAYER-1
 10
156.362996
 20
46.731133
 30
0.000000
  0
SEQEND
  8
MERGEDLAYER-1
  0
POLYLINE
  8
MERGEDLAYER-1
 66
  1
 70
  1
 62
  7
  0
VERTEX
  8
MERGEDLAYER-1
 10
160.946981
 20
56.450155
 30
0.000000
  0
VERTEX
  8
MERGEDLAYER-1
 10
164.709106
 20
56.450155
 30
0.000000
  0
VERTEX
  8
MERGEDLAYER-1
 10
164.709106
 20
19.990980
 30
0.000000
  0
VERTEX
  8
MERGEDLAYER-1
 10
160.946981
 20
19.990980
 30
0.000000
  0
SEQEND
  8
MERGEDLAYER-1
  0
POLYLINE
  8
MERGEDLAYER-1
 66
  1
 70
  1
 62
  7
  0
VERTEX
  8
MERGEDLAYER-1
 10
157.184855
 20
56.450155
 30
0.000000
  0
VERTEX
  8
MERGEDLAYER-1
 10
160.946981
 20
56.450155
 30
0.000000
  0
VERTEX
  8
MERGEDLAYER-1
 10
160.946981
 20
19.990980
 30
0.000000
  0
VERTEX
  8
MERGEDLAYER-1
 10
157.184855
 20
19.990980
 30
0.000000
  0
SEQEND
  8
MERGEDLAYER-1
  0
POLYLINE
  8
MERGEDLAYER-1
 66
  1
 70
  1
 62
255
  0
VERTEX
  8
MERGEDLAYER-1
 10
156.999281
 20
50.030843
 30
0.000000
  0
VERTEX
  8
MERGEDLAYER-1
 10
160.924357
 20
50.030843
 30
0.000000
  0
VERTEX
  8
MERGEDLAYER-1
 10
160.924357
 20
46.322605
 30
0.000000
  0
VERTEX
  8
MERGEDLAYER-1
 10
156.999281
 20
46.322605
 30
0.000000
  0
SEQEND
  8
MERGEDLAYER-1
  0
POLYLINE
  8
MERGEDLAYER-1
 66
  1
 70
  0
 62
  7
 10
160.924357
 20
50.030843
 30
0.000000
  0
VERTEX
  8
MERGEDLAYER-1
 10
160.924357
 20
50.030843
 30
0.000000
  0
VERTEX
  8
MERGEDLAYER-1
 10
157.184855
 20
50.030843
 30
0.000000
  0
SEQEND
  8
MERGEDLAYER-1
  0
POLYLINE
  8
MERGEDLAYER-1
 66
  1
 70
  0
 62
  7
 10
160.924357
 20
46.322605
 30
0.000000
  0
VERTEX
  8
MERGEDLAYER-1
 10
160.924357
 20
46.322605
 30
0.000000
  0
VERTEX
  8
MERGEDLAYER-1
 10
157.184855
 20
46.322605
 30
0.000000
  0
SEQEND
  8
MERGEDLAYER-1
  0
POLYLINE
  8
MERGEDLAYER-1
 66
  1
 70
  0
 62
  7
 10
157.184855
 20
50.030843
 30
0.000000
  0
VERTEX
  8
MERGEDLAYER-1
 10
157.184855
 20
50.030843
 30
0.000000
  0
VERTEX
  8
MERGEDLAYER-1
 10
157.184855
 20
56.450155
 30
0.000000
  0
SEQEND
  8
MERGEDLAYER-1
  0
POLYLINE
  8
MERGEDLAYER-1
 66
  1
 70
  0
 62
  7
 10
157.184855
 20
56.450155
 30
0.000000
  0
VERTEX
  8
MERGEDLAYER-1
 10
157.184855
 20
56.450155
 30
0.000000
  0
VERTEX
  8
MERGEDLAYER-1
 10
164.709106
 20
56.450155
 30
0.000000
  0
SEQEND
  8
MERGEDLAYER-1
  0
POLYLINE
  8
MERGEDLAYER-1
 66
  1
 70
  0
 62
  7
 10
164.709106
 20
56.450155
 30
0.000000
  0
VERTEX
  8
MERGEDLAYER-1
 10
164.709106
 20
56.450155
 30
0.000000
  0
VERTEX
  8
MERGEDLAYER-1
 10
164.709106
 20
21.133247
 30
0.000000
  0
SEQEND
  8
MERGEDLAYER-1
  0
POLYLINE
  8
MERGEDLAYER-1
 66
  1
 70
  0
 62
  7
 10
157.184855
 20
46.322605
 30
0.000000
  0
VERTEX
  8
MERGEDLAYER-1
 10
157.184855
 20
46.322605
 30
0.000000
  0
VERTEX
  8
MERGEDLAYER-1
 10
157.184855
 20
21.133247
 30
0.000000
  0
SEQEND
  8
MERGEDLAYER-1
  0
POLYLINE
  8
MERGEDLAYER-1
 66
  1
 70
  1
 62
  7
 10
156.565823
 20
50.664497
 30
0.000000
  0
VERTEX
  8
MERGEDLAYER-1
 10
156.565823
 20
50.664497
 30
0.000000
  0
VERTEX
  8
MERGEDLAYER-1
 10
155.940823
 20
50.664497
 30
0.000000
  0
VERTEX
  8
MERGEDLAYER-1
 10
155.940823
 20
45.664497
 30
0.000000
  0
VERTEX
  8
MERGEDLAYER-1
 10
156.565823
 20
45.664497
 30
0.000000
  0
VERTEX
  8
MERGEDLAYER-1
 10
156.565823
 20
46.601997
 30
0.000000
  0
VERTEX
  8
MERGEDLAYER-1
 10
159.690823
 20
46.601997
 30
0.000000
  0
VERTEX
  8
MERGEDLAYER-1
 10
159.690823
 20
49.726997
 30
0.000000
  0
VERTEX
  8
MERGEDLAYER-1
 10
156.565823
 20
49.726997
 30
0.000000
  0
SEQEND
  8
MERGEDLAYER-1
  0
POLYLINE
  8
MERGEDLAYER-1
  6
LTYPE05
 66
  1
 70
  1
 62
  7
  0
VERTEX
  8
MERGEDLAYER-1
  6
LTYPE05
 10
160.949748
 20
49.133247
 30
0.000000
  0
VERTEX
  8
MERGEDLAYER-1
  6
LTYPE05
 10
162.824748
 20
49.133247
 30
0.000000
  0
VERTEX
  8
MERGEDLAYER-1
  6
LTYPE05
 10
162.824748
 20
47.258247
 30
0.000000
  0
VERTEX
  8
MERGEDLAYER-1
  6
LTYPE05
 10
160.949748
 20
47.258247
 30
0.000000
  0
SEQEND
  8
MERGEDLAYER-1
  0
POLYLINE
  8
MERGEDLAYER-1
 66
  1
 70
  0
 62
  7
 10
160.924357
 20
50.030843
 30
0.000000
  0
VERTEX
  8
MERGEDLAYER-1
 10
160.924357
 20
50.030843
 30
0.000000
  0
VERTEX
  8
MERGEDLAYER-1
 10
160.924357
 20
46.322605
 30
0.000000
  0
SEQEND
  8
MERGEDLAYER-1
  0
POLYLINE
  8
MERGEDLAYER-1
 66
  1
 70
  0
 62
  7
 10
170.317803
 20
37.772135
 30
0.000000
  0
VERTEX
  8
MERGEDLAYER-1
 10
170.317803
 20
37.772135
 30
0.000000
  0
VERTEX
  8
MERGEDLAYER-1
 10
163.134671
 20
46.865899
 30
0.000000
  0
SEQEND
  8
MERGEDLAYER-1
  0
POLYLINE
  8
MERGEDLAYER-1
 66
  1
 70
  1
 62
  7
  0
VERTEX
  8
MERGEDLAYER-1
 10
162.824748
 20
47.258247
 30
0.000000
  0
VERTEX
  8
MERGEDLAYER-1
 10
164.036621
 20
46.799561
 30
0.000000
  0
VERTEX
  8
MERGEDLAYER-1
 10
163.513468
 20
46.386325
 30
0.000000
  0
VERTEX
  8
MERGEDLAYER-1
 10
162.990316
 20
45.973090
 30
0.000000
  0
VERTEX
  8
MERGEDLAYER-1
 10
162.824748
 20
47.258247
 30
0.000000
  0
SEQEND
  8
MERGEDLAYER-1
  0
LINE
  8
MERGEDLAYER-1
 62
  7
 10
157.684855
 20
63.383247
 30
0.000000
 11
164.209106
 21
63.383247
 31
0.000000
  0
LINE
  8
MERGEDLAYER-1
 62
  7
 10
157.184855
 20
58.450155
 30
0.000000
 11
157.184855
 21
66.383247
 31
0.000000
  0
LINE
  8
MERGEDLAYER-1
 62
  7
 10
164.709106
 20
58.450155
 30
0.000000
 11
164.709106
 21
66.383247
 31
0.000000
  0
POLYLINE
  8
MERGEDLAYER-1
 66
  1
 70
  1
 62
  7
  0
VERTEX
  8
MERGEDLAYER-1
 10
157.184855
 20
63.383247
 30
0.000000
  0
VERTEX
  8
MERGEDLAYER-1
 10
158.295966
 20
62.716593
 30
0.000000
  0
VERTEX
  8
MERGEDLAYER-1
 10
158.295966
 20
63.383260
 30
0.000000
  0
VERTEX
  8
MERGEDLAYER-1
 10
158.295966
 20
64.049927
 30
0.000000
  0
VERTEX
  8
MERGEDLAYER-1
 10
157.184855
 20
63.383247
 30
0.000000
  0
SEQEND
  8
MERGEDLAYER-1
  0
POLYLINE
  8
MERGEDLAYER-1
 66
  1
 70
  1
 62
  7
  0
VERTEX
  8
MERGEDLAYER-1
 10
164.709106
 20
63.383247
 30
0.000000
  0
VERTEX
  8
MERGEDLAYER-1
 10
163.597995
 20
62.716566
 30
0.000000
  0
VERTEX
  8
MERGEDLAYER-1
 10
163.597995
 20
63.383233
 30
0.000000
  0
VERTEX
  8
MERGEDLAYER-1
 10
163.597995
 20
64.049900
 30
0.000000
  0
VERTEX
  8
MERGEDLAYER-1
 10
164.709106
 20
63.383247
 30
0.000000
  0
SEQEND
  8
MERGEDLAYER-1
  0
TEXT
  8
MERGEDLAYER-1
 62
  7
 10
160.962239
 20
65.283244
 30
0.000000
 40
1.666667
  1
 
  0
POLYLINE
  8
MERGEDLAYER-1
 66
  1
 70
  1
 62
  7
  0
VERTEX
  8
MERGEDLAYER-1
 10
160.019599
 20
49.101997
 30
0.000000
  0
VERTEX
  8
MERGEDLAYER-1
 10
160.191474
 20
49.101997
 30
0.000000
  0
VERTEX
  8
MERGEDLAYER-1
 10
160.191474
 20
47.242622
 30
0.000000
  0
VERTEX
  8
MERGEDLAYER-1
 10
160.019599
 20
47.242622
 30
0.000000
  0
SEQEND
  8
MERGEDLAYER-1
  0
POLYLINE
  8
MERGEDLAYER-1
 66
  1
 70
  0
 62
  7
 10
160.601766
 20
48.348863
 30
0.000000
  0
VERTEX
  8
MERGEDLAYER-1
 10
160.601766
 20
48.348863
 30
0.000000
  0
VERTEX
  8
MERGEDLAYER-1
 10
160.434787
 20
48.654270
 30
0.000000
  0
VERTEX
  8
MERGEDLAYER-1
 10
160.416870
 20
48.654161
 30
0.000000
  0
SEQEND
  8
MERGEDLAYER-1
  0
POLYLINE
  8
MERGEDLAYER-1
 66
  1
 70
  0
 62
  7
 10
160.416816
 20
48.654161
 30
0.000000
  0
VERTEX
  8
MERGEDLAYER-1
 10
160.416816
 20
48.654161
 30
0.000000
  0
VERTEX
  8
MERGEDLAYER-1
 10
160.173842
 20
48.708659
 30
0.000000
  0
VERTEX
  8
MERGEDLAYER-1
 10
160.212972
 20
48.654161
 30
0.000000
  0
SEQEND
  8
MERGEDLAYER-1
  0
POLYLINE
  8
MERGEDLAYER-1
 66
  1
 70
  0
 62
  7
 10
160.416843
 20
47.673733
 30
0.000000
  0
VERTEX
  8
MERGEDLAYER-1
 10
160.416843
 20
47.673733
 30
0.000000
  0
VERTEX
  8
MERGEDLAYER-1
 10
160.536377
 20
47.928643
 30
0.000000
  0
VERTEX
  8
MERGEDLAYER-1
 10
160.601739
 20
47.979031
 30
0.000000
  0
SEQEND
  8
MERGEDLAYER-1
  0
POLYLINE
  8
MERGEDLAYER-1
 66
  1
 70
  0
 62
  7
 10
160.213094
 20
47.673774
 30
0.000000
  0
VERTEX
  8
MERGEDLAYER-1
 10
160.213094
 20
47.673774
 30
0.000000
  0
VERTEX
  8
MERGEDLAYER-1
 10
160.213040
 20
48.654175
 30
0.000000
  0
SEQEND
  8
MERGEDLAYER-1
  0
POLYLINE
  8
MERGEDLAYER-1
 66
  1
 70
  0
 62
  7
 10
160.601793
 20
48.348823
 30
0.000000
  0
VERTEX
  8
MERGEDLAYER-1
 10
160.601793
 20
48.348823
 30
0.000000
  0
VERTEX
  8
MERGEDLAYER-1
 10
160.601739
 20
47.979031
 30
0.000000
  0
SEQEND
  8
MERGEDLAYER-1
  0
POLYLINE
  8
MERGEDLAYER-1
 66
  1
 70
  0
 62
  7
 10
160.416911
 20
47.673733
 30
0.000000
  0
VERTEX
  8
MERGEDLAYER-1
 10
160.416911
 20
47.673733
 30
0.000000
  0
VERTEX
  8
MERGEDLAYER-1
 10
160.213067
 20
47.673733
 30
0.000000
  0
SEQEND
  8
MERGEDLAYER-1
  0
POLYLINE
  8
MERGEDLAYER-1
 66
  1
 70
  1
 62
  7
  0
VERTEX
  8
MERGEDLAYER-1
 10
158.769599
 20
48.789497
 30
0.000000
  0
VERTEX
  8
MERGEDLAYER-1
 10
160.019599
 20
48.789497
 30
0.000000
  0
VERTEX
  8
MERGEDLAYER-1
 10
160.019599
 20
47.539497
 30
0.000000
  0
VERTEX
  8
MERGEDLAYER-1
 10
158.769599
 20
47.539497
 30
0.000000
  0
SEQEND
  8
MERGEDLAYER-1
  0
POLYLINE
  8
MERGEDLAYER-1
 66
  1
 70
  1
 62
  7
  0
VERTEX
  8
MERGEDLAYER-1
 10
158.910224
 20
49.726997
 30
0.000000
  0
VERTEX
  8
MERGEDLAYER-1
 10
159.894599
 20
49.726997
 30
0.000000
  0
VERTEX
  8
MERGEDLAYER-1
 10
159.894599
 20
46.601997
 30
0.000000
  0
VERTEX
  8
MERGEDLAYER-1
 10
158.910224
 20
46.601997
 30
0.000000
  0
SEQEND
  8
MERGEDLAYER-1
  0
POLYLINE
  8
MERGEDLAYER-1
 66
  1
 70
  1
 62
  7
  0
VERTEX
  8
MERGEDLAYER-1
 10
158.910224
 20
49.726997
 30
0.000000
  0
VERTEX
  8
MERGEDLAYER-1
 10
159.894599
 20
49.726997
 30
0.000000
  0
VERTEX
  8
MERGEDLAYER-1
 10
159.894599
 20
46.601997
 30
0.000000
  0
VERTEX
  8
MERGEDLAYER-1
 10
158.910224
 20
46.601997
 30
0.000000
  0
SEQEND
  8
MERGEDLAYER-1
  0
POLYLINE
  8
MERGEDLAYER-1
 66
  1
 70
  1
 62
  7
  0
VERTEX
  8
MERGEDLAYER-1
 10
118.512248
 20
105.914497
 30
0.000000
  0
VERTEX
  8
MERGEDLAYER-1
 10
168.512248
 20
105.914497
 30
0.000000
  0
VERTEX
  8
MERGEDLAYER-1
 10
168.512248
 20
104.438802
 30
0.000000
  0
VERTEX
  8
MERGEDLAYER-1
 10
118.512248
 20
104.438802
 30
0.000000
  0
SEQEND
  8
MERGEDLAYER-1
  0
TEXT
  8
MERGEDLAYER-1
 62
  7
 10
84.984469
 20
5.994358
 30
0.000000
 40
3.166667
  1
PLAN VIEW
 72
  5
 11
109.206691
 21
5.994358
 31
0.000000
  0
TEXT
  8
MERGEDLAYER-1
 62
  7
 10
87.651136
 20
59.994358
 30
0.000000
 40
2.500000
  1
EXTERIOR
 72
  5
 11
106.095580
 21
59.994358
 31
0.000000
  0
TEXT
  8
MERGEDLAYER-1
 62
  7
 10
78.762247
 20
36.661024
 30
0.000000
 40
2.500000
  1
INTERIOR OF CABINET
 72
  5
 11
117.206691
 21
36.661024
 31
0.000000
  0
LINE
  8
MERGEDLAYER-1
 62
  7
 10
33.002479
 20
75.693278
 30
0.000000
 11
160.424357
 21
75.693278
 31
0.000000
  0
LINE
  8
MERGEDLAYER-1
 62
  7
 10
32.502479
 20
51.618340
 30
0.000000
 11
32.502479
 21
78.868286
 31
0.000000
  0
LINE
  8
MERGEDLAYER-1
 62
  7
 10
160.924357
 20
51.618340
 30
0.000000
 11
160.924357
 21
78.868286
 31
0.000000
  0
POLYLINE
  8
MERGEDLAYER-1
 66
  1
 70
  1
 62
  7
  0
VERTEX
  8
MERGEDLAYER-1
 10
32.502479
 20
75.693278
 30
0.000000
  0
VERTEX
  8
MERGEDLAYER-1
 10
33.613593
 20
75.026625
 30
0.000000
  0
VERTEX
  8
MERGEDLAYER-1
 10
33.613590
 20
75.693292
 30
0.000000
  0
VERTEX
  8
MERGEDLAYER-1
 10
33.613586
 20
76.359958
 30
0.000000
  0
VERTEX
  8
MERGEDLAYER-1
 10
32.502479
 20
75.693278
 30
0.000000
  0
SEQEND
  8
MERGEDLAYER-1
  0
POLYLINE
  8
MERGEDLAYER-1
 66
  1
 70
  1
 62
  7
  0
VERTEX
  8
MERGEDLAYER-1
 10
160.924357
 20
75.693278
 30
0.000000
  0
VERTEX
  8
MERGEDLAYER-1
 10
159.813246
 20
75.026598
 30
0.000000
  0
VERTEX
  8
MERGEDLAYER-1
 10
159.813246
 20
75.693264
 30
0.000000
  0
VERTEX
  8
MERGEDLAYER-1
 10
159.813246
 20
76.359931
 30
0.000000
  0
VERTEX
  8
MERGEDLAYER-1
 10
160.924357
 20
75.693278
 30
0.000000
  0
SEQEND
  8
MERGEDLAYER-1
  0
TEXT
  8
MERGEDLAYER-1
 62
  7
 10
96.362243
 20
74.783244
 30
0.000000
 40
2.000000
  1
 
  0
POLYLINE
  8
MERGEDLAYER-1
 66
  1
 70
  1
 62
  7
  0
VERTEX
  8
MERGEDLAYER-1
 10
84.404711
 20
80.577705
 30
0.000000
  0
VERTEX
  8
MERGEDLAYER-1
 10
109.099108
 20
80.577705
 30
0.000000
  0
VERTEX
  8
MERGEDLAYER-1
 10
109.099108
 20
70.315091
 30
0.000000
  0
VERTEX
  8
MERGEDLAYER-1
 10
84.404711
 20
70.315091
 30
0.000000
  0
SEQEND
  8
MERGEDLAYER-1
  0
POLYLINE
  8
MERGEDLAYER-1
 66
  1
 70
  0
 62
  7
 40
0.666667
 41
0.666667
 10
108.938761
 20
70.956516
 30
0.000000
  0
VERTEX
  8
MERGEDLAYER-1
 10
108.938761
 20
70.956516
 30
0.000000
  0
VERTEX
  8
MERGEDLAYER-1
 10
84.404711
 20
70.956516
 30
0.000000
  0
SEQEND
  8
MERGEDLAYER-1
  0
TEXT
  8
MERGEDLAYER-1
 62
  7
 10
74.317802
 20
12.883247
 30
0.000000
 40
2.333333
  1
WIDTH BETWEEN JAMBS "W"
 72
  5
 11
118.762247
 21
12.883247
 31
0.000000
  0
TEXT
  8
MERGEDLAYER-1
 62
  7
 10
69.651136
 20
66.216580
 30
0.000000
 40
2.333333
  1
WIDTH INSIDE FINISHED GROOVES
 72
  5
 11
123.873358
 21
66.216580
 31
0.000000
  0
TEXT
  8
MERGEDLAYER-1
 62
  7
 10
41.428914
 20
41.105469
 30
0.000000
 40
2.000000
  1
CURTAIN
 72
  5
 11
54.317802
 21
41.105469
 31
0.000000
  0
TEXT
  8
MERGEDLAYER-1
 62
  7
 10
120.984469
 20
95.105469
 30
0.000000
 40
3.166667
  1
SECTION ( CABINET )
 72
  5
 11
166.095580
 21
95.105469
 31
0.000000
  0
POLYLINE
  8
MERGEDLAYER-1
 66
  1
 70
  0
 62
  7
 10
168.512248
 20
176.039483
 30
0.000000
  0
VERTEX
  8
MERGEDLAYER-1
 10
168.512248
 20
176.039483
 30
0.000000
  0
VERTEX
  8
MERGEDLAYER-1
 10
118.147610
 20
176.001899
 30
0.000000
  0
SEQEND
  8
MERGEDLAYER-1
  0
POLYLINE
  8
MERGEDLAYER-1
 66
  1
 70
  0
 62
  7
 10
168.512248
 20
105.914497
 30
0.000000
  0
VERTEX
  8
MERGEDLAYER-1
 10
168.512248
 20
105.914497
 30
0.000000
  0
VERTEX
  8
MERGEDLAYER-1
 10
118.512248
 20
105.914497
 30
0.000000
  0
SEQEND
  8
MERGEDLAYER-1
  0
POLYLINE
  8
MERGEDLAYER-1
 66
  1
 70
  1
 62
  7
  0
VERTEX
  8
MERGEDLAYER-1
 10
167.123372
 20
176.001302
 30
0.000000
  0
VERTEX
  8
MERGEDLAYER-1
 10
168.512248
 20
176.001302
 30
0.000000
  0
VERTEX
  8
MERGEDLAYER-1
 10
168.512248
 20
105.914497
 30
0.000000
  0
VERTEX
  8
MERGEDLAYER-1
 10
167.123372
 20
105.914497
 30
0.000000
  0
SEQEND
  8
MERGEDLAYER-1
  0
POLYLINE
  8
MERGEDLAYER-1
 66
  1
 70
  1
 62
255
  0
VERTEX
  8
MERGEDLAYER-1
 10
27.135291
 20
24.884671
 30
0.000000
  0
VERTEX
  8
MERGEDLAYER-1
 10
37.291541
 20
24.884671
 30
0.000000
  0
VERTEX
  8
MERGEDLAYER-1
 10
37.291541
 20
16.920139
 30
0.000000
  0
VERTEX
  8
MERGEDLAYER-1
 10
27.135291
 20
16.920139
 30
0.000000
  0
SEQEND
  8
MERGEDLAYER-1
  0
POLYLINE
  8
MERGEDLAYER-1
 66
  1
 70
  1
 62
255
  0
VERTEX
  8
MERGEDLAYER-1
 10
156.385295
 20
24.884671
 30
0.000000
  0
VERTEX
  8
MERGEDLAYER-1
 10
166.541545
 20
24.884671
 30
0.000000
  0
VERTEX
  8
MERGEDLAYER-1
 10
166.541545
 20
16.920139
 30
0.000000
  0
VERTEX
  8
MERGEDLAYER-1
 10
156.385295
 20
16.920139
 30
0.000000
  0
SEQEND
  8
MERGEDLAYER-1
  0
LINE
  8
MERGEDLAYER-1
 62
  7
 10
36.762248
 20
22.026625
 30
0.000000
 11
156.762248
 21
22.026625
 31
0.000000
  0
LINE
  8
MERGEDLAYER-1
 62
  7
 10
36.262248
 20
29.795749
 30
0.000000
 11
36.262248
 21
18.851617
 31
0.000000
  0
LINE
  8
MERGEDLAYER-1
 62
  7
 10
157.262248
 20
28.295749
 30
0.000000
 11
157.262248
 21
18.851617
 31
0.000000
  0
POLYLINE
  8
MERGEDLAYER-1
 66
  1
 70
  1
 62
  7
  0
VERTEX
  8
MERGEDLAYER-1
 10
36.262248
 20
22.026625
 30
0.000000
  0
VERTEX
  8
MERGEDLAYER-1
 10
37.373362
 20
21.359972
 30
0.000000
  0
VERTEX
  8
MERGEDLAYER-1
 10
37.373359
 20
22.026638
 30
0.000000
  0
VERTEX
  8
MERGEDLAYER-1
 10
37.373355
 20
22.693305
 30
0.000000
  0
VERTEX
  8
MERGEDLAYER-1
 10
36.262248
 20
22.026625
 30
0.000000
  0
SEQEND
  8
MERGEDLAYER-1
  0
POLYLINE
  8
MERGEDLAYER-1
 66
  1
 70
  1
 62
  7
  0
VERTEX
  8
MERGEDLAYER-1
 10
157.262248
 20
22.026625
 30
0.000000
  0
VERTEX
  8
MERGEDLAYER-1
 10
156.151137
 20
21.359945
 30
0.000000
  0
VERTEX
  8
MERGEDLAYER-1
 10
156.151137
 20
22.026611
 30
0.000000
  0
VERTEX
  8
MERGEDLAYER-1
 10
156.151137
 20
22.693278
 30
0.000000
  0
VERTEX
  8
MERGEDLAYER-1
 10
157.262248
 20
22.026625
 30
0.000000
  0
SEQEND
  8
MERGEDLAYER-1
  0
TEXT
  8
MERGEDLAYER-1
 62
  7
 10
96.362243
 20
21.183255
 30
0.000000
 40
2.000000
  1
 
  0
POLYLINE
  8
MERGEDLAYER-1
 66
  1
 70
  1
 62
  7
  0
VERTEX
  8
MERGEDLAYER-1
 10
84.404711
 20
27.383247
 30
0.000000
  0
VERTEX
  8
MERGEDLAYER-1
 10
109.099108
 20
27.383247
 30
0.000000
  0
VERTEX
  8
MERGEDLAYER-1
 10
109.099108
 20
17.120633
 30
0.000000
  0
VERTEX
  8
MERGEDLAYER-1
 10
84.404711
 20
17.120633
 30
0.000000
  0
SEQEND
  8
MERGEDLAYER-1
  0
POLYLINE
  8
MERGEDLAYER-1
 66
  1
 70
  0
 62
  7
 40
0.666667
 41
0.666667
 10
108.938761
 20
17.762058
 30
0.000000
  0
VERTEX
  8
MERGEDLAYER-1
 10
108.938761
 20
17.762058
 30
0.000000
  0
VERTEX
  8
MERGEDLAYER-1
 10
84.404711
 20
17.762058
 30
0.000000
  0
SEQEND
  8
MERGEDLAYER-1
  0
TEXT
  8
MERGEDLAYER-1
 62
  7
 10
4.984469
 20
34.883247
 30
0.000000
 40
2.333333
  1
MINIMUM
 72
  5
 11
20.317802
 21
34.883247
 31
0.000000
  0
TEXT
  8
MERGEDLAYER-1
 62
  7
 10
4.984469
 20
31.327691
 30
0.000000
 40
2.333333
  1
FINISHED
 72
  5
 11
20.540025
 21
31.327691
 31
0.000000
  0
TEXT
  8
MERGEDLAYER-1
 62
  7
 10
4.984469
 20
27.772135
 30
0.000000
 40
2.333333
  1
INTERIOR
 72
  5
 11
20.984469
 21
27.772135
 31
0.000000
  0
TEXT
  8
MERGEDLAYER-1
 62
  7
 10
4.984469
 20
24.216580
 30
0.000000
 40
2.333333
  1
DIMENSIONS
 72
  5
 11
25.651136
 21
24.216580
 31
0.000000
  0
TEXT
  8
MERGEDLAYER-1
 62
  7
 10
4.984469
 20
20.661024
 30
0.000000
 40
2.333333
  1
FOR GROOVE:
 72
  5
 11
28.095580
 21
20.661024
 31
0.000000
  0
TEXT
  8
MERGEDLAYER-1
 62
  7
 10
4.984469
 20
17.105469
 30
0.000000
 40
2.333333
  1
3/4" x 3/4"
 72
  5
 11
20.540025
 21
17.105469
 31
0.000000
  0
TEXT
  8
MERGEDLAYER-1
 62
  7
 10
4.984469
 20
13.549913
 30
0.000000
 40
2.333333
  1
(19x19mm)
 72
  5
 11
22.317802
 21
13.549913
 31
0.000000
  0
TEXT
  8
MERGEDLAYER-1
 62
  7
 10
167.428914
 20
34.883247
 30
0.000000
 40
2.333333
  1
3/8" DIA HOLE
 72
  5
 11
189.428914
 21
34.883247
 31
0.000000
  0
TEXT
  8
MERGEDLAYER-1
 62
  7
 10
168.762247
 20
31.327691
 30
0.000000
 40
2.333333
  1
BY 3/8" DEEP
 72
  5
 11
189.428914
 21
31.327691
 31
0.000000
  0
TEXT
  8
MERGEDLAYER-1
 62
  7
 10
168.095580
 20
27.772135
 30
0.000000
 40
2.333333
  1
(10x10mm) IN
 72
  5
 11
189.428914
 21
27.772135
 31
0.000000
  0
TEXT
  8
MERGEDLAYER-1
 62
  7
 10
164.317802
 20
24.216580
 30
0.000000
 40
2.333333
  1
SECOND LAYER
 72
  5
 11
189.428914
 21
24.216580
 31
0.000000
  0
TEXT
  8
MERGEDLAYER-1
 62
  7
 10
165.428914
 20
20.661024
 30
0.000000
 40
2.333333
  1
OF 3/4" (19mm)
 72
  5
 11
189.428914
 21
20.661024
 31
0.000000
  0
TEXT
  8
MERGEDLAYER-1
 62
  7
 10
164.984469
 20
17.105469
 30
0.000000
 40
2.333333
  1
PLYWOOD FOR
 72
  5
 11
189.428914
 21
17.105469
 31
0.000000
  0
TEXT
  8
MERGEDLAYER-1
 62
  7
 10
168.984469
 20
13.549913
 30
0.000000
 40
2.333333
  1
SHOOTBOLT
 72
  5
 11
189.428914
 21
13.549913
 31
0.000000
  0
TEXT
  8
MERGEDLAYER-1
 62
  7
 10
41.428914
 20
36.216580
 30
0.000000
 40
2.000000
  1
BOTTOM BAR
 72
  5
 11
59.428914
 21
36.216580
 31
0.000000
  0
POLYLINE
  8
MERGEDLAYER-1
 66
  1
 70
  0
 62
  7
 10
66.936849
 20
44.628621
 30
0.000000
  0
VERTEX
  8
MERGEDLAYER-1
 10
66.936849
 20
44.628621
 30
0.000000
  0
VERTEX
  8
MERGEDLAYER-1
 10
60.512248
 20
37.133247
 30
0.000000
  0
SEQEND
  8
MERGEDLAYER-1
  0
POLYLINE
  8
MERGEDLAYER-1
 66
  1
 70
  1
 62
  7
  0
VERTEX
  8
MERGEDLAYER-1
 10
67.262248
 20
45.008247
 30
0.000000
  0
VERTEX
  8
MERGEDLAYER-1
 10
66.032973
 20
44.598497
 30
0.000000
  0
VERTEX
  8
MERGEDLAYER-1
 10
66.539144
 20
44.164632
 30
0.000000
  0
VERTEX
  8
MERGEDLAYER-1
 10
67.045315
 20
43.730767
 30
0.000000
  0
VERTEX
  8
MERGEDLAYER-1
 10
67.262248
 20
45.008247
 30
0.000000
  0
SEQEND
  8
MERGEDLAYER-1
  0
TEXT
  8
MERGEDLAYER-1
 62
  7
 10
104.984469
 20
53.994358
 30
0.000000
 40
2.000000
  1
CYLINDER
 72
  5
 11
119.651136
 21
53.994358
 31
0.000000
  0
POLYLINE
  8
MERGEDLAYER-1
 66
  1
 70
  0
 62
  7
 10
101.135071
 20
53.789103
 30
0.000000
  0
VERTEX
  8
MERGEDLAYER-1
 10
101.135071
 20
53.789103
 30
0.000000
  0
VERTEX
  8
MERGEDLAYER-1
 10
104.262248
 20
54.883247
 30
0.000000
  0
SEQEND
  8
MERGEDLAYER-1
  0
POLYLINE
  8
MERGEDLAYER-1
 66
  1
 70
  1
 62
  7
  0
VERTEX
  8
MERGEDLAYER-1
 10
100.663127
 20
53.623969
 30
0.000000
  0
VERTEX
  8
MERGEDLAYER-1
 10
101.932061
 20
53.361654
 30
0.000000
  0
VERTEX
  8
MERGEDLAYER-1
 10
101.711894
 20
53.990913
 30
0.000000
  0
VERTEX
  8
MERGEDLAYER-1
 10
101.491726
 20
54.620171
 30
0.000000
  0
VERTEX
  8
MERGEDLAYER-1
 10
100.663127
 20
53.623969
 30
0.000000
  0
SEQEND
  8
MERGEDLAYER-1
  0
POLYLINE
  8
MERGEDLAYER-1
 66
  1
 70
  0
 62
  7
 10
59.422723
 20
47.016195
 30
0.000000
  0
VERTEX
  8
MERGEDLAYER-1
 10
59.422723
 20
47.016195
 30
0.000000
  0
VERTEX
  8
MERGEDLAYER-1
 10
55.137248
 20
42.383247
 30
0.000000
  0
SEQEND
  8
MERGEDLAYER-1
  0
POLYLINE
  8
MERGEDLAYER-1
 66
  1
 70
  1
 62
  7
  0
VERTEX
  8
MERGEDLAYER-1
 10
59.762248
 20
47.383247
 30
0.000000
  0
VERTEX
  8
MERGEDLAYER-1
 10
58.518358
 20
47.020264
 30
0.000000
  0
VERTEX
  8
MERGEDLAYER-1
 10
59.007758
 20
46.567573
 30
0.000000
  0
VERTEX
  8
MERGEDLAYER-1
 10
59.497158
 20
46.114882
 30
0.000000
  0
VERTEX
  8
MERGEDLAYER-1
 10
59.762248
 20
47.383247
 30
0.000000
  0
SEQEND
  8
MERGEDLAYER-1
  0
TEXT
  8
MERGEDLAYER-1
 62
  7
 10
41.206691
 20
53.994358
 30
0.000000
 40
2.000000
  1
PULL HANDLES
 72
  5
 11
62.540025
 21
53.994358
 31
0.000000
  0
POLYLINE
  8
MERGEDLAYER-1
 66
  1
 70
  0
 62
  7
 10
65.523953
 20
51.976780
 30
0.000000
  0
VERTEX
  8
MERGEDLAYER-1
 10
65.523953
 20
51.976780
 30
0.000000
  0
VERTEX
  8
MERGEDLAYER-1
 10
62.595181
 20
54.746243
 30
0.000000
  0
SEQEND
  8
MERGEDLAYER-1
  0
POLYLINE
  8
MERGEDLAYER-1
 66
  1
 70
  1
 62
  7
  0
VERTEX
  8
MERGEDLAYER-1
 10
65.887248
 20
51.633247
 30
0.000000
  0
VERTEX
  8
MERGEDLAYER-1
 10
65.537971
 20
52.881049
 30
0.000000
  0
VERTEX
  8
MERGEDLAYER-1
 10
65.079922
 20
52.396661
 30
0.000000
  0
VERTEX
  8
MERGEDLAYER-1
 10
64.621874
 20
51.912272
 30
0.000000
  0
VERTEX
  8
MERGEDLAYER-1
 10
65.887248
 20
51.633247
 30
0.000000
  0
SEQEND
  8
MERGEDLAYER-1
  0
ARC
  8
MERGEDLAYER-1
 62
  7
 10
53.762248
 20
51.323256
 30
0.000000
 40
0.310000
 50
90.000000
 51
180.000000
  0
POLYLINE
  8
MERGEDLAYER-1
 66
  1
 70
  0
 62
  7
 10
53.762248
 20
51.633247
 30
0.000000
  0
VERTEX
  8
MERGEDLAYER-1
 10
53.762248
 20
51.633247
 30
0.000000
  0
VERTEX
  8
MERGEDLAYER-1
 10
68.142253
 20
51.633247
 30
0.000000
  0
SEQEND
  8
MERGEDLAYER-1
  0
ARC
  8
MERGEDLAYER-1
 62
  7
 10
68.142253
 20
51.323256
 30
0.000000
 40
0.310000
 50
0.000000
 51
90.000000
  0
POLYLINE
  8
MERGEDLAYER-1
 66
  1
 70
  0
 62
  7
 10
68.452250
 20
51.320747
 30
0.000000
  0
VERTEX
  8
MERGEDLAYER-1
 10
68.452250
 20
51.320747
 30
0.000000
  0
VERTEX
  8
MERGEDLAYER-1
 10
68.452250
 20
51.323256
 30
0.000000
  0
SEQEND
  8
MERGEDLAYER-1
  0
POLYLINE
  8
MERGEDLAYER-1
 66
  1
 70
  0
 62
  7
 10
68.452250
 20
51.320747
 30
0.000000
  0
VERTEX
  8
MERGEDLAYER-1
 10
68.452250
 20
51.320747
 30
0.000000
  0
VERTEX
  8
MERGEDLAYER-1
 10
53.452250
 20
51.320747
 30
0.000000
  0
SEQEND
  8
MERGEDLAYER-1
  0
POLYLINE
  8
MERGEDLAYER-1
 66
  1
 70
  0
 62
  7
 10
53.452250
 20
51.320747
 30
0.000000
  0
VERTEX
  8
MERGEDLAYER-1
 10
53.452250
 20
51.320747
 30
0.000000
  0
VERTEX
  8
MERGEDLAYER-1
 10
53.452250
 20
51.323256
 30
0.000000
  0
SEQEND
  8
MERGEDLAYER-1
  0
ARC
  8
MERGEDLAYER-1
 62
  7
 10
124.621514
 20
51.333672
 30
0.000000
 40
0.310000
 50
90.000000
 51
180.000000
  0
POLYLINE
  8
MERGEDLAYER-1
 66
  1
 70
  0
 62
  7
 10
124.621514
 20
51.643663
 30
0.000000
  0
VERTEX
  8
MERGEDLAYER-1
 10
124.621514
 20
51.643663
 30
0.000000
  0
VERTEX
  8
MERGEDLAYER-1
 10
139.001519
 20
51.643663
 30
0.000000
  0
SEQEND
  8
MERGEDLAYER-1
  0
ARC
  8
MERGEDLAYER-1
 62
  7
 10
139.001519
 20
51.333672
 30
0.000000
 40
0.310000
 50
0.000000
 51
90.000000
  0
POLYLINE
  8
MERGEDLAYER-1
 66
  1
 70
  0
 62
  7
 10
139.311523
 20
51.331163
 30
0.000000
  0
VERTEX
  8
MERGEDLAYER-1
 10
139.311523
 20
51.331163
 30
0.000000
  0
VERTEX
  8
MERGEDLAYER-1
 10
139.311523
 20
51.333672
 30
0.000000
  0
SEQEND
  8
MERGEDLAYER-1
  0
POLYLINE
  8
MERGEDLAYER-1
 66
  1
 70
  0
 62
  7
 10
139.311523
 20
51.331163
 30
0.000000
  0
VERTEX
  8
MERGEDLAYER-1
 10
139.311523
 20
51.331163
 30
0.000000
  0
VERTEX
  8
MERGEDLAYER-1
 10
124.311523
 20
51.331163
 30
0.000000
  0
SEQEND
  8
MERGEDLAYER-1
  0
POLYLINE
  8
MERGEDLAYER-1
 66
  1
 70
  0
 62
  7
 10
124.311523
 20
51.331163
 30
0.000000
  0
VERTEX
  8
MERGEDLAYER-1
 10
124.311523
 20
51.331163
 30
0.000000
  0
VERTEX
  8
MERGEDLAYER-1
 10
124.311523
 20
51.333672
 30
0.000000
  0
SEQEND
  8
MERGEDLAYER-1
  0
TEXT
  8
MERGEDLAYER-1
 62
  7
 10
188.317802
 20
116.216580
 30
0.000000
 40
2.333333
  1
TOTAL HEIGHT OF GROOVE
 50
90.000000
 72
  5
 11
188.317802
 21
159.994358
 31
0.000000
  0
LINE
  8
MERGEDLAYER-1
 62
  7
 10
179.012207
 20
106.417528
 30
0.000000
 11
179.012207
 21
172.605455
 31
0.000000
  0
LINE
  8
MERGEDLAYER-1
 62
  7
 10
172.099745
 20
105.917528
 30
0.000000
 11
182.187202
 21
105.917528
 31
0.000000
  0
LINE
  8
MERGEDLAYER-1
 62
  7
 10
155.099759
 20
173.105455
 30
0.000000
 11
182.187202
 21
173.105455
 31
0.000000
  0
POLYLINE
  8
MERGEDLAYER-1
 66
  1
 70
  1
 62
  7
  0
VERTEX
  8
MERGEDLAYER-1
 10
179.012207
 20
105.917528
 30
0.000000
  0
VERTEX
  8
MERGEDLAYER-1
 10
179.678874
 20
107.028639
 30
0.000000
  0
VERTEX
  8
MERGEDLAYER-1
 10
179.012207
 20
107.028639
 30
0.000000
  0
VERTEX
  8
MERGEDLAYER-1
 10
178.345540
 20
107.028639
 30
0.000000
  0
VERTEX
  8
MERGEDLAYER-1
 10
179.012207
 20
105.917528
 30
0.000000
  0
SEQEND
  8
MERGEDLAYER-1
  0
POLYLINE
  8
MERGEDLAYER-1
 66
  1
 70
  1
 62
  7
  0
VERTEX
  8
MERGEDLAYER-1
 10
179.012207
 20
173.105455
 30
0.000000
  0
VERTEX
  8
MERGEDLAYER-1
 10
179.678874
 20
171.994344
 30
0.000000
  0
VERTEX
  8
MERGEDLAYER-1
 10
179.012207
 20
171.994344
 30
0.000000
  0
VERTEX
  8
MERGEDLAYER-1
 10
178.345540
 20
171.994344
 30
0.000000
  0
VERTEX
  8
MERGEDLAYER-1
 10
179.012207
 20
173.105455
 30
0.000000
  0
SEQEND
  8
MERGEDLAYER-1
  0
TEXT
  8
MERGEDLAYER-1
 62
  7
 10
178.662244
 20
143.383247
 30
0.000000
 40
2.000000
  1
 
  0
POLYLINE
  8
MERGEDLAYER-1
 66
  1
 70
  1
 62
  7
  0
VERTEX
  8
MERGEDLAYER-1
 10
34.574748
 20
48.945747
 30
0.000000
  0
VERTEX
  8
MERGEDLAYER-1
 10
158.824748
 20
48.945747
 30
0.000000
  0
VERTEX
  8
MERGEDLAYER-1
 10
158.824748
 20
47.383247
 30
0.000000
  0
VERTEX
  8
MERGEDLAYER-1
 10
34.574748
 20
47.383247
 30
0.000000
  0
SEQEND
  8
MERGEDLAYER-1
  0
TEXT
  8
MERGEDLAYER-1
 62
  7
 10
35.873358
 20
70.661024
 30
0.000000
 40
2.500000
  1
3/4"
 72
  5
 11
42.540025
 21
70.661024
 31
0.000000
  0
TEXT
  8
MERGEDLAYER-1
 62
  7
 10
32.984469
 20
66.883247
 30
0.000000
 40
2.500000
  1
(19mm)
 72
  5
 11
45.651136
 21
66.883247
 31
0.000000
  0
TEXT
  8
MERGEDLAYER-1
 62
  7
 10
162.984469
 20
66.661024
 30
0.000000
 40
2.500000
  1
1-1/2" (38mm)
 72
  5
 11
184.984469
 21
66.661024
 31
0.000000
  0
POLYLINE
  8
MERGEDLAYER-1
 66
  1
 70
  0
 62
  7
 10
160.887248
 20
63.383247
 30
0.000000
  0
VERTEX
  8
MERGEDLAYER-1
 10
160.887248
 20
63.383247
 30
0.000000
  0
VERTEX
  8
MERGEDLAYER-1
 10
162.637248
 20
67.133247
 30
0.000000
  0
SEQEND
  8
MERGEDLAYER-1
  0
POLYLINE
  8
MERGEDLAYER-1
 66
  1
 70
  1
 62
  7
  0
VERTEX
  8
MERGEDLAYER-1
 10
173.804253
 20
125.608615
 30
0.000000
  0
VERTEX
  8
MERGEDLAYER-1
 10
173.804253
 20
150.302992
 30
0.000000
  0
VERTEX
  8
MERGEDLAYER-1
 10
184.066867
 20
150.302992
 30
0.000000
  0
VERTEX
  8
MERGEDLAYER-1
 10
184.066867
 20
125.608615
 30
0.000000
  0
SEQEND
  8
MERGEDLAYER-1
  0
POLYLINE
  8
MERGEDLAYER-1
 66
  1
 70
  0
 62
  7
 40
0.666667
 41
0.666667
 10
183.425442
 20
150.142632
 30
0.000000
  0
VERTEX
  8
MERGEDLAYER-1
 10
183.425442
 20
150.142632
 30
0.000000
  0
VERTEX
  8
MERGEDLAYER-1
 10
183.425442
 20
125.608615
 30
0.000000
  0
SEQEND
  8
MERGEDLAYER-1
  0
POLYLINE
  8
MERGEDLAYER-1
  6
LTYPE01
 66
  1
 70
  1
 62
  7
  0
VERTEX
  8
MERGEDLAYER-1
  6
LTYPE01
 10
118.180678
 20
174.579400
 30
0.000000
  0
VERTEX
  8
MERGEDLAYER-1
  6
LTYPE01
 10
118.180678
 20
175.984836
 30
0.000000
  0
VERTEX
  8
MERGEDLAYER-1
  6
LTYPE01
 10
167.083401
 20
175.984836
 30
0.000000
  0
VERTEX
  8
MERGEDLAYER-1
  6
LTYPE01
 10
167.083401
 20
174.579400
 30
0.000000
  0
SEQEND
  8
MERGEDLAYER-1
  0
POLYLINE
  8
MERGEDLAYER-1
 66
  1
 70
  0
 62
  7
 10
118.178914
 20
105.914497
 30
0.000000
  0
VERTEX
  8
MERGEDLAYER-1
 10
118.178914
 20
105.914497
 30
0.000000
  0
VERTEX
  8
MERGEDLAYER-1
 10
118.147610
 20
176.001899
 30
0.000000
  0
SEQEND
  8
MERGEDLAYER-1
  0
POLYLINE
  8
MERGEDLAYER-1
 66
  1
 70
  0
 62
  7
 10
164.262261
 20
105.914497
 30
0.000000
  0
VERTEX
  8
MERGEDLAYER-1
 10
164.262261
 20
105.914497
 30
0.000000
  0
VERTEX
  8
MERGEDLAYER-1
 10
164.262261
 20
162.355455
 30
0.000000
  0
SEQEND
  8
MERGEDLAYER-1
  0
POLYLINE
  8
MERGEDLAYER-1
 66
  1
 70
  0
 62
  7
 10
162.734484
 20
105.914497
 30
0.000000
  0
VERTEX
  8
MERGEDLAYER-1
 10
162.734484
 20
105.914497
 30
0.000000
  0
VERTEX
  8
MERGEDLAYER-1
 10
162.734484
 20
162.327677
 30
0.000000
  0
SEQEND
  8
MERGEDLAYER-1
  0
ARC
  8
MERGEDLAYER-1
 62
  7
 10
153.484484
 20
162.327677
 30
0.000000
 40
9.250000
 50
0.000000
 51
90.000000
  0
POLYLINE
  8
MERGEDLAYER-1
 66
  1
 70
  0
 62
  7
 10
153.512261
 20
173.105455
 30
0.000000
  0
VERTEX
  8
MERGEDLAYER-1
 10
153.512261
 20
173.105455
 30
0.000000
  0
VERTEX
  8
MERGEDLAYER-1
 10
131.553914
 20
173.105455
 30
0.000000
  0
SEQEND
  8
MERGEDLAYER-1
  0
ARC
  8
MERGEDLAYER-1
 62
  7
 10
153.512261
 20
162.355455
 30
0.000000
 40
10.750000
 50
0.000000
 51
90.000000
  0
POLYLINE
  8
MERGEDLAYER-1
 66
  1
 70
  0
 62
  7
 10
153.484484
 20
171.577677
 30
0.000000
  0
VERTEX
  8
MERGEDLAYER-1
 10
153.484484
 20
171.577677
 30
0.000000
  0
VERTEX
  8
MERGEDLAYER-1
 10
131.553914
 20
171.577677
 30
0.000000
  0
SEQEND
  8
MERGEDLAYER-1
  0
ARC
  8
MERGEDLAYER-1
 62
  7
 10
131.553914
 20
162.355455
 30
0.000000
 40
10.750000
 50
90.000000
 51
180.000000
  0
ARC
  8
MERGEDLAYER-1
 62
  7
 10
131.553914
 20
162.327677
 30
0.000000
 40
9.250000
 50
90.000000
 51
180.000000
  0
POLYLINE
  8
MERGEDLAYER-1
  6
LTYPE06
 66
  1
 70
  0
 62
  7
  6
LTYPE06
 10
131.553914
 20
172.320733
 30
0.000000
  0
VERTEX
  8
MERGEDLAYER-1
  6
LTYPE06
 10
131.553914
 20
172.320733
 30
0.000000
  0
VERTEX
  8
MERGEDLAYER-1
  6
LTYPE06
 10
153.491414
 20
172.320733
 30
0.000000
  0
SEQEND
  8
MERGEDLAYER-1
  0
ARC
  8
MERGEDLAYER-1
 62
  7
  6
LTYPE06
 10
131.553914
 20
162.320733
 30
0.000000
 40
10.000000
 50
90.000000
 51
180.000000
  0
POLYLINE
  8
MERGEDLAYER-1
  6
LTYPE06
 66
  1
 70
  0
 62
  7
  6
LTYPE06
 10
163.491414
 20
105.914497
 30
0.000000
  0
VERTEX
  8
MERGEDLAYER-1
  6
LTYPE06
 10
163.491414
 20
105.914497
 30
0.000000
  0
VERTEX
  8
MERGEDLAYER-1
  6
LTYPE06
 10
163.491414
 20
162.320733
 30
0.000000
  0
SEQEND
  8
MERGEDLAYER-1
  0
ARC
  8
MERGEDLAYER-1
 62
  7
  6
LTYPE06
 10
153.491414
 20
162.320733
 30
0.000000
 40
10.000000
 50
0.000000
 51
90.000000
  0
LINE
  8
MERGEDLAYER-1
 62
  7
 10
131.553914
 20
162.320733
 30
0.000000
 11
124.894355
 21
169.095703
 31
0.000000
  0
POLYLINE
  8
MERGEDLAYER-1
 66
  1
 70
  1
 62
  7
  0
VERTEX
  8
MERGEDLAYER-1
 10
124.543850
 20
169.452284
 30
0.000000
  0
VERTEX
  8
MERGEDLAYER-1
 10
125.798177
 20
169.127224
 30
0.000000
  0
VERTEX
  8
MERGEDLAYER-1
 10
125.322740
 20
168.659885
 30
0.000000
  0
VERTEX
  8
MERGEDLAYER-1
 10
124.847304
 20
168.192546
 30
0.000000
  0
VERTEX
  8
MERGEDLAYER-1
 10
124.543850
 20
169.452284
 30
0.000000
  0
SEQEND
  8
MERGEDLAYER-1
  0
TEXT
  8
MERGEDLAYER-1
 62
  7
 10
130.233479
 20
167.058058
 30
0.000000
 40
2.000000
  1
 
 50
314.507874
  0
TEXT
  8
MERGEDLAYER-1
 62
  7
 10
126.762247
 20
159.549913
 30
0.000000
 40
2.333333
  1
RADIUS:
 72
  5
 11
140.317802
 21
159.549913
 31
0.000000
  0
TEXT
  8
MERGEDLAYER-1
 62
  7
 10
126.762247
 20
155.994358
 30
0.000000
 40
2.333333
  1
Min. 3" (76mm) 
 72
  5
 11
150.540025
 21
155.994358
 31
0.000000
  0
TEXT
  8
MERGEDLAYER-1
 62
  7
 10
126.762247
 20
152.438802
 30
0.000000
 40
2.333333
  1
Ideal 5" (127mm) 
 72
  5
 11
153.206691
 21
152.438802
 31
0.000000
  0
POLYLINE
  8
MERGEDLAYER-1
 66
  1
 70
  1
 62
  7
  0
VERTEX
  8
MERGEDLAYER-1
 10
140.004910
 20
166.552734
 30
0.000000
  0
VERTEX
  8
MERGEDLAYER-1
 10
155.063938
 20
166.552734
 30
0.000000
  0
VERTEX
  8
MERGEDLAYER-1
 10
155.063938
 20
158.976332
 30
0.000000
  0
VERTEX
  8
MERGEDLAYER-1
 10
140.004910
 20
158.976332
 30
0.000000
  0
SEQEND
  8
MERGEDLAYER-1
  0
POLYLINE
  8
MERGEDLAYER-1
 66
  1
 70
  0
 62
  7
 40
0.666667
 41
0.666667
 10
154.966159
 20
159.449870
 30
0.000000
  0
VERTEX
  8
MERGEDLAYER-1
 10
154.966159
 20
159.449870
 30
0.000000
  0
VERTEX
  8
MERGEDLAYER-1
 10
140.004910
 20
159.449870
 30
0.000000
  0
SEQEND
  8
MERGEDLAYER-1
  0
TEXT
  8
MERGEDLAYER-1
 62
  7
 10
127.873358
 20
116.216580
 30
0.000000
 40
1.833333
  1
DRILL 
 72
  5
 11
135.873358
 21
116.216580
 31
0.000000
  0
TEXT
  8
MERGEDLAYER-1
 62
  7
 10
127.873358
 20
113.549913
 30
0.000000
 40
1.833333
  1
3/8" (10mm) DIA x 3/8" (10mm)
 72
  5
 11
161.873358
 21
113.549913
 31
0.000000
  0
TEXT
  8
MERGEDLAYER-1
 62
  7
 10
127.873358
 20
110.883247
 30
0.000000
 40
1.833333
  1
FOR SHOOTBOLT AT
 72
  5
 11
152.095580
 21
110.883247
 31
0.000000
  0
TEXT
  8
MERGEDLAYER-1
 62
  7
 10
127.873358
 20
108.216580
 30
0.000000
 40
1.500000
  1
+/-
 72
  5
 11
131.428914
 21
108.216580
 31
0.000000
  0
TEXT
  8
MERGEDLAYER-1
 62
  7
 10
131.428914
 20
108.216580
 30
0.000000
 40
1.833333
  1
1-13/16" (46mm) ABOVE SILL
 72
  5
 11
164.540025
 21
108.216580
 31
0.000000
  0
POLYLINE
  8
MERGEDLAYER-1
 66
  1
 70
  0
 62
  7
 10
125.241414
 20
102.633247
 30
0.000000
  0
VERTEX
  8
MERGEDLAYER-1
 10
125.241414
 20
102.633247
 30
0.000000
  0
VERTEX
  8
MERGEDLAYER-1
 10
125.241414
 20
105.383247
 30
0.000000
  0
SEQEND
  8
MERGEDLAYER-1
  0
POLYLINE
  8
MERGEDLAYER-1
 66
  1
 70
  1
 62
  7
  0
VERTEX
  8
MERGEDLAYER-1
 10
125.241414
 20
105.883247
 30
0.000000
  0
VERTEX
  8
MERGEDLAYER-1
 10
125.908081
 20
104.772135
 30
0.000000
  0
VERTEX
  8
MERGEDLAYER-1
 10
125.241414
 20
104.772135
 30
0.000000
  0
VERTEX
  8
MERGEDLAYER-1
 10
124.574748
 20
104.772135
 30
0.000000
  0
VERTEX
  8
MERGEDLAYER-1
 10
125.241414
 20
105.883247
 30
0.000000
  0
SEQEND
  8
MERGEDLAYER-1
  0
POLYLINE
  8
MERGEDLAYER-1
 66
  1
 70
  0
 62
  7
 10
120.803914
 20
105.914497
 30
0.000000
  0
VERTEX
  8
MERGEDLAYER-1
 10
120.803914
 20
105.914497
 30
0.000000
  0
VERTEX
  8
MERGEDLAYER-1
 10
120.803914
 20
162.350979
 30
0.000000
  0
SEQEND
  8
MERGEDLAYER-1
  0
POLYLINE
  8
MERGEDLAYER-1
 66
  1
 70
  0
 62
  7
 10
122.303914
 20
105.914497
 30
0.000000
  0
VERTEX
  8
MERGEDLAYER-1
 10
122.303914
 20
105.914497
 30
0.000000
  0
VERTEX
  8
MERGEDLAYER-1
 10
122.303914
 20
162.326647
 30
0.000000
  0
SEQEND
  8
MERGEDLAYER-1
  0
POLYLINE
  8
MERGEDLAYER-1
  6
LTYPE06
 66
  1
 70
  0
 62
  7
  6
LTYPE06
 10
121.553914
 20
105.914497
 30
0.000000
  0
VERTEX
  8
MERGEDLAYER-1
  6
LTYPE06
 10
121.553914
 20
105.914497
 30
0.000000
  0
VERTEX
  8
MERGEDLAYER-1
  6
LTYPE06
 10
121.553914
 20
162.320570
 30
0.000000
  0
SEQEND
  8
MERGEDLAYER-1
  0
POLYLINE
  8
MERGEDLAYER-1
  6
LTYPE01
 66
  1
 70
  1
 62
  7
  0
VERTEX
  8
MERGEDLAYER-1
  6
LTYPE01
 10
119.569539
 20
169.798164
 30
0.000000
  0
VERTEX
  8
MERGEDLAYER-1
  6
LTYPE01
 10
118.180678
 20
169.798164
 30
0.000000
  0
VERTEX
  8
MERGEDLAYER-1
  6
LTYPE01
 10
118.180678
 20
174.579400
 30
0.000000
  0
VERTEX
  8
MERGEDLAYER-1
  6
LTYPE01
 10
119.569539
 20
174.579400
 30
0.000000
  0
SEQEND
  8
MERGEDLAYER-1
  0
LINE
  8
MERGEDLAYER-1
 62
  7
 10
105.567763
 20
106.414497
 30
0.000000
 11
105.567763
 21
169.298164
 31
0.000000
  0
LINE
  8
MERGEDLAYER-1
 62
  7
 10
116.591417
 20
105.914497
 30
0.000000
 11
102.392761
 21
105.914497
 31
0.000000
  0
LINE
  8
MERGEDLAYER-1
 62
  7
 10
116.593180
 20
169.798164
 30
0.000000
 11
102.392761
 21
169.798164
 31
0.000000
  0
POLYLINE
  8
MERGEDLAYER-1
 66
  1
 70
  1
 62
  7
  0
VERTEX
  8
MERGEDLAYER-1
 10
105.567763
 20
105.914497
 30
0.000000
  0
VERTEX
  8
MERGEDLAYER-1
 10
106.234436
 20
107.025608
 30
0.000000
  0
VERTEX
  8
MERGEDLAYER-1
 10
105.567769
 20
107.025608
 30
0.000000
  0
VERTEX
  8
MERGEDLAYER-1
 10
104.901103
 20
107.025608
 30
0.000000
  0
VERTEX
  8
MERGEDLAYER-1
 10
105.567763
 20
105.914497
 30
0.000000
  0
SEQEND
  8
MERGEDLAYER-1
  0
POLYLINE
  8
MERGEDLAYER-1
 66
  1
 70
  1
 62
  7
  0
VERTEX
  8
MERGEDLAYER-1
 10
105.567763
 20
169.798164
 30
0.000000
  0
VERTEX
  8
MERGEDLAYER-1
 10
106.234422
 20
168.687052
 30
0.000000
  0
VERTEX
  8
MERGEDLAYER-1
 10
105.567756
 20
168.687052
 30
0.000000
  0
VERTEX
  8
MERGEDLAYER-1
 10
104.901089
 20
168.687052
 30
0.000000
  0
VERTEX
  8
MERGEDLAYER-1
 10
105.567763
 20
169.798164
 30
0.000000
  0
SEQEND
  8
MERGEDLAYER-1
  0
TEXT
  8
MERGEDLAYER-1
 62
  7
 10
105.262247
 20
138.183248
 30
0.000000
 40
2.000000
  1
 
  0
POLYLINE
  8
MERGEDLAYER-1
 66
  1
 70
  1
 62
  7
  0
VERTEX
  8
MERGEDLAYER-1
 10
100.359863
 20
125.608615
 30
0.000000
  0
VERTEX
  8
MERGEDLAYER-1
 10
100.359863
 20
150.302992
 30
0.000000
  0
VERTEX
  8
MERGEDLAYER-1
 10
110.622491
 20
150.302992
 30
0.000000
  0
VERTEX
  8
MERGEDLAYER-1
 10
110.622491
 20
125.608615
 30
0.000000
  0
SEQEND
  8
MERGEDLAYER-1
  0
POLYLINE
  8
MERGEDLAYER-1
 66
  1
 70
  0
 62
  7
 40
0.666667
 41
0.666667
 10
109.981059
 20
150.142632
 30
0.000000
  0
VERTEX
  8
MERGEDLAYER-1
 10
109.981059
 20
150.142632
 30
0.000000
  0
VERTEX
  8
MERGEDLAYER-1
 10
109.981059
 20
125.608615
 30
0.000000
  0
SEQEND
  8
MERGEDLAYER-1
  0
TEXT
  8
MERGEDLAYER-1
 62
  7
 10
115.651136
 20
124.883247
 30
0.000000
 40
2.333333
  1
CLEAR OPENING
 50
90.000000
 72
  5
 11
115.651136
 21
151.327691
 31
0.000000
  0
TEXT
  8
MERGEDLAYER-1
 62
  7
 10
121.428914
 20
193.549913
 30
0.000000
 40
2.333333
  1
WIDTH BETWEEN GROOVES
 72
  5
 11
165.206691
 21
193.549913
 31
0.000000
  0
TEXT
  8
MERGEDLAYER-1
 62
  7
 10
128.762247
 20
190.661024
 30
0.000000
 40
1.833333
  1
(EXTERIOR TO EXTERIOR)
 72
  5
 11
157.873358
 21
190.661024
 31
0.000000
  0
TEXT
  8
MERGEDLAYER-1
 62
  7
 10
136.317802
 20
138.216580
 30
0.000000
 40
1.833333
  1
INSTALL STOPPERS
 72
  5
 11
159.206691
 21
138.216580
 31
0.000000
  0
TEXT
  8
MERGEDLAYER-1
 62
  7
 10
136.317802
 20
135.549913
 30
0.000000
 40
1.833333
  1
INSIDE GROOVES
 72
  5
 11
156.540025
 21
135.549913
 31
0.000000
  0
POLYLINE
  8
MERGEDLAYER-1
 66
  1
 70
  0
 62
  7
 10
158.310859
 20
136.823730
 30
0.000000
  0
VERTEX
  8
MERGEDLAYER-1
 10
158.310859
 20
136.823730
 30
0.000000
  0
VERTEX
  8
MERGEDLAYER-1
 10
162.459812
 20
130.736884
 30
0.000000
  0
SEQEND
  8
MERGEDLAYER-1
  0
POLYLINE
  8
MERGEDLAYER-1
 66
  1
 70
  1
 62
  7
  0
VERTEX
  8
MERGEDLAYER-1
 10
162.741428
 20
130.323730
 30
0.000000
  0
VERTEX
  8
MERGEDLAYER-1
 10
161.564752
 20
130.866360
 30
0.000000
  0
VERTEX
  8
MERGEDLAYER-1
 10
162.115614
 20
131.241835
 30
0.000000
  0
VERTEX
  8
MERGEDLAYER-1
 10
162.666477
 20
131.617323
 30
0.000000
  0
VERTEX
  8
MERGEDLAYER-1
 10
162.741428
 20
130.323730
 30
0.000000
  0
SEQEND
  8
MERGEDLAYER-1
  0
POLYLINE
  8
MERGEDLAYER-1
 66
  1
 70
  1
 62
  7
  0
VERTEX
  8
MERGEDLAYER-1
 10
162.741428
 20
130.323730
 30
0.000000
  0
VERTEX
  8
MERGEDLAYER-1
 10
164.269206
 20
130.323730
 30
0.000000
  0
VERTEX
  8
MERGEDLAYER-1
 10
164.269206
 20
127.323730
 30
0.000000
  0
VERTEX
  8
MERGEDLAYER-1
 10
162.741428
 20
127.323730
 30
0.000000
  0
SEQEND
  8
MERGEDLAYER-1
  0
POLYLINE
  8
MERGEDLAYER-1
 66
  1
 70
  0
 62
  7
 10
163.498359
 20
129.511230
 30
0.000000
  0
VERTEX
  8
MERGEDLAYER-1
 10
163.498359
 20
129.511230
 30
0.000000
  0
VERTEX
  8
MERGEDLAYER-1
 10
163.498359
 20
129.511230
 30
0.000000
  0
SEQEND
  8
MERGEDLAYER-1
  0
POLYLINE
  8
MERGEDLAYER-1
 66
  1
 70
  0
 62
  7
 10
163.498359
 20
128.073730
 30
0.000000
  0
VERTEX
  8
MERGEDLAYER-1
 10
163.498359
 20
128.073730
 30
0.000000
  0
VERTEX
  8
MERGEDLAYER-1
 10
163.498359
 20
128.073730
 30
0.000000
  0
SEQEND
  8
MERGEDLAYER-1
  0
LINE
  8
MERGEDLAYER-1
 62
  7
 10
164.762261
 20
181.438802
 30
0.000000
 11
166.583401
 21
181.438802
 31
0.000000
  0
LINE
  8
MERGEDLAYER-1
 62
  7
 10
164.262261
 20
164.355455
 30
0.000000
 11
164.262261
 21
184.438802
 31
0.000000
  0
LINE
  8
MERGEDLAYER-1
 62
  7
 10
167.083401
 20
176.579400
 30
0.000000
 11
167.083401
 21
184.438802
 31
0.000000
  0
LINE
  8
MERGEDLAYER-1
 62
  7
 10
167.083401
 20
181.438802
 30
0.000000
 11
187.651150
 21
181.438802
 31
0.000000
  0
POLYLINE
  8
MERGEDLAYER-1
 66
  1
 70
  1
 62
  7
  0
VERTEX
  8
MERGEDLAYER-1
 10
164.262261
 20
181.438802
 30
0.000000
  0
VERTEX
  8
MERGEDLAYER-1
 10
165.373372
 20
180.772135
 30
0.000000
  0
VERTEX
  8
MERGEDLAYER-1
 10
165.373372
 20
181.438802
 30
0.000000
  0
VERTEX
  8
MERGEDLAYER-1
 10
165.373372
 20
182.105469
 30
0.000000
  0
VERTEX
  8
MERGEDLAYER-1
 10
164.262261
 20
181.438802
 30
0.000000
  0
SEQEND
  8
MERGEDLAYER-1
  0
POLYLINE
  8
MERGEDLAYER-1
 66
  1
 70
  1
 62
  7
  0
VERTEX
  8
MERGEDLAYER-1
 10
167.083401
 20
181.438802
 30
0.000000
  0
VERTEX
  8
MERGEDLAYER-1
 10
165.972290
 20
180.772135
 30
0.000000
  0
VERTEX
  8
MERGEDLAYER-1
 10
165.972290
 20
181.438802
 30
0.000000
  0
VERTEX
  8
MERGEDLAYER-1
 10
165.972290
 20
182.105469
 30
0.000000
  0
VERTEX
  8
MERGEDLAYER-1
 10
167.083401
 20
181.438802
 30
0.000000
  0
SEQEND
  8
MERGEDLAYER-1
  0
TEXT
  8
MERGEDLAYER-1
 62
  7
 10
184.162244
 20
183.783247
 30
0.000000
 40
2.000000
  1
   
  0
TEXT
  8
MERGEDLAYER-1
 62
  7
 10
168.984469
 20
183.105469
 30
0.000000
 40
2.333333
  1
CLEARANCE:
 72
  5
 11
189.651136
 21
183.105469
 31
0.000000
  0
TEXT
  8
MERGEDLAYER-1
 62
  7
 10
168.984469
 20
177.772135
 30
0.000000
 40
2.333333
  1
1-1/4" (32mm)
 72
  5
 11
190.540025
 21
177.772135
 31
0.000000
  0
TEXT
  8
MERGEDLAYER-1
 62
  7
 10
169.206691
 20
186.438802
 30
0.000000
 40
2.333333
  1
MINIMUM
 72
  5
 11
184.540025
 21
186.438802
 31
0.000000
  0
TEXT
  8
MERGEDLAYER-1
 62
  7
 10
10.540025
 20
49.549913
 30
0.000000
 40
2.500000
  1
3/4"
 72
  5
 11
17.206691
 21
49.549913
 31
0.000000
  0
TEXT
  8
MERGEDLAYER-1
 62
  7
 10
7.651136
 20
45.772135
 30
0.000000
 40
2.500000
  1
(19mm)
 72
  5
 11
20.317802
 21
45.772135
 31
0.000000
  0
LINE
  8
MERGEDLAYER-1
 62
  7
 10
121.303914
 20
185.216580
 30
0.000000
 11
163.762261
 21
185.216580
 31
0.000000
  0
LINE
  8
MERGEDLAYER-1
 62
  7
 10
120.803914
 20
164.350979
 30
0.000000
 11
120.803914
 21
188.216580
 31
0.000000
  0
LINE
  8
MERGEDLAYER-1
 62
  7
 10
164.262261
 20
164.355455
 30
0.000000
 11
164.262261
 21
188.216580
 31
0.000000
  0
POLYLINE
  8
MERGEDLAYER-1
 66
  1
 70
  1
 62
  7
  0
VERTEX
  8
MERGEDLAYER-1
 10
120.803914
 20
185.216580
 30
0.000000
  0
VERTEX
  8
MERGEDLAYER-1
 10
121.915025
 20
184.549913
 30
0.000000
  0
VERTEX
  8
MERGEDLAYER-1
 10
121.915025
 20
185.216580
 30
0.000000
  0
VERTEX
  8
MERGEDLAYER-1
 10
121.915025
 20
185.883247
 30
0.000000
  0
VERTEX
  8
MERGEDLAYER-1
 10
120.803914
 20
185.216580
 30
0.000000
  0
SEQEND
  8
MERGEDLAYER-1
  0
POLYLINE
  8
MERGEDLAYER-1
 66
  1
 70
  1
 62
  7
  0
VERTEX
  8
MERGEDLAYER-1
 10
164.262261
 20
185.216580
 30
0.000000
  0
VERTEX
  8
MERGEDLAYER-1
 10
163.151150
 20
184.549913
 30
0.000000
  0
VERTEX
  8
MERGEDLAYER-1
 10
163.151150
 20
185.216580
 30
0.000000
  0
VERTEX
  8
MERGEDLAYER-1
 10
163.151150
 20
185.883247
 30
0.000000
  0
VERTEX
  8
MERGEDLAYER-1
 10
164.262261
 20
185.216580
 30
0.000000
  0
SEQEND
  8
MERGEDLAYER-1
  0
TEXT
  8
MERGEDLAYER-1
 62
  7
 10
142.662244
 20
187.583247
 30
0.000000
 40
2.000000
  1
 
  0
POLYLINE
  8
MERGEDLAYER-1
 66
  1
 70
  1
 62
  7
  0
VERTEX
  8
MERGEDLAYER-1
 10
130.206706
 20
190.327691
 30
0.000000
  0
VERTEX
  8
MERGEDLAYER-1
 10
154.901096
 20
190.327691
 30
0.000000
  0
VERTEX
  8
MERGEDLAYER-1
 10
154.901096
 20
180.065077
 30
0.000000
  0
VERTEX
  8
MERGEDLAYER-1
 10
130.206706
 20
180.065077
 30
0.000000
  0
SEQEND
  8
MERGEDLAYER-1
  0
POLYLINE
  8
MERGEDLAYER-1
 66
  1
 70
  0
 62
  7
 40
0.666667
 41
0.666667
 10
154.740750
 20
180.706502
 30
0.000000
  0
VERTEX
  8
MERGEDLAYER-1
 10
154.740750
 20
180.706502
 30
0.000000
  0
VERTEX
  8
MERGEDLAYER-1
 10
130.206706
 20
180.706502
 30
0.000000
  0
SEQEND
  8
MERGEDLAYER-1
  0
TEXT
  8
MERGEDLAYER-1
 62
  7
 10
195.651136
 20
83.105469
 30
0.000000
 40
2.500000
  1
CUSTOMER:
 72
  5
 11
217.206691
 21
83.105469
 31
0.000000
  0
POLYLINE
  8
MERGEDLAYER-1
 66
  1
 70
  0
 62
  7
 10
216.920709
 20
81.693888
 30
0.000000
  0
VERTEX
  8
MERGEDLAYER-1
 10
216.920709
 20
81.693888
 30
0.000000
  0
VERTEX
  8
MERGEDLAYER-1
 10
270.052273
 20
81.687500
 30
0.000000
  0
SEQEND
  8
MERGEDLAYER-1
  0
TEXT
  8
MERGEDLAYER-1
 62
  7
 10
195.651136
 20
76.216580
 30
0.000000
 40
2.500000
  1
PROJECT:
 72
  5
 11
213.651136
 21
76.216580
 31
0.000000
  0
TEXT
  8
MERGEDLAYER-1
 62
  7
 10
195.651136
 20
69.105469
 30
0.000000
 40
2.500000
  1
LOCATION:
 72
  5
 11
214.984469
 21
69.105469
 31
0.000000
  0
TEXT
  8
MERGEDLAYER-1
 62
  7
 10
195.873358
 20
61.994358
 30
0.000000
 40
2.500000
  1
CITY:
 72
  5
 11
205.651136
 21
61.994358
 31
0.000000
  0
TEXT
  8
MERGEDLAYER-1
 62
  7
 10
195.873358
 20
55.105469
 30
0.000000
 40
2.500000
  1
MODEL:
 72
  5
 11
210.095580
 21
55.105469
 31
0.000000
  0
TEXT
  8
MERGEDLAYER-1
 62
  7
 10
195.873358
 20
47.994358
 30
0.000000
 40
2.500000
  1
FINISH:
 72
  5
 11
208.762247
 21
47.994358
 31
0.000000
  0
TEXT
  8
MERGEDLAYER-1
 62
  7
 10
195.651136
 20
41.105469
 30
0.000000
 40
2.500000
  1
DATE:
 72
  5
 11
206.540025
 21
41.105469
 31
0.000000
  0
TEXT
  8
MERGEDLAYER-1
 62
  7
 10
240.984469
 20
41.105469
 30
0.000000
 40
2.500000
  1
NO:
 72
  5
 11
248.095580
 21
41.105469
 31
0.000000
  0
POLYLINE
  8
MERGEDLAYER-1
 66
  1
 70
  0
 62
  7
 10
193.274102
 20
88.701213
 30
0.000000
  0
VERTEX
  8
MERGEDLAYER-1
 10
193.274102
 20
88.701213
 30
0.000000
  0
VERTEX
  8
MERGEDLAYER-1
 10
270.059842
 20
88.701213
 30
0.000000
  0
SEQEND
  8
MERGEDLAYER-1
  0
POLYLINE
  8
MERGEDLAYER-1
 66
  1
 70
  0
 62
  7
 10
193.274102
 20
32.618802
 30
0.000000
  0
VERTEX
  8
MERGEDLAYER-1
 10
193.274102
 20
32.618802
 30
0.000000
  0
VERTEX
  8
MERGEDLAYER-1
 10
270.059842
 20
32.618802
 30
0.000000
  0
SEQEND
  8
MERGEDLAYER-1
  0
TEXT
  8
MERGEDLAYER-1
 62
  7
 10
195.651136
 20
34.216580
 30
0.000000
 40
2.500000
  1
SHIP DATE:
 72
  5
 11
215.206691
 21
34.216580
 31
0.000000
  0
POLYLINE
  8
MERGEDLAYER-1
 66
  1
 70
  0
 62
  7
 10
216.920709
 20
74.686564
 30
0.000000
  0
VERTEX
  8
MERGEDLAYER-1
 10
216.920709
 20
74.686564
 30
0.000000
  0
VERTEX
  8
MERGEDLAYER-1
 10
270.052273
 20
74.680176
 30
0.000000
  0
SEQEND
  8
MERGEDLAYER-1
  0
POLYLINE
  8
MERGEDLAYER-1
 66
  1
 70
  0
 62
  7
 10
216.920709
 20
67.679226
 30
0.000000
  0
VERTEX
  8
MERGEDLAYER-1
 10
216.920709
 20
67.679226
 30
0.000000
  0
VERTEX
  8
MERGEDLAYER-1
 10
270.052273
 20
67.672824
 30
0.000000
  0
SEQEND
  8
MERGEDLAYER-1
  0
POLYLINE
  8
MERGEDLAYER-1
 66
  1
 70
  0
 62
  7
 10
216.920709
 20
60.671902
 30
0.000000
  0
VERTEX
  8
MERGEDLAYER-1
 10
216.920709
 20
60.671902
 30
0.000000
  0
VERTEX
  8
MERGEDLAYER-1
 10
270.052273
 20
60.665500
 30
0.000000
  0
SEQEND
  8
MERGEDLAYER-1
  0
POLYLINE
  8
MERGEDLAYER-1
 66
  1
 70
  0
 62
  7
 10
216.920709
 20
53.664578
 30
0.000000
  0
VERTEX
  8
MERGEDLAYER-1
 10
216.920709
 20
53.664578
 30
0.000000
  0
VERTEX
  8
MERGEDLAYER-1
 10
270.052273
 20
53.658176
 30
0.000000
  0
SEQEND
  8
MERGEDLAYER-1
  0
POLYLINE
  8
MERGEDLAYER-1
 66
  1
 70
  0
 62
  7
 10
216.920709
 20
46.657254
 30
0.000000
  0
VERTEX
  8
MERGEDLAYER-1
 10
216.920709
 20
46.657254
 30
0.000000
  0
VERTEX
  8
MERGEDLAYER-1
 10
270.052273
 20
46.650852
 30
0.000000
  0
SEQEND
  8
MERGEDLAYER-1
  0
POLYLINE
  8
MERGEDLAYER-1
 66
  1
 70
  0
 62
  7
 10
207.565782
 20
39.649929
 30
0.000000
  0
VERTEX
  8
MERGEDLAYER-1
 10
207.565782
 20
39.649929
 30
0.000000
  0
VERTEX
  8
MERGEDLAYER-1
 10
237.931613
 20
39.601712
 30
0.000000
  0
SEQEND
  8
MERGEDLAYER-1
  0
POLYLINE
  8
MERGEDLAYER-1
 66
  1
 70
  0
 62
  7
 10
248.193685
 20
39.658393
 30
0.000000
  0
VERTEX
  8
MERGEDLAYER-1
 10
248.193685
 20
39.658393
 30
0.000000
  0
VERTEX
  8
MERGEDLAYER-1
 10
270.052273
 20
39.643528
 30
0.000000
  0
SEQEND
  8
MERGEDLAYER-1
  0
TEXT
  8
MERGEDLAYER-1
 62
  7
 10
195.873358
 20
89.994358
 30
0.000000
 40
2.500000
  1
CUSTOMER'S SIGNATURE
 72
  5
 11
240.095580
 21
89.994358
 31
0.000000
  0
POLYLINE
  8
MERGEDLAYER-1
 66
  1
 70
  0
 62
  7
 10
195.905382
 20
93.789524
 30
0.000000
  0
VERTEX
  8
MERGEDLAYER-1
 10
195.905382
 20
93.789524
 30
0.000000
  0
VERTEX
  8
MERGEDLAYER-1
 10
240.432482
 20
93.789524
 30
0.000000
  0
SEQEND
  8
MERGEDLAYER-1
  0
TEXT
  8
MERGEDLAYER-1
 62
  7
 10
195.873358
 20
95.327691
 30
0.000000
 40
2.333333
  1
x
 72
  5
 11
198.762247
 21
95.327691
 31
0.000000
  0
POLYLINE
  8
MERGEDLAYER-1
 66
  1
 70
  0
 62
  7
 10
193.274102
 20
101.174045
 30
0.000000
  0
VERTEX
  8
MERGEDLAYER-1
 10
193.274102
 20
101.174045
 30
0.000000
  0
VERTEX
  8
MERGEDLAYER-1
 10
270.059842
 20
101.174045
 30
0.000000
  0
SEQEND
  8
MERGEDLAYER-1
  0
TEXT
  8
MERGEDLAYER-1
 62
  7
 10
242.317802
 20
89.994358
 30
0.000000
 40
2.500000
  1
DATE JOB SITE
 72
  5
 11
268.540025
 21
89.994358
 31
0.000000
  0
POLYLINE
  8
MERGEDLAYER-1
 66
  1
 70
  0
 62
  7
 10
242.681478
 20
93.809814
 30
0.000000
  0
VERTEX
  8
MERGEDLAYER-1
 10
242.681478
 20
93.809814
 30
0.000000
  0
VERTEX
  8
MERGEDLAYER-1
 10
270.065837
 20
93.809814
 30
0.000000
  0
SEQEND
  8
MERGEDLAYER-1
  0
TEXT
  8
MERGEDLAYER-1
 62
  7
 10
217.873358
 20
55.105469
 30
0.000000
 40
3.166667
  1
Cabinet Shutter
 72
  5
 11
247.873358
 21
55.105469
 31
0.000000
  0
TEXT
  8
MERGEDLAYER-1
 62
  7
 10
217.651136
 20
48.216580
 30
0.000000
 40
3.166667
  1
Clear Anodized
 72
  5
 11
247.651136
 21
48.216580
 31
0.000000
  0
TEXT
  8
MERGEDLAYER-1
 62
 65
 10
227.206691
 20
21.772135
 30
0.000000
 40
6.333333
  1
Mobil
 72
  5
 11
251.873358
 21
21.772135
 31
0.000000
  0
TEXT
  8
MERGEDLAYER-1
 62
  7
 10
251.873358
 20
21.772135
 30
0.000000
 40
6.333333
  1
Flex
 72
  5
 11
269.651136
 21
21.772135
 31
0.000000
  0
POLYLINE
  8
MERGEDLAYER-1
 66
  1
 70
  1
 62
 65
  0
VERTEX
  8
MERGEDLAYER-1
 10
195.169244
 20
20.437839
 30
0.000000
  0
VERTEX
  8
MERGEDLAYER-1
 10
267.601644
 20
20.437839
 30
0.000000
  0
VERTEX
  8
MERGEDLAYER-1
 10
267.601644
 20
19.651421
 30
0.000000
  0
VERTEX
  8
MERGEDLAYER-1
 10
195.169244
 20
19.651421
 30
0.000000
  0
SEQEND
  8
MERGEDLAYER-1
  0
POLYLINE
  8
MERGEDLAYER-1
 66
  1
 70
  1
 62
 65
  0
VERTEX
  8
MERGEDLAYER-1
 10
195.169244
 20
31.182766
 30
0.000000
  0
VERTEX
  8
MERGEDLAYER-1
 10
199.393568
 20
31.182766
 30
0.000000
  0
VERTEX
  8
MERGEDLAYER-1
 10
199.393568
 20
21.879734
 30
0.000000
  0
VERTEX
  8
MERGEDLAYER-1
 10
195.169244
 20
21.879734
 30
0.000000
  0
SEQEND
  8
MERGEDLAYER-1
  0
POLYLINE
  8
MERGEDLAYER-1
 66
  1
 70
  1
 62
 65
  0
VERTEX
  8
MERGEDLAYER-1
 10
200.783732
 20
31.182766
 30
0.000000
  0
VERTEX
  8
MERGEDLAYER-1
 10
205.008016
 20
31.182766
 30
0.000000
  0
VERTEX
  8
MERGEDLAYER-1
 10
205.008016
 20
21.879734
 30
0.000000
  0
VERTEX
  8
MERGEDLAYER-1
 10
200.783732
 20
21.879734
 30
0.000000
  0
SEQEND
  8
MERGEDLAYER-1
  0
POLYLINE
  8
MERGEDLAYER-1
 66
  1
 70
  1
 62
 65
  0
VERTEX
  8
MERGEDLAYER-1
 10
206.189372
 20
31.182766
 30
0.000000
  0
VERTEX
  8
MERGEDLAYER-1
 10
210.413588
 20
31.182766
 30
0.000000
  0
VERTEX
  8
MERGEDLAYER-1
 10
210.413588
 20
21.879734
 30
0.000000
  0
VERTEX
  8
MERGEDLAYER-1
 10
206.189372
 20
21.879734
 30
0.000000
  0
SEQEND
  8
MERGEDLAYER-1
  0
POLYLINE
  8
MERGEDLAYER-1
 66
  1
 70
  1
 62
 65
  0
VERTEX
  8
MERGEDLAYER-1
 10
211.646294
 20
31.182766
 30
0.000000
  0
VERTEX
  8
MERGEDLAYER-1
 10
215.917291
 20
31.182766
 30
0.000000
  0
VERTEX
  8
MERGEDLAYER-1
 10
215.917291
 20
21.879734
 30
0.000000
  0
VERTEX
  8
MERGEDLAYER-1
 10
211.646294
 20
21.879734
 30
0.000000
  0
SEQEND
  8
MERGEDLAYER-1
  0
POLYLINE
  8
MERGEDLAYER-1
 66
  1
 70
  1
 62
 65
  0
VERTEX
  8
MERGEDLAYER-1
 10
217.354899
 20
31.182766
 30
0.000000
  0
VERTEX
  8
MERGEDLAYER-1
 10
224.134264
 20
31.182766
 30
0.000000
  0
VERTEX
  8
MERGEDLAYER-1
 10
224.134264
 20
28.768500
 30
0.000000
  0
VERTEX
  8
MERGEDLAYER-1
 10
217.354899
 20
28.768500
 30
0.000000
  0
SEQEND
  8
MERGEDLAYER-1
  0
POLYLINE
  8
MERGEDLAYER-1
 66
  1
 70
  1
 62
 65
  0
VERTEX
  8
MERGEDLAYER-1
 10
217.350016
 20
27.100925
 30
0.000000
  0
VERTEX
  8
MERGEDLAYER-1
 10
222.962972
 20
27.100925
 30
0.000000
  0
VERTEX
  8
MERGEDLAYER-1
 10
222.962972
 20
24.679633
 30
0.000000
  0
VERTEX
  8
MERGEDLAYER-1
 10
217.350016
 20
24.679633
 30
0.000000
  0
SEQEND
  8
MERGEDLAYER-1
  0
TEXT
  8
MERGEDLAYER-1
 62
  7
 10
194.984469
 20
15.549913
 30
0.000000
 40
2.333333
  1
NEW YORK.TORONTO.QUEBEC.LONDON.PARIS
 72
  5
 11
267.428914
 21
15.549913
 31
0.000000
  0
TEXT
  8
MERGEDLAYER-1
 62
  7
 10
194.984469
 20
2.216580
 30
0.000000
 40
2.500000
  1
FAX: 1 418.831.7817
 72
  5
 11
226.317802
 21
2.216580
 31
0.000000
  0
TEXT
  8
MERGEDLAYER-1
 62
  7
 10
235.651136
 20
2.216580
 30
0.000000
 40
2.500000
  1
FAX: 1 800.470.3359
 72
  5
 11
266.984469
 21
2.216580
 31
0.000000
  0
TEXT
  8
MERGEDLAYER-1
 62
  7
 10
194.984469
 20
7.994358
 30
0.000000
 40
2.500000
  1
TEL.:1 418.831.6652
 72
  5
 11
226.540025
 21
7.994358
 31
0.000000
  0
TEXT
  8
MERGEDLAYER-1
 62
  7
 10
235.651136
 20
7.994358
 30
0.000000
 40
2.500000
  1
TEL.:1 800.501.3359
 72
  5
 11
267.206691
 21
7.994358
 31
0.000000
  0
POLYLINE
  8
MERGEDLAYER-1
  6
LTYPE01
 66
  1
 70
  1
 62
  7
  0
VERTEX
  8
MERGEDLAYER-1
  6
LTYPE01
 10
53.988810
 20
51.305122
 30
0.000000
  0
VERTEX
  8
MERGEDLAYER-1
  6
LTYPE01
 10
67.973185
 20
51.305122
 30
0.000000
  0
VERTEX
  8
MERGEDLAYER-1
  6
LTYPE01
 10
67.973185
 20
50.016059
 30
0.000000
  0
VERTEX
  8
MERGEDLAYER-1
  6
LTYPE01
 10
53.988810
 20
50.016059
 30
0.000000
  0
SEQEND
  8
MERGEDLAYER-1
  0
POLYLINE
  8
MERGEDLAYER-1
  6
LTYPE01
 66
  1
 70
  1
 62
  7
  0
VERTEX
  8
MERGEDLAYER-1
  6
LTYPE01
 10
124.848185
 20
51.305122
 30
0.000000
  0
VERTEX
  8
MERGEDLAYER-1
  6
LTYPE01
 10
138.832560
 20
51.305122
 30
0.000000
  0
VERTEX
  8
MERGEDLAYER-1
  6
LTYPE01
 10
138.832560
 20
50.016059
 30
0.000000
  0
VERTEX
  8
MERGEDLAYER-1
  6
LTYPE01
 10
124.848185
 20
50.016059
 30
0.000000
  0
SEQEND
  8
MERGEDLAYER-1
  0
POLYLINE
  8
MERGEDLAYER-1
 66
  1
 70
  0
 62
  7
 10
100.206706
 20
52.772135
 30
0.000000
  0
VERTEX
  8
MERGEDLAYER-1
 10
100.206706
 20
52.772135
 30
0.000000
  0
VERTEX
  8
MERGEDLAYER-1
 10
100.206706
 20
53.204848
 30
0.000000
  0
SEQEND
  8
MERGEDLAYER-1
  0
POLYLINE
  8
MERGEDLAYER-1
 66
  1
 70
  0
 62
  7
 10
100.206706
 20
53.204848
 30
0.000000
  0
VERTEX
  8
MERGEDLAYER-1
 10
100.206706
 20
53.204848
 30
0.000000
  0
VERTEX
  8
MERGEDLAYER-1
 10
93.175062
 20
53.204848
 30
0.000000
  0
SEQEND
  8
MERGEDLAYER-1
  0
POLYLINE
  8
MERGEDLAYER-1
 66
  1
 70
  0
 62
  7
 10
93.175062
 20
53.204848
 30
0.000000
  0
VERTEX
  8
MERGEDLAYER-1
 10
93.175062
 20
53.204848
 30
0.000000
  0
VERTEX
  8
MERGEDLAYER-1
 10
93.175062
 20
52.772135
 30
0.000000
  0
SEQEND
  8
MERGEDLAYER-1
  0
POLYLINE
  8
MERGEDLAYER-1
 66
  1
 70
  0
 62
  7
 10
93.175062
 20
52.772135
 30
0.000000
  0
VERTEX
  8
MERGEDLAYER-1
 10
93.175062
 20
52.772135
 30
0.000000
  0
VERTEX
  8
MERGEDLAYER-1
 10
100.206706
 20
52.772135
 30
0.000000
  0
SEQEND
  8
MERGEDLAYER-1
  0
POLYLINE
  8
MERGEDLAYER-1
 66
  1
 70
  0
 62
  7
 10
99.845791
 20
53.745741
 30
0.000000
  0
VERTEX
  8
MERGEDLAYER-1
 10
99.845791
 20
53.745741
 30
0.000000
  0
VERTEX
  8
MERGEDLAYER-1
 10
93.536011
 20
53.745741
 30
0.000000
  0
SEQEND
  8
MERGEDLAYER-1
  0
POLYLINE
  8
MERGEDLAYER-1
 66
  1
 70
  0
 62
  7
 10
96.839918
 20
53.853923
 30
0.000000
  0
VERTEX
  8
MERGEDLAYER-1
 10
96.839918
 20
53.853923
 30
0.000000
  0
VERTEX
  8
MERGEDLAYER-1
 10
94.035611
 20
53.853923
 30
0.000000
  0
SEQEND
  8
MERGEDLAYER-1
  0
POLYLINE
  8
MERGEDLAYER-1
 66
  1
 70
  0
 62
  7
 10
99.845791
 20
53.745741
 30
0.000000
  0
VERTEX
  8
MERGEDLAYER-1
 10
99.845791
 20
53.745741
 30
0.000000
  0
VERTEX
  8
MERGEDLAYER-1
 10
100.206706
 20
53.204848
 30
0.000000
  0
SEQEND
  8
MERGEDLAYER-1
  0
POLYLINE
  8
MERGEDLAYER-1
 66
  1
 70
  0
 62
  7
 10
93.536011
 20
53.745741
 30
0.000000
  0
VERTEX
  8
MERGEDLAYER-1
 10
93.536011
 20
53.745741
 30
0.000000
  0
VERTEX
  8
MERGEDLAYER-1
 10
93.175062
 20
53.204848
 30
0.000000
  0
SEQEND
  8
MERGEDLAYER-1
  0
POLYLINE
  8
MERGEDLAYER-1
 66
  1
 70
  0
 62
  7
 10
96.839918
 20
53.853923
 30
0.000000
  0
VERTEX
  8
MERGEDLAYER-1
 10
96.839918
 20
53.853923
 30
0.000000
  0
VERTEX
  8
MERGEDLAYER-1
 10
96.839918
 20
53.745741
 30
0.000000
  0
SEQEND
  8
MERGEDLAYER-1
  0
POLYLINE
  8
MERGEDLAYER-1
 66
  1
 70
  0
 62
  7
 10
94.035611
 20
53.853923
 30
0.000000
  0
VERTEX
  8
MERGEDLAYER-1
 10
94.035611
 20
53.853923
 30
0.000000
  0
VERTEX
  8
MERGEDLAYER-1
 10
94.035611
 20
53.745741
 30
0.000000
  0
SEQEND
  8
MERGEDLAYER-1
  0
POLYLINE
  8
MERGEDLAYER-1
 66
  1
 70
  1
 62
  7
  0
VERTEX
  8
MERGEDLAYER-1
 10
100.229994
 20
52.769179
 30
0.000000
  0
VERTEX
  8
MERGEDLAYER-1
 10
100.229994
 20
52.234348
 30
0.000000
  0
VERTEX
  8
MERGEDLAYER-1
 10
93.064345
 20
52.234348
 30
0.000000
  0
VERTEX
  8
MERGEDLAYER-1
 10
93.064345
 20
52.769179
 30
0.000000
  0
SEQEND
  8
MERGEDLAYER-1
  0
POLYLINE
  8
MERGEDLAYER-1
 66
  1
 70
  0
 62
  7
 10
100.326870
 20
52.034722
 30
0.000000
  0
VERTEX
  8
MERGEDLAYER-1
 10
100.326870
 20
52.034722
 30
0.000000
  0
VERTEX
  8
MERGEDLAYER-1
 10
100.326870
 20
51.728068
 30
0.000000
  0
SEQEND
  8
MERGEDLAYER-1
  0
POLYLINE
  8
MERGEDLAYER-1
 66
  1
 70
  0
 62
  7
 10
100.326884
 20
52.034722
 30
0.000000
  0
VERTEX
  8
MERGEDLAYER-1
 10
100.326884
 20
52.034722
 30
0.000000
  0
VERTEX
  8
MERGEDLAYER-1
 10
100.122450
 20
52.239149
 30
0.000000
  0
SEQEND
  8
MERGEDLAYER-1
  0
POLYLINE
  8
MERGEDLAYER-1
 66
  1
 70
  0
 62
  7
 10
100.122450
 20
52.239136
 30
0.000000
  0
VERTEX
  8
MERGEDLAYER-1
 10
100.122450
 20
52.239136
 30
0.000000
  0
VERTEX
  8
MERGEDLAYER-1
 10
93.171875
 20
52.239136
 30
0.000000
  0
SEQEND
  8
MERGEDLAYER-1
  0
POLYLINE
  8
MERGEDLAYER-1
 66
  1
 70
  0
 62
  7
 10
93.171875
 20
52.239149
 30
0.000000
  0
VERTEX
  8
MERGEDLAYER-1
 10
93.171875
 20
52.239149
 30
0.000000
  0
VERTEX
  8
MERGEDLAYER-1
 10
92.967448
 20
52.034722
 30
0.000000
  0
SEQEND
  8
MERGEDLAYER-1
  0
POLYLINE
  8
MERGEDLAYER-1
 66
  1
 70
  0
 62
  7
 10
92.967448
 20
52.034722
 30
0.000000
  0
VERTEX
  8
MERGEDLAYER-1
 10
92.967448
 20
52.034722
 30
0.000000
  0
VERTEX
  8
MERGEDLAYER-1
 10
92.967448
 20
51.728068
 30
0.000000
  0
SEQEND
  8
MERGEDLAYER-1
  0
POLYLINE
  8
MERGEDLAYER-1
 66
  1
 70
  0
 62
  7
 10
92.558573
 20
51.319214
 30
0.000000
  0
VERTEX
  8
MERGEDLAYER-1
 10
92.558573
 20
51.319214
 30
0.000000
  0
VERTEX
  8
MERGEDLAYER-1
 10
92.797675
 20
51.488946
 30
0.000000
  0
VERTEX
  8
MERGEDLAYER-1
 10
92.967434
 20
51.728068
 30
0.000000
  0
SEQEND
  8
MERGEDLAYER-1
  0
POLYLINE
  8
MERGEDLAYER-1
 66
  1
 70
  0
 62
  7
 10
92.558573
 20
51.319200
 30
0.000000
  0
VERTEX
  8
MERGEDLAYER-1
 10
92.558573
 20
51.319200
 30
0.000000
  0
VERTEX
  8
MERGEDLAYER-1
 10
92.558573
 20
51.216987
 30
0.000000
  0
SEQEND
  8
MERGEDLAYER-1
  0
POLYLINE
  8
MERGEDLAYER-1
 66
  1
 70
  0
 62
  7
 10
92.558573
 20
51.216987
 30
0.000000
  0
VERTEX
  8
MERGEDLAYER-1
 10
92.558573
 20
51.216987
 30
0.000000
  0
VERTEX
  8
MERGEDLAYER-1
 10
100.735758
 20
51.216987
 30
0.000000
  0
SEQEND
  8
MERGEDLAYER-1
  0
POLYLINE
  8
MERGEDLAYER-1
 66
  1
 70
  0
 62
  7
 10
100.735758
 20
51.216987
 30
0.000000
  0
VERTEX
  8
MERGEDLAYER-1
 10
100.735758
 20
51.216987
 30
0.000000
  0
VERTEX
  8
MERGEDLAYER-1
 10
100.735758
 20
51.319200
 30
0.000000
  0
SEQEND
  8
MERGEDLAYER-1
  0
POLYLINE
  8
MERGEDLAYER-1
 66
  1
 70
  0
 62
  7
 10
100.735758
 20
51.319200
 30
0.000000
  0
VERTEX
  8
MERGEDLAYER-1
 10
100.735758
 20
51.319200
 30
0.000000
  0
VERTEX
  8
MERGEDLAYER-1
 10
100.735758
 20
51.319200
 30
0.000000
  0
SEQEND
  8
MERGEDLAYER-1
  0
POLYLINE
  8
MERGEDLAYER-1
 66
  1
 70
  0
 62
  7
 10
100.326891
 20
51.728068
 30
0.000000
  0
VERTEX
  8
MERGEDLAYER-1
 10
100.326891
 20
51.728068
 30
0.000000
  0
VERTEX
  8
MERGEDLAYER-1
 10
100.396647
 20
51.488946
 30
0.000000
  0
VERTEX
  8
MERGEDLAYER-1
 10
100.735758
 20
51.319200
 30
0.000000
  0
SEQEND
  8
MERGEDLAYER-1
  0
POLYLINE
  8
MERGEDLAYER-1
 66
  1
 70
  0
 62
  7
 10
100.735758
 20
51.319200
 30
0.000000
  0
VERTEX
  8
MERGEDLAYER-1
 10
100.735758
 20
51.319200
 30
0.000000
  0
VERTEX
  8
MERGEDLAYER-1
 10
92.558573
 20
51.319200
 30
0.000000
  0
SEQEND
  8
MERGEDLAYER-1
  0
POLYLINE
  8
MERGEDLAYER-1
 66
  1
 70
  0
 62
  7
 10
92.558573
 20
51.319200
 30
0.000000
  0
VERTEX
  8
MERGEDLAYER-1
 10
92.558573
 20
51.319200
 30
0.000000
  0
VERTEX
  8
MERGEDLAYER-1
 10
92.558573
 20
51.319200
 30
0.000000
  0
SEQEND
  8
MERGEDLAYER-1
  0
POLYLINE
  8
MERGEDLAYER-1
  6
LTYPE01
 66
  1
 70
  1
 62
  7
  0
VERTEX
  8
MERGEDLAYER-1
  6
LTYPE01
 10
120.262248
 20
112.244358
 30
0.000000
  0
VERTEX
  8
MERGEDLAYER-1
  6
LTYPE01
 10
122.702230
 20
112.244358
 30
0.000000
  0
VERTEX
  8
MERGEDLAYER-1
  6
LTYPE01
 10
122.702230
 20
105.925537
 30
0.000000
  0
VERTEX
  8
MERGEDLAYER-1
  6
LTYPE01
 10
120.262248
 20
105.925537
 30
0.000000
  0
SEQEND
  8
MERGEDLAYER-1
  0
CIRCLE
  8
MERGEDLAYER-1
 62
  7
 10
121.531169
 20
109.808261
 30
0.000000
 40
0.375000
  0
POLYLINE
  8
MERGEDLAYER-1
 66
  1
 70
  0
 62
  7
 10
119.623983
 20
111.175442
 30
0.000000
  0
VERTEX
  8
MERGEDLAYER-1
 10
119.623983
 20
111.175442
 30
0.000000
  0
VERTEX
  8
MERGEDLAYER-1
 10
119.446384
 20
111.175442
 30
0.000000
  0
SEQEND
  8
MERGEDLAYER-1
  0
POLYLINE
  8
MERGEDLAYER-1
 66
  1
 70
  0
 62
  7
 10
119.446384
 20
111.175442
 30
0.000000
  0
VERTEX
  8
MERGEDLAYER-1
 10
119.446384
 20
111.175442
 30
0.000000
  0
VERTEX
  8
MERGEDLAYER-1
 10
119.446384
 20
108.289503
 30
0.000000
  0
SEQEND
  8
MERGEDLAYER-1
  0
POLYLINE
  8
MERGEDLAYER-1
 66
  1
 70
  0
 62
  7
 10
119.446384
 20
108.289503
 30
0.000000
  0
VERTEX
  8
MERGEDLAYER-1
 10
119.446384
 20
108.289503
 30
0.000000
  0
VERTEX
  8
MERGEDLAYER-1
 10
119.623983
 20
108.289503
 30
0.000000
  0
SEQEND
  8
MERGEDLAYER-1
  0
POLYLINE
  8
MERGEDLAYER-1
 66
  1
 70
  0
 62
  7
 10
119.623983
 20
108.289503
 30
0.000000
  0
VERTEX
  8
MERGEDLAYER-1
 10
119.623983
 20
108.289503
 30
0.000000
  0
VERTEX
  8
MERGEDLAYER-1
 10
119.623983
 20
111.175442
 30
0.000000
  0
SEQEND
  8
MERGEDLAYER-1
  0
POLYLINE
  8
MERGEDLAYER-1
 66
  1
 70
  0
 62
  7
 10
119.224406
 20
111.027323
 30
0.000000
  0
VERTEX
  8
MERGEDLAYER-1
 10
119.224406
 20
111.027323
 30
0.000000
  0
VERTEX
  8
MERGEDLAYER-1
 10
119.224406
 20
108.437649
 30
0.000000
  0
SEQEND
  8
MERGEDLAYER-1
  0
POLYLINE
  8
MERGEDLAYER-1
 66
  1
 70
  0
 62
  7
 10
119.179999
 20
109.793640
 30
0.000000
  0
VERTEX
  8
MERGEDLAYER-1
 10
119.179999
 20
109.793640
 30
0.000000
  0
VERTEX
  8
MERGEDLAYER-1
 10
119.179999
 20
108.642693
 30
0.000000
  0
SEQEND
  8
MERGEDLAYER-1
  0
POLYLINE
  8
MERGEDLAYER-1
 66
  1
 70
  0
 62
  7
 10
119.224406
 20
111.027323
 30
0.000000
  0
VERTEX
  8
MERGEDLAYER-1
 10
119.224406
 20
111.027323
 30
0.000000
  0
VERTEX
  8
MERGEDLAYER-1
 10
119.446384
 20
111.175442
 30
0.000000
  0
SEQEND
  8
MERGEDLAYER-1
  0
POLYLINE
  8
MERGEDLAYER-1
 66
  1
 70
  0
 62
  7
 10
119.224406
 20
108.437649
 30
0.000000
  0
VERTEX
  8
MERGEDLAYER-1
 10
119.224406
 20
108.437649
 30
0.000000
  0
VERTEX
  8
MERGEDLAYER-1
 10
119.446384
 20
108.289503
 30
0.000000
  0
SEQEND
  8
MERGEDLAYER-1
  0
POLYLINE
  8
MERGEDLAYER-1
 66
  1
 70
  0
 62
  7
 10
119.179999
 20
109.793640
 30
0.000000
  0
VERTEX
  8
MERGEDLAYER-1
 10
119.179999
 20
109.793640
 30
0.000000
  0
VERTEX
  8
MERGEDLAYER-1
 10
119.224406
 20
109.793640
 30
0.000000
  0
SEQEND
  8
MERGEDLAYER-1
  0
POLYLINE
  8
MERGEDLAYER-1
 66
  1
 70
  0
 62
  7
 10
119.179999
 20
108.642693
 30
0.000000
  0
VERTEX
  8
MERGEDLAYER-1
 10
119.179999
 20
108.642693
 30
0.000000
  0
VERTEX
  8
MERGEDLAYER-1
 10
119.224406
 20
108.642693
 30
0.000000
  0
SEQEND
  8
MERGEDLAYER-1
  0
POLYLINE
  8
MERGEDLAYER-1
 66
  1
 70
  1
 62
  7
  0
VERTEX
  8
MERGEDLAYER-1
 10
119.625190
 20
111.184998
 30
0.000000
  0
VERTEX
  8
MERGEDLAYER-1
 10
119.844699
 20
111.184998
 30
0.000000
  0
VERTEX
  8
MERGEDLAYER-1
 10
119.844699
 20
108.244073
 30
0.000000
  0
VERTEX
  8
MERGEDLAYER-1
 10
119.625190
 20
108.244073
 30
0.000000
  0
SEQEND
  8
MERGEDLAYER-1
  0
POLYLINE
  8
MERGEDLAYER-1
 66
  1
 70
  0
 62
  7
 10
119.926649
 20
111.224759
 30
0.000000
  0
VERTEX
  8
MERGEDLAYER-1
 10
119.926649
 20
111.224759
 30
0.000000
  0
VERTEX
  8
MERGEDLAYER-1
 10
120.052504
 20
111.224759
 30
0.000000
  0
SEQEND
  8
MERGEDLAYER-1
  0
POLYLINE
  8
MERGEDLAYER-1
 66
  1
 70
  0
 62
  7
 10
119.926649
 20
111.224765
 30
0.000000
  0
VERTEX
  8
MERGEDLAYER-1
 10
119.926649
 20
111.224765
 30
0.000000
  0
VERTEX
  8
MERGEDLAYER-1
 10
119.842746
 20
111.140862
 30
0.000000
  0
SEQEND
  8
MERGEDLAYER-1
  0
POLYLINE
  8
MERGEDLAYER-1
 66
  1
 70
  0
 62
  7
 10
119.842733
 20
111.140862
 30
0.000000
  0
VERTEX
  8
MERGEDLAYER-1
 10
119.842733
 20
111.140862
 30
0.000000
  0
VERTEX
  8
MERGEDLAYER-1
 10
119.842733
 20
108.288201
 30
0.000000
  0
SEQEND
  8
MERGEDLAYER-1
  0
POLYLINE
  8
MERGEDLAYER-1
 66
  1
 70
  0
 62
  7
 10
119.842746
 20
108.288201
 30
0.000000
  0
VERTEX
  8
MERGEDLAYER-1
 10
119.842746
 20
108.288201
 30
0.000000
  0
VERTEX
  8
MERGEDLAYER-1
 10
119.926649
 20
108.204291
 30
0.000000
  0
SEQEND
  8
MERGEDLAYER-1
  0
POLYLINE
  8
MERGEDLAYER-1
 66
  1
 70
  0
 62
  7
 10
119.926649
 20
108.204298
 30
0.000000
  0
VERTEX
  8
MERGEDLAYER-1
 10
119.926649
 20
108.204298
 30
0.000000
  0
VERTEX
  8
MERGEDLAYER-1
 10
120.052504
 20
108.204298
 30
0.000000
  0
SEQEND
  8
MERGEDLAYER-1
  0
POLYLINE
  8
MERGEDLAYER-1
 66
  1
 70
  0
 62
  7
 10
120.220310
 20
108.036492
 30
0.000000
  0
VERTEX
  8
MERGEDLAYER-1
 10
120.220310
 20
108.036492
 30
0.000000
  0
VERTEX
  8
MERGEDLAYER-1
 10
120.052504
 20
108.204291
 30
0.000000
  0
SEQEND
  8
MERGEDLAYER-1
  0
POLYLINE
  8
MERGEDLAYER-1
 66
  1
 70
  0
 62
  7
 10
120.220296
 20
108.036492
 30
0.000000
  0
VERTEX
  8
MERGEDLAYER-1
 10
120.220296
 20
108.036492
 30
0.000000
  0
VERTEX
  8
MERGEDLAYER-1
 10
120.262248
 20
108.036492
 30
0.000000
  0
SEQEND
  8
MERGEDLAYER-1
  0
POLYLINE
  8
MERGEDLAYER-1
 66
  1
 70
  0
 62
  7
 10
120.262248
 20
108.036492
 30
0.000000
  0
VERTEX
  8
MERGEDLAYER-1
 10
120.262248
 20
108.036492
 30
0.000000
  0
VERTEX
  8
MERGEDLAYER-1
 10
120.262248
 20
111.392571
 30
0.000000
  0
SEQEND
  8
MERGEDLAYER-1
  0
POLYLINE
  8
MERGEDLAYER-1
 66
  1
 70
  0
 62
  7
 10
120.262248
 20
111.392571
 30
0.000000
  0
VERTEX
  8
MERGEDLAYER-1
 10
120.262248
 20
111.392571
 30
0.000000
  0
VERTEX
  8
MERGEDLAYER-1
 10
120.220296
 20
111.392571
 30
0.000000
  0
SEQEND
  8
MERGEDLAYER-1
  0
POLYLINE
  8
MERGEDLAYER-1
 66
  1
 70
  0
 62
  7
 10
120.220296
 20
111.392571
 30
0.000000
  0
VERTEX
  8
MERGEDLAYER-1
 10
120.220296
 20
111.392571
 30
0.000000
  0
VERTEX
  8
MERGEDLAYER-1
 10
120.220296
 20
111.392571
 30
0.000000
  0
SEQEND
  8
MERGEDLAYER-1
  0
POLYLINE
  8
MERGEDLAYER-1
 66
  1
 70
  0
 62
  7
 10
120.052504
 20
111.224765
 30
0.000000
  0
VERTEX
  8
MERGEDLAYER-1
 10
120.052504
 20
111.224765
 30
0.000000
  0
VERTEX
  8
MERGEDLAYER-1
 10
120.220310
 20
111.392571
 30
0.000000
  0
SEQEND
  8
MERGEDLAYER-1
  0
POLYLINE
  8
MERGEDLAYER-1
 66
  1
 70
  0
 62
  7
 10
120.220296
 20
111.392571
 30
0.000000
  0
VERTEX
  8
MERGEDLAYER-1
 10
120.220296
 20
111.392571
 30
0.000000
  0
VERTEX
  8
MERGEDLAYER-1
 10
120.220296
 20
108.036492
 30
0.000000
  0
SEQEND
  8
MERGEDLAYER-1
  0
POLYLINE
  8
MERGEDLAYER-1
 66
  1
 70
  0
 62
  7
 10
120.220296
 20
108.036492
 30
0.000000
  0
VERTEX
  8
MERGEDLAYER-1
 10
120.220296
 20
108.036492
 30
0.000000
  0
VERTEX
  8
MERGEDLAYER-1
 10
120.220296
 20
108.036492
 30
0.000000
  0
SEQEND
  8
MERGEDLAYER-1
  0
POLYLINE
  8
MERGEDLAYER-1
 66
  1
 70
  0
 62
  7
 10
125.241414
 20
113.049900
 30
0.000000
  0
VERTEX
  8
MERGEDLAYER-1
 10
125.241414
 20
113.049900
 30
0.000000
  0
VERTEX
  8
MERGEDLAYER-1
 10
125.241414
 20
110.299900
 30
0.000000
  0
SEQEND
  8
MERGEDLAYER-1
  0
POLYLINE
  8
MERGEDLAYER-1
 66
  1
 70
  1
 62
  7
  0
VERTEX
  8
MERGEDLAYER-1
 10
125.241414
 20
109.799900
 30
0.000000
  0
VERTEX
  8
MERGEDLAYER-1
 10
124.574748
 20
110.911011
 30
0.000000
  0
VERTEX
  8
MERGEDLAYER-1
 10
125.241414
 20
110.911011
 30
0.000000
  0
VERTEX
  8
MERGEDLAYER-1
 10
125.908081
 20
110.911011
 30
0.000000
  0
VERTEX
  8
MERGEDLAYER-1
 10
125.241414
 20
109.799900
 30
0.000000
  0
SEQEND
  8
MERGEDLAYER-1
  0
POLYLINE
  8
MERGEDLAYER-1
 66
  1
 70
  0
 62
  7
 10
124.241414
 20
109.799900
 30
0.000000
  0
VERTEX
  8
MERGEDLAYER-1
 10
124.241414
 20
109.799900
 30
0.000000
  0
VERTEX
  8
MERGEDLAYER-1
 10
127.866414
 20
109.799900
 30
0.000000
  0
SEQEND
  8
MERGEDLAYER-1
  0
TEXT
  8
MERGEDLAYER-1
 62
  7
 10
36.762247
 20
99.772135
 30
0.000000
 40
3.166667
  1
SECTION
 72
  5
 11
56.984469
 21
99.772135
 31
0.000000
  0
TEXT
  8
MERGEDLAYER-1
 62
  7
 10
20.762247
 20
94.883247
 30
0.000000
 40
3.166667
  1
( BOTTOM OF CURTAIN )
 72
  5
 11
72.984469
 21
94.883247
 31
0.000000
  0
TEXT
  8
MERGEDLAYER-1
 62
  7
 10
69.873358
 20
107.994358
 30
0.000000
 40
2.333333
  1
INTERIOR
 72
  5
 11
85.873358
 21
107.994358
 31
0.000000
  0
TEXT
  8
MERGEDLAYER-1
 62
  7
 10
9.206691
 20
107.994358
 30
0.000000
 40
2.333333
  1
EXTERIOR
 72
  5
 11
26.095580
 21
107.994358
 31
0.000000
  0
TEXT
  8
MERGEDLAYER-1
 62
  7
 10
10.095580
 20
171.772135
 30
0.000000
 40
2.333333
  1
FULL WIDTH
 72
  5
 11
30.095580
 21
171.772135
 31
0.000000
  0
TEXT
  8
MERGEDLAYER-1
 62
  7
 10
10.095580
 20
168.216580
 30
0.000000
 40
2.333333
  1
0.050" (1.3mm)
 72
  5
 11
33.206691
 21
168.216580
 31
0.000000
  0
TEXT
  8
MERGEDLAYER-1
 62
  7
 10
10.095580
 20
164.661024
 30
0.000000
 40
2.333333
  1
CLEAR ANODIZED
 72
  5
 11
38.317802
 21
164.661024
 31
0.000000
  0
TEXT
  8
MERGEDLAYER-1
 62
  7
 10
10.095580
 20
161.105469
 30
0.000000
 40
2.333333
  1
ALUMINUM SLATS
 72
  5
 11
38.540025
 21
161.105469
 31
0.000000
  0
TEXT
  8
MERGEDLAYER-1
 62
  7
 10
10.095580
 20
145.994358
 30
0.000000
 40
2.333333
  1
BOTTOM BAR
 72
  5
 11
31.873358
 21
145.994358
 31
0.000000
  0
TEXT
  8
MERGEDLAYER-1
 62
  7
 10
10.095580
 20
142.438802
 30
0.000000
 40
2.333333
  1
CYLINDER
 72
  5
 11
26.762247
 21
142.438802
 31
0.000000
  0
TEXT
  8
MERGEDLAYER-1
 62
  7
 10
10.095580
 20
138.883247
 30
0.000000
 40
2.333333
  1
LOCK OUTSIDE
 72
  5
 11
34.317802
 21
138.883247
 31
0.000000
  0
TEXT
  8
MERGEDLAYER-1
 62
  7
 10
10.095580
 20
135.327691
 30
0.000000
 40
2.333333
  1
+ 2x OBLONG
 72
  5
 11
31.428914
 21
135.327691
 31
0.000000
  0
TEXT
  8
MERGEDLAYER-1
 62
  7
 10
10.095580
 20
131.772135
 30
0.000000
 40
2.333333
  1
RECESSED
 72
  5
 11
27.873358
 21
131.772135
 31
0.000000
  0
TEXT
  8
MERGEDLAYER-1
 62
  7
 10
10.095580
 20
128.216580
 30
0.000000
 40
2.333333
  1
HANDLES
 72
  5
 11
25.651136
 21
128.216580
 31
0.000000
  0
POLYLINE
  8
MERGEDLAYER-1
 66
  1
 70
  0
 62
  7
 10
46.963576
 20
165.540731
 30
0.000000
  0
VERTEX
  8
MERGEDLAYER-1
 10
46.963576
 20
165.540731
 30
0.000000
  0
VERTEX
  8
MERGEDLAYER-1
 10
46.831780
 20
161.292982
 30
0.000000
  0
VERTEX
  8
MERGEDLAYER-1
 10
47.148146
 20
157.561035
 30
0.000000
  0
SEQEND
  8
MERGEDLAYER-1
  0
POLYLINE
  8
MERGEDLAYER-1
 66
  1
 70
  0
 62
  7
 10
46.878370
 20
169.303331
 30
0.000000
  0
VERTEX
  8
MERGEDLAYER-1
 10
46.878370
 20
169.303331
 30
0.000000
  0
VERTEX
  8
MERGEDLAYER-1
 10
46.378147
 20
165.029107
 30
0.000000
  0
VERTEX
  8
MERGEDLAYER-1
 10
46.353980
 20
160.681613
 30
0.000000
  0
VERTEX
  8
MERGEDLAYER-1
 10
46.756059
 20
156.352661
 30
0.000000
  0
VERTEX
  8
MERGEDLAYER-1
 10
46.979540
 20
155.188395
 30
0.000000
  0
SEQEND
  8
MERGEDLAYER-1
  0
POLYLINE
  8
MERGEDLAYER-1
 66
  1
 70
  0
 62
  7
 10
47.626075
 20
169.290771
 30
0.000000
  0
VERTEX
  8
MERGEDLAYER-1
 10
47.626075
 20
169.290771
 30
0.000000
  0
VERTEX
  8
MERGEDLAYER-1
 10
47.426405
 20
168.987630
 30
0.000000
  0
VERTEX
  8
MERGEDLAYER-1
 10
47.423282
 20
168.604099
 30
0.000000
  0
VERTEX
  8
MERGEDLAYER-1
 10
47.567166
 20
168.248562
 30
0.000000
  0
VERTEX
  8
MERGEDLAYER-1
 10
47.836155
 20
167.975165
 30
0.000000
  0
VERTEX
  8
MERGEDLAYER-1
 10
48.189290
 20
167.825507
 30
0.000000
  0
VERTEX
  8
MERGEDLAYER-1
 10
48.572818
 20
167.822388
 30
0.000000
  0
VERTEX
  8
MERGEDLAYER-1
 10
48.928348
 20
167.966268
 30
0.000000
  0
VERTEX
  8
MERGEDLAYER-1
 10
49.201755
 20
168.235257
 30
0.000000
  0
VERTEX
  8
MERGEDLAYER-1
 10
49.351407
 20
168.588392
 30
0.000000
  0
VERTEX
  8
MERGEDLAYER-1
 10
49.354533
 20
168.971924
 30
0.000000
  0
VERTEX
  8
MERGEDLAYER-1
 10
49.210646
 20
169.327447
 30
0.000000
  0
VERTEX
  8
MERGEDLAYER-1
 10
49.235586
 20
169.313802
 30
0.000000
  0
SEQEND
  8
MERGEDLAYER-1
  0
POLYLINE
  8
MERGEDLAYER-1
 66
  1
 70
  0
 62
  7
 10
48.639004
 20
167.308431
 30
0.000000
  0
VERTEX
  8
MERGEDLAYER-1
 10
48.639004
 20
167.308431
 30
0.000000
  0
VERTEX
  8
MERGEDLAYER-1
 10
49.173472
 20
167.543159
 30
0.000000
  0
VERTEX
  8
MERGEDLAYER-1
 10
49.642775
 20
167.937500
 30
0.000000
  0
VERTEX
  8
MERGEDLAYER-1
 10
49.925449
 20
168.481418
 30
0.000000
  0
VERTEX
  8
MERGEDLAYER-1
 10
49.988322
 20
168.478312
 30
0.000000
  0
SEQEND
  8
MERGEDLAYER-1
  0
POLYLINE
  8
MERGEDLAYER-1
 66
  1
 70
  0
 62
  7
 10
47.557665
 20
169.495700
 30
0.000000
  0
VERTEX
  8
MERGEDLAYER-1
 10
47.557665
 20
169.495700
 30
0.000000
  0
VERTEX
  8
MERGEDLAYER-1
 10
47.163917
 20
169.495497
 30
0.000000
  0
SEQEND
  8
MERGEDLAYER-1
  0
POLYLINE
  8
MERGEDLAYER-1
 66
  1
 70
  0
 62
  7
 10
47.163917
 20
169.495497
 30
0.000000
  0
VERTEX
  8
MERGEDLAYER-1
 10
47.163917
 20
169.495497
 30
0.000000
  0
VERTEX
  8
MERGEDLAYER-1
 10
46.897366
 20
169.455811
 30
0.000000
  0
VERTEX
  8
MERGEDLAYER-1
 10
46.879639
 20
169.303141
 30
0.000000
  0
SEQEND
  8
MERGEDLAYER-1
  0
POLYLINE
  8
MERGEDLAYER-1
 66
  1
 70
  0
 62
  7
 10
50.092373
 20
169.058960
 30
0.000000
  0
VERTEX
  8
MERGEDLAYER-1
 10
50.092373
 20
169.058960
 30
0.000000
  0
VERTEX
  8
MERGEDLAYER-1
 10
49.982480
 20
169.335558
 30
0.000000
  0
VERTEX
  8
MERGEDLAYER-1
 10
49.779880
 20
169.453423
 30
0.000000
  0
VERTEX
  8
MERGEDLAYER-1
 10
49.787882
 20
169.406169
 30
0.000000
  0
SEQEND
  8
MERGEDLAYER-1
  0
POLYLINE
  8
MERGEDLAYER-1
 66
  1
 70
  0
 62
  7
 10
49.990177
 20
168.478000
 30
0.000000
  0
VERTEX
  8
MERGEDLAYER-1
 10
49.990177
 20
168.478000
 30
0.000000
  0
VERTEX
  8
MERGEDLAYER-1
 10
50.092570
 20
169.058906
 30
0.000000
  0
SEQEND
  8
MERGEDLAYER-1
  0
POLYLINE
  8
MERGEDLAYER-1
 66
  1
 70
  0
 62
  7
 10
49.787882
 20
169.406169
 30
0.000000
  0
VERTEX
  8
MERGEDLAYER-1
 10
49.787882
 20
169.406169
 30
0.000000
  0
VERTEX
  8
MERGEDLAYER-1
 10
49.281141
 20
169.406169
 30
0.000000
  0
SEQEND
  8
MERGEDLAYER-1
  0
POLYLINE
  8
MERGEDLAYER-1
 66
  1
 70
  0
 62
  7
 10
49.281141
 20
169.405151
 30
0.000000
  0
VERTEX
  8
MERGEDLAYER-1
 10
49.281141
 20
169.405151
 30
0.000000
  0
VERTEX
  8
MERGEDLAYER-1
 10
49.232313
 20
169.311551
 30
0.000000
  0
SEQEND
  8
MERGEDLAYER-1
  0
POLYLINE
  8
MERGEDLAYER-1
 66
  1
 70
  0
 62
  7
 10
47.627150
 20
169.290025
 30
0.000000
  0
VERTEX
  8
MERGEDLAYER-1
 10
47.627150
 20
169.290025
 30
0.000000
  0
VERTEX
  8
MERGEDLAYER-1
 10
47.532667
 20
169.496989
 30
0.000000
  0
SEQEND
  8
MERGEDLAYER-1
  0
POLYLINE
  8
MERGEDLAYER-1
 66
  1
 70
  0
 62
  7
 10
48.639347
 20
167.311306
 30
0.000000
  0
VERTEX
  8
MERGEDLAYER-1
 10
48.639347
 20
167.311306
 30
0.000000
  0
VERTEX
  8
MERGEDLAYER-1
 10
47.891090
 20
167.143039
 30
0.000000
  0
VERTEX
  8
MERGEDLAYER-1
 10
47.329488
 20
166.674154
 30
0.000000
  0
VERTEX
  8
MERGEDLAYER-1
 10
46.990072
 20
166.026042
 30
0.000000
  0
VERTEX
  8
MERGEDLAYER-1
 10
46.966210
 20
165.540554
 30
0.000000
  0
SEQEND
  8
MERGEDLAYER-1
  0
POLYLINE
  8
MERGEDLAYER-1
 66
  1
 70
  0
 62
  7
 10
48.917813
 20
153.933974
 30
0.000000
  0
VERTEX
  8
MERGEDLAYER-1
 10
48.917813
 20
153.933974
 30
0.000000
  0
VERTEX
  8
MERGEDLAYER-1
 10
48.785282
 20
154.346544
 30
0.000000
  0
VERTEX
  8
MERGEDLAYER-1
 10
48.470534
 20
154.544542
 30
0.000000
  0
VERTEX
  8
MERGEDLAYER-1
 10
48.107968
 20
154.461982
 30
0.000000
  0
VERTEX
  8
MERGEDLAYER-1
 10
47.909973
 20
154.147244
 30
0.000000
  0
VERTEX
  8
MERGEDLAYER-1
 10
47.992533
 20
153.784668
 30
0.000000
  0
VERTEX
  8
MERGEDLAYER-1
 10
48.271427
 20
153.559543
 30
0.000000
  0
SEQEND
  8
MERGEDLAYER-1
  0
POLYLINE
  8
MERGEDLAYER-1
 66
  1
 70
  0
 62
  7
 10
49.269033
 20
153.577772
 30
0.000000
  0
VERTEX
  8
MERGEDLAYER-1
 10
49.269033
 20
153.577772
 30
0.000000
  0
VERTEX
  8
MERGEDLAYER-1
 10
49.323398
 20
153.978787
 30
0.000000
  0
VERTEX
  8
MERGEDLAYER-1
 10
49.285495
 20
154.343004
 30
0.000000
  0
VERTEX
  8
MERGEDLAYER-1
 10
49.111094
 20
154.664998
 30
0.000000
  0
VERTEX
  8
MERGEDLAYER-1
 10
48.826742
 20
154.895738
 30
0.000000
  0
VERTEX
  8
MERGEDLAYER-1
 10
48.475735
 20
155.000095
 30
0.000000
  0
VERTEX
  8
MERGEDLAYER-1
 10
48.315860
 20
154.946031
 30
0.000000
  0
SEQEND
  8
MERGEDLAYER-1
  0
POLYLINE
  8
MERGEDLAYER-1
 66
  1
 70
  0
 62
  7
 10
47.700975
 20
154.595486
 30
0.000000
  0
VERTEX
  8
MERGEDLAYER-1
 10
47.700975
 20
154.595486
 30
0.000000
  0
VERTEX
  8
MERGEDLAYER-1
 10
47.485233
 20
154.318956
 30
0.000000
  0
VERTEX
  8
MERGEDLAYER-1
 10
47.457069
 20
153.953844
 30
0.000000
  0
VERTEX
  8
MERGEDLAYER-1
 10
47.570770
 20
153.605754
 30
0.000000
  0
VERTEX
  8
MERGEDLAYER-1
 10
47.809024
 20
153.327664
 30
0.000000
  0
VERTEX
  8
MERGEDLAYER-1
 10
48.135562
 20
153.161933
 30
0.000000
  0
VERTEX
  8
MERGEDLAYER-1
 10
48.389737
 20
153.078369
 30
0.000000
  0
SEQEND
  8
MERGEDLAYER-1
  0
POLYLINE
  8
MERGEDLAYER-1
 66
  1
 70
  0
 62
  7
 10
48.929091
 20
153.861559
 30
0.000000
  0
VERTEX
  8
MERGEDLAYER-1
 10
48.929091
 20
153.861559
 30
0.000000
  0
VERTEX
  8
MERGEDLAYER-1
 10
49.089688
 20
153.574354
 30
0.000000
  0
SEQEND
  8
MERGEDLAYER-1
  0
POLYLINE
  8
MERGEDLAYER-1
 66
  1
 70
  0
 62
  7
 10
48.326162
 20
153.513563
 30
0.000000
  0
VERTEX
  8
MERGEDLAYER-1
 10
48.326162
 20
153.513563
 30
0.000000
  0
VERTEX
  8
MERGEDLAYER-1
 10
48.485294
 20
153.232205
 30
0.000000
  0
SEQEND
  8
MERGEDLAYER-1
  0
POLYLINE
  8
MERGEDLAYER-1
 66
  1
 70
  0
 62
  7
 10
49.089688
 20
153.574341
 30
0.000000
  0
VERTEX
  8
MERGEDLAYER-1
 10
49.089688
 20
153.574341
 30
0.000000
  0
VERTEX
  8
MERGEDLAYER-1
 10
49.270742
 20
153.576836
 30
0.000000
  0
SEQEND
  8
MERGEDLAYER-1
  0
POLYLINE
  8
MERGEDLAYER-1
 66
  1
 70
  0
 62
  7
 10
48.389737
 20
153.078247
 30
0.000000
  0
VERTEX
  8
MERGEDLAYER-1
 10
48.389737
 20
153.078247
 30
0.000000
  0
VERTEX
  8
MERGEDLAYER-1
 10
48.484904
 20
153.231974
 30
0.000000
  0
SEQEND
  8
MERGEDLAYER-1
  0
POLYLINE
  8
MERGEDLAYER-1
 66
  1
 70
  0
 62
  7
 10
48.918593
 20
153.930474
 30
0.000000
  0
VERTEX
  8
MERGEDLAYER-1
 10
48.918593
 20
153.930474
 30
0.000000
  0
VERTEX
  8
MERGEDLAYER-1
 10
48.930118
 20
153.862128
 30
0.000000
  0
SEQEND
  8
MERGEDLAYER-1
  0
POLYLINE
  8
MERGEDLAYER-1
 66
  1
 70
  0
 62
  7
 10
48.325528
 20
153.513224
 30
0.000000
  0
VERTEX
  8
MERGEDLAYER-1
 10
48.325528
 20
153.513224
 30
0.000000
  0
VERTEX
  8
MERGEDLAYER-1
 10
48.271328
 20
153.559272
 30
0.000000
  0
SEQEND
  8
MERGEDLAYER-1
  0
POLYLINE
  8
MERGEDLAYER-1
 66
  1
 70
  0
 62
  7
 10
47.711426
 20
154.711005
 30
0.000000
  0
VERTEX
  8
MERGEDLAYER-1
 10
47.711426
 20
154.711005
 30
0.000000
  0
VERTEX
  8
MERGEDLAYER-1
 10
47.620653
 20
154.875515
 30
0.000000
  0
SEQEND
  8
MERGEDLAYER-1
  0
POLYLINE
  8
MERGEDLAYER-1
 66
  1
 70
  0
 62
  7
 10
47.529541
 20
154.926581
 30
0.000000
  0
VERTEX
  8
MERGEDLAYER-1
 10
47.529541
 20
154.926581
 30
0.000000
  0
VERTEX
  8
MERGEDLAYER-1
 10
47.288917
 20
154.926581
 30
0.000000
  0
SEQEND
  8
MERGEDLAYER-1
  0
POLYLINE
  8
MERGEDLAYER-1
 66
  1
 70
  0
 62
  7
 10
47.699999
 20
154.596219
 30
0.000000
  0
VERTEX
  8
MERGEDLAYER-1
 10
47.699999
 20
154.596219
 30
0.000000
  0
VERTEX
  8
MERGEDLAYER-1
 10
47.709181
 20
154.709757
 30
0.000000
  0
SEQEND
  8
MERGEDLAYER-1
  0
POLYLINE
  8
MERGEDLAYER-1
 66
  1
 70
  0
 62
  7
 10
47.620460
 20
154.875407
 30
0.000000
  0
VERTEX
  8
MERGEDLAYER-1
 10
47.620460
 20
154.875407
 30
0.000000
  0
VERTEX
  8
MERGEDLAYER-1
 10
47.529541
 20
154.928711
 30
0.000000
  0
SEQEND
  8
MERGEDLAYER-1
  0
POLYLINE
  8
MERGEDLAYER-1
 66
  1
 70
  0
 62
  7
 10
46.980760
 20
155.188585
 30
0.000000
  0
VERTEX
  8
MERGEDLAYER-1
 10
46.980760
 20
155.188585
 30
0.000000
  0
VERTEX
  8
MERGEDLAYER-1
 10
47.057794
 20
155.035929
 30
0.000000
  0
VERTEX
  8
MERGEDLAYER-1
 10
47.288917
 20
154.928087
 30
0.000000
  0
SEQEND
  8
MERGEDLAYER-1
  0
POLYLINE
  8
MERGEDLAYER-1
 66
  1
 70
  0
 62
  7
 10
47.147997
 20
157.561008
 30
0.000000
  0
VERTEX
  8
MERGEDLAYER-1
 10
47.147997
 20
157.561008
 30
0.000000
  0
VERTEX
  8
MERGEDLAYER-1
 10
47.321665
 20
156.914429
 30
0.000000
  0
VERTEX
  8
MERGEDLAYER-1
 10
47.794878
 20
156.356472
 30
0.000000
  0
VERTEX
  8
MERGEDLAYER-1
 10
48.220791
 20
156.074463
 30
0.000000
  0
SEQEND
  8
MERGEDLAYER-1
  0
POLYLINE
  8
MERGEDLAYER-1
 66
  1
 70
  0
 62
  7
 10
48.212880
 20
154.994697
 30
0.000000
  0
VERTEX
  8
MERGEDLAYER-1
 10
48.212880
 20
154.994697
 30
0.000000
  0
VERTEX
  8
MERGEDLAYER-1
 10
48.316203
 20
154.943115
 30
0.000000
  0
SEQEND
  8
MERGEDLAYER-1
  0
POLYLINE
  8
MERGEDLAYER-1
 66
  1
 70
  0
 62
  7
 10
48.124898
 20
155.262329
 30
0.000000
  0
VERTEX
  8
MERGEDLAYER-1
 10
48.124898
 20
155.262329
 30
0.000000
  0
VERTEX
  8
MERGEDLAYER-1
 10
48.122409
 20
155.156915
 30
0.000000
  0
SEQEND
  8
MERGEDLAYER-1
  0
POLYLINE
  8
MERGEDLAYER-1
 66
  1
 70
  0
 62
  7
 10
48.212880
 20
154.994710
 30
0.000000
  0
VERTEX
  8
MERGEDLAYER-1
 10
48.212880
 20
154.994710
 30
0.000000
  0
VERTEX
  8
MERGEDLAYER-1
 10
48.121724
 20
155.156535
 30
0.000000
  0
SEQEND
  8
MERGEDLAYER-1
  0
POLYLINE
  8
MERGEDLAYER-1
 66
  1
 70
  0
 62
  7
 10
48.125142
 20
155.262153
 30
0.000000
  0
VERTEX
  8
MERGEDLAYER-1
 10
48.125142
 20
155.262153
 30
0.000000
  0
VERTEX
  8
MERGEDLAYER-1
 10
48.352824
 20
155.625027
 30
0.000000
  0
SEQEND
  8
MERGEDLAYER-1
  0
POLYLINE
  8
MERGEDLAYER-1
 66
  1
 70
  0
 62
  7
 10
48.353604
 20
155.624498
 30
0.000000
  0
VERTEX
  8
MERGEDLAYER-1
 10
48.353604
 20
155.624498
 30
0.000000
  0
VERTEX
  8
MERGEDLAYER-1
 10
48.343526
 20
155.910319
 30
0.000000
  0
VERTEX
  8
MERGEDLAYER-1
 10
48.204990
 20
156.105292
 30
0.000000
  0
VERTEX
  8
MERGEDLAYER-1
 10
48.220547
 20
156.073975
 30
0.000000
  0
SEQEND
  8
MERGEDLAYER-1
  0
POLYLINE
  8
MERGEDLAYER-1
 66
  1
 70
  0
 62
  7
 10
46.963576
 20
180.230686
 30
0.000000
  0
VERTEX
  8
MERGEDLAYER-1
 10
46.963576
 20
180.230686
 30
0.000000
  0
VERTEX
  8
MERGEDLAYER-1
 10
46.831780
 20
175.982964
 30
0.000000
  0
VERTEX
  8
MERGEDLAYER-1
 10
47.148146
 20
172.251072
 30
0.000000
  0
SEQEND
  8
MERGEDLAYER-1
  0
POLYLINE
  8
MERGEDLAYER-1
 66
  1
 70
  0
 62
  7
 10
46.878370
 20
183.993286
 30
0.000000
  0
VERTEX
  8
MERGEDLAYER-1
 10
46.878370
 20
183.993286
 30
0.000000
  0
VERTEX
  8
MERGEDLAYER-1
 10
46.378147
 20
179.719089
 30
0.000000
  0
VERTEX
  8
MERGEDLAYER-1
 10
46.353980
 20
175.371582
 30
0.000000
  0
VERTEX
  8
MERGEDLAYER-1
 10
46.756059
 20
171.042643
 30
0.000000
  0
VERTEX
  8
MERGEDLAYER-1
 10
46.979540
 20
169.878445
 30
0.000000
  0
SEQEND
  8
MERGEDLAYER-1
  0
POLYLINE
  8
MERGEDLAYER-1
 66
  1
 70
  0
 62
  7
 10
47.626075
 20
183.980726
 30
0.000000
  0
VERTEX
  8
MERGEDLAYER-1
 10
47.626075
 20
183.980726
 30
0.000000
  0
VERTEX
  8
MERGEDLAYER-1
 10
47.426405
 20
183.677585
 30
0.000000
  0
VERTEX
  8
MERGEDLAYER-1
 10
47.423282
 20
183.294054
 30
0.000000
  0
VERTEX
  8
MERGEDLAYER-1
 10
47.567166
 20
182.938531
 30
0.000000
  0
VERTEX
  8
MERGEDLAYER-1
 10
47.836155
 20
182.665120
 30
0.000000
  0
VERTEX
  8
MERGEDLAYER-1
 10
48.189290
 20
182.515476
 30
0.000000
  0
VERTEX
  8
MERGEDLAYER-1
 10
48.572818
 20
182.512343
 30
0.000000
  0
VERTEX
  8
MERGEDLAYER-1
 10
48.928348
 20
182.656223
 30
0.000000
  0
VERTEX
  8
MERGEDLAYER-1
 10
49.201755
 20
182.925212
 30
0.000000
  0
VERTEX
  8
MERGEDLAYER-1
 10
49.351407
 20
183.278361
 30
0.000000
  0
VERTEX
  8
MERGEDLAYER-1
 10
49.354533
 20
183.661892
 30
0.000000
  0
VERTEX
  8
MERGEDLAYER-1
 10
49.210646
 20
184.017415
 30
0.000000
  0
VERTEX
  8
MERGEDLAYER-1
 10
49.235586
 20
184.003757
 30
0.000000
  0
SEQEND
  8
MERGEDLAYER-1
  0
POLYLINE
  8
MERGEDLAYER-1
 66
  1
 70
  0
 62
  7
 10
48.639004
 20
181.998386
 30
0.000000
  0
VERTEX
  8
MERGEDLAYER-1
 10
48.639004
 20
181.998386
 30
0.000000
  0
VERTEX
  8
MERGEDLAYER-1
 10
49.173472
 20
182.233114
 30
0.000000
  0
VERTEX
  8
MERGEDLAYER-1
 10
49.642775
 20
182.627455
 30
0.000000
  0
VERTEX
  8
MERGEDLAYER-1
 10
49.925449
 20
183.171373
 30
0.000000
  0
VERTEX
  8
MERGEDLAYER-1
 10
49.988322
 20
183.168267
 30
0.000000
  0
SEQEND
  8
MERGEDLAYER-1
  0
POLYLINE
  8
MERGEDLAYER-1
 66
  1
 70
  0
 62
  7
 10
47.557665
 20
184.185655
 30
0.000000
  0
VERTEX
  8
MERGEDLAYER-1
 10
47.557665
 20
184.185655
 30
0.000000
  0
VERTEX
  8
MERGEDLAYER-1
 10
47.163917
 20
184.185465
 30
0.000000
  0
SEQEND
  8
MERGEDLAYER-1
  0
POLYLINE
  8
MERGEDLAYER-1
 66
  1
 70
  0
 62
  7
 10
47.163917
 20
184.185452
 30
0.000000
  0
VERTEX
  8
MERGEDLAYER-1
 10
47.163917
 20
184.185452
 30
0.000000
  0
VERTEX
  8
MERGEDLAYER-1
 10
46.897366
 20
184.145752
 30
0.000000
  0
VERTEX
  8
MERGEDLAYER-1
 10
46.879639
 20
183.993083
 30
0.000000
  0
SEQEND
  8
MERGEDLAYER-1
  0
POLYLINE
  8
MERGEDLAYER-1
 66
  1
 70
  0
 62
  7
 10
50.092373
 20
183.748901
 30
0.000000
  0
VERTEX
  8
MERGEDLAYER-1
 10
50.092373
 20
183.748901
 30
0.000000
  0
VERTEX
  8
MERGEDLAYER-1
 10
49.982480
 20
184.025499
 30
0.000000
  0
VERTEX
  8
MERGEDLAYER-1
 10
49.779880
 20
184.143365
 30
0.000000
  0
VERTEX
  8
MERGEDLAYER-1
 10
49.787882
 20
184.096110
 30
0.000000
  0
SEQEND
  8
MERGEDLAYER-1
  0
POLYLINE
  8
MERGEDLAYER-1
 66
  1
 70
  0
 62
  7
 10
49.990177
 20
183.167955
 30
0.000000
  0
VERTEX
  8
MERGEDLAYER-1
 10
49.990177
 20
183.167955
 30
0.000000
  0
VERTEX
  8
MERGEDLAYER-1
 10
50.092570
 20
183.748874
 30
0.000000
  0
SEQEND
  8
MERGEDLAYER-1
  0
POLYLINE
  8
MERGEDLAYER-1
 66
  1
 70
  0
 62
  7
 10
49.787882
 20
184.096124
 30
0.000000
  0
VERTEX
  8
MERGEDLAYER-1
 10
49.787882
 20
184.096124
 30
0.000000
  0
VERTEX
  8
MERGEDLAYER-1
 10
49.281141
 20
184.096124
 30
0.000000
  0
SEQEND
  8
MERGEDLAYER-1
  0
POLYLINE
  8
MERGEDLAYER-1
 66
  1
 70
  0
 62
  7
 10
49.281141
 20
184.095106
 30
0.000000
  0
VERTEX
  8
MERGEDLAYER-1
 10
49.281141
 20
184.095106
 30
0.000000
  0
VERTEX
  8
MERGEDLAYER-1
 10
49.232313
 20
184.001492
 30
0.000000
  0
SEQEND
  8
MERGEDLAYER-1
  0
POLYLINE
  8
MERGEDLAYER-1
 66
  1
 70
  0
 62
  7
 10
47.627150
 20
183.979967
 30
0.000000
  0
VERTEX
  8
MERGEDLAYER-1
 10
47.627150
 20
183.979967
 30
0.000000
  0
VERTEX
  8
MERGEDLAYER-1
 10
47.532667
 20
184.186930
 30
0.000000
  0
SEQEND
  8
MERGEDLAYER-1
  0
POLYLINE
  8
MERGEDLAYER-1
 66
  1
 70
  0
 62
  7
 10
48.639347
 20
182.001275
 30
0.000000
  0
VERTEX
  8
MERGEDLAYER-1
 10
48.639347
 20
182.001275
 30
0.000000
  0
VERTEX
  8
MERGEDLAYER-1
 10
47.891090
 20
181.832994
 30
0.000000
  0
VERTEX
  8
MERGEDLAYER-1
 10
47.329488
 20
181.364109
 30
0.000000
  0
VERTEX
  8
MERGEDLAYER-1
 10
46.990072
 20
180.716010
 30
0.000000
  0
VERTEX
  8
MERGEDLAYER-1
 10
46.966210
 20
180.230509
 30
0.000000
  0
SEQEND
  8
MERGEDLAYER-1
  0
POLYLINE
  8
MERGEDLAYER-1
 66
  1
 70
  0
 62
  7
 10
48.917813
 20
168.624023
 30
0.000000
  0
VERTEX
  8
MERGEDLAYER-1
 10
48.917813
 20
168.624023
 30
0.000000
  0
VERTEX
  8
MERGEDLAYER-1
 10
48.785282
 20
169.036594
 30
0.000000
  0
VERTEX
  8
MERGEDLAYER-1
 10
48.470534
 20
169.234592
 30
0.000000
  0
VERTEX
  8
MERGEDLAYER-1
 10
48.107968
 20
169.152032
 30
0.000000
  0
VERTEX
  8
MERGEDLAYER-1
 10
47.909973
 20
168.837294
 30
0.000000
  0
VERTEX
  8
MERGEDLAYER-1
 10
47.992533
 20
168.474718
 30
0.000000
  0
VERTEX
  8
MERGEDLAYER-1
 10
48.271427
 20
168.249593
 30
0.000000
  0
SEQEND
  8
MERGEDLAYER-1
  0
POLYLINE
  8
MERGEDLAYER-1
 66
  1
 70
  0
 62
  7
 10
49.269033
 20
168.267822
 30
0.000000
  0
VERTEX
  8
MERGEDLAYER-1
 10
49.269033
 20
168.267822
 30
0.000000
  0
VERTEX
  8
MERGEDLAYER-1
 10
49.323398
 20
168.668823
 30
0.000000
  0
VERTEX
  8
MERGEDLAYER-1
 10
49.285495
 20
169.033054
 30
0.000000
  0
VERTEX
  8
MERGEDLAYER-1
 10
49.111094
 20
169.355048
 30
0.000000
  0
VERTEX
  8
MERGEDLAYER-1
 10
48.826742
 20
169.585788
 30
0.000000
  0
VERTEX
  8
MERGEDLAYER-1
 10
48.475735
 20
169.690158
 30
0.000000
  0
VERTEX
  8
MERGEDLAYER-1
 10
48.315860
 20
169.636081
 30
0.000000
  0
SEQEND
  8
MERGEDLAYER-1
  0
POLYLINE
  8
MERGEDLAYER-1
 66
  1
 70
  0
 62
  7
 10
47.700975
 20
169.285536
 30
0.000000
  0
VERTEX
  8
MERGEDLAYER-1
 10
47.700975
 20
169.285536
 30
0.000000
  0
VERTEX
  8
MERGEDLAYER-1
 10
47.485233
 20
169.009006
 30
0.000000
  0
VERTEX
  8
MERGEDLAYER-1
 10
47.457069
 20
168.643894
 30
0.000000
  0
VERTEX
  8
MERGEDLAYER-1
 10
47.570770
 20
168.295803
 30
0.000000
  0
VERTEX
  8
MERGEDLAYER-1
 10
47.809024
 20
168.017727
 30
0.000000
  0
VERTEX
  8
MERGEDLAYER-1
 10
48.135562
 20
167.851983
 30
0.000000
  0
VERTEX
  8
MERGEDLAYER-1
 10
48.389737
 20
167.768433
 30
0.000000
  0
SEQEND
  8
MERGEDLAYER-1
  0
POLYLINE
  8
MERGEDLAYER-1
 66
  1
 70
  0
 62
  7
 10
48.929091
 20
168.551609
 30
0.000000
  0
VERTEX
  8
MERGEDLAYER-1
 10
48.929091
 20
168.551609
 30
0.000000
  0
VERTEX
  8
MERGEDLAYER-1
 10
49.089688
 20
168.264404
 30
0.000000
  0
SEQEND
  8
MERGEDLAYER-1
  0
POLYLINE
  8
MERGEDLAYER-1
 66
  1
 70
  0
 62
  7
 10
48.326162
 20
168.203613
 30
0.000000
  0
VERTEX
  8
MERGEDLAYER-1
 10
48.326162
 20
168.203613
 30
0.000000
  0
VERTEX
  8
MERGEDLAYER-1
 10
48.485294
 20
167.922255
 30
0.000000
  0
SEQEND
  8
MERGEDLAYER-1
  0
POLYLINE
  8
MERGEDLAYER-1
 66
  1
 70
  0
 62
  7
 10
49.089688
 20
168.264391
 30
0.000000
  0
VERTEX
  8
MERGEDLAYER-1
 10
49.089688
 20
168.264391
 30
0.000000
  0
VERTEX
  8
MERGEDLAYER-1
 10
49.270742
 20
168.266886
 30
0.000000
  0
SEQEND
  8
MERGEDLAYER-1
  0
POLYLINE
  8
MERGEDLAYER-1
 66
  1
 70
  0
 62
  7
 10
48.389737
 20
167.768297
 30
0.000000
  0
VERTEX
  8
MERGEDLAYER-1
 10
48.389737
 20
167.768297
 30
0.000000
  0
VERTEX
  8
MERGEDLAYER-1
 10
48.484904
 20
167.922038
 30
0.000000
  0
SEQEND
  8
MERGEDLAYER-1
  0
POLYLINE
  8
MERGEDLAYER-1
 66
  1
 70
  0
 62
  7
 10
48.918593
 20
168.620524
 30
0.000000
  0
VERTEX
  8
MERGEDLAYER-1
 10
48.918593
 20
168.620524
 30
0.000000
  0
VERTEX
  8
MERGEDLAYER-1
 10
48.930118
 20
168.552178
 30
0.000000
  0
SEQEND
  8
MERGEDLAYER-1
  0
POLYLINE
  8
MERGEDLAYER-1
 66
  1
 70
  0
 62
  7
 10
48.325528
 20
168.203261
 30
0.000000
  0
VERTEX
  8
MERGEDLAYER-1
 10
48.325528
 20
168.203261
 30
0.000000
  0
VERTEX
  8
MERGEDLAYER-1
 10
48.271328
 20
168.249308
 30
0.000000
  0
SEQEND
  8
MERGEDLAYER-1
  0
POLYLINE
  8
MERGEDLAYER-1
 66
  1
 70
  0
 62
  7
 10
47.711426
 20
169.401055
 30
0.000000
  0
VERTEX
  8
MERGEDLAYER-1
 10
47.711426
 20
169.401055
 30
0.000000
  0
VERTEX
  8
MERGEDLAYER-1
 10
47.620653
 20
169.565565
 30
0.000000
  0
SEQEND
  8
MERGEDLAYER-1
  0
POLYLINE
  8
MERGEDLAYER-1
 66
  1
 70
  0
 62
  7
 10
47.529541
 20
169.616631
 30
0.000000
  0
VERTEX
  8
MERGEDLAYER-1
 10
47.529541
 20
169.616631
 30
0.000000
  0
VERTEX
  8
MERGEDLAYER-1
 10
47.288917
 20
169.616631
 30
0.000000
  0
SEQEND
  8
MERGEDLAYER-1
  0
POLYLINE
  8
MERGEDLAYER-1
 66
  1
 70
  0
 62
  7
 10
47.699999
 20
169.286268
 30
0.000000
  0
VERTEX
  8
MERGEDLAYER-1
 10
47.699999
 20
169.286268
 30
0.000000
  0
VERTEX
  8
MERGEDLAYER-1
 10
47.709181
 20
169.399821
 30
0.000000
  0
SEQEND
  8
MERGEDLAYER-1
  0
POLYLINE
  8
MERGEDLAYER-1
 66
  1
 70
  0
 62
  7
 10
47.620460
 20
169.565457
 30
0.000000
  0
VERTEX
  8
MERGEDLAYER-1
 10
47.620460
 20
169.565457
 30
0.000000
  0
VERTEX
  8
MERGEDLAYER-1
 10
47.529541
 20
169.618761
 30
0.000000
  0
SEQEND
  8
MERGEDLAYER-1
  0
POLYLINE
  8
MERGEDLAYER-1
 66
  1
 70
  0
 62
  7
 10
46.980760
 20
169.878635
 30
0.000000
  0
VERTEX
  8
MERGEDLAYER-1
 10
46.980760
 20
169.878635
 30
0.000000
  0
VERTEX
  8
MERGEDLAYER-1
 10
47.057794
 20
169.725979
 30
0.000000
  0
VERTEX
  8
MERGEDLAYER-1
 10
47.288917
 20
169.618137
 30
0.000000
  0
SEQEND
  8
MERGEDLAYER-1
  0
POLYLINE
  8
MERGEDLAYER-1
 66
  1
 70
  0
 62
  7
 10
47.147997
 20
172.251058
 30
0.000000
  0
VERTEX
  8
MERGEDLAYER-1
 10
47.147997
 20
172.251058
 30
0.000000
  0
VERTEX
  8
MERGEDLAYER-1
 10
47.321665
 20
171.604479
 30
0.000000
  0
VERTEX
  8
MERGEDLAYER-1
 10
47.794878
 20
171.046522
 30
0.000000
  0
VERTEX
  8
MERGEDLAYER-1
 10
48.220791
 20
170.764513
 30
0.000000
  0
SEQEND
  8
MERGEDLAYER-1
  0
POLYLINE
  8
MERGEDLAYER-1
 66
  1
 70
  0
 62
  7
 10
48.212880
 20
169.684747
 30
0.000000
  0
VERTEX
  8
MERGEDLAYER-1
 10
48.212880
 20
169.684747
 30
0.000000
  0
VERTEX
  8
MERGEDLAYER-1
 10
48.316203
 20
169.633165
 30
0.000000
  0
SEQEND
  8
MERGEDLAYER-1
  0
POLYLINE
  8
MERGEDLAYER-1
 66
  1
 70
  0
 62
  7
 10
48.124898
 20
169.952379
 30
0.000000
  0
VERTEX
  8
MERGEDLAYER-1
 10
48.124898
 20
169.952379
 30
0.000000
  0
VERTEX
  8
MERGEDLAYER-1
 10
48.122409
 20
169.846965
 30
0.000000
  0
SEQEND
  8
MERGEDLAYER-1
  0
POLYLINE
  8
MERGEDLAYER-1
 66
  1
 70
  0
 62
  7
 10
48.212880
 20
169.684760
 30
0.000000
  0
VERTEX
  8
MERGEDLAYER-1
 10
48.212880
 20
169.684760
 30
0.000000
  0
VERTEX
  8
MERGEDLAYER-1
 10
48.121724
 20
169.846571
 30
0.000000
  0
SEQEND
  8
MERGEDLAYER-1
  0
POLYLINE
  8
MERGEDLAYER-1
 66
  1
 70
  0
 62
  7
 10
48.125142
 20
169.952189
 30
0.000000
  0
VERTEX
  8
MERGEDLAYER-1
 10
48.125142
 20
169.952189
 30
0.000000
  0
VERTEX
  8
MERGEDLAYER-1
 10
48.352824
 20
170.315063
 30
0.000000
  0
SEQEND
  8
MERGEDLAYER-1
  0
POLYLINE
  8
MERGEDLAYER-1
 66
  1
 70
  0
 62
  7
 10
48.353604
 20
170.314548
 30
0.000000
  0
VERTEX
  8
MERGEDLAYER-1
 10
48.353604
 20
170.314548
 30
0.000000
  0
VERTEX
  8
MERGEDLAYER-1
 10
48.343526
 20
170.600369
 30
0.000000
  0
VERTEX
  8
MERGEDLAYER-1
 10
48.204990
 20
170.795342
 30
0.000000
  0
VERTEX
  8
MERGEDLAYER-1
 10
48.220547
 20
170.764038
 30
0.000000
  0
SEQEND
  8
MERGEDLAYER-1
  0
POLYLINE
  8
MERGEDLAYER-1
 66
  1
 70
  0
 62
  7
 10
46.963576
 20
194.938273
 30
0.000000
  0
VERTEX
  8
MERGEDLAYER-1
 10
46.963576
 20
194.938273
 30
0.000000
  0
VERTEX
  8
MERGEDLAYER-1
 10
46.831780
 20
190.690552
 30
0.000000
  0
VERTEX
  8
MERGEDLAYER-1
 10
47.148146
 20
186.958672
 30
0.000000
  0
SEQEND
  8
MERGEDLAYER-1
  0
POLYLINE
  8
MERGEDLAYER-1
 66
  1
 70
  0
 62
  7
 10
46.464796
 20
194.972304
 30
0.000000
  0
VERTEX
  8
MERGEDLAYER-1
 10
46.464796
 20
194.972304
 30
0.000000
  0
VERTEX
  8
MERGEDLAYER-1
 10
46.332028
 20
190.675524
 30
0.000000
  0
VERTEX
  8
MERGEDLAYER-1
 10
46.675764
 20
186.341553
 30
0.000000
  0
VERTEX
  8
MERGEDLAYER-1
 10
46.979540
 20
184.586060
 30
0.000000
  0
SEQEND
  8
MERGEDLAYER-1
  0
POLYLINE
  8
MERGEDLAYER-1
 66
  1
 70
  0
 62
  7
 10
48.917813
 20
183.331624
 30
0.000000
  0
VERTEX
  8
MERGEDLAYER-1
 10
48.917813
 20
183.331624
 30
0.000000
  0
VERTEX
  8
MERGEDLAYER-1
 10
48.785282
 20
183.744195
 30
0.000000
  0
VERTEX
  8
MERGEDLAYER-1
 10
48.470534
 20
183.942193
 30
0.000000
  0
VERTEX
  8
MERGEDLAYER-1
 10
48.107968
 20
183.859633
 30
0.000000
  0
VERTEX
  8
MERGEDLAYER-1
 10
47.909973
 20
183.544881
 30
0.000000
  0
VERTEX
  8
MERGEDLAYER-1
 10
47.992533
 20
183.182319
 30
0.000000
  0
VERTEX
  8
MERGEDLAYER-1
 10
48.271427
 20
182.957194
 30
0.000000
  0
SEQEND
  8
MERGEDLAYER-1
  0
POLYLINE
  8
MERGEDLAYER-1
 66
  1
 70
  0
 62
  7
 10
47.700975
 20
183.993137
 30
0.000000
  0
VERTEX
  8
MERGEDLAYER-1
 10
47.700975
 20
183.993137
 30
0.000000
  0
VERTEX
  8
MERGEDLAYER-1
 10
47.485233
 20
183.716607
 30
0.000000
  0
VERTEX
  8
MERGEDLAYER-1
 10
47.457069
 20
183.351495
 30
0.000000
  0
VERTEX
  8
MERGEDLAYER-1
 10
47.570770
 20
183.003404
 30
0.000000
  0
VERTEX
  8
MERGEDLAYER-1
 10
47.809024
 20
182.725315
 30
0.000000
  0
VERTEX
  8
MERGEDLAYER-1
 10
48.135562
 20
182.559584
 30
0.000000
  0
VERTEX
  8
MERGEDLAYER-1
 10
48.389737
 20
182.476020
 30
0.000000
  0
SEQEND
  8
MERGEDLAYER-1
  0
POLYLINE
  8
MERGEDLAYER-1
 66
  1
 70
  0
 62
  7
 10
48.929091
 20
183.259196
 30
0.000000
  0
VERTEX
  8
MERGEDLAYER-1
 10
48.929091
 20
183.259196
 30
0.000000
  0
VERTEX
  8
MERGEDLAYER-1
 10
49.089688
 20
182.971992
 30
0.000000
  0
SEQEND
  8
MERGEDLAYER-1
  0
POLYLINE
  8
MERGEDLAYER-1
 66
  1
 70
  0
 62
  7
 10
48.326162
 20
182.911214
 30
0.000000
  0
VERTEX
  8
MERGEDLAYER-1
 10
48.326162
 20
182.911214
 30
0.000000
  0
VERTEX
  8
MERGEDLAYER-1
 10
48.485294
 20
182.629856
 30
0.000000
  0
SEQEND
  8
MERGEDLAYER-1
  0
POLYLINE
  8
MERGEDLAYER-1
 66
  1
 70
  0
 62
  7
 10
49.089688
 20
182.971978
 30
0.000000
  0
VERTEX
  8
MERGEDLAYER-1
 10
49.089688
 20
182.971978
 30
0.000000
  0
VERTEX
  8
MERGEDLAYER-1
 10
49.270742
 20
182.974487
 30
0.000000
  0
SEQEND
  8
MERGEDLAYER-1
  0
POLYLINE
  8
MERGEDLAYER-1
 66
  1
 70
  0
 62
  7
 10
48.389737
 20
182.475884
 30
0.000000
  0
VERTEX
  8
MERGEDLAYER-1
 10
48.389737
 20
182.475884
 30
0.000000
  0
VERTEX
  8
MERGEDLAYER-1
 10
48.484904
 20
182.629639
 30
0.000000
  0
SEQEND
  8
MERGEDLAYER-1
  0
POLYLINE
  8
MERGEDLAYER-1
 66
  1
 70
  0
 62
  7
 10
48.918593
 20
183.328125
 30
0.000000
  0
VERTEX
  8
MERGEDLAYER-1
 10
48.918593
 20
183.328125
 30
0.000000
  0
VERTEX
  8
MERGEDLAYER-1
 10
48.930118
 20
183.259766
 30
0.000000
  0
SEQEND
  8
MERGEDLAYER-1
  0
POLYLINE
  8
MERGEDLAYER-1
 66
  1
 70
  0
 62
  7
 10
48.325528
 20
182.910875
 30
0.000000
  0
VERTEX
  8
MERGEDLAYER-1
 10
48.325528
 20
182.910875
 30
0.000000
  0
VERTEX
  8
MERGEDLAYER-1
 10
48.271328
 20
182.956923
 30
0.000000
  0
SEQEND
  8
MERGEDLAYER-1
  0
POLYLINE
  8
MERGEDLAYER-1
 66
  1
 70
  0
 62
  7
 10
47.699999
 20
183.993869
 30
0.000000
  0
VERTEX
  8
MERGEDLAYER-1
 10
47.699999
 20
183.993869
 30
0.000000
  0
VERTEX
  8
MERGEDLAYER-1
 10
47.709181
 20
184.107408
 30
0.000000
  0
SEQEND
  8
MERGEDLAYER-1
  0
POLYLINE
  8
MERGEDLAYER-1
 66
  1
 70
  0
 62
  7
 10
49.269033
 20
182.975423
 30
0.000000
  0
VERTEX
  8
MERGEDLAYER-1
 10
49.269033
 20
182.975423
 30
0.000000
  0
VERTEX
  8
MERGEDLAYER-1
 10
49.323398
 20
183.376424
 30
0.000000
  0
VERTEX
  8
MERGEDLAYER-1
 10
49.285495
 20
183.740655
 30
0.000000
  0
VERTEX
  8
MERGEDLAYER-1
 10
49.111094
 20
184.062636
 30
0.000000
  0
VERTEX
  8
MERGEDLAYER-1
 10
48.826742
 20
184.293389
 30
0.000000
  0
VERTEX
  8
MERGEDLAYER-1
 10
48.475735
 20
184.397746
 30
0.000000
  0
VERTEX
  8
MERGEDLAYER-1
 10
48.315860
 20
184.343669
 30
0.000000
  0
SEQEND
  8
MERGEDLAYER-1
  0
POLYLINE
  8
MERGEDLAYER-1
 66
  1
 70
  0
 62
  7
 10
47.711426
 20
184.108643
 30
0.000000
  0
VERTEX
  8
MERGEDLAYER-1
 10
47.711426
 20
184.108643
 30
0.000000
  0
VERTEX
  8
MERGEDLAYER-1
 10
47.620653
 20
184.273166
 30
0.000000
  0
SEQEND
  8
MERGEDLAYER-1
  0
POLYLINE
  8
MERGEDLAYER-1
 66
  1
 70
  0
 62
  7
 10
47.529541
 20
184.324219
 30
0.000000
  0
VERTEX
  8
MERGEDLAYER-1
 10
47.529541
 20
184.324219
 30
0.000000
  0
VERTEX
  8
MERGEDLAYER-1
 10
47.288917
 20
184.324219
 30
0.000000
  0
SEQEND
  8
MERGEDLAYER-1
  0
POLYLINE
  8
MERGEDLAYER-1
 66
  1
 70
  0
 62
  7
 10
47.620460
 20
184.273044
 30
0.000000
  0
VERTEX
  8
MERGEDLAYER-1
 10
47.620460
 20
184.273044
 30
0.000000
  0
VERTEX
  8
MERGEDLAYER-1
 10
47.529541
 20
184.326348
 30
0.000000
  0
SEQEND
  8
MERGEDLAYER-1
  0
POLYLINE
  8
MERGEDLAYER-1
 66
  1
 70
  0
 62
  7
 10
46.980760
 20
184.586236
 30
0.000000
  0
VERTEX
  8
MERGEDLAYER-1
 10
46.980760
 20
184.586236
 30
0.000000
  0
VERTEX
  8
MERGEDLAYER-1
 10
47.057794
 20
184.433567
 30
0.000000
  0
VERTEX
  8
MERGEDLAYER-1
 10
47.288917
 20
184.325724
 30
0.000000
  0
SEQEND
  8
MERGEDLAYER-1
  0
POLYLINE
  8
MERGEDLAYER-1
 66
  1
 70
  0
 62
  7
 10
47.147997
 20
186.958645
 30
0.000000
  0
VERTEX
  8
MERGEDLAYER-1
 10
47.147997
 20
186.958645
 30
0.000000
  0
VERTEX
  8
MERGEDLAYER-1
 10
47.321665
 20
186.312080
 30
0.000000
  0
VERTEX
  8
MERGEDLAYER-1
 10
47.794878
 20
185.754123
 30
0.000000
  0
VERTEX
  8
MERGEDLAYER-1
 10
48.220791
 20
185.472114
 30
0.000000
  0
SEQEND
  8
MERGEDLAYER-1
  0
POLYLINE
  8
MERGEDLAYER-1
 66
  1
 70
  0
 62
  7
 10
48.212880
 20
184.392334
 30
0.000000
  0
VERTEX
  8
MERGEDLAYER-1
 10
48.212880
 20
184.392334
 30
0.000000
  0
VERTEX
  8
MERGEDLAYER-1
 10
48.316203
 20
184.340752
 30
0.000000
  0
SEQEND
  8
MERGEDLAYER-1
  0
POLYLINE
  8
MERGEDLAYER-1
 66
  1
 70
  0
 62
  7
 10
48.124898
 20
184.659966
 30
0.000000
  0
VERTEX
  8
MERGEDLAYER-1
 10
48.124898
 20
184.659966
 30
0.000000
  0
VERTEX
  8
MERGEDLAYER-1
 10
48.122409
 20
184.554565
 30
0.000000
  0
SEQEND
  8
MERGEDLAYER-1
  0
POLYLINE
  8
MERGEDLAYER-1
 66
  1
 70
  0
 62
  7
 10
48.212880
 20
184.392348
 30
0.000000
  0
VERTEX
  8
MERGEDLAYER-1
 10
48.212880
 20
184.392348
 30
0.000000
  0
VERTEX
  8
MERGEDLAYER-1
 10
48.121724
 20
184.554172
 30
0.000000
  0
SEQEND
  8
MERGEDLAYER-1
  0
POLYLINE
  8
MERGEDLAYER-1
 66
  1
 70
  0
 62
  7
 10
48.125142
 20
184.659804
 30
0.000000
  0
VERTEX
  8
MERGEDLAYER-1
 10
48.125142
 20
184.659804
 30
0.000000
  0
VERTEX
  8
MERGEDLAYER-1
 10
48.352824
 20
185.022664
 30
0.000000
  0
SEQEND
  8
MERGEDLAYER-1
  0
POLYLINE
  8
MERGEDLAYER-1
 66
  1
 70
  0
 62
  7
 10
48.353604
 20
185.022135
 30
0.000000
  0
VERTEX
  8
MERGEDLAYER-1
 10
48.353604
 20
185.022135
 30
0.000000
  0
VERTEX
  8
MERGEDLAYER-1
 10
48.343526
 20
185.307970
 30
0.000000
  0
VERTEX
  8
MERGEDLAYER-1
 10
48.204990
 20
185.502930
 30
0.000000
  0
VERTEX
  8
MERGEDLAYER-1
 10
48.220547
 20
185.471625
 30
0.000000
  0
SEQEND
  8
MERGEDLAYER-1
  0
CIRCLE
  8
MERGEDLAYER-1
 62
  7
 10
48.432414
 20
183.413262
 30
0.000000
 40
1.171875
  0
POLYLINE
  8
MERGEDLAYER-1
 66
  1
 70
  1
 62
  7
 10
48.432414
 20
182.423652
 30
0.000000
  0
VERTEX
  8
MERGEDLAYER-1
 10
48.432414
 20
182.423652
 30
0.000000
  0
VERTEX
  8
MERGEDLAYER-1
 10
47.575392
 20
182.918443
 30
0.000000
  0
VERTEX
  8
MERGEDLAYER-1
 10
47.575392
 20
183.908067
 30
0.000000
  0
VERTEX
  8
MERGEDLAYER-1
 10
48.432414
 20
184.402873
 30
0.000000
  0
VERTEX
  8
MERGEDLAYER-1
 10
49.289442
 20
183.908067
 30
0.000000
  0
VERTEX
  8
MERGEDLAYER-1
 10
49.289442
 20
182.918457
 30
0.000000
  0
SEQEND
  8
MERGEDLAYER-1
  0
CIRCLE
  8
MERGEDLAYER-1
 62
  7
 10
48.438907
 20
183.413262
 30
0.000000
 40
0.799004
  0
LINE
  8
MERGEDLAYER-1
 62
  7
 10
46.349657
 20
185.881198
 30
0.000000
 11
46.349657
 21
191.842136
 31
0.000000
  0
LINE
  8
MERGEDLAYER-1
 62
  7
 10
50.092570
 20
185.748874
 30
0.000000
 11
50.092570
 21
191.842136
 31
0.000000
  0
LINE
  8
MERGEDLAYER-1
 62
  7
 10
46.349657
 20
188.842136
 30
0.000000
 11
40.349657
 21
188.842150
 31
0.000000
  0
POLYLINE
  8
MERGEDLAYER-1
 66
  1
 70
  1
 62
  7
  0
VERTEX
  8
MERGEDLAYER-1
 10
46.349657
 20
188.842136
 30
0.000000
  0
VERTEX
  8
MERGEDLAYER-1
 10
45.238549
 20
189.508803
 30
0.000000
  0
VERTEX
  8
MERGEDLAYER-1
 10
45.238546
 20
188.842136
 30
0.000000
  0
VERTEX
  8
MERGEDLAYER-1
 10
45.238542
 20
188.175469
 30
0.000000
  0
VERTEX
  8
MERGEDLAYER-1
 10
46.349657
 20
188.842136
 30
0.000000
  0
SEQEND
  8
MERGEDLAYER-1
  0
LINE
  8
MERGEDLAYER-1
 62
  7
 10
50.092570
 20
188.842136
 30
0.000000
 11
93.623162
 21
164.347466
 31
0.000000
  0
POLYLINE
  8
MERGEDLAYER-1
 66
  1
 70
  1
 62
  7
  0
VERTEX
  8
MERGEDLAYER-1
 10
50.092570
 20
188.842136
 30
0.000000
  0
VERTEX
  8
MERGEDLAYER-1
 10
51.203684
 20
189.508789
 30
0.000000
  0
VERTEX
  8
MERGEDLAYER-1
 10
51.203681
 20
188.842122
 30
0.000000
  0
VERTEX
  8
MERGEDLAYER-1
 10
51.203678
 20
188.175456
 30
0.000000
  0
VERTEX
  8
MERGEDLAYER-1
 10
50.092570
 20
188.842136
 30
0.000000
  0
SEQEND
  8
MERGEDLAYER-1
  0
TEXT
  8
MERGEDLAYER-1
 62
  7
 10
47.762247
 20
190.783247
 30
0.000000
 40
1.666667
  1
 
  0
LINE
  8
MERGEDLAYER-1
 62
  7
 10
50.592885
 20
166.497559
 30
0.000000
 11
56.043423
 21
160.929959
 31
0.000000
  0
LINE
  8
MERGEDLAYER-1
 62
  7
 10
46.247036
 20
170.936713
 30
0.000000
 11
42.049703
 21
175.224175
 31
0.000000
  0
POLYLINE
  8
MERGEDLAYER-1
 66
  1
 70
  1
 62
  7
  0
VERTEX
  8
MERGEDLAYER-1
 10
46.247036
 20
170.936713
 30
0.000000
  0
VERTEX
  8
MERGEDLAYER-1
 10
45.946140
 20
172.197049
 30
0.000000
  0
VERTEX
  8
MERGEDLAYER-1
 10
45.469754
 20
171.730686
 30
0.000000
  0
VERTEX
  8
MERGEDLAYER-1
 10
44.993368
 20
171.264323
 30
0.000000
  0
VERTEX
  8
MERGEDLAYER-1
 10
46.247036
 20
170.936713
 30
0.000000
  0
SEQEND
  8
MERGEDLAYER-1
  0
LINE
  8
MERGEDLAYER-1
 62
  7
 10
50.592885
 20
166.497559
 30
0.000000
 11
97.401048
 21
134.085314
 31
0.000000
  0
POLYLINE
  8
MERGEDLAYER-1
 66
  1
 70
  1
 62
  7
  0
VERTEX
  8
MERGEDLAYER-1
 10
50.592885
 20
166.497559
 30
0.000000
  0
VERTEX
  8
MERGEDLAYER-1
 10
51.846554
 20
166.169949
 30
0.000000
  0
VERTEX
  8
MERGEDLAYER-1
 10
51.370168
 20
165.703586
 30
0.000000
  0
VERTEX
  8
MERGEDLAYER-1
 10
50.893782
 20
165.237210
 30
0.000000
  0
VERTEX
  8
MERGEDLAYER-1
 10
50.592885
 20
166.497559
 30
0.000000
  0
SEQEND
  8
MERGEDLAYER-1
  0
TEXT
  8
MERGEDLAYER-1
 62
  7
 10
57.162244
 20
160.283247
 30
0.000000
 40
1.666667
  1
 
  0
TEXT
  8
MERGEDLAYER-1
 62
  7
 10
57.428914
 20
163.105469
 30
0.000000
 40
2.333333
  1
5/8" (16mm)
 72
  5
 11
76.095580
 21
163.105469
 31
0.000000
  0
TEXT
  8
MERGEDLAYER-1
 62
  7
 10
57.428914
 20
159.549913
 30
0.000000
 40
2.333333
  1
BEARINGS
 72
  5
 11
74.317802
 21
159.549913
 31
0.000000
  0
TEXT
  8
MERGEDLAYER-1
 62
  7
 10
57.428914
 20
156.661024
 30
0.000000
 40
1.833333
  1
(EVERY 3rd PANEL)
 72
  5
 11
80.317802
 21
156.661024
 31
0.000000
  0
LINE
  8
MERGEDLAYER-1
 62
  7
 10
64.576213
 20
169.205661
 30
0.000000
 11
64.576213
 21
182.913262
 31
0.000000
  0
LINE
  8
MERGEDLAYER-1
 62
  7
 10
50.438907
 20
168.705661
 30
0.000000
 11
67.576213
 21
168.705661
 31
0.000000
  0
LINE
  8
MERGEDLAYER-1
 62
  7
 10
50.438907
 20
183.413262
 30
0.000000
 11
67.576213
 21
183.413262
 31
0.000000
  0
POLYLINE
  8
MERGEDLAYER-1
 66
  1
 70
  1
 62
  7
  0
VERTEX
  8
MERGEDLAYER-1
 10
64.576213
 20
168.705661
 30
0.000000
  0
VERTEX
  8
MERGEDLAYER-1
 10
65.242886
 20
169.816772
 30
0.000000
  0
VERTEX
  8
MERGEDLAYER-1
 10
64.576219
 20
169.816772
 30
0.000000
  0
VERTEX
  8
MERGEDLAYER-1
 10
63.909553
 20
169.816772
 30
0.000000
  0
VERTEX
  8
MERGEDLAYER-1
 10
64.576213
 20
168.705661
 30
0.000000
  0
SEQEND
  8
MERGEDLAYER-1
  0
POLYLINE
  8
MERGEDLAYER-1
 66
  1
 70
  1
 62
  7
  0
VERTEX
  8
MERGEDLAYER-1
 10
64.576213
 20
183.413262
 30
0.000000
  0
VERTEX
  8
MERGEDLAYER-1
 10
65.242872
 20
182.302138
 30
0.000000
  0
VERTEX
  8
MERGEDLAYER-1
 10
64.576206
 20
182.302151
 30
0.000000
  0
VERTEX
  8
MERGEDLAYER-1
 10
63.909539
 20
182.302151
 30
0.000000
  0
VERTEX
  8
MERGEDLAYER-1
 10
64.576213
 20
183.413262
 30
0.000000
  0
SEQEND
  8
MERGEDLAYER-1
  0
TEXT
  8
MERGEDLAYER-1
 62
  7
 10
62.644829
 20
174.999006
 30
0.000000
 40
1.666667
  1
 
 50
90.000000
  0
TEXT
  8
MERGEDLAYER-1
 62
  7
 10
47.651136
 20
193.327691
 30
0.000000
 40
2.500000
  1
3/8" (10mm)
 72
  5
 11
66.762247
 21
193.327691
 31
0.000000
  0
CIRCLE
  8
MERGEDLAYER-1
 62
  7
 10
48.419963
 20
168.717136
 30
0.000000
 40
3.106142
  0
CIRCLE
  8
MERGEDLAYER-1
 62
  7
 10
48.419963
 20
168.717136
 30
0.000000
 40
0.980230
  0
CIRCLE
  8
MERGEDLAYER-1
 62
  7
 10
48.419963
 20
168.717136
 30
0.000000
 40
0.408518
  0
POLYLINE
  8
MERGEDLAYER-1
 66
  1
 70
  1
 62
  7
 10
48.338565
 20
169.166111
 30
0.000000
  0
VERTEX
  8
MERGEDLAYER-1
 10
48.338565
 20
169.166111
 30
0.000000
  0
VERTEX
  8
MERGEDLAYER-1
 10
48.501407
 20
169.166111
 30
0.000000
  0
VERTEX
  8
MERGEDLAYER-1
 10
48.501407
 20
168.798557
 30
0.000000
  0
VERTEX
  8
MERGEDLAYER-1
 10
48.868937
 20
168.798557
 30
0.000000
  0
VERTEX
  8
MERGEDLAYER-1
 10
48.868937
 20
168.635715
 30
0.000000
  0
VERTEX
  8
MERGEDLAYER-1
 10
48.501407
 20
168.635715
 30
0.000000
  0
VERTEX
  8
MERGEDLAYER-1
 10
48.501407
 20
168.268161
 30
0.000000
  0
VERTEX
  8
MERGEDLAYER-1
 10
48.338565
 20
168.268161
 30
0.000000
  0
VERTEX
  8
MERGEDLAYER-1
 10
48.338565
 20
168.635715
 30
0.000000
  0
VERTEX
  8
MERGEDLAYER-1
 10
47.970991
 20
168.635715
 30
0.000000
  0
VERTEX
  8
MERGEDLAYER-1
 10
47.970991
 20
168.798557
 30
0.000000
  0
VERTEX
  8
MERGEDLAYER-1
 10
48.338565
 20
168.798557
 30
0.000000
  0
SEQEND
  8
MERGEDLAYER-1
  0
CIRCLE
  8
MERGEDLAYER-1
 62
  7
 10
48.419963
 20
168.717136
 30
0.000000
 40
0.090549
  0
CIRCLE
  8
MERGEDLAYER-1
 62
  7
 10
48.419963
 20
168.717136
 30
0.000000
 40
2.594291
  0
CIRCLE
  8
MERGEDLAYER-1
 62
  7
 10
48.419963
 20
168.717136
 30
0.000000
 40
1.871168
  0
LINE
  8
MERGEDLAYER-1
 62
  7
 10
64.617886
 20
124.650553
 30
0.000000
 11
64.617886
 21
151.486803
 31
0.000000
  0
LINE
  8
MERGEDLAYER-1
 62
  7
 10
55.622552
 20
124.150553
 30
0.000000
 11
67.617886
 21
124.150553
 31
0.000000
  0
LINE
  8
MERGEDLAYER-1
 62
  7
 10
56.592645
 20
151.986803
 30
0.000000
 11
67.617886
 21
151.986803
 31
0.000000
  0
POLYLINE
  8
MERGEDLAYER-1
 66
  1
 70
  1
 62
  7
  0
VERTEX
  8
MERGEDLAYER-1
 10
64.617886
 20
124.150553
 30
0.000000
  0
VERTEX
  8
MERGEDLAYER-1
 10
65.284559
 20
125.261664
 30
0.000000
  0
VERTEX
  8
MERGEDLAYER-1
 10
64.617893
 20
125.261664
 30
0.000000
  0
VERTEX
  8
MERGEDLAYER-1
 10
63.951226
 20
125.261664
 30
0.000000
  0
VERTEX
  8
MERGEDLAYER-1
 10
64.617886
 20
124.150553
 30
0.000000
  0
SEQEND
  8
MERGEDLAYER-1
  0
POLYLINE
  8
MERGEDLAYER-1
 66
  1
 70
  1
 62
  7
  0
VERTEX
  8
MERGEDLAYER-1
 10
64.617886
 20
151.986803
 30
0.000000
  0
VERTEX
  8
MERGEDLAYER-1
 10
65.284546
 20
150.875692
 30
0.000000
  0
VERTEX
  8
MERGEDLAYER-1
 10
64.617879
 20
150.875692
 30
0.000000
  0
VERTEX
  8
MERGEDLAYER-1
 10
63.951213
 20
150.875692
 30
0.000000
  0
VERTEX
  8
MERGEDLAYER-1
 10
64.617886
 20
151.986803
 30
0.000000
  0
SEQEND
  8
MERGEDLAYER-1
  0
TEXT
  8
MERGEDLAYER-1
 62
  7
 10
62.733635
 20
137.404466
 30
0.000000
 40
1.666667
  1
 
 50
90.000000
  0
LINE
  8
MERGEDLAYER-1
 62
  7
 10
48.926870
 20
118.321289
 30
0.000000
 11
54.238173
 21
118.321262
 31
0.000000
  0
LINE
  8
MERGEDLAYER-1
 62
  7
 10
48.426870
 20
119.762695
 30
0.000000
 11
48.426870
 21
115.321289
 31
0.000000
  0
LINE
  8
MERGEDLAYER-1
 62
  7
 10
54.738173
 20
122.204902
 30
0.000000
 11
54.738173
 21
115.321289
 31
0.000000
  0
POLYLINE
  8
MERGEDLAYER-1
 66
  1
 70
  1
 62
  7
  0
VERTEX
  8
MERGEDLAYER-1
 10
48.426870
 20
118.321275
 30
0.000000
  0
VERTEX
  8
MERGEDLAYER-1
 10
49.537984
 20
117.654622
 30
0.000000
  0
VERTEX
  8
MERGEDLAYER-1
 10
49.537981
 20
118.321289
 30
0.000000
  0
VERTEX
  8
MERGEDLAYER-1
 10
49.537977
 20
118.987956
 30
0.000000
  0
VERTEX
  8
MERGEDLAYER-1
 10
48.426870
 20
118.321275
 30
0.000000
  0
SEQEND
  8
MERGEDLAYER-1
  0
POLYLINE
  8
MERGEDLAYER-1
 66
  1
 70
  1
 62
  7
  0
VERTEX
  8
MERGEDLAYER-1
 10
54.738173
 20
118.321275
 30
0.000000
  0
VERTEX
  8
MERGEDLAYER-1
 10
53.627065
 20
117.654595
 30
0.000000
  0
VERTEX
  8
MERGEDLAYER-1
 10
53.627062
 20
118.321262
 30
0.000000
  0
VERTEX
  8
MERGEDLAYER-1
 10
53.627058
 20
118.987929
 30
0.000000
  0
VERTEX
  8
MERGEDLAYER-1
 10
54.738173
 20
118.321275
 30
0.000000
  0
SEQEND
  8
MERGEDLAYER-1
  0
TEXT
  8
MERGEDLAYER-1
 62
  7
 10
51.362246
 20
119.583252
 30
0.000000
 40
1.000000
  1
 
  0
POLYLINE
  8
MERGEDLAYER-1
 66
  1
 70
  0
 62
  7
 10
51.417569
 20
131.441895
 30
0.000000
  0
VERTEX
  8
MERGEDLAYER-1
 10
51.417569
 20
131.441895
 30
0.000000
  0
VERTEX
  8
MERGEDLAYER-1
 10
51.660587
 20
131.290419
 30
0.000000
  0
SEQEND
  8
MERGEDLAYER-1
  0
POLYLINE
  8
MERGEDLAYER-1
 66
  1
 70
  0
 62
  7
 10
51.417569
 20
131.441895
 30
0.000000
  0
VERTEX
  8
MERGEDLAYER-1
 10
51.417569
 20
131.441895
 30
0.000000
  0
VERTEX
  8
MERGEDLAYER-1
 10
51.660587
 20
131.593424
 30
0.000000
  0
SEQEND
  8
MERGEDLAYER-1
  0
POLYLINE
  8
MERGEDLAYER-1
 66
  1
 70
  0
 62
  7
 10
52.992862
 20
131.711304
 30
0.000000
  0
VERTEX
  8
MERGEDLAYER-1
 10
52.992862
 20
131.711304
 30
0.000000
  0
VERTEX
  8
MERGEDLAYER-1
 10
52.749868
 20
131.559760
 30
0.000000
  0
SEQEND
  8
MERGEDLAYER-1
  0
POLYLINE
  8
MERGEDLAYER-1
 66
  1
 70
  0
 62
  7
 10
52.992862
 20
131.711304
 30
0.000000
  0
VERTEX
  8
MERGEDLAYER-1
 10
52.992862
 20
131.711304
 30
0.000000
  0
VERTEX
  8
MERGEDLAYER-1
 10
52.749868
 20
131.862779
 30
0.000000
  0
SEQEND
  8
MERGEDLAYER-1
  0
POLYLINE
  8
MERGEDLAYER-1
 66
  1
 70
  0
 62
  7
 10
51.417569
 20
131.441895
 30
0.000000
  0
VERTEX
  8
MERGEDLAYER-1
 10
51.417569
 20
131.441895
 30
0.000000
  0
VERTEX
  8
MERGEDLAYER-1
 10
52.992862
 20
131.711304
 30
0.000000
  0
SEQEND
  8
MERGEDLAYER-1
  0
POLYLINE
  8
MERGEDLAYER-1
 66
  1
 70
  0
 62
  7
 10
51.417569
 20
131.742499
 30
0.000000
  0
VERTEX
  8
MERGEDLAYER-1
 10
51.417569
 20
131.742499
 30
0.000000
  0
VERTEX
  8
MERGEDLAYER-1
 10
51.660587
 20
131.590983
 30
0.000000
  0
SEQEND
  8
MERGEDLAYER-1
  0
POLYLINE
  8
MERGEDLAYER-1
 66
  1
 70
  0
 62
  7
 10
51.417569
 20
131.742499
 30
0.000000
  0
VERTEX
  8
MERGEDLAYER-1
 10
51.417569
 20
131.742499
 30
0.000000
  0
VERTEX
  8
MERGEDLAYER-1
 10
51.660587
 20
131.894043
 30
0.000000
  0
SEQEND
  8
MERGEDLAYER-1
  0
POLYLINE
  8
MERGEDLAYER-1
 66
  1
 70
  0
 62
  7
 10
52.992862
 20
132.011882
 30
0.000000
  0
VERTEX
  8
MERGEDLAYER-1
 10
52.992862
 20
132.011882
 30
0.000000
  0
VERTEX
  8
MERGEDLAYER-1
 10
52.749868
 20
131.860338
 30
0.000000
  0
SEQEND
  8
MERGEDLAYER-1
  0
POLYLINE
  8
MERGEDLAYER-1
 66
  1
 70
  0
 62
  7
 10
51.660587
 20
131.590983
 30
0.000000
  0
VERTEX
  8
MERGEDLAYER-1
 10
51.660587
 20
131.590983
 30
0.000000
  0
VERTEX
  8
MERGEDLAYER-1
 10
52.749868
 20
131.860338
 30
0.000000
  0
SEQEND
  8
MERGEDLAYER-1
  0
POLYLINE
  8
MERGEDLAYER-1
 66
  1
 70
  0
 62
  7
 10
51.417569
 20
131.742499
 30
0.000000
  0
VERTEX
  8
MERGEDLAYER-1
 10
51.417569
 20
131.742499
 30
0.000000
  0
VERTEX
  8
MERGEDLAYER-1
 10
52.992862
 20
132.011882
 30
0.000000
  0
SEQEND
  8
MERGEDLAYER-1
  0
POLYLINE
  8
MERGEDLAYER-1
 66
  1
 70
  0
 62
  7
 10
51.489248
 20
132.009332
 30
0.000000
  0
VERTEX
  8
MERGEDLAYER-1
 10
51.489248
 20
132.009332
 30
0.000000
  0
VERTEX
  8
MERGEDLAYER-1
 10
51.660587
 20
131.891602
 30
0.000000
  0
SEQEND
  8
MERGEDLAYER-1
  0
POLYLINE
  8
MERGEDLAYER-1
 66
  1
 70
  0
 62
  7
 10
51.660587
 20
131.891602
 30
0.000000
  0
VERTEX
  8
MERGEDLAYER-1
 10
51.660587
 20
131.891602
 30
0.000000
  0
VERTEX
  8
MERGEDLAYER-1
 10
52.137465
 20
132.011610
 30
0.000000
  0
SEQEND
  8
MERGEDLAYER-1
  0
POLYLINE
  8
MERGEDLAYER-1
 66
  1
 70
  0
 62
  7
 10
52.749868
 20
131.559760
 30
0.000000
  0
VERTEX
  8
MERGEDLAYER-1
 10
52.749868
 20
131.559760
 30
0.000000
  0
VERTEX
  8
MERGEDLAYER-1
 10
52.749868
 20
131.290419
 30
0.000000
  0
SEQEND
  8
MERGEDLAYER-1
  0
POLYLINE
  8
MERGEDLAYER-1
 66
  1
 70
  0
 62
  7
 10
52.181095
 20
131.632772
 30
0.000000
  0
VERTEX
  8
MERGEDLAYER-1
 10
52.181095
 20
131.632772
 30
0.000000
  0
VERTEX
  8
MERGEDLAYER-1
 10
51.838786
 20
131.290419
 30
0.000000
  0
SEQEND
  8
MERGEDLAYER-1
  0
POLYLINE
  8
MERGEDLAYER-1
 66
  1
 70
  0
 62
  7
 10
52.181095
 20
131.632772
 30
0.000000
  0
VERTEX
  8
MERGEDLAYER-1
 10
52.181095
 20
131.632772
 30
0.000000
  0
VERTEX
  8
MERGEDLAYER-1
 10
52.523451
 20
131.290419
 30
0.000000
  0
SEQEND
  8
MERGEDLAYER-1
  0
POLYLINE
  8
MERGEDLAYER-1
 66
  1
 70
  0
 62
  7
 10
51.660587
 20
131.290419
 30
0.000000
  0
VERTEX
  8
MERGEDLAYER-1
 10
51.660587
 20
131.290419
 30
0.000000
  0
VERTEX
  8
MERGEDLAYER-1
 10
51.838786
 20
131.290419
 30
0.000000
  0
SEQEND
  8
MERGEDLAYER-1
  0
POLYLINE
  8
MERGEDLAYER-1
 66
  1
 70
  0
 62
  7
 10
52.523451
 20
131.290419
 30
0.000000
  0
VERTEX
  8
MERGEDLAYER-1
 10
52.523451
 20
131.290419
 30
0.000000
  0
VERTEX
  8
MERGEDLAYER-1
 10
52.749868
 20
131.290419
 30
0.000000
  0
SEQEND
  8
MERGEDLAYER-1
  0
POLYLINE
  8
MERGEDLAYER-1
 66
  1
 70
  0
 62
  7
 10
52.749868
 20
131.559760
 30
0.000000
  0
VERTEX
  8
MERGEDLAYER-1
 10
52.749868
 20
131.559760
 30
0.000000
  0
VERTEX
  8
MERGEDLAYER-1
 10
52.351529
 20
131.458957
 30
0.000000
  0
SEQEND
  8
MERGEDLAYER-1
  0
POLYLINE
  8
MERGEDLAYER-1
 66
  1
 70
  0
 62
  7
 10
51.660587
 20
131.290419
 30
0.000000
  0
VERTEX
  8
MERGEDLAYER-1
 10
51.660587
 20
131.290419
 30
0.000000
  0
VERTEX
  8
MERGEDLAYER-1
 10
51.891347
 20
131.343872
 30
0.000000
  0
SEQEND
  8
MERGEDLAYER-1
  0
POLYLINE
  8
MERGEDLAYER-1
 66
  1
 70
  0
 62
  7
 10
43.963087
 20
131.441895
 30
0.000000
  0
VERTEX
  8
MERGEDLAYER-1
 10
43.963087
 20
131.441895
 30
0.000000
  0
VERTEX
  8
MERGEDLAYER-1
 10
44.206078
 20
131.290419
 30
0.000000
  0
SEQEND
  8
MERGEDLAYER-1
  0
POLYLINE
  8
MERGEDLAYER-1
 66
  1
 70
  0
 62
  7
 10
43.963087
 20
131.441895
 30
0.000000
  0
VERTEX
  8
MERGEDLAYER-1
 10
43.963087
 20
131.441895
 30
0.000000
  0
VERTEX
  8
MERGEDLAYER-1
 10
44.206078
 20
131.593424
 30
0.000000
  0
SEQEND
  8
MERGEDLAYER-1
  0
POLYLINE
  8
MERGEDLAYER-1
 66
  1
 70
  0
 62
  7
 10
45.538378
 20
131.711304
 30
0.000000
  0
VERTEX
  8
MERGEDLAYER-1
 10
45.538378
 20
131.711304
 30
0.000000
  0
VERTEX
  8
MERGEDLAYER-1
 10
45.295363
 20
131.559760
 30
0.000000
  0
SEQEND
  8
MERGEDLAYER-1
  0
POLYLINE
  8
MERGEDLAYER-1
 66
  1
 70
  0
 62
  7
 10
45.538378
 20
131.711304
 30
0.000000
  0
VERTEX
  8
MERGEDLAYER-1
 10
45.538378
 20
131.711304
 30
0.000000
  0
VERTEX
  8
MERGEDLAYER-1
 10
45.295363
 20
131.862779
 30
0.000000
  0
SEQEND
  8
MERGEDLAYER-1
  0
POLYLINE
  8
MERGEDLAYER-1
 66
  1
 70
  0
 62
  7
 10
43.963087
 20
131.441895
 30
0.000000
  0
VERTEX
  8
MERGEDLAYER-1
 10
43.963087
 20
131.441895
 30
0.000000
  0
VERTEX
  8
MERGEDLAYER-1
 10
45.538378
 20
131.711304
 30
0.000000
  0
SEQEND
  8
MERGEDLAYER-1
  0
POLYLINE
  8
MERGEDLAYER-1
 66
  1
 70
  0
 62
  7
 10
43.963087
 20
131.742499
 30
0.000000
  0
VERTEX
  8
MERGEDLAYER-1
 10
43.963087
 20
131.742499
 30
0.000000
  0
VERTEX
  8
MERGEDLAYER-1
 10
44.206078
 20
131.590983
 30
0.000000
  0
SEQEND
  8
MERGEDLAYER-1
  0
POLYLINE
  8
MERGEDLAYER-1
 66
  1
 70
  0
 62
  7
 10
43.963087
 20
131.742499
 30
0.000000
  0
VERTEX
  8
MERGEDLAYER-1
 10
43.963087
 20
131.742499
 30
0.000000
  0
VERTEX
  8
MERGEDLAYER-1
 10
44.206078
 20
131.894043
 30
0.000000
  0
SEQEND
  8
MERGEDLAYER-1
  0
POLYLINE
  8
MERGEDLAYER-1
 66
  1
 70
  0
 62
  7
 10
45.538378
 20
132.011882
 30
0.000000
  0
VERTEX
  8
MERGEDLAYER-1
 10
45.538378
 20
132.011882
 30
0.000000
  0
VERTEX
  8
MERGEDLAYER-1
 10
45.295363
 20
131.860338
 30
0.000000
  0
SEQEND
  8
MERGEDLAYER-1
  0
POLYLINE
  8
MERGEDLAYER-1
 66
  1
 70
  0
 62
  7
 10
44.206078
 20
131.590983
 30
0.000000
  0
VERTEX
  8
MERGEDLAYER-1
 10
44.206078
 20
131.590983
 30
0.000000
  0
VERTEX
  8
MERGEDLAYER-1
 10
45.295363
 20
131.860338
 30
0.000000
  0
SEQEND
  8
MERGEDLAYER-1
  0
POLYLINE
  8
MERGEDLAYER-1
 66
  1
 70
  0
 62
  7
 10
43.963087
 20
131.742499
 30
0.000000
  0
VERTEX
  8
MERGEDLAYER-1
 10
43.963087
 20
131.742499
 30
0.000000
  0
VERTEX
  8
MERGEDLAYER-1
 10
45.538378
 20
132.011882
 30
0.000000
  0
SEQEND
  8
MERGEDLAYER-1
  0
POLYLINE
  8
MERGEDLAYER-1
 66
  1
 70
  0
 62
  7
 10
44.029005
 20
132.009332
 30
0.000000
  0
VERTEX
  8
MERGEDLAYER-1
 10
44.029005
 20
132.009332
 30
0.000000
  0
VERTEX
  8
MERGEDLAYER-1
 10
44.206078
 20
131.891602
 30
0.000000
  0
SEQEND
  8
MERGEDLAYER-1
  0
POLYLINE
  8
MERGEDLAYER-1
 66
  1
 70
  0
 62
  7
 10
44.206078
 20
131.891602
 30
0.000000
  0
VERTEX
  8
MERGEDLAYER-1
 10
44.206078
 20
131.891602
 30
0.000000
  0
VERTEX
  8
MERGEDLAYER-1
 10
44.678419
 20
132.011610
 30
0.000000
  0
SEQEND
  8
MERGEDLAYER-1
  0
POLYLINE
  8
MERGEDLAYER-1
 66
  1
 70
  0
 62
  7
 10
45.295363
 20
131.559760
 30
0.000000
  0
VERTEX
  8
MERGEDLAYER-1
 10
45.295363
 20
131.559760
 30
0.000000
  0
VERTEX
  8
MERGEDLAYER-1
 10
45.295363
 20
131.290419
 30
0.000000
  0
SEQEND
  8
MERGEDLAYER-1
  0
POLYLINE
  8
MERGEDLAYER-1
 66
  1
 70
  0
 62
  7
 10
44.726637
 20
131.632772
 30
0.000000
  0
VERTEX
  8
MERGEDLAYER-1
 10
44.726637
 20
131.632772
 30
0.000000
  0
VERTEX
  8
MERGEDLAYER-1
 10
44.384277
 20
131.290419
 30
0.000000
  0
SEQEND
  8
MERGEDLAYER-1
  0
POLYLINE
  8
MERGEDLAYER-1
 66
  1
 70
  0
 62
  7
 10
44.726637
 20
131.632772
 30
0.000000
  0
VERTEX
  8
MERGEDLAYER-1
 10
44.726637
 20
131.632772
 30
0.000000
  0
VERTEX
  8
MERGEDLAYER-1
 10
45.068993
 20
131.290419
 30
0.000000
  0
SEQEND
  8
MERGEDLAYER-1
  0
POLYLINE
  8
MERGEDLAYER-1
 66
  1
 70
  0
 62
  7
 10
44.206078
 20
131.290419
 30
0.000000
  0
VERTEX
  8
MERGEDLAYER-1
 10
44.206078
 20
131.290419
 30
0.000000
  0
VERTEX
  8
MERGEDLAYER-1
 10
44.384277
 20
131.290419
 30
0.000000
  0
SEQEND
  8
MERGEDLAYER-1
  0
POLYLINE
  8
MERGEDLAYER-1
 66
  1
 70
  0
 62
  7
 10
45.068993
 20
131.290419
 30
0.000000
  0
VERTEX
  8
MERGEDLAYER-1
 10
45.068993
 20
131.290419
 30
0.000000
  0
VERTEX
  8
MERGEDLAYER-1
 10
45.295363
 20
131.290419
 30
0.000000
  0
SEQEND
  8
MERGEDLAYER-1
  0
POLYLINE
  8
MERGEDLAYER-1
 66
  1
 70
  0
 62
  7
 10
45.295363
 20
131.559760
 30
0.000000
  0
VERTEX
  8
MERGEDLAYER-1
 10
45.295363
 20
131.559760
 30
0.000000
  0
VERTEX
  8
MERGEDLAYER-1
 10
44.897020
 20
131.458957
 30
0.000000
  0
SEQEND
  8
MERGEDLAYER-1
  0
POLYLINE
  8
MERGEDLAYER-1
 66
  1
 70
  0
 62
  7
 10
44.206078
 20
131.290419
 30
0.000000
  0
VERTEX
  8
MERGEDLAYER-1
 10
44.206078
 20
131.290419
 30
0.000000
  0
VERTEX
  8
MERGEDLAYER-1
 10
44.436890
 20
131.343872
 30
0.000000
  0
SEQEND
  8
MERGEDLAYER-1
  0
POLYLINE
  8
MERGEDLAYER-1
 66
  1
 70
  0
 62
  7
 10
54.738091
 20
151.841309
 30
0.000000
  0
VERTEX
  8
MERGEDLAYER-1
 10
54.738091
 20
151.841309
 30
0.000000
  0
VERTEX
  8
MERGEDLAYER-1
 10
54.592645
 20
151.986762
 30
0.000000
  0
SEQEND
  8
MERGEDLAYER-1
  0
POLYLINE
  8
MERGEDLAYER-1
 66
  1
 70
  0
 62
  7
 10
54.592645
 20
151.986803
 30
0.000000
  0
VERTEX
  8
MERGEDLAYER-1
 10
54.592645
 20
151.986803
 30
0.000000
  0
VERTEX
  8
MERGEDLAYER-1
 10
52.289686
 20
151.986803
 30
0.000000
  0
SEQEND
  8
MERGEDLAYER-1
  0
POLYLINE
  8
MERGEDLAYER-1
 66
  1
 70
  0
 62
  7
 10
52.289686
 20
151.986762
 30
0.000000
  0
VERTEX
  8
MERGEDLAYER-1
 10
52.289686
 20
151.986762
 30
0.000000
  0
VERTEX
  8
MERGEDLAYER-1
 10
52.144236
 20
151.841309
 30
0.000000
  0
SEQEND
  8
MERGEDLAYER-1
  0
POLYLINE
  8
MERGEDLAYER-1
 66
  1
 70
  0
 62
  7
 10
52.144301
 20
151.220703
 30
0.000000
  0
VERTEX
  8
MERGEDLAYER-1
 10
52.144301
 20
151.220703
 30
0.000000
  0
VERTEX
  8
MERGEDLAYER-1
 10
52.144301
 20
151.841309
 30
0.000000
  0
SEQEND
  8
MERGEDLAYER-1
  0
POLYLINE
  8
MERGEDLAYER-1
 66
  1
 70
  0
 62
  7
 10
52.144301
 20
151.220703
 30
0.000000
  0
VERTEX
  8
MERGEDLAYER-1
 10
52.144301
 20
151.220703
 30
0.000000
  0
VERTEX
  8
MERGEDLAYER-1
 10
51.232829
 20
151.220703
 30
0.000000
  0
SEQEND
  8
MERGEDLAYER-1
  0
POLYLINE
  8
MERGEDLAYER-1
 66
  1
 70
  0
 62
  7
 10
51.232829
 20
151.220730
 30
0.000000
  0
VERTEX
  8
MERGEDLAYER-1
 10
51.232829
 20
151.220730
 30
0.000000
  0
VERTEX
  8
MERGEDLAYER-1
 10
50.970266
 20
151.182685
 30
0.000000
  0
VERTEX
  8
MERGEDLAYER-1
 10
50.882222
 20
150.970133
 30
0.000000
  0
VERTEX
  8
MERGEDLAYER-1
 10
50.970266
 20
150.757568
 30
0.000000
  0
VERTEX
  8
MERGEDLAYER-1
 10
51.232829
 20
150.619520
 30
0.000000
  0
SEQEND
  8
MERGEDLAYER-1
  0
POLYLINE
  8
MERGEDLAYER-1
 66
  1
 70
  0
 62
  7
 10
52.464247
 20
150.619520
 30
0.000000
  0
VERTEX
  8
MERGEDLAYER-1
 10
52.464247
 20
150.619520
 30
0.000000
  0
VERTEX
  8
MERGEDLAYER-1
 10
51.232829
 20
150.619520
 30
0.000000
  0
SEQEND
  8
MERGEDLAYER-1
  0
POLYLINE
  8
MERGEDLAYER-1
 66
  1
 70
  0
 62
  7
 10
52.464247
 20
150.619548
 30
0.000000
  0
VERTEX
  8
MERGEDLAYER-1
 10
52.464247
 20
150.619548
 30
0.000000
  0
VERTEX
  8
MERGEDLAYER-1
 10
52.619948
 20
150.754747
 30
0.000000
  0
VERTEX
  8
MERGEDLAYER-1
 10
52.755154
 20
150.910455
 30
0.000000
  0
SEQEND
  8
MERGEDLAYER-1
  0
POLYLINE
  8
MERGEDLAYER-1
 66
  1
 70
  0
 62
  7
 10
52.755191
 20
151.084988
 30
0.000000
  0
VERTEX
  8
MERGEDLAYER-1
 10
52.755191
 20
151.084988
 30
0.000000
  0
VERTEX
  8
MERGEDLAYER-1
 10
52.755191
 20
150.910455
 30
0.000000
  0
SEQEND
  8
MERGEDLAYER-1
  0
POLYLINE
  8
MERGEDLAYER-1
 66
  1
 70
  0
 62
  7
 10
53.046034
 20
151.375895
 30
0.000000
  0
VERTEX
  8
MERGEDLAYER-1
 10
53.046034
 20
151.375895
 30
0.000000
  0
VERTEX
  8
MERGEDLAYER-1
 10
52.790334
 20
151.340685
 30
0.000000
  0
VERTEX
  8
MERGEDLAYER-1
 10
52.755130
 20
151.084988
 30
0.000000
  0
SEQEND
  8
MERGEDLAYER-1
  0
POLYLINE
  8
MERGEDLAYER-1
 66
  1
 70
  0
 62
  7
 10
53.768446
 20
151.375895
 30
0.000000
  0
VERTEX
  8
MERGEDLAYER-1
 10
53.768446
 20
151.375895
 30
0.000000
  0
VERTEX
  8
MERGEDLAYER-1
 10
53.046034
 20
151.375895
 30
0.000000
  0
SEQEND
  8
MERGEDLAYER-1
  0
POLYLINE
  8
MERGEDLAYER-1
 66
  1
 70
  0
 62
  7
 10
54.059353
 20
151.084988
 30
0.000000
  0
VERTEX
  8
MERGEDLAYER-1
 10
54.059353
 20
151.084988
 30
0.000000
  0
VERTEX
  8
MERGEDLAYER-1
 10
53.924147
 20
151.340685
 30
0.000000
  0
VERTEX
  8
MERGEDLAYER-1
 10
53.768446
 20
151.375895
 30
0.000000
  0
SEQEND
  8
MERGEDLAYER-1
  0
POLYLINE
  8
MERGEDLAYER-1
 66
  1
 70
  0
 62
  7
 10
54.059462
 20
151.084988
 30
0.000000
  0
VERTEX
  8
MERGEDLAYER-1
 10
54.059462
 20
151.084988
 30
0.000000
  0
VERTEX
  8
MERGEDLAYER-1
 10
54.059462
 20
132.146647
 30
0.000000
  0
SEQEND
  8
MERGEDLAYER-1
  0
POLYLINE
  8
MERGEDLAYER-1
 66
  1
 70
  0
 62
  7
 10
53.913954
 20
132.001194
 30
0.000000
  0
VERTEX
  8
MERGEDLAYER-1
 10
53.913954
 20
132.001194
 30
0.000000
  0
VERTEX
  8
MERGEDLAYER-1
 10
54.059408
 20
132.146647
 30
0.000000
  0
SEQEND
  8
MERGEDLAYER-1
  0
POLYLINE
  8
MERGEDLAYER-1
 66
  1
 70
  0
 62
  7
 10
53.913954
 20
132.001166
 30
0.000000
  0
VERTEX
  8
MERGEDLAYER-1
 10
53.913954
 20
132.001166
 30
0.000000
  0
VERTEX
  8
MERGEDLAYER-1
 10
50.835219
 20
132.001166
 30
0.000000
  0
SEQEND
  8
MERGEDLAYER-1
  0
POLYLINE
  8
MERGEDLAYER-1
 66
  1
 70
  0
 62
  7
 10
50.835219
 20
132.001166
 30
0.000000
  0
VERTEX
  8
MERGEDLAYER-1
 10
50.835219
 20
132.001166
 30
0.000000
  0
VERTEX
  8
MERGEDLAYER-1
 10
50.835219
 20
131.225423
 30
0.000000
  0
SEQEND
  8
MERGEDLAYER-1
  0
POLYLINE
  8
MERGEDLAYER-1
 66
  1
 70
  0
 62
  7
 10
53.913954
 20
131.225423
 30
0.000000
  0
VERTEX
  8
MERGEDLAYER-1
 10
53.913954
 20
131.225423
 30
0.000000
  0
VERTEX
  8
MERGEDLAYER-1
 10
50.835219
 20
131.225423
 30
0.000000
  0
SEQEND
  8
MERGEDLAYER-1
  0
POLYLINE
  8
MERGEDLAYER-1
 66
  1
 70
  0
 62
  7
 10
54.059408
 20
131.079997
 30
0.000000
  0
VERTEX
  8
MERGEDLAYER-1
 10
54.059408
 20
131.079997
 30
0.000000
  0
VERTEX
  8
MERGEDLAYER-1
 10
53.913954
 20
131.225450
 30
0.000000
  0
SEQEND
  8
MERGEDLAYER-1
  0
POLYLINE
  8
MERGEDLAYER-1
 66
  1
 70
  0
 62
  7
 10
54.059462
 20
131.079997
 30
0.000000
  0
VERTEX
  8
MERGEDLAYER-1
 10
54.059462
 20
131.079997
 30
0.000000
  0
VERTEX
  8
MERGEDLAYER-1
 10
54.059462
 20
129.431586
 30
0.000000
  0
SEQEND
  8
MERGEDLAYER-1
  0
POLYLINE
  8
MERGEDLAYER-1
 66
  1
 70
  0
 62
  7
 10
53.913954
 20
129.286133
 30
0.000000
  0
VERTEX
  8
MERGEDLAYER-1
 10
53.913954
 20
129.286133
 30
0.000000
  0
VERTEX
  8
MERGEDLAYER-1
 10
54.059408
 20
129.431586
 30
0.000000
  0
SEQEND
  8
MERGEDLAYER-1
  0
POLYLINE
  8
MERGEDLAYER-1
 66
  1
 70
  0
 62
  7
 10
43.102271
 20
129.286160
 30
0.000000
  0
VERTEX
  8
MERGEDLAYER-1
 10
43.102271
 20
129.286160
 30
0.000000
  0
VERTEX
  8
MERGEDLAYER-1
 10
53.913954
 20
129.286160
 30
0.000000
  0
SEQEND
  8
MERGEDLAYER-1
  0
POLYLINE
  8
MERGEDLAYER-1
 66
  1
 70
  0
 62
  7
 10
42.956818
 20
129.431586
 30
0.000000
  0
VERTEX
  8
MERGEDLAYER-1
 10
42.956818
 20
129.431586
 30
0.000000
  0
VERTEX
  8
MERGEDLAYER-1
 10
43.102271
 20
129.286133
 30
0.000000
  0
SEQEND
  8
MERGEDLAYER-1
  0
POLYLINE
  8
MERGEDLAYER-1
 66
  1
 70
  0
 62
  7
 10
42.956740
 20
131.079997
 30
0.000000
  0
VERTEX
  8
MERGEDLAYER-1
 10
42.956740
 20
131.079997
 30
0.000000
  0
VERTEX
  8
MERGEDLAYER-1
 10
42.956740
 20
129.431586
 30
0.000000
  0
SEQEND
  8
MERGEDLAYER-1
  0
POLYLINE
  8
MERGEDLAYER-1
 66
  1
 70
  0
 62
  7
 10
43.102271
 20
131.225450
 30
0.000000
  0
VERTEX
  8
MERGEDLAYER-1
 10
43.102271
 20
131.225450
 30
0.000000
  0
VERTEX
  8
MERGEDLAYER-1
 10
42.956818
 20
131.079997
 30
0.000000
  0
SEQEND
  8
MERGEDLAYER-1
  0
POLYLINE
  8
MERGEDLAYER-1
 66
  1
 70
  0
 62
  7
 10
43.102271
 20
131.225423
 30
0.000000
  0
VERTEX
  8
MERGEDLAYER-1
 10
43.102271
 20
131.225423
 30
0.000000
  0
VERTEX
  8
MERGEDLAYER-1
 10
46.180932
 20
131.225423
 30
0.000000
  0
SEQEND
  8
MERGEDLAYER-1
  0
POLYLINE
  8
MERGEDLAYER-1
 66
  1
 70
  0
 62
  7
 10
46.180932
 20
132.001166
 30
0.000000
  0
VERTEX
  8
MERGEDLAYER-1
 10
46.180932
 20
132.001166
 30
0.000000
  0
VERTEX
  8
MERGEDLAYER-1
 10
46.180932
 20
131.225423
 30
0.000000
  0
SEQEND
  8
MERGEDLAYER-1
  0
POLYLINE
  8
MERGEDLAYER-1
 66
  1
 70
  0
 62
  7
 10
43.102271
 20
132.001166
 30
0.000000
  0
VERTEX
  8
MERGEDLAYER-1
 10
43.102271
 20
132.001166
 30
0.000000
  0
VERTEX
  8
MERGEDLAYER-1
 10
46.180932
 20
132.001166
 30
0.000000
  0
SEQEND
  8
MERGEDLAYER-1
  0
POLYLINE
  8
MERGEDLAYER-1
 66
  1
 70
  0
 62
  7
 10
42.956818
 20
132.146647
 30
0.000000
  0
VERTEX
  8
MERGEDLAYER-1
 10
42.956818
 20
132.146647
 30
0.000000
  0
VERTEX
  8
MERGEDLAYER-1
 10
43.102271
 20
132.001194
 30
0.000000
  0
SEQEND
  8
MERGEDLAYER-1
  0
POLYLINE
  8
MERGEDLAYER-1
 66
  1
 70
  0
 62
  7
 10
42.956740
 20
151.084988
 30
0.000000
  0
VERTEX
  8
MERGEDLAYER-1
 10
42.956740
 20
151.084988
 30
0.000000
  0
VERTEX
  8
MERGEDLAYER-1
 10
42.956740
 20
132.146647
 30
0.000000
  0
SEQEND
  8
MERGEDLAYER-1
  0
POLYLINE
  8
MERGEDLAYER-1
 66
  1
 70
  0
 62
  7
 10
43.247606
 20
151.375895
 30
0.000000
  0
VERTEX
  8
MERGEDLAYER-1
 10
43.247606
 20
151.375895
 30
0.000000
  0
VERTEX
  8
MERGEDLAYER-1
 10
42.991903
 20
151.340685
 30
0.000000
  0
VERTEX
  8
MERGEDLAYER-1
 10
42.956702
 20
151.084988
 30
0.000000
  0
SEQEND
  8
MERGEDLAYER-1
  0
POLYLINE
  8
MERGEDLAYER-1
 66
  1
 70
  0
 62
  7
 10
43.247606
 20
151.375895
 30
0.000000
  0
VERTEX
  8
MERGEDLAYER-1
 10
43.247606
 20
151.375895
 30
0.000000
  0
VERTEX
  8
MERGEDLAYER-1
 10
43.970117
 20
151.375895
 30
0.000000
  0
SEQEND
  8
MERGEDLAYER-1
  0
POLYLINE
  8
MERGEDLAYER-1
 66
  1
 70
  0
 62
  7
 10
44.261024
 20
151.084988
 30
0.000000
  0
VERTEX
  8
MERGEDLAYER-1
 10
44.261024
 20
151.084988
 30
0.000000
  0
VERTEX
  8
MERGEDLAYER-1
 10
44.125821
 20
151.340685
 30
0.000000
  0
VERTEX
  8
MERGEDLAYER-1
 10
43.970117
 20
151.375895
 30
0.000000
  0
SEQEND
  8
MERGEDLAYER-1
  0
POLYLINE
  8
MERGEDLAYER-1
 66
  1
 70
  0
 62
  7
 10
44.261034
 20
151.084988
 30
0.000000
  0
VERTEX
  8
MERGEDLAYER-1
 10
44.261034
 20
151.084988
 30
0.000000
  0
VERTEX
  8
MERGEDLAYER-1
 10
44.261034
 20
150.910455
 30
0.000000
  0
SEQEND
  8
MERGEDLAYER-1
  0
POLYLINE
  8
MERGEDLAYER-1
 66
  1
 70
  0
 62
  7
 10
44.260949
 20
150.910455
 30
0.000000
  0
VERTEX
  8
MERGEDLAYER-1
 10
44.260949
 20
150.910455
 30
0.000000
  0
VERTEX
  8
MERGEDLAYER-1
 10
44.296153
 20
150.754747
 30
0.000000
  0
VERTEX
  8
MERGEDLAYER-1
 10
44.551856
 20
150.619548
 30
0.000000
  0
SEQEND
  8
MERGEDLAYER-1
  0
POLYLINE
  8
MERGEDLAYER-1
 66
  1
 70
  0
 62
  7
 10
44.551856
 20
150.619520
 30
0.000000
  0
VERTEX
  8
MERGEDLAYER-1
 10
44.551856
 20
150.619520
 30
0.000000
  0
VERTEX
  8
MERGEDLAYER-1
 10
45.783400
 20
150.619520
 30
0.000000
  0
SEQEND
  8
MERGEDLAYER-1
  0
POLYLINE
  8
MERGEDLAYER-1
 66
  1
 70
  0
 62
  7
 10
45.783400
 20
150.619520
 30
0.000000
  0
VERTEX
  8
MERGEDLAYER-1
 10
45.783400
 20
150.619520
 30
0.000000
  0
VERTEX
  8
MERGEDLAYER-1
 10
45.945957
 20
150.757568
 30
0.000000
  0
VERTEX
  8
MERGEDLAYER-1
 10
46.034003
 20
150.970133
 30
0.000000
  0
VERTEX
  8
MERGEDLAYER-1
 10
45.945957
 20
151.182685
 30
0.000000
  0
VERTEX
  8
MERGEDLAYER-1
 10
45.783400
 20
151.220730
 30
0.000000
  0
SEQEND
  8
MERGEDLAYER-1
  0
POLYLINE
  8
MERGEDLAYER-1
 66
  1
 70
  0
 62
  7
 10
44.871874
 20
151.220703
 30
0.000000
  0
VERTEX
  8
MERGEDLAYER-1
 10
44.871874
 20
151.220703
 30
0.000000
  0
VERTEX
  8
MERGEDLAYER-1
 10
45.783400
 20
151.220703
 30
0.000000
  0
SEQEND
  8
MERGEDLAYER-1
  0
POLYLINE
  8
MERGEDLAYER-1
 66
  1
 70
  0
 62
  7
 10
44.871874
 20
151.220703
 30
0.000000
  0
VERTEX
  8
MERGEDLAYER-1
 10
44.871874
 20
151.220703
 30
0.000000
  0
VERTEX
  8
MERGEDLAYER-1
 10
44.871874
 20
151.841309
 30
0.000000
  0
SEQEND
  8
MERGEDLAYER-1
  0
POLYLINE
  8
MERGEDLAYER-1
 66
  1
 70
  0
 62
  7
 10
44.871918
 20
151.841309
 30
0.000000
  0
VERTEX
  8
MERGEDLAYER-1
 10
44.871918
 20
151.841309
 30
0.000000
  0
VERTEX
  8
MERGEDLAYER-1
 10
44.726464
 20
151.986762
 30
0.000000
  0
SEQEND
  8
MERGEDLAYER-1
  0
POLYLINE
  8
MERGEDLAYER-1
 66
  1
 70
  0
 62
  7
 10
42.423340
 20
151.986803
 30
0.000000
  0
VERTEX
  8
MERGEDLAYER-1
 10
42.423340
 20
151.986803
 30
0.000000
  0
VERTEX
  8
MERGEDLAYER-1
 10
44.726464
 20
151.986803
 30
0.000000
  0
SEQEND
  8
MERGEDLAYER-1
  0
POLYLINE
  8
MERGEDLAYER-1
 66
  1
 70
  0
 62
  7
 10
42.423340
 20
151.986762
 30
0.000000
  0
VERTEX
  8
MERGEDLAYER-1
 10
42.423340
 20
151.986762
 30
0.000000
  0
VERTEX
  8
MERGEDLAYER-1
 10
42.277886
 20
151.841309
 30
0.000000
  0
SEQEND
  8
MERGEDLAYER-1
  0
POLYLINE
  8
MERGEDLAYER-1
 66
  1
 70
  0
 62
  7
 10
42.278002
 20
151.841309
 30
0.000000
  0
VERTEX
  8
MERGEDLAYER-1
 10
42.278002
 20
151.841309
 30
0.000000
  0
VERTEX
  8
MERGEDLAYER-1
 10
42.278002
 20
124.204902
 30
0.000000
  0
SEQEND
  8
MERGEDLAYER-1
  0
POLYLINE
  8
MERGEDLAYER-1
 66
  1
 70
  0
 62
  7
 10
42.277886
 20
124.204902
 30
0.000000
  0
VERTEX
  8
MERGEDLAYER-1
 10
42.277886
 20
124.204902
 30
0.000000
  0
VERTEX
  8
MERGEDLAYER-1
 10
42.423340
 20
124.059448
 30
0.000000
  0
SEQEND
  8
MERGEDLAYER-1
  0
POLYLINE
  8
MERGEDLAYER-1
 66
  1
 70
  0
 62
  7
 10
42.423340
 20
124.059421
 30
0.000000
  0
VERTEX
  8
MERGEDLAYER-1
 10
42.423340
 20
124.059421
 30
0.000000
  0
VERTEX
  8
MERGEDLAYER-1
 10
44.726464
 20
124.059421
 30
0.000000
  0
SEQEND
  8
MERGEDLAYER-1
  0
POLYLINE
  8
MERGEDLAYER-1
 66
  1
 70
  0
 62
  7
 10
44.726464
 20
124.059448
 30
0.000000
  0
VERTEX
  8
MERGEDLAYER-1
 10
44.726464
 20
124.059448
 30
0.000000
  0
VERTEX
  8
MERGEDLAYER-1
 10
44.871918
 20
124.204902
 30
0.000000
  0
SEQEND
  8
MERGEDLAYER-1
  0
POLYLINE
  8
MERGEDLAYER-1
 66
  1
 70
  0
 62
  7
 10
44.871874
 20
124.825507
 30
0.000000
  0
VERTEX
  8
MERGEDLAYER-1
 10
44.871874
 20
124.825507
 30
0.000000
  0
VERTEX
  8
MERGEDLAYER-1
 10
44.871874
 20
124.204902
 30
0.000000
  0
SEQEND
  8
MERGEDLAYER-1
  0
POLYLINE
  8
MERGEDLAYER-1
 66
  1
 70
  0
 62
  7
 10
44.871874
 20
124.825507
 30
0.000000
  0
VERTEX
  8
MERGEDLAYER-1
 10
44.871874
 20
124.825507
 30
0.000000
  0
VERTEX
  8
MERGEDLAYER-1
 10
45.783400
 20
124.825507
 30
0.000000
  0
SEQEND
  8
MERGEDLAYER-1
  0
POLYLINE
  8
MERGEDLAYER-1
 66
  1
 70
  0
 62
  7
 10
45.783400
 20
124.825521
 30
0.000000
  0
VERTEX
  8
MERGEDLAYER-1
 10
45.783400
 20
124.825521
 30
0.000000
  0
VERTEX
  8
MERGEDLAYER-1
 10
45.945957
 20
124.963569
 30
0.000000
  0
VERTEX
  8
MERGEDLAYER-1
 10
46.034003
 20
125.176120
 30
0.000000
  0
VERTEX
  8
MERGEDLAYER-1
 10
45.945957
 20
125.388672
 30
0.000000
  0
VERTEX
  8
MERGEDLAYER-1
 10
45.783400
 20
125.426731
 30
0.000000
  0
SEQEND
  8
MERGEDLAYER-1
  0
POLYLINE
  8
MERGEDLAYER-1
 66
  1
 70
  0
 62
  7
 10
44.551856
 20
125.426704
 30
0.000000
  0
VERTEX
  8
MERGEDLAYER-1
 10
44.551856
 20
125.426704
 30
0.000000
  0
VERTEX
  8
MERGEDLAYER-1
 10
45.783400
 20
125.426704
 30
0.000000
  0
SEQEND
  8
MERGEDLAYER-1
  0
POLYLINE
  8
MERGEDLAYER-1
 66
  1
 70
  0
 62
  7
 10
44.551856
 20
125.426704
 30
0.000000
  0
VERTEX
  8
MERGEDLAYER-1
 10
44.551856
 20
125.426704
 30
0.000000
  0
VERTEX
  8
MERGEDLAYER-1
 10
44.296153
 20
125.391493
 30
0.000000
  0
VERTEX
  8
MERGEDLAYER-1
 10
44.260949
 20
125.135796
 30
0.000000
  0
SEQEND
  8
MERGEDLAYER-1
  0
POLYLINE
  8
MERGEDLAYER-1
 66
  1
 70
  0
 62
  7
 10
44.261034
 20
124.961290
 30
0.000000
  0
VERTEX
  8
MERGEDLAYER-1
 10
44.261034
 20
124.961290
 30
0.000000
  0
VERTEX
  8
MERGEDLAYER-1
 10
44.261034
 20
125.135796
 30
0.000000
  0
SEQEND
  8
MERGEDLAYER-1
  0
POLYLINE
  8
MERGEDLAYER-1
 66
  1
 70
  0
 62
  7
 10
43.970117
 20
124.670383
 30
0.000000
  0
VERTEX
  8
MERGEDLAYER-1
 10
43.970117
 20
124.670383
 30
0.000000
  0
VERTEX
  8
MERGEDLAYER-1
 10
44.125821
 20
124.805583
 30
0.000000
  0
VERTEX
  8
MERGEDLAYER-1
 10
44.261024
 20
124.961290
 30
0.000000
  0
SEQEND
  8
MERGEDLAYER-1
  0
POLYLINE
  8
MERGEDLAYER-1
 66
  1
 70
  0
 62
  7
 10
43.247606
 20
124.670383
 30
0.000000
  0
VERTEX
  8
MERGEDLAYER-1
 10
43.247606
 20
124.670383
 30
0.000000
  0
VERTEX
  8
MERGEDLAYER-1
 10
43.970117
 20
124.670383
 30
0.000000
  0
SEQEND
  8
MERGEDLAYER-1
  0
POLYLINE
  8
MERGEDLAYER-1
 66
  1
 70
  0
 62
  7
 10
42.956702
 20
124.961290
 30
0.000000
  0
VERTEX
  8
MERGEDLAYER-1
 10
42.956702
 20
124.961290
 30
0.000000
  0
VERTEX
  8
MERGEDLAYER-1
 10
42.991903
 20
124.805583
 30
0.000000
  0
VERTEX
  8
MERGEDLAYER-1
 10
43.247606
 20
124.670383
 30
0.000000
  0
SEQEND
  8
MERGEDLAYER-1
  0
POLYLINE
  8
MERGEDLAYER-1
 66
  1
 70
  0
 62
  7
 10
42.956740
 20
124.961290
 30
0.000000
  0
VERTEX
  8
MERGEDLAYER-1
 10
42.956740
 20
124.961290
 30
0.000000
  0
VERTEX
  8
MERGEDLAYER-1
 10
42.956740
 20
128.074029
 30
0.000000
  0
SEQEND
  8
MERGEDLAYER-1
  0
POLYLINE
  8
MERGEDLAYER-1
 66
  1
 70
  0
 62
  7
 10
43.102271
 20
128.219482
 30
0.000000
  0
VERTEX
  8
MERGEDLAYER-1
 10
43.102271
 20
128.219482
 30
0.000000
  0
VERTEX
  8
MERGEDLAYER-1
 10
42.956818
 20
128.074029
 30
0.000000
  0
SEQEND
  8
MERGEDLAYER-1
  0
POLYLINE
  8
MERGEDLAYER-1
 66
  1
 70
  0
 62
  7
 10
43.102271
 20
128.219455
 30
0.000000
  0
VERTEX
  8
MERGEDLAYER-1
 10
43.102271
 20
128.219455
 30
0.000000
  0
VERTEX
  8
MERGEDLAYER-1
 10
48.205092
 20
128.219455
 30
0.000000
  0
SEQEND
  8
MERGEDLAYER-1
  0
POLYLINE
  8
MERGEDLAYER-1
 66
  1
 70
  0
 62
  7
 10
48.507975
 20
128.522488
 30
0.000000
  0
VERTEX
  8
MERGEDLAYER-1
 10
48.507975
 20
128.522488
 30
0.000000
  0
VERTEX
  8
MERGEDLAYER-1
 10
48.205092
 20
128.219455
 30
0.000000
  0
SEQEND
  8
MERGEDLAYER-1
  0
POLYLINE
  8
MERGEDLAYER-1
 66
  1
 70
  0
 62
  7
 10
48.507975
 20
128.522488
 30
0.000000
  0
VERTEX
  8
MERGEDLAYER-1
 10
48.507975
 20
128.522488
 30
0.000000
  0
VERTEX
  8
MERGEDLAYER-1
 10
48.811049
 20
128.219455
 30
0.000000
  0
SEQEND
  8
MERGEDLAYER-1
  0
POLYLINE
  8
MERGEDLAYER-1
 66
  1
 70
  0
 62
  7
 10
53.913954
 20
128.219455
 30
0.000000
  0
VERTEX
  8
MERGEDLAYER-1
 10
53.913954
 20
128.219455
 30
0.000000
  0
VERTEX
  8
MERGEDLAYER-1
 10
48.811049
 20
128.219455
 30
0.000000
  0
SEQEND
  8
MERGEDLAYER-1
  0
POLYLINE
  8
MERGEDLAYER-1
 66
  1
 70
  0
 62
  7
 10
54.059408
 20
128.074029
 30
0.000000
  0
VERTEX
  8
MERGEDLAYER-1
 10
54.059408
 20
128.074029
 30
0.000000
  0
VERTEX
  8
MERGEDLAYER-1
 10
53.913954
 20
128.219482
 30
0.000000
  0
SEQEND
  8
MERGEDLAYER-1
  0
POLYLINE
  8
MERGEDLAYER-1
 66
  1
 70
  0
 62
  7
 10
54.059462
 20
124.961290
 30
0.000000
  0
VERTEX
  8
MERGEDLAYER-1
 10
54.059462
 20
124.961290
 30
0.000000
  0
VERTEX
  8
MERGEDLAYER-1
 10
54.059462
 20
128.074029
 30
0.000000
  0
SEQEND
  8
MERGEDLAYER-1
  0
POLYLINE
  8
MERGEDLAYER-1
 66
  1
 70
  0
 62
  7
 10
53.768446
 20
124.670383
 30
0.000000
  0
VERTEX
  8
MERGEDLAYER-1
 10
53.768446
 20
124.670383
 30
0.000000
  0
VERTEX
  8
MERGEDLAYER-1
 10
53.924147
 20
124.805583
 30
0.000000
  0
VERTEX
  8
MERGEDLAYER-1
 10
54.059353
 20
124.961290
 30
0.000000
  0
SEQEND
  8
MERGEDLAYER-1
  0
POLYLINE
  8
MERGEDLAYER-1
 66
  1
 70
  0
 62
  7
 10
53.768446
 20
124.670383
 30
0.000000
  0
VERTEX
  8
MERGEDLAYER-1
 10
53.768446
 20
124.670383
 30
0.000000
  0
VERTEX
  8
MERGEDLAYER-1
 10
53.046034
 20
124.670383
 30
0.000000
  0
SEQEND
  8
MERGEDLAYER-1
  0
POLYLINE
  8
MERGEDLAYER-1
 66
  1
 70
  0
 62
  7
 10
52.755130
 20
124.961290
 30
0.000000
  0
VERTEX
  8
MERGEDLAYER-1
 10
52.755130
 20
124.961290
 30
0.000000
  0
VERTEX
  8
MERGEDLAYER-1
 10
52.790334
 20
124.805583
 30
0.000000
  0
VERTEX
  8
MERGEDLAYER-1
 10
53.046034
 20
124.670383
 30
0.000000
  0
SEQEND
  8
MERGEDLAYER-1
  0
POLYLINE
  8
MERGEDLAYER-1
 66
  1
 70
  0
 62
  7
 10
52.755191
 20
124.961290
 30
0.000000
  0
VERTEX
  8
MERGEDLAYER-1
 10
52.755191
 20
124.961290
 30
0.000000
  0
VERTEX
  8
MERGEDLAYER-1
 10
52.755191
 20
125.135796
 30
0.000000
  0
SEQEND
  8
MERGEDLAYER-1
  0
POLYLINE
  8
MERGEDLAYER-1
 66
  1
 70
  0
 62
  7
 10
52.755154
 20
125.135796
 30
0.000000
  0
VERTEX
  8
MERGEDLAYER-1
 10
52.755154
 20
125.135796
 30
0.000000
  0
VERTEX
  8
MERGEDLAYER-1
 10
52.619948
 20
125.391493
 30
0.000000
  0
VERTEX
  8
MERGEDLAYER-1
 10
52.464247
 20
125.426704
 30
0.000000
  0
SEQEND
  8
MERGEDLAYER-1
  0
POLYLINE
  8
MERGEDLAYER-1
 66
  1
 70
  0
 62
  7
 10
52.464247
 20
125.426704
 30
0.000000
  0
VERTEX
  8
MERGEDLAYER-1
 10
52.464247
 20
125.426704
 30
0.000000
  0
VERTEX
  8
MERGEDLAYER-1
 10
51.232829
 20
125.426704
 30
0.000000
  0
SEQEND
  8
MERGEDLAYER-1
  0
POLYLINE
  8
MERGEDLAYER-1
 66
  1
 70
  0
 62
  7
 10
51.232829
 20
125.426731
 30
0.000000
  0
VERTEX
  8
MERGEDLAYER-1
 10
51.232829
 20
125.426731
 30
0.000000
  0
VERTEX
  8
MERGEDLAYER-1
 10
50.970266
 20
125.388672
 30
0.000000
  0
VERTEX
  8
MERGEDLAYER-1
 10
50.882222
 20
125.176120
 30
0.000000
  0
VERTEX
  8
MERGEDLAYER-1
 10
50.970266
 20
124.963569
 30
0.000000
  0
VERTEX
  8
MERGEDLAYER-1
 10
51.232829
 20
124.825521
 30
0.000000
  0
SEQEND
  8
MERGEDLAYER-1
  0
POLYLINE
  8
MERGEDLAYER-1
 66
  1
 70
  0
 62
  7
 10
52.144301
 20
124.825507
 30
0.000000
  0
VERTEX
  8
MERGEDLAYER-1
 10
52.144301
 20
124.825507
 30
0.000000
  0
VERTEX
  8
MERGEDLAYER-1
 10
51.232829
 20
124.825507
 30
0.000000
  0
SEQEND
  8
MERGEDLAYER-1
  0
POLYLINE
  8
MERGEDLAYER-1
 66
  1
 70
  0
 62
  7
 10
52.144301
 20
124.825507
 30
0.000000
  0
VERTEX
  8
MERGEDLAYER-1
 10
52.144301
 20
124.825507
 30
0.000000
  0
VERTEX
  8
MERGEDLAYER-1
 10
52.144301
 20
124.204902
 30
0.000000
  0
SEQEND
  8
MERGEDLAYER-1
  0
POLYLINE
  8
MERGEDLAYER-1
 66
  1
 70
  0
 62
  7
 10
52.144236
 20
124.204902
 30
0.000000
  0
VERTEX
  8
MERGEDLAYER-1
 10
52.144236
 20
124.204902
 30
0.000000
  0
VERTEX
  8
MERGEDLAYER-1
 10
52.289686
 20
124.059448
 30
0.000000
  0
SEQEND
  8
MERGEDLAYER-1
  0
POLYLINE
  8
MERGEDLAYER-1
 66
  1
 70
  0
 62
  7
 10
54.592645
 20
124.059421
 30
0.000000
  0
VERTEX
  8
MERGEDLAYER-1
 10
54.592645
 20
124.059421
 30
0.000000
  0
VERTEX
  8
MERGEDLAYER-1
 10
52.289686
 20
124.059421
 30
0.000000
  0
SEQEND
  8
MERGEDLAYER-1
  0
POLYLINE
  8
MERGEDLAYER-1
 66
  1
 70
  0
 62
  7
 10
54.592645
 20
124.059448
 30
0.000000
  0
VERTEX
  8
MERGEDLAYER-1
 10
54.592645
 20
124.059448
 30
0.000000
  0
VERTEX
  8
MERGEDLAYER-1
 10
54.738091
 20
124.204902
 30
0.000000
  0
SEQEND
  8
MERGEDLAYER-1
  0
POLYLINE
  8
MERGEDLAYER-1
 66
  1
 70
  0
 62
  7
 10
54.738173
 20
124.204902
 30
0.000000
  0
VERTEX
  8
MERGEDLAYER-1
 10
54.738173
 20
124.204902
 30
0.000000
  0
VERTEX
  8
MERGEDLAYER-1
 10
54.738519
 20
151.841309
 30
0.000000
  0
SEQEND
  8
MERGEDLAYER-1
  0
POLYLINE
  8
MERGEDLAYER-1
 66
  1
 70
  0
 62
  7
 10
49.341349
 20
128.238892
 30
0.000000
  0
VERTEX
  8
MERGEDLAYER-1
 10
49.341349
 20
128.238892
 30
0.000000
  0
VERTEX
  8
MERGEDLAYER-1
 10
49.341349
 20
129.299479
 30
0.000000
  0
SEQEND
  8
MERGEDLAYER-1
  0
POLYLINE
  8
MERGEDLAYER-1
 66
  1
 70
  0
 62
  7
 10
47.672485
 20
128.238892
 30
0.000000
  0
VERTEX
  8
MERGEDLAYER-1
 10
47.672485
 20
128.238892
 30
0.000000
  0
VERTEX
  8
MERGEDLAYER-1
 10
47.672485
 20
129.299479
 30
0.000000
  0
SEQEND
  8
MERGEDLAYER-1
  0
POLYLINE
  8
MERGEDLAYER-1
  6
LTYPE01
 66
  1
 70
  0
 62
  7
  6
LTYPE01
 10
53.358975
 20
128.078369
 30
0.000000
  0
VERTEX
  8
MERGEDLAYER-1
  6
LTYPE01
 10
53.358975
 20
128.078369
 30
0.000000
  0
VERTEX
  8
MERGEDLAYER-1
  6
LTYPE01
 10
43.662062
 20
128.078369
 30
0.000000
  0
SEQEND
  8
MERGEDLAYER-1
  0
POLYLINE
  8
MERGEDLAYER-1
  6
LTYPE01
 66
  1
 70
  0
 62
  7
  6
LTYPE01
 10
53.358975
 20
129.290500
 30
0.000000
  0
VERTEX
  8
MERGEDLAYER-1
  6
LTYPE01
 10
53.358975
 20
129.290500
 30
0.000000
  0
VERTEX
  8
MERGEDLAYER-1
  6
LTYPE01
 10
43.662062
 20
129.290500
 30
0.000000
  0
SEQEND
  8
MERGEDLAYER-1
  0
POLYLINE
  8
MERGEDLAYER-1
 66
  1
 70
  1
 62
  7
 10
50.944278
 20
131.065389
 30
0.000000
  0
VERTEX
  8
MERGEDLAYER-1
 10
50.944278
 20
131.065389
 30
0.000000
  0
VERTEX
  8
MERGEDLAYER-1
 10
50.944278
 20
132.277520
 30
0.000000
  0
VERTEX
  8
MERGEDLAYER-1
 10
53.358975
 20
132.277520
 30
0.000000
  0
VERTEX
  8
MERGEDLAYER-1
 10
53.358975
 20
149.849908
 30
0.000000
  0
VERTEX
  8
MERGEDLAYER-1
 10
43.662062
 20
149.849908
 30
0.000000
  0
VERTEX
  8
MERGEDLAYER-1
 10
43.662062
 20
132.277520
 30
0.000000
  0
VERTEX
  8
MERGEDLAYER-1
 10
46.076562
 20
132.277520
 30
0.000000
  0
VERTEX
  8
MERGEDLAYER-1
 10
46.076562
 20
131.065389
 30
0.000000
  0
VERTEX
  8
MERGEDLAYER-1
 10
43.662062
 20
131.065389
 30
0.000000
  0
VERTEX
  8
MERGEDLAYER-1
 10
43.662062
 20
126.260200
 30
0.000000
  0
VERTEX
  8
MERGEDLAYER-1
 10
53.358975
 20
126.260200
 30
0.000000
  0
VERTEX
  8
MERGEDLAYER-1
 10
53.358975
 20
131.065389
 30
0.000000
  0
SEQEND
  8
MERGEDLAYER-1
  0
CIRCLE
  8
MERGEDLAYER-1
 62
  7
 10
48.510539
 20
140.522624
 30
0.000000
 40
1.742411
  0
CIRCLE
  8
MERGEDLAYER-1
 62
  7
 10
48.537587
 20
140.491618
 30
0.000000
 40
1.147584
  0
POLYLINE
  8
MERGEDLAYER-1
 66
  1
 70
  0
 62
  7
 10
50.867910
 20
125.601373
 30
0.000000
  0
VERTEX
  8
MERGEDLAYER-1
 10
50.867910
 20
125.601373
 30
0.000000
  0
VERTEX
  8
MERGEDLAYER-1
 10
50.645847
 20
125.580092
 30
0.000000
  0
VERTEX
  8
MERGEDLAYER-1
 10
50.624576
 20
125.358032
 30
0.000000
  0
SEQEND
  8
MERGEDLAYER-1
  0
POLYLINE
  8
MERGEDLAYER-1
 66
  1
 70
  0
 62
  7
 10
50.867910
 20
125.601373
 30
0.000000
  0
VERTEX
  8
MERGEDLAYER-1
 10
50.867910
 20
125.601373
 30
0.000000
  0
VERTEX
  8
MERGEDLAYER-1
 10
51.132338
 20
125.601373
 30
0.000000
  0
SEQEND
  8
MERGEDLAYER-1
  0
POLYLINE
  8
MERGEDLAYER-1
 66
  1
 70
  0
 62
  7
 10
51.132338
 20
125.601400
 30
0.000000
  0
VERTEX
  8
MERGEDLAYER-1
 10
51.132338
 20
125.601400
 30
0.000000
  0
VERTEX
  8
MERGEDLAYER-1
 10
51.317274
 20
125.786336
 30
0.000000
  0
SEQEND
  8
MERGEDLAYER-1
  0
POLYLINE
  8
MERGEDLAYER-1
 66
  1
 70
  0
 62
  7
 10
51.317373
 20
125.785116
 30
0.000000
  0
VERTEX
  8
MERGEDLAYER-1
 10
51.317373
 20
125.785116
 30
0.000000
  0
VERTEX
  8
MERGEDLAYER-1
 10
51.317373
 20
125.786336
 30
0.000000
  0
SEQEND
  8
MERGEDLAYER-1
  0
POLYLINE
  8
MERGEDLAYER-1
 66
  1
 70
  0
 62
  7
 10
51.317274
 20
125.785116
 30
0.000000
  0
VERTEX
  8
MERGEDLAYER-1
 10
51.317274
 20
125.785116
 30
0.000000
  0
VERTEX
  8
MERGEDLAYER-1
 10
51.132338
 20
125.970052
 30
0.000000
  0
SEQEND
  8
MERGEDLAYER-1
  0
POLYLINE
  8
MERGEDLAYER-1
 66
  1
 70
  0
 62
  7
 10
51.132338
 20
125.970133
 30
0.000000
  0
VERTEX
  8
MERGEDLAYER-1
 10
51.132338
 20
125.970133
 30
0.000000
  0
VERTEX
  8
MERGEDLAYER-1
 10
50.574575
 20
125.970133
 30
0.000000
  0
SEQEND
  8
MERGEDLAYER-1
  0
POLYLINE
  8
MERGEDLAYER-1
 66
  1
 70
  0
 62
  7
 10
50.574575
 20
125.970120
 30
0.000000
  0
VERTEX
  8
MERGEDLAYER-1
 10
50.574575
 20
125.970120
 30
0.000000
  0
VERTEX
  8
MERGEDLAYER-1
 10
50.201955
 20
125.886475
 30
0.000000
  0
VERTEX
  8
MERGEDLAYER-1
 10
50.118320
 20
125.513862
 30
0.000000
  0
SEQEND
  8
MERGEDLAYER-1
  0
POLYLINE
  8
MERGEDLAYER-1
 66
  1
 70
  0
 62
  7
 10
50.118327
 20
123.400391
 30
0.000000
  0
VERTEX
  8
MERGEDLAYER-1
 10
50.118327
 20
123.400391
 30
0.000000
  0
VERTEX
  8
MERGEDLAYER-1
 10
50.118327
 20
125.513862
 30
0.000000
  0
SEQEND
  8
MERGEDLAYER-1
  0
POLYLINE
  8
MERGEDLAYER-1
 66
  1
 70
  0
 62
  7
 10
50.118327
 20
123.400391
 30
0.000000
  0
VERTEX
  8
MERGEDLAYER-1
 10
50.118327
 20
123.400391
 30
0.000000
  0
VERTEX
  8
MERGEDLAYER-1
 10
46.787720
 20
123.400391
 30
0.000000
  0
SEQEND
  8
MERGEDLAYER-1
  0
POLYLINE
  8
MERGEDLAYER-1
 66
  1
 70
  0
 62
  7
 10
46.787720
 20
123.400391
 30
0.000000
  0
VERTEX
  8
MERGEDLAYER-1
 10
46.787720
 20
123.400391
 30
0.000000
  0
VERTEX
  8
MERGEDLAYER-1
 10
46.787720
 20
125.513862
 30
0.000000
  0
SEQEND
  8
MERGEDLAYER-1
  0
POLYLINE
  8
MERGEDLAYER-1
 66
  1
 70
  0
 62
  7
 10
46.787750
 20
125.513862
 30
0.000000
  0
VERTEX
  8
MERGEDLAYER-1
 10
46.787750
 20
125.513862
 30
0.000000
  0
VERTEX
  8
MERGEDLAYER-1
 10
46.604112
 20
125.886475
 30
0.000000
  0
VERTEX
  8
MERGEDLAYER-1
 10
46.331495
 20
125.970120
 30
0.000000
  0
SEQEND
  8
MERGEDLAYER-1
  0
POLYLINE
  8
MERGEDLAYER-1
 66
  1
 70
  0
 62
  7
 10
45.773827
 20
125.970133
 30
0.000000
  0
VERTEX
  8
MERGEDLAYER-1
 10
45.773827
 20
125.970133
 30
0.000000
  0
VERTEX
  8
MERGEDLAYER-1
 10
46.331495
 20
125.970133
 30
0.000000
  0
SEQEND
  8
MERGEDLAYER-1
  0
POLYLINE
  8
MERGEDLAYER-1
 66
  1
 70
  0
 62
  7
 10
45.773827
 20
125.970052
 30
0.000000
  0
VERTEX
  8
MERGEDLAYER-1
 10
45.773827
 20
125.970052
 30
0.000000
  0
VERTEX
  8
MERGEDLAYER-1
 10
45.588891
 20
125.785116
 30
0.000000
  0
SEQEND
  8
MERGEDLAYER-1
  0
POLYLINE
  8
MERGEDLAYER-1
 66
  1
 70
  0
 62
  7
 10
45.588891
 20
125.786336
 30
0.000000
  0
VERTEX
  8
MERGEDLAYER-1
 10
45.588891
 20
125.786336
 30
0.000000
  0
VERTEX
  8
MERGEDLAYER-1
 10
45.773827
 20
125.601400
 30
0.000000
  0
SEQEND
  8
MERGEDLAYER-1
  0
POLYLINE
  8
MERGEDLAYER-1
 66
  1
 70
  0
 62
  7
 10
46.038283
 20
125.601373
 30
0.000000
  0
VERTEX
  8
MERGEDLAYER-1
 10
46.038283
 20
125.601373
 30
0.000000
  0
VERTEX
  8
MERGEDLAYER-1
 10
45.773827
 20
125.601373
 30
0.000000
  0
SEQEND
  8
MERGEDLAYER-1
  0
POLYLINE
  8
MERGEDLAYER-1
 66
  1
 70
  0
 62
  7
 10
46.281616
 20
125.358032
 30
0.000000
  0
VERTEX
  8
MERGEDLAYER-1
 10
46.281616
 20
125.358032
 30
0.000000
  0
VERTEX
  8
MERGEDLAYER-1
 10
46.160346
 20
125.580092
 30
0.000000
  0
VERTEX
  8
MERGEDLAYER-1
 10
46.038283
 20
125.601373
 30
0.000000
  0
SEQEND
  8
MERGEDLAYER-1
  0
POLYLINE
  8
MERGEDLAYER-1
 66
  1
 70
  0
 62
  7
 10
46.281715
 20
123.400391
 30
0.000000
  0
VERTEX
  8
MERGEDLAYER-1
 10
46.281715
 20
123.400391
 30
0.000000
  0
VERTEX
  8
MERGEDLAYER-1
 10
46.281715
 20
125.358032
 30
0.000000
  0
SEQEND
  8
MERGEDLAYER-1
  0
POLYLINE
  8
MERGEDLAYER-1
 66
  1
 70
  0
 62
  7
 10
45.246558
 20
123.400391
 30
0.000000
  0
VERTEX
  8
MERGEDLAYER-1
 10
45.246558
 20
123.400391
 30
0.000000
  0
VERTEX
  8
MERGEDLAYER-1
 10
46.281715
 20
123.400391
 30
0.000000
  0
SEQEND
  8
MERGEDLAYER-1
  0
POLYLINE
  8
MERGEDLAYER-1
 66
  1
 70
  0
 62
  7
 10
45.246558
 20
124.059421
 30
0.000000
  0
VERTEX
  8
MERGEDLAYER-1
 10
45.246558
 20
124.059421
 30
0.000000
  0
VERTEX
  8
MERGEDLAYER-1
 10
45.246558
 20
123.400391
 30
0.000000
  0
SEQEND
  8
MERGEDLAYER-1
  0
POLYLINE
  8
MERGEDLAYER-1
 66
  1
 70
  0
 62
  7
 10
42.217628
 20
124.059421
 30
0.000000
  0
VERTEX
  8
MERGEDLAYER-1
 10
42.217628
 20
124.059421
 30
0.000000
  0
VERTEX
  8
MERGEDLAYER-1
 10
45.246558
 20
124.059421
 30
0.000000
  0
SEQEND
  8
MERGEDLAYER-1
  0
POLYLINE
  8
MERGEDLAYER-1
 66
  1
 70
  0
 62
  7
 10
42.217628
 20
124.059421
 30
0.000000
  0
VERTEX
  8
MERGEDLAYER-1
 10
42.217628
 20
124.059421
 30
0.000000
  0
VERTEX
  8
MERGEDLAYER-1
 10
42.217628
 20
123.767849
 30
0.000000
  0
SEQEND
  8
MERGEDLAYER-1
  0
POLYLINE
  8
MERGEDLAYER-1
 66
  1
 70
  0
 62
  7
 10
42.217570
 20
123.767849
 30
0.000000
  0
VERTEX
  8
MERGEDLAYER-1
 10
42.217570
 20
123.767849
 30
0.000000
  0
VERTEX
  8
MERGEDLAYER-1
 10
42.237030
 20
123.468655
 30
0.000000
  0
VERTEX
  8
MERGEDLAYER-1
 10
42.434835
 20
123.172607
 30
0.000000
  0
VERTEX
  8
MERGEDLAYER-1
 10
42.730876
 20
122.974799
 30
0.000000
  0
VERTEX
  8
MERGEDLAYER-1
 10
43.130079
 20
122.855347
 30
0.000000
  0
SEQEND
  8
MERGEDLAYER-1
  0
POLYLINE
  8
MERGEDLAYER-1
 66
  1
 70
  0
 62
  7
 10
53.776042
 20
122.855360
 30
0.000000
  0
VERTEX
  8
MERGEDLAYER-1
 10
53.776042
 20
122.855360
 30
0.000000
  0
VERTEX
  8
MERGEDLAYER-1
 10
43.130079
 20
122.855360
 30
0.000000
  0
SEQEND
  8
MERGEDLAYER-1
  0
POLYLINE
  8
MERGEDLAYER-1
 66
  1
 70
  0
 62
  7
 10
53.776042
 20
122.855347
 30
0.000000
  0
VERTEX
  8
MERGEDLAYER-1
 10
53.776042
 20
122.855347
 30
0.000000
  0
VERTEX
  8
MERGEDLAYER-1
 10
54.075243
 20
122.974799
 30
0.000000
  0
VERTEX
  8
MERGEDLAYER-1
 10
54.371277
 20
123.172607
 30
0.000000
  0
VERTEX
  8
MERGEDLAYER-1
 10
54.569085
 20
123.468655
 30
0.000000
  0
VERTEX
  8
MERGEDLAYER-1
 10
54.688551
 20
123.767849
 30
0.000000
  0
SEQEND
  8
MERGEDLAYER-1
  0
POLYLINE
  8
MERGEDLAYER-1
 66
  1
 70
  0
 62
  7
 10
54.688490
 20
124.059421
 30
0.000000
  0
VERTEX
  8
MERGEDLAYER-1
 10
54.688490
 20
124.059421
 30
0.000000
  0
VERTEX
  8
MERGEDLAYER-1
 10
54.688490
 20
123.767849
 30
0.000000
  0
SEQEND
  8
MERGEDLAYER-1
  0
POLYLINE
  8
MERGEDLAYER-1
 66
  1
 70
  0
 62
  7
 10
54.688490
 20
124.059421
 30
0.000000
  0
VERTEX
  8
MERGEDLAYER-1
 10
54.688490
 20
124.059421
 30
0.000000
  0
VERTEX
  8
MERGEDLAYER-1
 10
51.659559
 20
124.059421
 30
0.000000
  0
SEQEND
  8
MERGEDLAYER-1
  0
POLYLINE
  8
MERGEDLAYER-1
 66
  1
 70
  0
 62
  7
 10
51.659559
 20
124.059421
 30
0.000000
  0
VERTEX
  8
MERGEDLAYER-1
 10
51.659559
 20
124.059421
 30
0.000000
  0
VERTEX
  8
MERGEDLAYER-1
 10
51.659559
 20
123.400391
 30
0.000000
  0
SEQEND
  8
MERGEDLAYER-1
  0
POLYLINE
  8
MERGEDLAYER-1
 66
  1
 70
  0
 62
  7
 10
51.659559
 20
123.400391
 30
0.000000
  0
VERTEX
  8
MERGEDLAYER-1
 10
51.659559
 20
123.400391
 30
0.000000
  0
VERTEX
  8
MERGEDLAYER-1
 10
50.624454
 20
123.400391
 30
0.000000
  0
SEQEND
  8
MERGEDLAYER-1
  0
POLYLINE
  8
MERGEDLAYER-1
 66
  1
 70
  0
 62
  7
 10
50.624454
 20
123.400391
 30
0.000000
  0
VERTEX
  8
MERGEDLAYER-1
 10
50.624454
 20
123.400391
 30
0.000000
  0
VERTEX
  8
MERGEDLAYER-1
 10
50.624454
 20
125.358032
 30
0.000000
  0
SEQEND
  8
MERGEDLAYER-1
  0
POLYLINE
  8
MERGEDLAYER-1
 66
  1
 70
  0
 62
  7
 10
46.983273
 20
144.999132
 30
0.000000
  0
VERTEX
  8
MERGEDLAYER-1
 10
46.983273
 20
144.999132
 30
0.000000
  0
VERTEX
  8
MERGEDLAYER-1
 10
50.091892
 20
144.999132
 30
0.000000
  0
SEQEND
  8
MERGEDLAYER-1
  0
POLYLINE
  8
MERGEDLAYER-1
 66
  1
 70
  0
 62
  7
 10
51.646230
 20
143.444797
 30
0.000000
  0
VERTEX
  8
MERGEDLAYER-1
 10
51.646230
 20
143.444797
 30
0.000000
  0
VERTEX
  8
MERGEDLAYER-1
 10
51.646230
 20
137.437581
 30
0.000000
  0
SEQEND
  8
MERGEDLAYER-1
  0
POLYLINE
  8
MERGEDLAYER-1
 66
  1
 70
  0
 62
  7
 10
50.091892
 20
135.883233
 30
0.000000
  0
VERTEX
  8
MERGEDLAYER-1
 10
50.091892
 20
135.883233
 30
0.000000
  0
VERTEX
  8
MERGEDLAYER-1
 10
46.983273
 20
135.883233
 30
0.000000
  0
SEQEND
  8
MERGEDLAYER-1
  0
POLYLINE
  8
MERGEDLAYER-1
 66
  1
 70
  0
 62
  7
 10
45.428935
 20
137.437581
 30
0.000000
  0
VERTEX
  8
MERGEDLAYER-1
 10
45.428935
 20
137.437581
 30
0.000000
  0
VERTEX
  8
MERGEDLAYER-1
 10
45.428935
 20
143.444797
 30
0.000000
  0
SEQEND
  8
MERGEDLAYER-1
  0
ARC
  8
MERGEDLAYER-1
 62
  7
 10
46.983273
 20
143.444797
 30
0.000000
 40
1.554339
 50
90.000000
 51
180.000000
  0
ARC
  8
MERGEDLAYER-1
 62
  7
 10
46.983273
 20
137.437581
 30
0.000000
 40
1.554339
 50
180.000000
 51
270.000000
  0
ARC
  8
MERGEDLAYER-1
 62
  7
 10
50.091892
 20
137.437581
 30
0.000000
 40
1.554339
 50
270.000000
 51
0.000000
  0
ARC
  8
MERGEDLAYER-1
 62
  7
 10
50.091892
 20
143.444797
 30
0.000000
 40
1.554339
 50
0.000000
 51
90.000000
  0
POLYLINE
  8
MERGEDLAYER-1
 66
  1
 70
  1
 62
255
  0
VERTEX
  8
MERGEDLAYER-1
 10
41.446533
 20
151.422119
 30
0.000000
  0
VERTEX
  8
MERGEDLAYER-1
 10
42.243629
 20
151.422119
 30
0.000000
  0
VERTEX
  8
MERGEDLAYER-1
 10
42.243629
 20
147.943848
 30
0.000000
  0
VERTEX
  8
MERGEDLAYER-1
 10
41.446533
 20
147.943848
 30
0.000000
  0
SEQEND
  8
MERGEDLAYER-1
  0
POLYLINE
  8
MERGEDLAYER-1
 66
  1
 70
  0
 62
  7
 10
49.720279
 20
152.047173
 30
0.000000
  0
VERTEX
  8
MERGEDLAYER-1
 10
49.720279
 20
152.047173
 30
0.000000
  0
VERTEX
  8
MERGEDLAYER-1
 10
45.366577
 20
152.048462
 30
0.000000
  0
SEQEND
  8
MERGEDLAYER-1
  0
POLYLINE
  8
MERGEDLAYER-1
 66
  1
 70
  0
 62
  7
 10
45.366798
 20
152.047187
 30
0.000000
  0
VERTEX
  8
MERGEDLAYER-1
 10
45.366798
 20
152.047187
 30
0.000000
  0
VERTEX
  8
MERGEDLAYER-1
 10
45.271681
 20
151.952067
 30
0.000000
  0
SEQEND
  8
MERGEDLAYER-1
  0
POLYLINE
  8
MERGEDLAYER-1
 66
  1
 70
  0
 62
  7
 10
50.100844
 20
151.666612
 30
0.000000
  0
VERTEX
  8
MERGEDLAYER-1
 10
50.100844
 20
151.666612
 30
0.000000
  0
VERTEX
  8
MERGEDLAYER-1
 10
49.939372
 20
151.985704
 30
0.000000
  0
VERTEX
  8
MERGEDLAYER-1
 10
49.720279
 20
152.047173
 30
0.000000
  0
SEQEND
  8
MERGEDLAYER-1
  0
POLYLINE
  8
MERGEDLAYER-1
 66
  1
 70
  0
 62
  7
 10
45.271654
 20
151.952067
 30
0.000000
  0
VERTEX
  8
MERGEDLAYER-1
 10
45.271654
 20
151.952067
 30
0.000000
  0
VERTEX
  8
MERGEDLAYER-1
 10
45.271654
 20
151.689453
 30
0.000000
  0
SEQEND
  8
MERGEDLAYER-1
  0
POLYLINE
  8
MERGEDLAYER-1
 66
  1
 70
  0
 62
  7
 10
44.970995
 20
151.689453
 30
0.000000
  0
VERTEX
  8
MERGEDLAYER-1
 10
44.970995
 20
151.689453
 30
0.000000
  0
VERTEX
  8
MERGEDLAYER-1
 10
44.970778
 20
151.953301
 30
0.000000
  0
SEQEND
  8
MERGEDLAYER-1
  0
POLYLINE
  8
MERGEDLAYER-1
 66
  1
 70
  0
 62
  7
 10
44.971022
 20
151.689453
 30
0.000000
  0
VERTEX
  8
MERGEDLAYER-1
 10
44.971022
 20
151.689453
 30
0.000000
  0
VERTEX
  8
MERGEDLAYER-1
 10
45.066162
 20
151.594320
 30
0.000000
  0
SEQEND
  8
MERGEDLAYER-1
  0
POLYLINE
  8
MERGEDLAYER-1
 66
  1
 70
  0
 62
  7
 10
44.875807
 20
152.047173
 30
0.000000
  0
VERTEX
  8
MERGEDLAYER-1
 10
44.875807
 20
152.047173
 30
0.000000
  0
VERTEX
  8
MERGEDLAYER-1
 10
42.376099
 20
152.047173
 30
0.000000
  0
SEQEND
  8
MERGEDLAYER-1
  0
POLYLINE
  8
MERGEDLAYER-1
 66
  1
 70
  0
 62
  7
 10
42.372338
 20
152.047146
 30
0.000000
  0
VERTEX
  8
MERGEDLAYER-1
 10
42.372338
 20
152.047146
 30
0.000000
  0
VERTEX
  8
MERGEDLAYER-1
 10
42.227736
 20
151.902534
 30
0.000000
  0
SEQEND
  8
MERGEDLAYER-1
  0
POLYLINE
  8
MERGEDLAYER-1
 66
  1
 70
  0
 62
  7
 10
44.970995
 20
151.952067
 30
0.000000
  0
VERTEX
  8
MERGEDLAYER-1
 10
44.970995
 20
151.952067
 30
0.000000
  0
VERTEX
  8
MERGEDLAYER-1
 10
44.875854
 20
152.047187
 30
0.000000
  0
SEQEND
  8
MERGEDLAYER-1
  0
POLYLINE
  8
MERGEDLAYER-1
 66
  1
 70
  0
 62
  7
 10
51.234853
 20
152.047173
 30
0.000000
  0
VERTEX
  8
MERGEDLAYER-1
 10
51.234853
 20
152.047173
 30
0.000000
  0
VERTEX
  8
MERGEDLAYER-1
 10
50.915761
 20
151.985704
 30
0.000000
  0
VERTEX
  8
MERGEDLAYER-1
 10
50.854289
 20
151.666612
 30
0.000000
  0
SEQEND
  8
MERGEDLAYER-1
  0
POLYLINE
  8
MERGEDLAYER-1
 66
  1
 70
  0
 62
  7
 10
45.176368
 20
151.594306
 30
0.000000
  0
VERTEX
  8
MERGEDLAYER-1
 10
45.176368
 20
151.594306
 30
0.000000
  0
VERTEX
  8
MERGEDLAYER-1
 10
45.066162
 20
151.594306
 30
0.000000
  0
SEQEND
  8
MERGEDLAYER-1
  0
POLYLINE
  8
MERGEDLAYER-1
 66
  1
 70
  0
 62
  7
 10
45.176514
 20
151.594320
 30
0.000000
  0
VERTEX
  8
MERGEDLAYER-1
 10
45.176514
 20
151.594320
 30
0.000000
  0
VERTEX
  8
MERGEDLAYER-1
 10
45.271630
 20
151.689453
 30
0.000000
  0
SEQEND
  8
MERGEDLAYER-1
  0
POLYLINE
  8
MERGEDLAYER-1
 66
  1
 70
  0
 62
  7
 10
46.574660
 20
152.800632
 30
0.000000
  0
VERTEX
  8
MERGEDLAYER-1
 10
46.574660
 20
152.800632
 30
0.000000
  0
VERTEX
  8
MERGEDLAYER-1
 10
41.858619
 20
152.800632
 30
0.000000
  0
SEQEND
  8
MERGEDLAYER-1
  0
POLYLINE
  8
MERGEDLAYER-1
 66
  1
 70
  0
 62
  7
 10
52.817959
 20
152.420085
 30
0.000000
  0
VERTEX
  8
MERGEDLAYER-1
 10
52.817959
 20
152.420085
 30
0.000000
  0
VERTEX
  8
MERGEDLAYER-1
 10
52.817959
 20
152.142334
 30
0.000000
  0
SEQEND
  8
MERGEDLAYER-1
  0
POLYLINE
  8
MERGEDLAYER-1
 66
  1
 70
  0
 62
  7
 10
52.817959
 20
152.420085
 30
0.000000
  0
VERTEX
  8
MERGEDLAYER-1
 10
52.817959
 20
152.420085
 30
0.000000
  0
VERTEX
  8
MERGEDLAYER-1
 10
52.656508
 20
152.739176
 30
0.000000
  0
VERTEX
  8
MERGEDLAYER-1
 10
52.437419
 20
152.800632
 30
0.000000
  0
SEQEND
  8
MERGEDLAYER-1
  0
POLYLINE
  8
MERGEDLAYER-1
 66
  1
 70
  0
 62
  7
 10
50.304874
 20
152.800632
 30
0.000000
  0
VERTEX
  8
MERGEDLAYER-1
 10
50.304874
 20
152.800632
 30
0.000000
  0
VERTEX
  8
MERGEDLAYER-1
 10
52.437419
 20
152.800632
 30
0.000000
  0
SEQEND
  8
MERGEDLAYER-1
  0
POLYLINE
  8
MERGEDLAYER-1
 66
  1
 70
  0
 62
  7
 10
51.234609
 20
152.048462
 30
0.000000
  0
VERTEX
  8
MERGEDLAYER-1
 10
51.234609
 20
152.048462
 30
0.000000
  0
VERTEX
  8
MERGEDLAYER-1
 10
52.722819
 20
152.047173
 30
0.000000
  0
SEQEND
  8
MERGEDLAYER-1
  0
POLYLINE
  8
MERGEDLAYER-1
 66
  1
 70
  0
 62
  7
 10
52.722819
 20
152.047187
 30
0.000000
  0
VERTEX
  8
MERGEDLAYER-1
 10
52.722819
 20
152.047187
 30
0.000000
  0
VERTEX
  8
MERGEDLAYER-1
 10
52.817959
 20
152.142334
 30
0.000000
  0
SEQEND
  8
MERGEDLAYER-1
  0
POLYLINE
  8
MERGEDLAYER-1
 66
  1
 70
  0
 62
  7
 10
50.854289
 20
151.666612
 30
0.000000
  0
VERTEX
  8
MERGEDLAYER-1
 10
50.854289
 20
151.666612
 30
0.000000
  0
VERTEX
  8
MERGEDLAYER-1
 10
50.854289
 20
150.882568
 30
0.000000
  0
SEQEND
  8
MERGEDLAYER-1
  0
POLYLINE
  8
MERGEDLAYER-1
 66
  1
 70
  0
 62
  7
 10
50.100844
 20
151.666612
 30
0.000000
  0
VERTEX
  8
MERGEDLAYER-1
 10
50.100844
 20
151.666612
 30
0.000000
  0
VERTEX
  8
MERGEDLAYER-1
 10
50.100844
 20
150.285211
 30
0.000000
  0
SEQEND
  8
MERGEDLAYER-1
  0
POLYLINE
  8
MERGEDLAYER-1
 66
  1
 70
  0
 62
  7
 10
50.481388
 20
149.904650
 30
0.000000
  0
VERTEX
  8
MERGEDLAYER-1
 10
50.481388
 20
149.904650
 30
0.000000
  0
VERTEX
  8
MERGEDLAYER-1
 10
51.927456
 20
149.904650
 30
0.000000
  0
SEQEND
  8
MERGEDLAYER-1
  0
POLYLINE
  8
MERGEDLAYER-1
 66
  1
 70
  0
 62
  7
 10
50.854289
 20
150.882623
 30
0.000000
  0
VERTEX
  8
MERGEDLAYER-1
 10
50.854289
 20
150.882623
 30
0.000000
  0
VERTEX
  8
MERGEDLAYER-1
 10
50.915761
 20
150.663534
 30
0.000000
  0
VERTEX
  8
MERGEDLAYER-1
 10
51.234853
 20
150.502089
 30
0.000000
  0
SEQEND
  8
MERGEDLAYER-1
  0
POLYLINE
  8
MERGEDLAYER-1
 66
  1
 70
  0
 62
  7
 10
50.100844
 20
150.285211
 30
0.000000
  0
VERTEX
  8
MERGEDLAYER-1
 10
50.100844
 20
150.285211
 30
0.000000
  0
VERTEX
  8
MERGEDLAYER-1
 10
50.162296
 20
150.066108
 30
0.000000
  0
VERTEX
  8
MERGEDLAYER-1
 10
50.481388
 20
149.904650
 30
0.000000
  0
SEQEND
  8
MERGEDLAYER-1
  0
POLYLINE
  8
MERGEDLAYER-1
 66
  1
 70
  0
 62
  7
 10
51.234609
 20
150.503445
 30
0.000000
  0
VERTEX
  8
MERGEDLAYER-1
 10
51.234609
 20
150.503445
 30
0.000000
  0
VERTEX
  8
MERGEDLAYER-1
 10
51.927456
 20
150.502062
 30
0.000000
  0
SEQEND
  8
MERGEDLAYER-1
  0
POLYLINE
  8
MERGEDLAYER-1
 66
  1
 70
  0
 62
  7
 10
52.224284
 20
150.205322
 30
0.000000
  0
VERTEX
  8
MERGEDLAYER-1
 10
52.224284
 20
150.205322
 30
0.000000
  0
VERTEX
  8
MERGEDLAYER-1
 10
52.087345
 20
150.465196
 30
0.000000
  0
VERTEX
  8
MERGEDLAYER-1
 10
51.927456
 20
150.502143
 30
0.000000
  0
SEQEND
  8
MERGEDLAYER-1
  0
POLYLINE
  8
MERGEDLAYER-1
 66
  1
 70
  0
 62
  7
 10
42.227464
 20
151.903904
 30
0.000000
  0
VERTEX
  8
MERGEDLAYER-1
 10
42.227464
 20
151.903904
 30
0.000000
  0
VERTEX
  8
MERGEDLAYER-1
 10
42.227464
 20
148.064128
 30
0.000000
  0
SEQEND
  8
MERGEDLAYER-1
  0
POLYLINE
  8
MERGEDLAYER-1
 66
  1
 70
  0
 62
  7
 10
42.132616
 20
147.967638
 30
0.000000
  0
VERTEX
  8
MERGEDLAYER-1
 10
42.132616
 20
147.967638
 30
0.000000
  0
VERTEX
  8
MERGEDLAYER-1
 10
42.227736
 20
148.062798
 30
0.000000
  0
SEQEND
  8
MERGEDLAYER-1
  0
POLYLINE
  8
MERGEDLAYER-1
 66
  1
 70
  0
 62
  7
 10
41.569166
 20
147.968981
 30
0.000000
  0
VERTEX
  8
MERGEDLAYER-1
 10
41.569166
 20
147.968981
 30
0.000000
  0
VERTEX
  8
MERGEDLAYER-1
 10
42.132616
 20
147.967638
 30
0.000000
  0
SEQEND
  8
MERGEDLAYER-1
  0
POLYLINE
  8
MERGEDLAYER-1
 66
  1
 70
  0
 62
  7
 10
41.474243
 20
152.420085
 30
0.000000
  0
VERTEX
  8
MERGEDLAYER-1
 10
41.474243
 20
152.420085
 30
0.000000
  0
VERTEX
  8
MERGEDLAYER-1
 10
41.474243
 20
149.924072
 30
0.000000
  0
SEQEND
  8
MERGEDLAYER-1
  0
POLYLINE
  8
MERGEDLAYER-1
 66
  1
 70
  0
 62
  7
 10
41.854784
 20
152.800632
 30
0.000000
  0
VERTEX
  8
MERGEDLAYER-1
 10
41.854784
 20
152.800632
 30
0.000000
  0
VERTEX
  8
MERGEDLAYER-1
 10
41.535695
 20
152.739176
 30
0.000000
  0
VERTEX
  8
MERGEDLAYER-1
 10
41.474243
 20
152.420085
 30
0.000000
  0
SEQEND
  8
MERGEDLAYER-1
  0
POLYLINE
  8
MERGEDLAYER-1
 66
  1
 70
  0
 62
  7
 10
41.474196
 20
148.062798
 30
0.000000
  0
VERTEX
  8
MERGEDLAYER-1
 10
41.474196
 20
148.062798
 30
0.000000
  0
VERTEX
  8
MERGEDLAYER-1
 10
41.569336
 20
147.967638
 30
0.000000
  0
SEQEND
  8
MERGEDLAYER-1
  0
POLYLINE
  8
MERGEDLAYER-1
 66
  1
 70
  0
 62
  7
 10
52.224257
 20
150.205322
 30
0.000000
  0
VERTEX
  8
MERGEDLAYER-1
 10
52.224257
 20
150.205322
 30
0.000000
  0
VERTEX
  8
MERGEDLAYER-1
 10
52.224257
 20
150.201443
 30
0.000000
  0
SEQEND
  8
MERGEDLAYER-1
  0
POLYLINE
  8
MERGEDLAYER-1
 66
  1
 70
  0
 62
  7
 10
51.927456
 20
149.904609
 30
0.000000
  0
VERTEX
  8
MERGEDLAYER-1
 10
51.927456
 20
149.904609
 30
0.000000
  0
VERTEX
  8
MERGEDLAYER-1
 10
52.087345
 20
150.041558
 30
0.000000
  0
VERTEX
  8
MERGEDLAYER-1
 10
52.224284
 20
150.201443
 30
0.000000
  0
SEQEND
  8
MERGEDLAYER-1
  0
POLYLINE
  8
MERGEDLAYER-1
 66
  1
 70
  0
 62
  7
 10
41.474023
 20
149.636149
 30
0.000000
  0
VERTEX
  8
MERGEDLAYER-1
 10
41.474023
 20
149.636149
 30
0.000000
  0
VERTEX
  8
MERGEDLAYER-1
 10
41.473755
 20
149.925361
 30
0.000000
  0
SEQEND
  8
MERGEDLAYER-1
  0
POLYLINE
  8
MERGEDLAYER-1
 66
  1
 70
  0
 62
  7
 10
41.474243
 20
149.634793
 30
0.000000
  0
VERTEX
  8
MERGEDLAYER-1
 10
41.474243
 20
149.634793
 30
0.000000
  0
VERTEX
  8
MERGEDLAYER-1
 10
41.474243
 20
148.062798
 30
0.000000
  0
SEQEND
  8
MERGEDLAYER-1
  0
POLYLINE
  8
MERGEDLAYER-1
 66
  1
 70
  0
 62
  7
 10
46.578417
 20
152.802382
 30
0.000000
  0
VERTEX
  8
MERGEDLAYER-1
 10
46.578417
 20
152.802382
 30
0.000000
  0
VERTEX
  8
MERGEDLAYER-1
 10
46.797506
 20
152.963840
 30
0.000000
  0
VERTEX
  8
MERGEDLAYER-1
 10
46.908969
 20
153.232937
 30
0.000000
  0
VERTEX
  8
MERGEDLAYER-1
 10
46.951270
 20
153.258979
 30
0.000000
  0
SEQEND
  8
MERGEDLAYER-1
  0
POLYLINE
  8
MERGEDLAYER-1
 66
  1
 70
  0
 62
  7
 10
49.935757
 20
153.258965
 30
0.000000
  0
VERTEX
  8
MERGEDLAYER-1
 10
49.935757
 20
153.258965
 30
0.000000
  0
VERTEX
  8
MERGEDLAYER-1
 10
49.941196
 20
153.023044
 30
0.000000
  0
VERTEX
  8
MERGEDLAYER-1
 10
50.182583
 20
152.860053
 30
0.000000
  0
VERTEX
  8
MERGEDLAYER-1
 10
50.308634
 20
152.802382
 30
0.000000
  0
SEQEND
  8
MERGEDLAYER-1
  0
POLYLINE
  8
MERGEDLAYER-1
 66
  1
 70
  0
 62
  7
 10
48.024702
 20
154.299235
 30
0.000000
  0
VERTEX
  8
MERGEDLAYER-1
 10
48.024702
 20
154.299235
 30
0.000000
  0
VERTEX
  8
MERGEDLAYER-1
 10
47.724972
 20
154.132962
 30
0.000000
  0
VERTEX
  8
MERGEDLAYER-1
 10
47.577009
 20
153.837579
 30
0.000000
  0
VERTEX
  8
MERGEDLAYER-1
 10
47.553352
 20
153.508043
 30
0.000000
  0
VERTEX
  8
MERGEDLAYER-1
 10
47.657596
 20
153.194553
 30
0.000000
  0
VERTEX
  8
MERGEDLAYER-1
 10
47.873874
 20
152.944811
 30
0.000000
  0
VERTEX
  8
MERGEDLAYER-1
 10
48.169261
 20
152.796848
 30
0.000000
  0
VERTEX
  8
MERGEDLAYER-1
 10
48.498789
 20
152.773193
 30
0.000000
  0
VERTEX
  8
MERGEDLAYER-1
 10
48.812283
 20
152.877441
 30
0.000000
  0
VERTEX
  8
MERGEDLAYER-1
 10
49.062022
 20
153.093723
 30
0.000000
  0
VERTEX
  8
MERGEDLAYER-1
 10
49.209981
 20
153.389106
 30
0.000000
  0
VERTEX
  8
MERGEDLAYER-1
 10
49.233646
 20
153.718628
 30
0.000000
  0
VERTEX
  8
MERGEDLAYER-1
 10
49.129398
 20
154.032118
 30
0.000000
  0
VERTEX
  8
MERGEDLAYER-1
 10
48.913120
 20
154.281860
 30
0.000000
  0
VERTEX
  8
MERGEDLAYER-1
 10
48.861928
 20
154.299438
 30
0.000000
  0
SEQEND
  8
MERGEDLAYER-1
  0
POLYLINE
  8
MERGEDLAYER-1
 66
  1
 70
  0
 62
  7
 10
47.706835
 20
154.895399
 30
0.000000
  0
VERTEX
  8
MERGEDLAYER-1
 10
47.706835
 20
154.895399
 30
0.000000
  0
VERTEX
  8
MERGEDLAYER-1
 10
47.203139
 20
154.562093
 30
0.000000
  0
VERTEX
  8
MERGEDLAYER-1
 10
46.930678
 20
154.034342
 30
0.000000
  0
VERTEX
  8
MERGEDLAYER-1
 10
46.880917
 20
153.442505
 30
0.000000
  0
VERTEX
  8
MERGEDLAYER-1
 10
46.952003
 20
153.259128
 30
0.000000
  0
SEQEND
  8
MERGEDLAYER-1
  0
POLYLINE
  8
MERGEDLAYER-1
 66
  1
 70
  0
 62
  7
 10
49.934977
 20
153.259142
 30
0.000000
  0
VERTEX
  8
MERGEDLAYER-1
 10
49.934977
 20
153.259142
 30
0.000000
  0
VERTEX
  8
MERGEDLAYER-1
 10
49.887861
 20
153.903076
 30
0.000000
  0
VERTEX
  8
MERGEDLAYER-1
 10
49.663235
 20
154.452881
 30
0.000000
  0
VERTEX
  8
MERGEDLAYER-1
 10
49.245304
 20
154.874891
 30
0.000000
  0
VERTEX
  8
MERGEDLAYER-1
 10
49.181583
 20
154.894626
 30
0.000000
  0
SEQEND
  8
MERGEDLAYER-1
  0
POLYLINE
  8
MERGEDLAYER-1
 66
  1
 70
  0
 62
  7
 10
47.967794
 20
154.895264
 30
0.000000
  0
VERTEX
  8
MERGEDLAYER-1
 10
47.967794
 20
154.895264
 30
0.000000
  0
VERTEX
  8
MERGEDLAYER-1
 10
47.706835
 20
154.895264
 30
0.000000
  0
SEQEND
  8
MERGEDLAYER-1
  0
POLYLINE
  8
MERGEDLAYER-1
 66
  1
 70
  0
 62
  7
 10
48.919132
 20
154.895264
 30
0.000000
  0
VERTEX
  8
MERGEDLAYER-1
 10
48.919132
 20
154.895264
 30
0.000000
  0
VERTEX
  8
MERGEDLAYER-1
 10
49.181583
 20
154.895264
 30
0.000000
  0
SEQEND
  8
MERGEDLAYER-1
  0
POLYLINE
  8
MERGEDLAYER-1
 66
  1
 70
  0
 62
  7
 10
48.919132
 20
154.895264
 30
0.000000
  0
VERTEX
  8
MERGEDLAYER-1
 10
48.919132
 20
154.895264
 30
0.000000
  0
VERTEX
  8
MERGEDLAYER-1
 10
48.861928
 20
154.299438
 30
0.000000
  0
SEQEND
  8
MERGEDLAYER-1
  0
POLYLINE
  8
MERGEDLAYER-1
 66
  1
 70
  0
 62
  7
 10
47.967794
 20
154.895264
 30
0.000000
  0
VERTEX
  8
MERGEDLAYER-1
 10
47.967794
 20
154.895264
 30
0.000000
  0
VERTEX
  8
MERGEDLAYER-1
 10
48.024702
 20
154.299235
 30
0.000000
  0
SEQEND
  8
MERGEDLAYER-1
  0
POLYLINE
  8
MERGEDLAYER-1
 66
  1
 70
  0
 62
  7
 10
48.522475
 20
152.578111
 30
0.000000
  0
VERTEX
  8
MERGEDLAYER-1
 10
48.522475
 20
152.578111
 30
0.000000
  0
VERTEX
  8
MERGEDLAYER-1
 10
48.524672
 20
152.578111
 30
0.000000
  0
SEQEND
  8
MERGEDLAYER-1
  0
CIRCLE
  8
MERGEDLAYER-1
 62
  7
 10
48.522475
 20
152.578111
 30
0.000000
 40
0.852891
  0
POLYLINE
  8
MERGEDLAYER-1
 66
  1
 70
  0
 62
  7
 10
46.794213
 20
152.885552
 30
0.000000
  0
VERTEX
  8
MERGEDLAYER-1
 10
46.794213
 20
152.885552
 30
0.000000
  0
VERTEX
  8
MERGEDLAYER-1
 10
46.997267
 20
152.129354
 30
0.000000
  0
SEQEND
  8
MERGEDLAYER-1
  0
POLYLINE
  8
MERGEDLAYER-1
 66
  1
 70
  0
 62
  7
 10
50.117228
 20
152.884304
 30
0.000000
  0
VERTEX
  8
MERGEDLAYER-1
 10
50.117228
 20
152.884304
 30
0.000000
  0
VERTEX
  8
MERGEDLAYER-1
 10
49.829458
 20
152.050822
 30
0.000000
  0
SEQEND
  8
MERGEDLAYER-1
  0
POLYLINE
  8
MERGEDLAYER-1
 66
  1
 70
  0
 62
  7
 10
39.358032
 20
146.970866
 30
0.000000
  0
VERTEX
  8
MERGEDLAYER-1
 10
39.358032
 20
146.970866
 30
0.000000
  0
VERTEX
  8
MERGEDLAYER-1
 10
38.542748
 20
146.970866
 30
0.000000
  0
SEQEND
  8
MERGEDLAYER-1
  0
POLYLINE
  8
MERGEDLAYER-1
 66
  1
 70
  0
 62
  7
 10
38.542748
 20
146.970866
 30
0.000000
  0
VERTEX
  8
MERGEDLAYER-1
 10
38.542748
 20
146.970866
 30
0.000000
  0
VERTEX
  8
MERGEDLAYER-1
 10
38.542748
 20
133.722249
 30
0.000000
  0
SEQEND
  8
MERGEDLAYER-1
  0
POLYLINE
  8
MERGEDLAYER-1
 66
  1
 70
  0
 62
  7
 10
38.542748
 20
133.722249
 30
0.000000
  0
VERTEX
  8
MERGEDLAYER-1
 10
38.542748
 20
133.722249
 30
0.000000
  0
VERTEX
  8
MERGEDLAYER-1
 10
39.358032
 20
133.722249
 30
0.000000
  0
SEQEND
  8
MERGEDLAYER-1
  0
POLYLINE
  8
MERGEDLAYER-1
 66
  1
 70
  0
 62
  7
 10
39.358032
 20
133.722249
 30
0.000000
  0
VERTEX
  8
MERGEDLAYER-1
 10
39.358032
 20
133.722249
 30
0.000000
  0
VERTEX
  8
MERGEDLAYER-1
 10
39.358032
 20
146.970866
 30
0.000000
  0
SEQEND
  8
MERGEDLAYER-1
  0
POLYLINE
  8
MERGEDLAYER-1
 66
  1
 70
  0
 62
  7
 10
37.523658
 20
146.290853
 30
0.000000
  0
VERTEX
  8
MERGEDLAYER-1
 10
37.523658
 20
146.290853
 30
0.000000
  0
VERTEX
  8
MERGEDLAYER-1
 10
37.523658
 20
134.402317
 30
0.000000
  0
SEQEND
  8
MERGEDLAYER-1
  0
POLYLINE
  8
MERGEDLAYER-1
 66
  1
 70
  0
 62
  7
 10
37.523658
 20
146.290853
 30
0.000000
  0
VERTEX
  8
MERGEDLAYER-1
 10
37.523658
 20
146.290853
 30
0.000000
  0
VERTEX
  8
MERGEDLAYER-1
 10
38.542748
 20
146.970866
 30
0.000000
  0
SEQEND
  8
MERGEDLAYER-1
  0
POLYLINE
  8
MERGEDLAYER-1
 66
  1
 70
  0
 62
  7
 10
37.523658
 20
134.402317
 30
0.000000
  0
VERTEX
  8
MERGEDLAYER-1
 10
37.523658
 20
134.402317
 30
0.000000
  0
VERTEX
  8
MERGEDLAYER-1
 10
38.542748
 20
133.722249
 30
0.000000
  0
SEQEND
  8
MERGEDLAYER-1
  0
POLYLINE
  8
MERGEDLAYER-1
 66
  1
 70
  1
 62
  7
  0
VERTEX
  8
MERGEDLAYER-1
 10
39.363624
 20
147.014716
 30
0.000000
  0
VERTEX
  8
MERGEDLAYER-1
 10
40.371314
 20
147.014716
 30
0.000000
  0
VERTEX
  8
MERGEDLAYER-1
 10
40.371314
 20
133.513631
 30
0.000000
  0
VERTEX
  8
MERGEDLAYER-1
 10
39.363624
 20
133.513631
 30
0.000000
  0
SEQEND
  8
MERGEDLAYER-1
  0
POLYLINE
  8
MERGEDLAYER-1
 66
  1
 70
  0
 62
  7
 10
40.747460
 20
147.197266
 30
0.000000
  0
VERTEX
  8
MERGEDLAYER-1
 10
40.747460
 20
147.197266
 30
0.000000
  0
VERTEX
  8
MERGEDLAYER-1
 10
41.325243
 20
147.197266
 30
0.000000
  0
SEQEND
  8
MERGEDLAYER-1
  0
POLYLINE
  8
MERGEDLAYER-1
 66
  1
 70
  0
 62
  7
 10
40.747460
 20
147.197279
 30
0.000000
  0
VERTEX
  8
MERGEDLAYER-1
 10
40.747460
 20
147.197279
 30
0.000000
  0
VERTEX
  8
MERGEDLAYER-1
 10
40.425103
 20
147.134467
 30
0.000000
  0
VERTEX
  8
MERGEDLAYER-1
 10
40.362288
 20
146.812107
 30
0.000000
  0
SEQEND
  8
MERGEDLAYER-1
  0
POLYLINE
  8
MERGEDLAYER-1
 66
  1
 70
  0
 62
  7
 10
40.362305
 20
146.812107
 30
0.000000
  0
VERTEX
  8
MERGEDLAYER-1
 10
40.362305
 20
146.812107
 30
0.000000
  0
VERTEX
  8
MERGEDLAYER-1
 10
40.362305
 20
133.716227
 30
0.000000
  0
SEQEND
  8
MERGEDLAYER-1
  0
POLYLINE
  8
MERGEDLAYER-1
 66
  1
 70
  0
 62
  7
 10
40.362288
 20
133.716227
 30
0.000000
  0
VERTEX
  8
MERGEDLAYER-1
 10
40.362288
 20
133.716227
 30
0.000000
  0
VERTEX
  8
MERGEDLAYER-1
 10
40.425103
 20
133.493869
 30
0.000000
  0
VERTEX
  8
MERGEDLAYER-1
 10
40.747460
 20
133.331055
 30
0.000000
  0
SEQEND
  8
MERGEDLAYER-1
  0
POLYLINE
  8
MERGEDLAYER-1
 66
  1
 70
  0
 62
  7
 10
40.747460
 20
133.331055
 30
0.000000
  0
VERTEX
  8
MERGEDLAYER-1
 10
40.747460
 20
133.331055
 30
0.000000
  0
VERTEX
  8
MERGEDLAYER-1
 10
41.325243
 20
133.331055
 30
0.000000
  0
SEQEND
  8
MERGEDLAYER-1
  0
POLYLINE
  8
MERGEDLAYER-1
 66
  1
 70
  0
 62
  7
 10
42.095591
 20
132.560683
 30
0.000000
  0
VERTEX
  8
MERGEDLAYER-1
 10
42.095591
 20
132.560683
 30
0.000000
  0
VERTEX
  8
MERGEDLAYER-1
 10
41.986952
 20
132.905490
 30
0.000000
  0
VERTEX
  8
MERGEDLAYER-1
 10
41.819960
 20
133.155409
 30
0.000000
  0
VERTEX
  8
MERGEDLAYER-1
 10
41.570045
 20
133.322401
 30
0.000000
  0
VERTEX
  8
MERGEDLAYER-1
 10
41.325243
 20
133.331041
 30
0.000000
  0
SEQEND
  8
MERGEDLAYER-1
  0
POLYLINE
  8
MERGEDLAYER-1
 66
  1
 70
  0
 62
  7
 10
42.095581
 20
132.560683
 30
0.000000
  0
VERTEX
  8
MERGEDLAYER-1
 10
42.095581
 20
132.560683
 30
0.000000
  0
VERTEX
  8
MERGEDLAYER-1
 10
42.288161
 20
132.560683
 30
0.000000
  0
SEQEND
  8
MERGEDLAYER-1
  0
POLYLINE
  8
MERGEDLAYER-1
 66
  1
 70
  0
 62
  7
 10
42.288161
 20
132.560683
 30
0.000000
  0
VERTEX
  8
MERGEDLAYER-1
 10
42.288161
 20
132.560683
 30
0.000000
  0
VERTEX
  8
MERGEDLAYER-1
 10
42.288161
 20
147.967638
 30
0.000000
  0
SEQEND
  8
MERGEDLAYER-1
  0
POLYLINE
  8
MERGEDLAYER-1
 66
  1
 70
  0
 62
  7
 10
42.288161
 20
147.967638
 30
0.000000
  0
VERTEX
  8
MERGEDLAYER-1
 10
42.288161
 20
147.967638
 30
0.000000
  0
VERTEX
  8
MERGEDLAYER-1
 10
42.095581
 20
147.967638
 30
0.000000
  0
SEQEND
  8
MERGEDLAYER-1
  0
POLYLINE
  8
MERGEDLAYER-1
 66
  1
 70
  0
 62
  7
 10
42.095581
 20
147.967638
 30
0.000000
  0
VERTEX
  8
MERGEDLAYER-1
 10
42.095581
 20
147.967638
 30
0.000000
  0
VERTEX
  8
MERGEDLAYER-1
 10
42.095581
 20
147.967638
 30
0.000000
  0
SEQEND
  8
MERGEDLAYER-1
  0
POLYLINE
  8
MERGEDLAYER-1
 66
  1
 70
  0
 62
  7
 10
41.325243
 20
147.197293
 30
0.000000
  0
VERTEX
  8
MERGEDLAYER-1
 10
41.325243
 20
147.197293
 30
0.000000
  0
VERTEX
  8
MERGEDLAYER-1
 10
41.570045
 20
147.305935
 30
0.000000
  0
VERTEX
  8
MERGEDLAYER-1
 10
41.819960
 20
147.472928
 30
0.000000
  0
VERTEX
  8
MERGEDLAYER-1
 10
41.986952
 20
147.722833
 30
0.000000
  0
VERTEX
  8
MERGEDLAYER-1
 10
42.095591
 20
147.967638
 30
0.000000
  0
SEQEND
  8
MERGEDLAYER-1
  0
POLYLINE
  8
MERGEDLAYER-1
 66
  1
 70
  0
 62
  7
 10
42.095581
 20
147.967638
 30
0.000000
  0
VERTEX
  8
MERGEDLAYER-1
 10
42.095581
 20
147.967638
 30
0.000000
  0
VERTEX
  8
MERGEDLAYER-1
 10
42.095581
 20
132.560683
 30
0.000000
  0
SEQEND
  8
MERGEDLAYER-1
  0
POLYLINE
  8
MERGEDLAYER-1
 66
  1
 70
  0
 62
  7
 10
42.095581
 20
132.560683
 30
0.000000
  0
VERTEX
  8
MERGEDLAYER-1
 10
42.095581
 20
132.560683
 30
0.000000
  0
VERTEX
  8
MERGEDLAYER-1
 10
42.095581
 20
132.560683
 30
0.000000
  0
SEQEND
  8
MERGEDLAYER-1
  0
POLYLINE
  8
MERGEDLAYER-1
 66
  1
 70
  0
 62
  7
 10
49.644016
 20
153.875109
 30
0.000000
  0
VERTEX
  8
MERGEDLAYER-1
 10
49.644016
 20
153.875109
 30
0.000000
  0
VERTEX
  8
MERGEDLAYER-1
 10
49.548825
 20
154.353651
 30
0.000000
  0
VERTEX
  8
MERGEDLAYER-1
 10
49.277751
 20
154.759359
 30
0.000000
  0
VERTEX
  8
MERGEDLAYER-1
 10
48.872050
 20
155.030436
 30
0.000000
  0
VERTEX
  8
MERGEDLAYER-1
 10
48.393497
 20
155.125624
 30
0.000000
  0
VERTEX
  8
MERGEDLAYER-1
 10
47.914944
 20
155.030436
 30
0.000000
  0
VERTEX
  8
MERGEDLAYER-1
 10
47.509247
 20
154.759359
 30
0.000000
  0
VERTEX
  8
MERGEDLAYER-1
 10
47.238169
 20
154.353651
 30
0.000000
  0
VERTEX
  8
MERGEDLAYER-1
 10
47.142978
 20
153.875109
 30
0.000000
  0
VERTEX
  8
MERGEDLAYER-1
 10
47.238169
 20
153.396552
 30
0.000000
  0
VERTEX
  8
MERGEDLAYER-1
 10
47.509247
 20
152.990858
 30
0.000000
  0
VERTEX
  8
MERGEDLAYER-1
 10
47.914944
 20
152.719781
 30
0.000000
  0
VERTEX
  8
MERGEDLAYER-1
 10
48.393497
 20
152.624593
 30
0.000000
  0
VERTEX
  8
MERGEDLAYER-1
 10
48.872050
 20
152.719781
 30
0.000000
  0
VERTEX
  8
MERGEDLAYER-1
 10
49.277751
 20
152.990858
 30
0.000000
  0
VERTEX
  8
MERGEDLAYER-1
 10
49.548825
 20
153.396552
 30
0.000000
  0
VERTEX
  8
MERGEDLAYER-1
 10
49.644016
 20
153.875109
 30
0.000000
  0
SEQEND
  8
MERGEDLAYER-1
  0
POLYLINE
  8
MERGEDLAYER-1
 66
  1
 70
  1
 62
  7
  0
VERTEX
  8
MERGEDLAYER-1
 10
48.058689
 20
154.198174
 30
0.000000
  0
VERTEX
  8
MERGEDLAYER-1
 10
48.828311
 20
154.198174
 30
0.000000
  0
VERTEX
  8
MERGEDLAYER-1
 10
48.828311
 20
153.452013
 30
0.000000
  0
VERTEX
  8
MERGEDLAYER-1
 10
48.058689
 20
153.452013
 30
0.000000
  0
SEQEND
  8
MERGEDLAYER-1
  0
POLYLINE
  8
MERGEDLAYER-1
 66
  1
 70
  0
 62
  7
 10
37.319824
 20
143.164469
 30
0.000000
  0
VERTEX
  8
MERGEDLAYER-1
 10
37.319824
 20
143.164469
 30
0.000000
  0
VERTEX
  8
MERGEDLAYER-1
 10
37.319824
 20
137.880751
 30
0.000000
  0
SEQEND
  8
MERGEDLAYER-1
  0
POLYLINE
  8
MERGEDLAYER-1
 66
  1
 70
  0
 62
  7
 10
37.319824
 20
143.164469
 30
0.000000
  0
VERTEX
  8
MERGEDLAYER-1
 10
37.319824
 20
143.164469
 30
0.000000
  0
VERTEX
  8
MERGEDLAYER-1
 10
37.523658
 20
143.164469
 30
0.000000
  0
SEQEND
  8
MERGEDLAYER-1
  0
POLYLINE
  8
MERGEDLAYER-1
 66
  1
 70
  0
 62
  7
 10
37.319824
 20
137.880751
 30
0.000000
  0
VERTEX
  8
MERGEDLAYER-1
 10
37.319824
 20
137.880751
 30
0.000000
  0
VERTEX
  8
MERGEDLAYER-1
 10
37.523658
 20
137.880751
 30
0.000000
  0
SEQEND
  8
MERGEDLAYER-1
  0
TEXT
  8
MERGEDLAYER-1
 62
  7
 10
66.540025
 20
176.883247
 30
0.000000
 40
2.500000
  1
1-1/2"
 72
  5
 11
76.095580
 21
176.883247
 31
0.000000
  0
TEXT
  8
MERGEDLAYER-1
 62
  7
 10
64.984469
 20
173.105469
 30
0.000000
 40
2.500000
  1
(38mm)
 72
  5
 11
77.651136
 21
173.105469
 31
0.000000
  0
TEXT
  8
MERGEDLAYER-1
 62
  7
 10
69.206691
 20
138.216580
 30
0.000000
 40
2.500000
  1
3"
 72
  5
 11
73.206691
 21
138.216580
 31
0.000000
  0
TEXT
  8
MERGEDLAYER-1
 62
  7
 10
64.984469
 20
134.438802
 30
0.000000
 40
2.500000
  1
(76mm)
 72
  5
 11
77.651136
 21
134.438802
 31
0.000000
  0
TEXT
  8
MERGEDLAYER-1
 62
  7
 10
51.873358
 20
112.438802
 30
0.000000
 40
2.500000
  1
5/8"
 72
  5
 11
58.540025
 21
112.438802
 31
0.000000
  0
TEXT
  8
MERGEDLAYER-1
 62
  7
 10
48.984469
 20
108.661024
 30
0.000000
 40
2.500000
  1
(16mm)
 72
  5
 11
61.651136
 21
108.661024
 31
0.000000
  0
LINE
  8
MERGEDLAYER-1
 62
  7
 10
47.992232
 20
118.258247
 30
0.000000
 11
37.817803
 21
118.258247
 31
0.000000
  0
LINE
  8
MERGEDLAYER-1
 62
  7
 10
48.492232
 20
119.762695
 30
0.000000
 11
48.492232
 21
115.258247
 31
0.000000
  0
LINE
  8
MERGEDLAYER-1
 62
  7
 10
37.317803
 20
126.994358
 30
0.000000
 11
37.317803
 21
115.258247
 31
0.000000
  0
POLYLINE
  8
MERGEDLAYER-1
 66
  1
 70
  1
 62
  7
  0
VERTEX
  8
MERGEDLAYER-1
 10
48.492232
 20
118.258247
 30
0.000000
  0
VERTEX
  8
MERGEDLAYER-1
 10
47.381120
 20
118.924913
 30
0.000000
  0
VERTEX
  8
MERGEDLAYER-1
 10
47.381120
 20
118.258247
 30
0.000000
  0
VERTEX
  8
MERGEDLAYER-1
 10
47.381120
 20
117.591580
 30
0.000000
  0
VERTEX
  8
MERGEDLAYER-1
 10
48.492232
 20
118.258247
 30
0.000000
  0
SEQEND
  8
MERGEDLAYER-1
  0
POLYLINE
  8
MERGEDLAYER-1
 66
  1
 70
  1
 62
  7
  0
VERTEX
  8
MERGEDLAYER-1
 10
37.317803
 20
118.258247
 30
0.000000
  0
VERTEX
  8
MERGEDLAYER-1
 10
38.428914
 20
118.924913
 30
0.000000
  0
VERTEX
  8
MERGEDLAYER-1
 10
38.428914
 20
118.258247
 30
0.000000
  0
VERTEX
  8
MERGEDLAYER-1
 10
38.428914
 20
117.591580
 30
0.000000
  0
VERTEX
  8
MERGEDLAYER-1
 10
37.317803
 20
118.258247
 30
0.000000
  0
SEQEND
  8
MERGEDLAYER-1
  0
TEXT
  8
MERGEDLAYER-1
 62
  7
 10
43.562245
 20
120.183248
 30
0.000000
 40
1.666667
  1
 
  0
POLYLINE
  8
MERGEDLAYER-1
  6
LTYPE05
 66
  1
 70
  0
 62
  7
  6
LTYPE05
 10
48.492232
 20
187.172607
 30
0.000000
  0
VERTEX
  8
MERGEDLAYER-1
  6
LTYPE05
 10
48.492232
 20
187.172607
 30
0.000000
  0
VERTEX
  8
MERGEDLAYER-1
  6
LTYPE05
 10
48.492232
 20
121.762695
 30
0.000000
  0
SEQEND
  8
MERGEDLAYER-1
  0
TEXT
  8
MERGEDLAYER-1
 62
  7
 10
37.206691
 20
112.216580
 30
0.000000
 40
2.500000
  1
1-1/8"
 72
  5
 11
46.762247
 21
112.216580
 31
0.000000
  0
TEXT
  8
MERGEDLAYER-1
 62
  7
 10
35.651136
 20
108.438802
 30
0.000000
 40
2.500000
  1
(29mm)
 72
  5
 11
48.317802
 21
108.438802
 31
0.000000
  0
POLYLINE
  8
MERGEDLAYER-1
 66
  1
 70
  0
 62
  7
 10
41.553053
 20
135.180962
 30
0.000000
  0
VERTEX
  8
MERGEDLAYER-1
 10
41.553053
 20
135.180962
 30
0.000000
  0
VERTEX
  8
MERGEDLAYER-1
 10
41.560811
 20
134.940592
 30
0.000000
  0
VERTEX
  8
MERGEDLAYER-1
 10
41.725298
 20
134.694417
 30
0.000000
  0
VERTEX
  8
MERGEDLAYER-1
 10
41.971476
 20
134.529921
 30
0.000000
  0
VERTEX
  8
MERGEDLAYER-1
 10
42.311859
 20
134.422160
 30
0.000000
  0
SEQEND
  8
MERGEDLAYER-1
  0
POLYLINE
  8
MERGEDLAYER-1
 66
  1
 70
  0
 62
  7
 10
42.317803
 20
134.422228
 30
0.000000
  0
VERTEX
  8
MERGEDLAYER-1
 10
42.317803
 20
134.422228
 30
0.000000
  0
VERTEX
  8
MERGEDLAYER-1
 10
42.311859
 20
134.422228
 30
0.000000
  0
SEQEND
  8
MERGEDLAYER-1
  0
POLYLINE
  8
MERGEDLAYER-1
 66
  1
 70
  0
 62
  7
 10
42.317803
 20
146.661024
 30
0.000000
  0
VERTEX
  8
MERGEDLAYER-1
 10
42.317803
 20
146.661024
 30
0.000000
  0
VERTEX
  8
MERGEDLAYER-1
 10
42.317803
 20
134.422228
 30
0.000000
  0
SEQEND
  8
MERGEDLAYER-1
  0
POLYLINE
  8
MERGEDLAYER-1
 66
  1
 70
  0
 62
  7
 10
42.317803
 20
146.661024
 30
0.000000
  0
VERTEX
  8
MERGEDLAYER-1
 10
42.317803
 20
146.661024
 30
0.000000
  0
VERTEX
  8
MERGEDLAYER-1
 10
42.311859
 20
146.661024
 30
0.000000
  0
SEQEND
  8
MERGEDLAYER-1
  0
POLYLINE
  8
MERGEDLAYER-1
 66
  1
 70
  0
 62
  7
 10
42.311859
 20
146.661051
 30
0.000000
  0
VERTEX
  8
MERGEDLAYER-1
 10
42.311859
 20
146.661051
 30
0.000000
  0
VERTEX
  8
MERGEDLAYER-1
 10
41.971476
 20
146.653293
 30
0.000000
  0
VERTEX
  8
MERGEDLAYER-1
 10
41.725298
 20
146.488797
 30
0.000000
  0
VERTEX
  8
MERGEDLAYER-1
 10
41.560811
 20
146.242622
 30
0.000000
  0
VERTEX
  8
MERGEDLAYER-1
 10
41.553053
 20
145.902235
 30
0.000000
  0
SEQEND
  8
MERGEDLAYER-1
  0
POLYLINE
  8
MERGEDLAYER-1
 66
  1
 70
  0
 62
  7
 10
41.552873
 20
145.902235
 30
0.000000
  0
VERTEX
  8
MERGEDLAYER-1
 10
41.552873
 20
145.902235
 30
0.000000
  0
VERTEX
  8
MERGEDLAYER-1
 10
41.552873
 20
135.180962
 30
0.000000
  0
SEQEND
  8
MERGEDLAYER-1
  0
ENDSEC
  0
EOF
