  0
SECTION
  2
HEADER
999
MacDraft 5.0\0
  9
$ACADVER
  1
AC1006
  9
$CLAYER
  8
MERGEDLAYER-2
  9
$EXTMIN
 10
0.000000
 20
0.000000
  9
$EXTMAX
 10
7.032736
 20
10.222737
  9
$FASTZOOM
 70
0
  9
$FILLMODE
 70
1
  0
ENDSEC
  0
SECTION
  2
TABLES
  0
TABLE
  2
LTYPE
 70
16
  0
LTYPE
  2
CONTINUOUS
 70
64
  3
Solid Line
 72
65
 73
0
 40
0.000000
  0
LTYPE
  2
LTYPE01
 70
64
  3
CUSTOM
 72
65
 73
2
 40
0.072727
 49
0.054545
 49
-0.018182
  0
LTYPE
  2
LTYPE02
 70
64
  3
CUSTOM
 72
65
 73
2
 40
0.127273
 49
0.109091
 49
-0.018182
  0
LTYPE
  2
LTYPE03
 70
64
  3
CUSTOM
 72
65
 73
2
 40
0.245455
 49
0.218182
 49
-0.027273
  0
LTYPE
  2
LTYPE04
 70
64
  3
CUSTOM
 72
65
 73
2
 40
0.472727
 49
0.436364
 49
-0.036364
  0
LTYPE
  2
LTYPE05
 70
64
  3
CUSTOM
 72
65
 73
4
 40
0.100000
 49
0.054545
 49
-0.018182
 49
0.009091
 49
-0.018182
  0
LTYPE
  2
LTYPE06
 70
64
  3
CUSTOM
 72
65
 73
4
 40
0.154545
 49
0.109091
 49
-0.018182
 49
0.009091
 49
-0.018182
  0
LTYPE
  2
LTYPE07
 70
64
  3
CUSTOM
 72
65
 73
4
 40
0.290909
 49
0.218182
 49
-0.027273
 49
0.018182
 49
-0.027273
  0
LTYPE
  2
LTYPE08
 70
64
  3
CUSTOM
 72
65
 73
4
 40
0.527273
 49
0.436364
 49
-0.036364
 49
0.018182
 49
-0.036364
  0
LTYPE
  2
LTYPE09
 70
64
  3
CUSTOM
 72
65
 73
6
 40
0.127273
 49
0.054545
 49
-0.018182
 49
0.009091
 49
-0.018182
 49
0.009091
 49
-0.018182
  0
LTYPE
  2
LTYPE10
 70
64
  3
CUSTOM
 72
65
 73
6
 40
0.181818
 49
0.109091
 49
-0.018182
 49
0.009091
 49
-0.018182
 49
0.009091
 49
-0.018182
  0
LTYPE
  2
LTYPE11
 70
64
  3
CUSTOM
 72
65
 73
6
 40
0.327273
 49
0.218182
 49
-0.027273
 49
0.018182
 49
-0.018182
 49
0.018182
 49
-0.027273
  0
LTYPE
  2
LTYPE12
 70
64
  3
CUSTOM
 72
65
 73
6
 40
0.563636
 49
0.436364
 49
-0.036364
 49
0.018182
 49
-0.018182
 49
0.018182
 49
-0.036364
  0
LTYPE
  2
LTYPE13
 70
64
  3
CUSTOM
 72
65
 73
8
 40
0.209091
 49
0.109091
 49
-0.018182
 49
0.009091
 49
-0.018182
 49
0.009091
 49
-0.018182
 49
0.009091
 49
-0.018182
  0
LTYPE
  2
LTYPE14
 70
64
  3
CUSTOM
 72
65
 73
8
 40
0.363636
 49
0.218182
 49
-0.027273
 49
0.018182
 49
-0.018182
 49
0.018182
 49
-0.018182
 49
0.018182
 49
-0.027273
  0
LTYPE
  2
LTYPE15
 70
64
  3
CUSTOM
 72
65
 73
8
 40
0.618182
 49
0.436364
 49
-0.036364
 49
0.018182
 49
-0.027273
 49
0.018182
 49
-0.027273
 49
0.018182
 49
-0.036364
  0
ENDTAB
  0
TABLE
  2
LAYER
 70
1
  0
LAYER
  2
MERGEDLAYER-2
 70
0
 62
7
  6
CONTINUOUS
  0
ENDTAB
  0
ENDSEC
  0
SECTION
  2
BLOCKS
  0
ENDSEC
  0
SECTION
  2
ENTITIES
  0
POLYLINE
  8
MERGEDLAYER-2
 66
  1
 70
  0
 62
  7
 10
3.689390
 20
1.512774
 30
0.000000
  0
VERTEX
  8
MERGEDLAYER-2
 10
3.689390
 20
1.512774
 30
0.000000
  0
VERTEX
  8
MERGEDLAYER-2
 10
3.330842
 20
1.719783
 30
0.000000
  0
SEQEND
  8
MERGEDLAYER-2
  0
POLYLINE
  8
MERGEDLAYER-2
 66
  1
 70
  0
 62
  7
 10
3.330843
 20
1.719781
 30
0.000000
  0
VERTEX
  8
MERGEDLAYER-2
 10
3.330843
 20
1.719781
 30
0.000000
  0
VERTEX
  8
MERGEDLAYER-2
 10
3.288836
 20
1.736897
 30
0.000000
  0
VERTEX
  8
MERGEDLAYER-2
 10
3.246611
 20
1.743941
 30
0.000000
  0
VERTEX
  8
MERGEDLAYER-2
 10
3.203823
 20
1.742613
 30
0.000000
  0
VERTEX
  8
MERGEDLAYER-2
 10
3.162117
 20
1.732962
 30
0.000000
  0
VERTEX
  8
MERGEDLAYER-2
 10
3.134872
 20
1.718705
 30
0.000000
  0
SEQEND
  8
MERGEDLAYER-2
  0
POLYLINE
  8
MERGEDLAYER-2
 66
  1
 70
  0
 62
  7
 10
3.134872
 20
1.718705
 30
0.000000
  0
VERTEX
  8
MERGEDLAYER-2
 10
3.134872
 20
1.718705
 30
0.000000
  0
VERTEX
  8
MERGEDLAYER-2
 10
3.064967
 20
1.676335
 30
0.000000
  0
VERTEX
  8
MERGEDLAYER-2
 10
3.006987
 20
1.619593
 30
0.000000
  0
VERTEX
  8
MERGEDLAYER-2
 10
2.961191
 20
1.552632
 30
0.000000
  0
VERTEX
  8
MERGEDLAYER-2
 10
2.929338
 20
1.478022
 30
0.000000
  0
VERTEX
  8
MERGEDLAYER-2
 10
2.912653
 20
1.398632
 30
0.000000
  0
VERTEX
  8
MERGEDLAYER-2
 10
2.911776
 20
1.317512
 30
0.000000
  0
VERTEX
  8
MERGEDLAYER-2
 10
2.919567
 20
1.273742
 30
0.000000
  0
SEQEND
  8
MERGEDLAYER-2
  0
POLYLINE
  8
MERGEDLAYER-2
 66
  1
 70
  0
 62
  7
 10
2.919566
 20
1.273742
 30
0.000000
  0
VERTEX
  8
MERGEDLAYER-2
 10
2.919566
 20
1.273742
 30
0.000000
  0
VERTEX
  8
MERGEDLAYER-2
 10
2.930399
 20
1.232232
 30
0.000000
  0
VERTEX
  8
MERGEDLAYER-2
 10
2.951437
 20
1.192089
 30
0.000000
  0
VERTEX
  8
MERGEDLAYER-2
 10
2.979901
 20
1.156822
 30
0.000000
  0
VERTEX
  8
MERGEDLAYER-2
 10
3.014700
 20
1.127783
 30
0.000000
  0
VERTEX
  8
MERGEDLAYER-2
 10
3.020336
 20
1.123372
 30
0.000000
  0
SEQEND
  8
MERGEDLAYER-2
  0
POLYLINE
  8
MERGEDLAYER-2
 66
  1
 70
  0
 62
  7
 10
3.378885
 20
0.916364
 30
0.000000
  0
VERTEX
  8
MERGEDLAYER-2
 10
3.378885
 20
0.916364
 30
0.000000
  0
VERTEX
  8
MERGEDLAYER-2
 10
3.020336
 20
1.123372
 30
0.000000
  0
SEQEND
  8
MERGEDLAYER-2
  0
POLYLINE
  8
MERGEDLAYER-2
 66
  1
 70
  0
 62
  7
 10
3.689390
 20
1.512774
 30
0.000000
  0
VERTEX
  8
MERGEDLAYER-2
 10
3.689390
 20
1.512774
 30
0.000000
  0
VERTEX
  8
MERGEDLAYER-2
 10
3.378885
 20
0.916364
 30
0.000000
  0
SEQEND
  8
MERGEDLAYER-2
  0
POLYLINE
  8
MERGEDLAYER-2
 66
  1
 70
  0
 62
  7
 10
3.763283
 20
1.111803
 30
0.000000
  0
VERTEX
  8
MERGEDLAYER-2
 10
3.763283
 20
1.111803
 30
0.000000
  0
VERTEX
  8
MERGEDLAYER-2
 10
3.785989
 20
1.173466
 30
0.000000
  0
VERTEX
  8
MERGEDLAYER-2
 10
3.799000
 20
1.236770
 30
0.000000
  0
VERTEX
  8
MERGEDLAYER-2
 10
3.801817
 20
1.299282
 30
0.000000
  0
VERTEX
  8
MERGEDLAYER-2
 10
3.794330
 20
1.358598
 30
0.000000
  0
VERTEX
  8
MERGEDLAYER-2
 10
3.776828
 20
1.412441
 30
0.000000
  0
VERTEX
  8
MERGEDLAYER-2
 10
3.749983
 20
1.458740
 30
0.000000
  0
VERTEX
  8
MERGEDLAYER-2
 10
3.714827
 20
1.495717
 30
0.000000
  0
VERTEX
  8
MERGEDLAYER-2
 10
3.672711
 20
1.521950
 30
0.000000
  0
VERTEX
  8
MERGEDLAYER-2
 10
3.625253
 20
1.536433
 30
0.000000
  0
VERTEX
  8
MERGEDLAYER-2
 10
3.574278
 20
1.538606
 30
0.000000
  0
VERTEX
  8
MERGEDLAYER-2
 10
3.521743
 20
1.528387
 30
0.000000
  0
VERTEX
  8
MERGEDLAYER-2
 10
3.469669
 20
1.506171
 30
0.000000
  0
VERTEX
  8
MERGEDLAYER-2
 10
3.420056
 20
1.472808
 30
0.000000
  0
VERTEX
  8
MERGEDLAYER-2
 10
3.374810
 20
1.429583
 30
0.000000
  0
VERTEX
  8
MERGEDLAYER-2
 10
3.335671
 20
1.378156
 30
0.000000
  0
VERTEX
  8
MERGEDLAYER-2
 10
3.304143
 20
1.320503
 30
0.000000
  0
VERTEX
  8
MERGEDLAYER-2
 10
3.281436
 20
1.258839
 30
0.000000
  0
VERTEX
  8
MERGEDLAYER-2
 10
3.268425
 20
1.195536
 30
0.000000
  0
VERTEX
  8
MERGEDLAYER-2
 10
3.265609
 20
1.133024
 30
0.000000
  0
VERTEX
  8
MERGEDLAYER-2
 10
3.273095
 20
1.073707
 30
0.000000
  0
VERTEX
  8
MERGEDLAYER-2
 10
3.290597
 20
1.019865
 30
0.000000
  0
VERTEX
  8
MERGEDLAYER-2
 10
3.317442
 20
0.973565
 30
0.000000
  0
VERTEX
  8
MERGEDLAYER-2
 10
3.352598
 20
0.936589
 30
0.000000
  0
VERTEX
  8
MERGEDLAYER-2
 10
3.394714
 20
0.910355
 30
0.000000
  0
VERTEX
  8
MERGEDLAYER-2
 10
3.442172
 20
0.895873
 30
0.000000
  0
VERTEX
  8
MERGEDLAYER-2
 10
3.493147
 20
0.893700
 30
0.000000
  0
VERTEX
  8
MERGEDLAYER-2
 10
3.545682
 20
0.903918
 30
0.000000
  0
VERTEX
  8
MERGEDLAYER-2
 10
3.597756
 20
0.926135
 30
0.000000
  0
VERTEX
  8
MERGEDLAYER-2
 10
3.647370
 20
0.959498
 30
0.000000
  0
VERTEX
  8
MERGEDLAYER-2
 10
3.692615
 20
1.002723
 30
0.000000
  0
VERTEX
  8
MERGEDLAYER-2
 10
3.731754
 20
1.054150
 30
0.000000
  0
VERTEX
  8
MERGEDLAYER-2
 10
3.763283
 20
1.111803
 30
0.000000
  0
SEQEND
  8
MERGEDLAYER-2
  0
POLYLINE
  8
MERGEDLAYER-2
 66
  1
 70
  1
 62
255
 10
0.342742
 20
1.052914
 30
0.000000
  0
VERTEX
  8
MERGEDLAYER-2
 10
0.342742
 20
1.052914
 30
0.000000
  0
VERTEX
  8
MERGEDLAYER-2
 10
0.630597
 20
1.130044
 30
0.000000
  0
VERTEX
  8
MERGEDLAYER-2
 10
0.630597
 20
1.158604
 30
0.000000
  0
VERTEX
  8
MERGEDLAYER-2
 10
0.730780
 20
1.185447
 30
0.000000
  0
VERTEX
  8
MERGEDLAYER-2
 10
0.840641
 20
1.121760
 30
0.000000
  0
VERTEX
  8
MERGEDLAYER-2
 10
0.843265
 20
1.117213
 30
0.000000
  0
VERTEX
  8
MERGEDLAYER-2
 10
0.843265
 20
0.604402
 30
0.000000
  0
VERTEX
  8
MERGEDLAYER-2
 10
0.825697
 20
0.600544
 30
0.000000
  0
VERTEX
  8
MERGEDLAYER-2
 10
0.821881
 20
0.596554
 30
0.000000
  0
VERTEX
  8
MERGEDLAYER-2
 10
0.821881
 20
0.581264
 30
0.000000
  0
VERTEX
  8
MERGEDLAYER-2
 10
0.825818
 20
0.577476
 30
0.000000
  0
VERTEX
  8
MERGEDLAYER-2
 10
0.821881
 20
0.575202
 30
0.000000
  0
VERTEX
  8
MERGEDLAYER-2
 10
0.822174
 20
0.504484
 30
0.000000
  0
VERTEX
  8
MERGEDLAYER-2
 10
0.805477
 20
0.500010
 30
0.000000
  0
VERTEX
  8
MERGEDLAYER-2
 10
0.805477
 20
0.487953
 30
0.000000
  0
VERTEX
  8
MERGEDLAYER-2
 10
0.808101
 20
0.483407
 30
0.000000
  0
VERTEX
  8
MERGEDLAYER-2
 10
0.819257
 20
0.476965
 30
0.000000
  0
VERTEX
  8
MERGEDLAYER-2
 10
0.821881
 20
0.472420
 30
0.000000
  0
VERTEX
  8
MERGEDLAYER-2
 10
0.821588
 20
0.443164
 30
0.000000
  0
VERTEX
  8
MERGEDLAYER-2
 10
0.809095
 20
0.440388
 30
0.000000
  0
VERTEX
  8
MERGEDLAYER-2
 10
0.805476
 20
0.436571
 30
0.000000
  0
VERTEX
  8
MERGEDLAYER-2
 10
0.805184
 20
0.428080
 30
0.000000
  0
VERTEX
  8
MERGEDLAYER-2
 10
0.806180
 20
0.421436
 30
0.000000
  0
VERTEX
  8
MERGEDLAYER-2
 10
0.821137
 20
0.411307
 30
0.000000
  0
VERTEX
  8
MERGEDLAYER-2
 10
0.821881
 20
0.154883
 30
0.000000
  0
VERTEX
  8
MERGEDLAYER-2
 10
0.800204
 20
0.149074
 30
0.000000
  0
VERTEX
  8
MERGEDLAYER-2
 10
0.766516
 20
0.168525
 30
0.000000
  0
VERTEX
  8
MERGEDLAYER-2
 10
0.444877
 20
0.082341
 30
0.000000
  0
VERTEX
  8
MERGEDLAYER-2
 10
0.342742
 20
0.141309
 30
0.000000
  0
SEQEND
  8
MERGEDLAYER-2
  0
TEXT
  8
MERGEDLAYER-2
 62
  7
 10
4.528555
 20
0.713541
 30
0.000000
 40
0.102273
  1
Protection
 72
  5
 11
5.174010
 21
0.713541
 31
0.000000
  0
TEXT
  8
MERGEDLAYER-2
 62
  7
 10
4.528555
 20
0.558995
 30
0.000000
 40
0.102273
  1
cup
 72
  5
 11
4.792192
 21
0.558995
 31
0.000000
  0
POLYLINE
  8
MERGEDLAYER-2
 66
  1
 70
  1
 62
  7
  0
VERTEX
  8
MERGEDLAYER-2
 10
2.594083
 20
5.616811
 30
0.000000
  0
VERTEX
  8
MERGEDLAYER-2
 10
4.473435
 20
5.616811
 30
0.000000
  0
VERTEX
  8
MERGEDLAYER-2
 10
4.473435
 20
5.594442
 30
0.000000
  0
VERTEX
  8
MERGEDLAYER-2
 10
2.594083
 20
5.594442
 30
0.000000
  0
SEQEND
  8
MERGEDLAYER-2
  0
POLYLINE
  8
MERGEDLAYER-2
 66
  1
 70
  1
 62
  7
  0
VERTEX
  8
MERGEDLAYER-2
 10
2.594083
 20
5.489211
 30
0.000000
  0
VERTEX
  8
MERGEDLAYER-2
 10
4.473435
 20
5.489211
 30
0.000000
  0
VERTEX
  8
MERGEDLAYER-2
 10
4.473435
 20
5.466842
 30
0.000000
  0
VERTEX
  8
MERGEDLAYER-2
 10
2.594083
 20
5.466842
 30
0.000000
  0
SEQEND
  8
MERGEDLAYER-2
  0
POLYLINE
  8
MERGEDLAYER-2
 66
  1
 70
  1
 62
  7
  0
VERTEX
  8
MERGEDLAYER-2
 10
2.594083
 20
5.361611
 30
0.000000
  0
VERTEX
  8
MERGEDLAYER-2
 10
4.473435
 20
5.361611
 30
0.000000
  0
VERTEX
  8
MERGEDLAYER-2
 10
4.473435
 20
5.339243
 30
0.000000
  0
VERTEX
  8
MERGEDLAYER-2
 10
2.594083
 20
5.339243
 30
0.000000
  0
SEQEND
  8
MERGEDLAYER-2
  0
POLYLINE
  8
MERGEDLAYER-2
 66
  1
 70
  1
 62
  7
  0
VERTEX
  8
MERGEDLAYER-2
 10
2.594083
 20
5.234012
 30
0.000000
  0
VERTEX
  8
MERGEDLAYER-2
 10
4.473435
 20
5.234012
 30
0.000000
  0
VERTEX
  8
MERGEDLAYER-2
 10
4.473435
 20
5.211643
 30
0.000000
  0
VERTEX
  8
MERGEDLAYER-2
 10
2.594083
 20
5.211643
 30
0.000000
  0
SEQEND
  8
MERGEDLAYER-2
  0
POLYLINE
  8
MERGEDLAYER-2
 66
  1
 70
  1
 62
  7
  0
VERTEX
  8
MERGEDLAYER-2
 10
2.594083
 20
5.106411
 30
0.000000
  0
VERTEX
  8
MERGEDLAYER-2
 10
4.473435
 20
5.106411
 30
0.000000
  0
VERTEX
  8
MERGEDLAYER-2
 10
4.473435
 20
5.084043
 30
0.000000
  0
VERTEX
  8
MERGEDLAYER-2
 10
2.594083
 20
5.084043
 30
0.000000
  0
SEQEND
  8
MERGEDLAYER-2
  0
POLYLINE
  8
MERGEDLAYER-2
 66
  1
 70
  1
 62
  7
  0
VERTEX
  8
MERGEDLAYER-2
 10
2.594083
 20
4.978811
 30
0.000000
  0
VERTEX
  8
MERGEDLAYER-2
 10
4.473435
 20
4.978811
 30
0.000000
  0
VERTEX
  8
MERGEDLAYER-2
 10
4.473435
 20
4.956443
 30
0.000000
  0
VERTEX
  8
MERGEDLAYER-2
 10
2.594083
 20
4.956443
 30
0.000000
  0
SEQEND
  8
MERGEDLAYER-2
  0
POLYLINE
  8
MERGEDLAYER-2
 66
  1
 70
  1
 62
  7
  0
VERTEX
  8
MERGEDLAYER-2
 10
2.594083
 20
4.851211
 30
0.000000
  0
VERTEX
  8
MERGEDLAYER-2
 10
4.473435
 20
4.851211
 30
0.000000
  0
VERTEX
  8
MERGEDLAYER-2
 10
4.473435
 20
4.828842
 30
0.000000
  0
VERTEX
  8
MERGEDLAYER-2
 10
2.594083
 20
4.828842
 30
0.000000
  0
SEQEND
  8
MERGEDLAYER-2
  0
POLYLINE
  8
MERGEDLAYER-2
 66
  1
 70
  1
 62
  7
  0
VERTEX
  8
MERGEDLAYER-2
 10
2.594083
 20
4.723611
 30
0.000000
  0
VERTEX
  8
MERGEDLAYER-2
 10
4.473435
 20
4.723611
 30
0.000000
  0
VERTEX
  8
MERGEDLAYER-2
 10
4.473435
 20
4.701242
 30
0.000000
  0
VERTEX
  8
MERGEDLAYER-2
 10
2.594083
 20
4.701242
 30
0.000000
  0
SEQEND
  8
MERGEDLAYER-2
  0
POLYLINE
  8
MERGEDLAYER-2
 66
  1
 70
  1
 62
  7
  0
VERTEX
  8
MERGEDLAYER-2
 10
2.594083
 20
4.596011
 30
0.000000
  0
VERTEX
  8
MERGEDLAYER-2
 10
4.473435
 20
4.596011
 30
0.000000
  0
VERTEX
  8
MERGEDLAYER-2
 10
4.473435
 20
4.573643
 30
0.000000
  0
VERTEX
  8
MERGEDLAYER-2
 10
2.594083
 20
4.573643
 30
0.000000
  0
SEQEND
  8
MERGEDLAYER-2
  0
POLYLINE
  8
MERGEDLAYER-2
 66
  1
 70
  1
 62
  7
  0
VERTEX
  8
MERGEDLAYER-2
 10
2.594083
 20
4.468412
 30
0.000000
  0
VERTEX
  8
MERGEDLAYER-2
 10
4.473435
 20
4.468412
 30
0.000000
  0
VERTEX
  8
MERGEDLAYER-2
 10
4.473435
 20
4.446043
 30
0.000000
  0
VERTEX
  8
MERGEDLAYER-2
 10
2.594083
 20
4.446043
 30
0.000000
  0
SEQEND
  8
MERGEDLAYER-2
  0
POLYLINE
  8
MERGEDLAYER-2
 66
  1
 70
  1
 62
  7
 10
1.664810
 20
4.405448
 30
0.000000
  0
VERTEX
  8
MERGEDLAYER-2
 10
1.664810
 20
4.405448
 30
0.000000
  0
VERTEX
  8
MERGEDLAYER-2
 10
5.398783
 20
4.405448
 30
0.000000
  0
VERTEX
  8
MERGEDLAYER-2
 10
5.398783
 20
4.384450
 30
0.000000
  0
VERTEX
  8
MERGEDLAYER-2
 10
5.385177
 20
4.384450
 30
0.000000
  0
VERTEX
  8
MERGEDLAYER-2
 10
5.385177
 20
4.201070
 30
0.000000
  0
VERTEX
  8
MERGEDLAYER-2
 10
1.678944
 20
4.201070
 30
0.000000
  0
VERTEX
  8
MERGEDLAYER-2
 10
1.678944
 20
4.384627
 30
0.000000
  0
VERTEX
  8
MERGEDLAYER-2
 10
1.664810
 20
4.384627
 30
0.000000
  0
SEQEND
  8
MERGEDLAYER-2
  0
POLYLINE
  8
MERGEDLAYER-2
 66
  1
 70
  1
 62
  7
  0
VERTEX
  8
MERGEDLAYER-2
 10
1.664999
 20
5.810345
 30
0.000000
  0
VERTEX
  8
MERGEDLAYER-2
 10
5.398545
 20
5.810345
 30
0.000000
  0
VERTEX
  8
MERGEDLAYER-2
 10
5.398545
 20
5.787976
 30
0.000000
  0
VERTEX
  8
MERGEDLAYER-2
 10
1.664999
 20
5.787976
 30
0.000000
  0
SEQEND
  8
MERGEDLAYER-2
  0
POLYLINE
  8
MERGEDLAYER-2
 66
  1
 70
  1
 62
  7
  0
VERTEX
  8
MERGEDLAYER-2
 10
1.664999
 20
5.682745
 30
0.000000
  0
VERTEX
  8
MERGEDLAYER-2
 10
5.398545
 20
5.682745
 30
0.000000
  0
VERTEX
  8
MERGEDLAYER-2
 10
5.398545
 20
5.660376
 30
0.000000
  0
VERTEX
  8
MERGEDLAYER-2
 10
1.664999
 20
5.660376
 30
0.000000
  0
SEQEND
  8
MERGEDLAYER-2
  0
POLYLINE
  8
MERGEDLAYER-2
 66
  1
 70
  1
 62
  7
  0
VERTEX
  8
MERGEDLAYER-2
 10
1.664999
 20
5.555145
 30
0.000000
  0
VERTEX
  8
MERGEDLAYER-2
 10
5.398545
 20
5.555145
 30
0.000000
  0
VERTEX
  8
MERGEDLAYER-2
 10
5.398545
 20
5.532776
 30
0.000000
  0
VERTEX
  8
MERGEDLAYER-2
 10
1.664999
 20
5.532776
 30
0.000000
  0
SEQEND
  8
MERGEDLAYER-2
  0
POLYLINE
  8
MERGEDLAYER-2
 66
  1
 70
  1
 62
  7
  0
VERTEX
  8
MERGEDLAYER-2
 10
1.664999
 20
5.427545
 30
0.000000
  0
VERTEX
  8
MERGEDLAYER-2
 10
5.398545
 20
5.427545
 30
0.000000
  0
VERTEX
  8
MERGEDLAYER-2
 10
5.398545
 20
5.405176
 30
0.000000
  0
VERTEX
  8
MERGEDLAYER-2
 10
1.664999
 20
5.405176
 30
0.000000
  0
SEQEND
  8
MERGEDLAYER-2
  0
POLYLINE
  8
MERGEDLAYER-2
 66
  1
 70
  1
 62
  7
  0
VERTEX
  8
MERGEDLAYER-2
 10
1.664999
 20
5.299945
 30
0.000000
  0
VERTEX
  8
MERGEDLAYER-2
 10
5.398545
 20
5.299945
 30
0.000000
  0
VERTEX
  8
MERGEDLAYER-2
 10
5.398545
 20
5.277576
 30
0.000000
  0
VERTEX
  8
MERGEDLAYER-2
 10
1.664999
 20
5.277576
 30
0.000000
  0
SEQEND
  8
MERGEDLAYER-2
  0
POLYLINE
  8
MERGEDLAYER-2
 66
  1
 70
  1
 62
  7
  0
VERTEX
  8
MERGEDLAYER-2
 10
1.664999
 20
5.172345
 30
0.000000
  0
VERTEX
  8
MERGEDLAYER-2
 10
5.398545
 20
5.172345
 30
0.000000
  0
VERTEX
  8
MERGEDLAYER-2
 10
5.398545
 20
5.149976
 30
0.000000
  0
VERTEX
  8
MERGEDLAYER-2
 10
1.664999
 20
5.149976
 30
0.000000
  0
SEQEND
  8
MERGEDLAYER-2
  0
POLYLINE
  8
MERGEDLAYER-2
 66
  1
 70
  1
 62
  7
  0
VERTEX
  8
MERGEDLAYER-2
 10
1.664999
 20
5.044745
 30
0.000000
  0
VERTEX
  8
MERGEDLAYER-2
 10
5.398545
 20
5.044745
 30
0.000000
  0
VERTEX
  8
MERGEDLAYER-2
 10
5.398545
 20
5.022376
 30
0.000000
  0
VERTEX
  8
MERGEDLAYER-2
 10
1.664999
 20
5.022376
 30
0.000000
  0
SEQEND
  8
MERGEDLAYER-2
  0
POLYLINE
  8
MERGEDLAYER-2
 66
  1
 70
  1
 62
  7
  0
VERTEX
  8
MERGEDLAYER-2
 10
1.664999
 20
4.917145
 30
0.000000
  0
VERTEX
  8
MERGEDLAYER-2
 10
5.398545
 20
4.917145
 30
0.000000
  0
VERTEX
  8
MERGEDLAYER-2
 10
5.398545
 20
4.894776
 30
0.000000
  0
VERTEX
  8
MERGEDLAYER-2
 10
1.664999
 20
4.894776
 30
0.000000
  0
SEQEND
  8
MERGEDLAYER-2
  0
POLYLINE
  8
MERGEDLAYER-2
 66
  1
 70
  1
 62
  7
  0
VERTEX
  8
MERGEDLAYER-2
 10
1.664999
 20
4.789545
 30
0.000000
  0
VERTEX
  8
MERGEDLAYER-2
 10
5.398545
 20
4.789545
 30
0.000000
  0
VERTEX
  8
MERGEDLAYER-2
 10
5.398545
 20
4.767176
 30
0.000000
  0
VERTEX
  8
MERGEDLAYER-2
 10
1.664999
 20
4.767176
 30
0.000000
  0
SEQEND
  8
MERGEDLAYER-2
  0
POLYLINE
  8
MERGEDLAYER-2
 66
  1
 70
  1
 62
  7
  0
VERTEX
  8
MERGEDLAYER-2
 10
1.664999
 20
4.661945
 30
0.000000
  0
VERTEX
  8
MERGEDLAYER-2
 10
5.398545
 20
4.661945
 30
0.000000
  0
VERTEX
  8
MERGEDLAYER-2
 10
5.398545
 20
4.639576
 30
0.000000
  0
VERTEX
  8
MERGEDLAYER-2
 10
1.664999
 20
4.639576
 30
0.000000
  0
SEQEND
  8
MERGEDLAYER-2
  0
POLYLINE
  8
MERGEDLAYER-2
 66
  1
 70
  1
 62
  7
  0
VERTEX
  8
MERGEDLAYER-2
 10
1.664999
 20
4.534345
 30
0.000000
  0
VERTEX
  8
MERGEDLAYER-2
 10
5.398545
 20
4.534345
 30
0.000000
  0
VERTEX
  8
MERGEDLAYER-2
 10
5.398545
 20
4.511976
 30
0.000000
  0
VERTEX
  8
MERGEDLAYER-2
 10
1.664999
 20
4.511976
 30
0.000000
  0
SEQEND
  8
MERGEDLAYER-2
  0
POLYLINE
  8
MERGEDLAYER-2
 66
  1
 70
  1
 62
  7
  0
VERTEX
  8
MERGEDLAYER-2
 10
1.664999
 20
8.234746
 30
0.000000
  0
VERTEX
  8
MERGEDLAYER-2
 10
5.398545
 20
8.234746
 30
0.000000
  0
VERTEX
  8
MERGEDLAYER-2
 10
5.398545
 20
8.212376
 30
0.000000
  0
VERTEX
  8
MERGEDLAYER-2
 10
1.664999
 20
8.212376
 30
0.000000
  0
SEQEND
  8
MERGEDLAYER-2
  0
POLYLINE
  8
MERGEDLAYER-2
 66
  1
 70
  1
 62
  7
  0
VERTEX
  8
MERGEDLAYER-2
 10
1.664999
 20
8.107146
 30
0.000000
  0
VERTEX
  8
MERGEDLAYER-2
 10
5.398545
 20
8.107146
 30
0.000000
  0
VERTEX
  8
MERGEDLAYER-2
 10
5.398545
 20
8.084776
 30
0.000000
  0
VERTEX
  8
MERGEDLAYER-2
 10
1.664999
 20
8.084776
 30
0.000000
  0
SEQEND
  8
MERGEDLAYER-2
  0
POLYLINE
  8
MERGEDLAYER-2
 66
  1
 70
  1
 62
  7
  0
VERTEX
  8
MERGEDLAYER-2
 10
1.664999
 20
7.979545
 30
0.000000
  0
VERTEX
  8
MERGEDLAYER-2
 10
5.398545
 20
7.979545
 30
0.000000
  0
VERTEX
  8
MERGEDLAYER-2
 10
5.398545
 20
7.957176
 30
0.000000
  0
VERTEX
  8
MERGEDLAYER-2
 10
1.664999
 20
7.957176
 30
0.000000
  0
SEQEND
  8
MERGEDLAYER-2
  0
POLYLINE
  8
MERGEDLAYER-2
 66
  1
 70
  1
 62
  7
  0
VERTEX
  8
MERGEDLAYER-2
 10
1.664999
 20
7.851945
 30
0.000000
  0
VERTEX
  8
MERGEDLAYER-2
 10
5.398545
 20
7.851945
 30
0.000000
  0
VERTEX
  8
MERGEDLAYER-2
 10
5.398545
 20
7.829576
 30
0.000000
  0
VERTEX
  8
MERGEDLAYER-2
 10
1.664999
 20
7.829576
 30
0.000000
  0
SEQEND
  8
MERGEDLAYER-2
  0
POLYLINE
  8
MERGEDLAYER-2
 66
  1
 70
  1
 62
  7
  0
VERTEX
  8
MERGEDLAYER-2
 10
1.664999
 20
7.724345
 30
0.000000
  0
VERTEX
  8
MERGEDLAYER-2
 10
5.398545
 20
7.724345
 30
0.000000
  0
VERTEX
  8
MERGEDLAYER-2
 10
5.398545
 20
7.701976
 30
0.000000
  0
VERTEX
  8
MERGEDLAYER-2
 10
1.664999
 20
7.701976
 30
0.000000
  0
SEQEND
  8
MERGEDLAYER-2
  0
POLYLINE
  8
MERGEDLAYER-2
 66
  1
 70
  1
 62
  7
  0
VERTEX
  8
MERGEDLAYER-2
 10
1.664999
 20
7.596745
 30
0.000000
  0
VERTEX
  8
MERGEDLAYER-2
 10
5.398545
 20
7.596745
 30
0.000000
  0
VERTEX
  8
MERGEDLAYER-2
 10
5.398545
 20
7.574376
 30
0.000000
  0
VERTEX
  8
MERGEDLAYER-2
 10
1.664999
 20
7.574376
 30
0.000000
  0
SEQEND
  8
MERGEDLAYER-2
  0
POLYLINE
  8
MERGEDLAYER-2
 66
  1
 70
  1
 62
  7
  0
VERTEX
  8
MERGEDLAYER-2
 10
1.664999
 20
7.469145
 30
0.000000
  0
VERTEX
  8
MERGEDLAYER-2
 10
5.398545
 20
7.469145
 30
0.000000
  0
VERTEX
  8
MERGEDLAYER-2
 10
5.398545
 20
7.446776
 30
0.000000
  0
VERTEX
  8
MERGEDLAYER-2
 10
1.664999
 20
7.446776
 30
0.000000
  0
SEQEND
  8
MERGEDLAYER-2
  0
POLYLINE
  8
MERGEDLAYER-2
 66
  1
 70
  1
 62
  7
  0
VERTEX
  8
MERGEDLAYER-2
 10
1.664999
 20
7.341546
 30
0.000000
  0
VERTEX
  8
MERGEDLAYER-2
 10
5.398545
 20
7.341546
 30
0.000000
  0
VERTEX
  8
MERGEDLAYER-2
 10
5.398545
 20
7.319176
 30
0.000000
  0
VERTEX
  8
MERGEDLAYER-2
 10
1.664999
 20
7.319176
 30
0.000000
  0
SEQEND
  8
MERGEDLAYER-2
  0
POLYLINE
  8
MERGEDLAYER-2
 66
  1
 70
  1
 62
  7
  0
VERTEX
  8
MERGEDLAYER-2
 10
1.664999
 20
7.213945
 30
0.000000
  0
VERTEX
  8
MERGEDLAYER-2
 10
5.398545
 20
7.213945
 30
0.000000
  0
VERTEX
  8
MERGEDLAYER-2
 10
5.398545
 20
7.191576
 30
0.000000
  0
VERTEX
  8
MERGEDLAYER-2
 10
1.664999
 20
7.191576
 30
0.000000
  0
SEQEND
  8
MERGEDLAYER-2
  0
POLYLINE
  8
MERGEDLAYER-2
 66
  1
 70
  1
 62
  7
  0
VERTEX
  8
MERGEDLAYER-2
 10
1.664999
 20
7.086345
 30
0.000000
  0
VERTEX
  8
MERGEDLAYER-2
 10
5.398545
 20
7.086345
 30
0.000000
  0
VERTEX
  8
MERGEDLAYER-2
 10
5.398545
 20
7.063976
 30
0.000000
  0
VERTEX
  8
MERGEDLAYER-2
 10
1.664999
 20
7.063976
 30
0.000000
  0
SEQEND
  8
MERGEDLAYER-2
  0
POLYLINE
  8
MERGEDLAYER-2
 66
  1
 70
  1
 62
  7
  0
VERTEX
  8
MERGEDLAYER-2
 10
1.664999
 20
6.958746
 30
0.000000
  0
VERTEX
  8
MERGEDLAYER-2
 10
5.398545
 20
6.958746
 30
0.000000
  0
VERTEX
  8
MERGEDLAYER-2
 10
5.398545
 20
6.936376
 30
0.000000
  0
VERTEX
  8
MERGEDLAYER-2
 10
1.664999
 20
6.936376
 30
0.000000
  0
SEQEND
  8
MERGEDLAYER-2
  0
POLYLINE
  8
MERGEDLAYER-2
 66
  1
 70
  1
 62
  7
  0
VERTEX
  8
MERGEDLAYER-2
 10
1.664999
 20
6.831146
 30
0.000000
  0
VERTEX
  8
MERGEDLAYER-2
 10
5.398545
 20
6.831146
 30
0.000000
  0
VERTEX
  8
MERGEDLAYER-2
 10
5.398545
 20
6.808776
 30
0.000000
  0
VERTEX
  8
MERGEDLAYER-2
 10
1.664999
 20
6.808776
 30
0.000000
  0
SEQEND
  8
MERGEDLAYER-2
  0
POLYLINE
  8
MERGEDLAYER-2
 66
  1
 70
  1
 62
  7
  0
VERTEX
  8
MERGEDLAYER-2
 10
1.664999
 20
6.703546
 30
0.000000
  0
VERTEX
  8
MERGEDLAYER-2
 10
5.398545
 20
6.703546
 30
0.000000
  0
VERTEX
  8
MERGEDLAYER-2
 10
5.398545
 20
6.681176
 30
0.000000
  0
VERTEX
  8
MERGEDLAYER-2
 10
1.664999
 20
6.681176
 30
0.000000
  0
SEQEND
  8
MERGEDLAYER-2
  0
POLYLINE
  8
MERGEDLAYER-2
 66
  1
 70
  1
 62
  7
  0
VERTEX
  8
MERGEDLAYER-2
 10
1.664999
 20
6.575945
 30
0.000000
  0
VERTEX
  8
MERGEDLAYER-2
 10
5.398545
 20
6.575945
 30
0.000000
  0
VERTEX
  8
MERGEDLAYER-2
 10
5.398545
 20
6.553576
 30
0.000000
  0
VERTEX
  8
MERGEDLAYER-2
 10
1.664999
 20
6.553576
 30
0.000000
  0
SEQEND
  8
MERGEDLAYER-2
  0
POLYLINE
  8
MERGEDLAYER-2
 66
  1
 70
  1
 62
  7
  0
VERTEX
  8
MERGEDLAYER-2
 10
1.664999
 20
6.448345
 30
0.000000
  0
VERTEX
  8
MERGEDLAYER-2
 10
5.398545
 20
6.448345
 30
0.000000
  0
VERTEX
  8
MERGEDLAYER-2
 10
5.398545
 20
6.425976
 30
0.000000
  0
VERTEX
  8
MERGEDLAYER-2
 10
1.664999
 20
6.425976
 30
0.000000
  0
SEQEND
  8
MERGEDLAYER-2
  0
POLYLINE
  8
MERGEDLAYER-2
 66
  1
 70
  1
 62
  7
  0
VERTEX
  8
MERGEDLAYER-2
 10
1.664999
 20
6.320745
 30
0.000000
  0
VERTEX
  8
MERGEDLAYER-2
 10
5.398545
 20
6.320745
 30
0.000000
  0
VERTEX
  8
MERGEDLAYER-2
 10
5.398545
 20
6.298376
 30
0.000000
  0
VERTEX
  8
MERGEDLAYER-2
 10
1.664999
 20
6.298376
 30
0.000000
  0
SEQEND
  8
MERGEDLAYER-2
  0
POLYLINE
  8
MERGEDLAYER-2
 66
  1
 70
  1
 62
  7
  0
VERTEX
  8
MERGEDLAYER-2
 10
1.664999
 20
6.193145
 30
0.000000
  0
VERTEX
  8
MERGEDLAYER-2
 10
5.398545
 20
6.193145
 30
0.000000
  0
VERTEX
  8
MERGEDLAYER-2
 10
5.398545
 20
6.170776
 30
0.000000
  0
VERTEX
  8
MERGEDLAYER-2
 10
1.664999
 20
6.170776
 30
0.000000
  0
SEQEND
  8
MERGEDLAYER-2
  0
POLYLINE
  8
MERGEDLAYER-2
 66
  1
 70
  1
 62
  7
  0
VERTEX
  8
MERGEDLAYER-2
 10
1.664999
 20
6.065545
 30
0.000000
  0
VERTEX
  8
MERGEDLAYER-2
 10
5.398545
 20
6.065545
 30
0.000000
  0
VERTEX
  8
MERGEDLAYER-2
 10
5.398545
 20
6.043176
 30
0.000000
  0
VERTEX
  8
MERGEDLAYER-2
 10
1.664999
 20
6.043176
 30
0.000000
  0
SEQEND
  8
MERGEDLAYER-2
  0
POLYLINE
  8
MERGEDLAYER-2
 66
  1
 70
  1
 62
  7
  0
VERTEX
  8
MERGEDLAYER-2
 10
1.664999
 20
5.937945
 30
0.000000
  0
VERTEX
  8
MERGEDLAYER-2
 10
5.398545
 20
5.937945
 30
0.000000
  0
VERTEX
  8
MERGEDLAYER-2
 10
5.398545
 20
5.915576
 30
0.000000
  0
VERTEX
  8
MERGEDLAYER-2
 10
1.664999
 20
5.915576
 30
0.000000
  0
SEQEND
  8
MERGEDLAYER-2
  0
POLYLINE
  8
MERGEDLAYER-2
 66
  1
 70
  1
 62
  7
  0
VERTEX
  8
MERGEDLAYER-2
 10
1.665194
 20
8.360888
 30
0.000000
  0
VERTEX
  8
MERGEDLAYER-2
 10
5.398567
 20
8.360888
 30
0.000000
  0
VERTEX
  8
MERGEDLAYER-2
 10
5.398567
 20
8.340242
 30
0.000000
  0
VERTEX
  8
MERGEDLAYER-2
 10
1.665194
 20
8.340242
 30
0.000000
  0
SEQEND
  8
MERGEDLAYER-2
  0
CIRCLE
  8
MERGEDLAYER-2
 62
  7
 10
3.534142
 20
4.320636
 30
0.000000
 40
0.056940
  0
ARC
  8
MERGEDLAYER-2
 62
  7
 10
5.239007
 20
9.150953
 30
0.000000
 40
0.254425
 50
270.000000
 51
90.000000
  0
POLYLINE
  8
MERGEDLAYER-2
 66
  1
 70
  0
 62
  7
 10
5.239007
 20
9.405378
 30
0.000000
  0
VERTEX
  8
MERGEDLAYER-2
 10
5.239007
 20
9.405378
 30
0.000000
  0
VERTEX
  8
MERGEDLAYER-2
 10
1.574085
 20
9.405378
 30
0.000000
  0
SEQEND
  8
MERGEDLAYER-2
  0
POLYLINE
  8
MERGEDLAYER-2
 66
  1
 70
  0
 62
  7
 10
1.574085
 20
9.405378
 30
0.000000
  0
VERTEX
  8
MERGEDLAYER-2
 10
1.574085
 20
9.405378
 30
0.000000
  0
VERTEX
  8
MERGEDLAYER-2
 10
1.574085
 20
8.896529
 30
0.000000
  0
SEQEND
  8
MERGEDLAYER-2
  0
POLYLINE
  8
MERGEDLAYER-2
 66
  1
 70
  0
 62
  7
 10
5.239007
 20
8.896529
 30
0.000000
  0
VERTEX
  8
MERGEDLAYER-2
 10
5.239007
 20
8.896529
 30
0.000000
  0
VERTEX
  8
MERGEDLAYER-2
 10
1.574085
 20
8.896529
 30
0.000000
  0
SEQEND
  8
MERGEDLAYER-2
  0
TEXT
  8
MERGEDLAYER-2
 62
  7
 10
3.364919
 20
9.713541
 30
0.000000
 40
0.340909
  1
MobilFlex
 72
  5
 11
5.574010
 21
9.713541
 31
0.000000
  0
POLYLINE
  8
MERGEDLAYER-2
 66
  1
 70
  1
 62
  7
  0
VERTEX
  8
MERGEDLAYER-2
 10
1.575588
 20
10.221646
 30
0.000000
  0
VERTEX
  8
MERGEDLAYER-2
 10
1.813436
 20
10.221646
 30
0.000000
  0
VERTEX
  8
MERGEDLAYER-2
 10
1.813436
 20
9.704702
 30
0.000000
  0
VERTEX
  8
MERGEDLAYER-2
 10
1.575588
 20
9.704702
 30
0.000000
  0
SEQEND
  8
MERGEDLAYER-2
  0
POLYLINE
  8
MERGEDLAYER-2
 66
  1
 70
  1
 62
  7
  0
VERTEX
  8
MERGEDLAYER-2
 10
1.888088
 20
10.221646
 30
0.000000
  0
VERTEX
  8
MERGEDLAYER-2
 10
2.125936
 20
10.221646
 30
0.000000
  0
VERTEX
  8
MERGEDLAYER-2
 10
2.125936
 20
9.704702
 30
0.000000
  0
VERTEX
  8
MERGEDLAYER-2
 10
1.888088
 20
9.704702
 30
0.000000
  0
SEQEND
  8
MERGEDLAYER-2
  0
POLYLINE
  8
MERGEDLAYER-2
 66
  1
 70
  1
 62
  7
  0
VERTEX
  8
MERGEDLAYER-2
 10
2.188436
 20
10.221646
 30
0.000000
  0
VERTEX
  8
MERGEDLAYER-2
 10
2.426283
 20
10.221646
 30
0.000000
  0
VERTEX
  8
MERGEDLAYER-2
 10
2.426283
 20
9.704702
 30
0.000000
  0
VERTEX
  8
MERGEDLAYER-2
 10
2.188436
 20
9.704702
 30
0.000000
  0
SEQEND
  8
MERGEDLAYER-2
  0
POLYLINE
  8
MERGEDLAYER-2
 66
  1
 70
  1
 62
  7
  0
VERTEX
  8
MERGEDLAYER-2
 10
2.492255
 20
10.221646
 30
0.000000
  0
VERTEX
  8
MERGEDLAYER-2
 10
2.730102
 20
10.221646
 30
0.000000
  0
VERTEX
  8
MERGEDLAYER-2
 10
2.730102
 20
9.704702
 30
0.000000
  0
VERTEX
  8
MERGEDLAYER-2
 10
2.492255
 20
9.704702
 30
0.000000
  0
SEQEND
  8
MERGEDLAYER-2
  0
POLYLINE
  8
MERGEDLAYER-2
 66
  1
 70
  1
 62
  7
  0
VERTEX
  8
MERGEDLAYER-2
 10
2.809095
 20
10.217731
 30
0.000000
  0
VERTEX
  8
MERGEDLAYER-2
 10
3.184529
 20
10.217731
 30
0.000000
  0
VERTEX
  8
MERGEDLAYER-2
 10
3.184529
 20
10.079711
 30
0.000000
  0
VERTEX
  8
MERGEDLAYER-2
 10
2.809095
 20
10.079711
 30
0.000000
  0
SEQEND
  8
MERGEDLAYER-2
  0
POLYLINE
  8
MERGEDLAYER-2
 66
  1
 70
  1
 62
  7
  0
VERTEX
  8
MERGEDLAYER-2
 10
2.808661
 20
9.990301
 30
0.000000
  0
VERTEX
  8
MERGEDLAYER-2
 10
3.116821
 20
9.990301
 30
0.000000
  0
VERTEX
  8
MERGEDLAYER-2
 10
3.116821
 20
9.856186
 30
0.000000
  0
VERTEX
  8
MERGEDLAYER-2
 10
2.808661
 20
9.856186
 30
0.000000
  0
SEQEND
  8
MERGEDLAYER-2
  0
POLYLINE
  8
MERGEDLAYER-2
 66
  1
 70
  1
 62
  7
  0
VERTEX
  8
MERGEDLAYER-2
 10
1.575588
 20
9.620075
 30
0.000000
  0
VERTEX
  8
MERGEDLAYER-2
 10
5.493991
 20
9.620075
 30
0.000000
  0
VERTEX
  8
MERGEDLAYER-2
 10
5.493991
 20
9.576672
 30
0.000000
  0
VERTEX
  8
MERGEDLAYER-2
 10
1.575588
 20
9.576672
 30
0.000000
  0
SEQEND
  8
MERGEDLAYER-2
  0
POLYLINE
  8
MERGEDLAYER-2
 66
  1
 70
  0
 62
  7
 10
0.796839
 20
2.570101
 30
0.000000
  0
VERTEX
  8
MERGEDLAYER-2
 10
0.796839
 20
2.570101
 30
0.000000
  0
VERTEX
  8
MERGEDLAYER-2
 10
1.523315
 20
2.570101
 30
0.000000
  0
SEQEND
  8
MERGEDLAYER-2
  0
ARC
  8
MERGEDLAYER-2
 62
  7
 10
1.107334
 20
4.065187
 30
0.000000
 40
1.526987
 50
248.346130
 51
258.267761
  0
POLYLINE
  8
MERGEDLAYER-2
 66
  1
 70
  0
 62
  7
 10
0.543878
 20
2.645959
 30
0.000000
  0
VERTEX
  8
MERGEDLAYER-2
 10
0.543878
 20
2.645959
 30
0.000000
  0
VERTEX
  8
MERGEDLAYER-2
 10
1.778324
 20
2.645959
 30
0.000000
  0
SEQEND
  8
MERGEDLAYER-2
  0
ARC
  8
MERGEDLAYER-2
 62
  7
 10
1.221167
 20
4.052366
 30
0.000000
 40
1.512747
 50
281.521484
 51
291.611328
  0
POLYLINE
  8
MERGEDLAYER-2
 66
  1
 70
  0
 62
  7
 10
0.279557
 20
2.791838
 30
0.000000
  0
VERTEX
  8
MERGEDLAYER-2
 10
0.279557
 20
2.791838
 30
0.000000
  0
VERTEX
  8
MERGEDLAYER-2
 10
2.041774
 20
2.791838
 30
0.000000
  0
SEQEND
  8
MERGEDLAYER-2
  0
ARC
  8
MERGEDLAYER-2
 62
  7
 10
0.894571
 20
3.602133
 30
0.000000
 40
1.017261
 50
226.456055
 51
232.801529
  0
POLYLINE
  8
MERGEDLAYER-2
 66
  1
 70
  0
 62
  7
 10
0.193769
 20
2.864776
 30
0.000000
  0
VERTEX
  8
MERGEDLAYER-2
 10
0.193769
 20
2.864776
 30
0.000000
  0
VERTEX
  8
MERGEDLAYER-2
 10
2.127256
 20
2.864776
 30
0.000000
  0
SEQEND
  8
MERGEDLAYER-2
  0
ARC
  8
MERGEDLAYER-2
 62
  7
 10
1.286121
 20
3.764010
 30
0.000000
 40
1.231312
 50
307.857330
 51
313.087952
  0
POLYLINE
  8
MERGEDLAYER-2
 66
  1
 70
  0
 62
  7
 10
0.084081
 20
3.001902
 30
0.000000
  0
VERTEX
  8
MERGEDLAYER-2
 10
0.084081
 20
3.001902
 30
0.000000
  0
VERTEX
  8
MERGEDLAYER-2
 10
2.237253
 20
3.001902
 30
0.000000
  0
SEQEND
  8
MERGEDLAYER-2
  0
ARC
  8
MERGEDLAYER-2
 62
  7
 10
0.378535
 20
3.195969
 30
0.000000
 40
0.352655
 50
200.088867
 51
213.387970
  0
POLYLINE
  8
MERGEDLAYER-2
 66
  1
 70
  0
 62
  7
 10
0.047335
 20
3.074840
 30
0.000000
  0
VERTEX
  8
MERGEDLAYER-2
 10
0.047335
 20
3.074840
 30
0.000000
  0
VERTEX
  8
MERGEDLAYER-2
 10
2.272264
 20
3.074840
 30
0.000000
  0
SEQEND
  8
MERGEDLAYER-2
  0
ARC
  8
MERGEDLAYER-2
 62
  7
 10
1.773142
 20
3.269546
 30
0.000000
 40
0.535755
 50
330.028687
 51
338.689392
  0
POLYLINE
  8
MERGEDLAYER-2
 66
  1
 70
  0
 62
  7
 10
0.011141
 20
3.220720
 30
0.000000
  0
VERTEX
  8
MERGEDLAYER-2
 10
0.011141
 20
3.220720
 30
0.000000
  0
VERTEX
  8
MERGEDLAYER-2
 10
2.309326
 20
3.220720
 30
0.000000
  0
SEQEND
  8
MERGEDLAYER-2
  0
ARC
  8
MERGEDLAYER-2
 62
  7
 10
0.360902
 20
3.258649
 30
0.000000
 40
0.351810
 50
173.811035
 51
186.189026
  0
POLYLINE
  8
MERGEDLAYER-2
 66
  1
 70
  0
 62
  7
 10
0.011141
 20
3.296576
 30
0.000000
  0
VERTEX
  8
MERGEDLAYER-2
 10
0.011141
 20
3.296576
 30
0.000000
  0
VERTEX
  8
MERGEDLAYER-2
 10
2.309326
 20
3.296576
 30
0.000000
  0
SEQEND
  8
MERGEDLAYER-2
  0
ARC
  8
MERGEDLAYER-2
 62
  7
 10
1.896333
 20
3.258650
 30
0.000000
 40
0.414730
 50
354.752655
 51
5.247009
  0
POLYLINE
  8
MERGEDLAYER-2
 66
  1
 70
  0
 62
  7
 10
0.042920
 20
3.430786
 30
0.000000
  0
VERTEX
  8
MERGEDLAYER-2
 10
0.042920
 20
3.430786
 30
0.000000
  0
VERTEX
  8
MERGEDLAYER-2
 10
2.277542
 20
3.430786
 30
0.000000
  0
SEQEND
  8
MERGEDLAYER-2
  0
ARC
  8
MERGEDLAYER-2
 62
  7
 10
0.419431
 20
3.297692
 30
0.000000
 40
0.399342
 50
148.450623
 51
160.531860
  0
POLYLINE
  8
MERGEDLAYER-2
 66
  1
 70
  0
 62
  7
 10
0.079115
 20
3.506641
 30
0.000000
  0
VERTEX
  8
MERGEDLAYER-2
 10
0.079115
 20
3.506641
 30
0.000000
  0
VERTEX
  8
MERGEDLAYER-2
 10
2.241038
 20
3.506641
 30
0.000000
  0
SEQEND
  8
MERGEDLAYER-2
  0
ARC
  8
MERGEDLAYER-2
 62
  7
 10
1.923932
 20
3.307330
 30
0.000000
 40
0.374541
 50
19.245636
 51
32.150635
  0
POLYLINE
  8
MERGEDLAYER-2
 66
  1
 70
  0
 62
  7
 10
0.739512
 20
3.934922
 30
0.000000
  0
VERTEX
  8
MERGEDLAYER-2
 10
0.739512
 20
3.934922
 30
0.000000
  0
VERTEX
  8
MERGEDLAYER-2
 10
1.580639
 20
3.934922
 30
0.000000
  0
SEQEND
  8
MERGEDLAYER-2
  0
ARC
  8
MERGEDLAYER-2
 62
  7
 10
1.081723
 20
2.533527
 30
0.000000
 40
1.442572
 50
103.722656
 51
113.170685
  0
POLYLINE
  8
MERGEDLAYER-2
 66
  1
 70
  0
 62
  7
 10
0.514112
 20
3.859737
 30
0.000000
  0
VERTEX
  8
MERGEDLAYER-2
 10
0.514112
 20
3.859737
 30
0.000000
  0
VERTEX
  8
MERGEDLAYER-2
 10
1.806041
 20
3.859737
 30
0.000000
  0
SEQEND
  8
MERGEDLAYER-2
  0
ARC
  8
MERGEDLAYER-2
 62
  7
 10
1.248404
 20
2.563423
 30
0.000000
 40
1.411166
 50
66.723999
 51
76.382843
  0
POLYLINE
  8
MERGEDLAYER-2
 66
  1
 70
  0
 62
  7
 10
0.189982
 20
3.649603
 30
0.000000
  0
VERTEX
  8
MERGEDLAYER-2
 10
0.189982
 20
3.649603
 30
0.000000
  0
VERTEX
  8
MERGEDLAYER-2
 10
2.130172
 20
3.649603
 30
0.000000
  0
SEQEND
  8
MERGEDLAYER-2
  0
ARC
  8
MERGEDLAYER-2
 62
  7
 10
0.905878
 20
2.909222
 30
0.000000
 40
1.029889
 50
127.575531
 51
134.036743
  0
POLYLINE
  8
MERGEDLAYER-2
 66
  1
 70
  0
 62
  7
 10
0.277845
 20
3.725461
 30
0.000000
  0
VERTEX
  8
MERGEDLAYER-2
 10
0.277845
 20
3.725461
 30
0.000000
  0
VERTEX
  8
MERGEDLAYER-2
 10
2.042642
 20
3.725461
 30
0.000000
  0
SEQEND
  8
MERGEDLAYER-2
  0
ARC
  8
MERGEDLAYER-2
 62
  7
 10
1.313678
 20
2.795898
 30
0.000000
 40
1.181302
 50
46.276276
 51
51.896393
  0
POLYLINE
  8
MERGEDLAYER-2
 66
  1
 70
  1
 62
  7
  0
VERTEX
  8
MERGEDLAYER-2
 10
0.370902
 20
3.742965
 30
0.000000
  0
VERTEX
  8
MERGEDLAYER-2
 10
0.392393
 20
3.742965
 30
0.000000
  0
VERTEX
  8
MERGEDLAYER-2
 10
0.392393
 20
3.197379
 30
0.000000
  0
VERTEX
  8
MERGEDLAYER-2
 10
0.370902
 20
3.197379
 30
0.000000
  0
SEQEND
  8
MERGEDLAYER-2
  0
POLYLINE
  8
MERGEDLAYER-2
 66
  1
 70
  1
 62
  7
  0
VERTEX
  8
MERGEDLAYER-2
 10
0.349422
 20
3.314082
 30
0.000000
  0
VERTEX
  8
MERGEDLAYER-2
 10
0.370902
 20
3.314082
 30
0.000000
  0
VERTEX
  8
MERGEDLAYER-2
 10
0.370902
 20
2.771413
 30
0.000000
  0
VERTEX
  8
MERGEDLAYER-2
 10
0.349422
 20
2.771413
 30
0.000000
  0
SEQEND
  8
MERGEDLAYER-2
  0
POLYLINE
  8
MERGEDLAYER-2
 66
  1
 70
  1
 62
  7
  0
VERTEX
  8
MERGEDLAYER-2
 10
1.938941
 20
3.742965
 30
0.000000
  0
VERTEX
  8
MERGEDLAYER-2
 10
1.960410
 20
3.742965
 30
0.000000
  0
VERTEX
  8
MERGEDLAYER-2
 10
1.960410
 20
3.197379
 30
0.000000
  0
VERTEX
  8
MERGEDLAYER-2
 10
1.938941
 20
3.197379
 30
0.000000
  0
SEQEND
  8
MERGEDLAYER-2
  0
POLYLINE
  8
MERGEDLAYER-2
 66
  1
 70
  1
 62
  7
  0
VERTEX
  8
MERGEDLAYER-2
 10
1.917450
 20
3.314082
 30
0.000000
  0
VERTEX
  8
MERGEDLAYER-2
 10
1.938941
 20
3.314082
 30
0.000000
  0
VERTEX
  8
MERGEDLAYER-2
 10
1.938941
 20
2.771413
 30
0.000000
  0
VERTEX
  8
MERGEDLAYER-2
 10
1.917450
 20
2.771413
 30
0.000000
  0
SEQEND
  8
MERGEDLAYER-2
  0
POLYLINE
  8
MERGEDLAYER-2
 66
  1
 70
  1
 62
  7
 10
1.917189
 20
3.804548
 30
0.000000
  0
VERTEX
  8
MERGEDLAYER-2
 10
1.917189
 20
3.804548
 30
0.000000
  0
VERTEX
  8
MERGEDLAYER-2
 10
1.917450
 20
3.629181
 30
0.000000
  0
VERTEX
  8
MERGEDLAYER-2
 10
1.938941
 20
3.629181
 30
0.000000
  0
VERTEX
  8
MERGEDLAYER-2
 10
1.939345
 20
3.793747
 30
0.000000
  0
SEQEND
  8
MERGEDLAYER-2
  0
POLYLINE
  8
MERGEDLAYER-2
 66
  1
 70
  1
 62
  7
 10
0.370874
 20
3.786730
 30
0.000000
  0
VERTEX
  8
MERGEDLAYER-2
 10
0.370874
 20
3.786730
 30
0.000000
  0
VERTEX
  8
MERGEDLAYER-2
 10
0.370902
 20
3.626263
 30
0.000000
  0
VERTEX
  8
MERGEDLAYER-2
 10
0.349422
 20
3.626263
 30
0.000000
  0
VERTEX
  8
MERGEDLAYER-2
 10
0.349026
 20
3.773721
 30
0.000000
  0
SEQEND
  8
MERGEDLAYER-2
  0
POLYLINE
  8
MERGEDLAYER-2
 66
  1
 70
  1
 62
  7
 10
0.370874
 20
2.730568
 30
0.000000
  0
VERTEX
  8
MERGEDLAYER-2
 10
0.370874
 20
2.730568
 30
0.000000
  0
VERTEX
  8
MERGEDLAYER-2
 10
0.370902
 20
2.888113
 30
0.000000
  0
VERTEX
  8
MERGEDLAYER-2
 10
0.392393
 20
2.888113
 30
0.000000
  0
VERTEX
  8
MERGEDLAYER-2
 10
0.391297
 20
2.718898
 30
0.000000
  0
SEQEND
  8
MERGEDLAYER-2
  0
POLYLINE
  8
MERGEDLAYER-2
 66
  1
 70
  1
 62
  7
 10
1.937609
 20
2.721816
 30
0.000000
  0
VERTEX
  8
MERGEDLAYER-2
 10
1.937609
 20
2.721816
 30
0.000000
  0
VERTEX
  8
MERGEDLAYER-2
 10
1.938941
 20
2.888113
 30
0.000000
  0
VERTEX
  8
MERGEDLAYER-2
 10
1.960410
 20
2.888113
 30
0.000000
  0
VERTEX
  8
MERGEDLAYER-2
 10
1.960952
 20
2.736405
 30
0.000000
  0
SEQEND
  8
MERGEDLAYER-2
  0
TEXT
  8
MERGEDLAYER-2
 62
  7
 10
0.846737
 20
3.322632
 30
0.000000
 40
0.081818
  1
13/16
 72
  5
 11
1.174010
 21
3.322632
 31
0.000000
  0
TEXT
  8
MERGEDLAYER-2
 62
  7
 10
1.174010
 20
3.322632
 30
0.000000
 40
0.095455
  1
"  (21
 72
  5
 11
1.528555
 21
3.322632
 31
0.000000
  0
TEXT
  8
MERGEDLAYER-2
 62
  7
 10
1.528555
 20
3.322632
 30
0.000000
 40
0.081818
  1
mm
 72
  5
 11
1.774010
 21
3.322632
 31
0.000000
  0
TEXT
  8
MERGEDLAYER-2
 62
  7
 10
1.774010
 20
3.322632
 30
0.000000
 40
0.095455
  1
)
 72
  5
 11
1.864919
 21
3.322632
 31
0.000000
  0
POLYLINE
  8
MERGEDLAYER-2
 66
  1
 70
  0
 62
  7
 10
0.776977
 20
3.430839
 30
0.000000
  0
VERTEX
  8
MERGEDLAYER-2
 10
0.776977
 20
3.430839
 30
0.000000
  0
VERTEX
  8
MERGEDLAYER-2
 10
0.776977
 20
3.295423
 30
0.000000
  0
SEQEND
  8
MERGEDLAYER-2
  0
LINE
  8
MERGEDLAYER-2
 62
  7
 10
0.796262
 20
3.411554
 30
0.000000
 11
0.757692
 21
3.450124
 31
0.000000
  0
LINE
  8
MERGEDLAYER-2
 62
  7
 10
0.796262
 20
3.276138
 30
0.000000
 11
0.757692
 21
3.314708
 31
0.000000
  0
POLYLINE
  8
MERGEDLAYER-2
 66
  1
 70
  0
 62
  7
 40
0.018182
 41
0.018182
 10
2.307127
 20
3.262665
 30
0.000000
  0
VERTEX
  8
MERGEDLAYER-2
 10
2.307127
 20
3.262665
 30
0.000000
  0
VERTEX
  8
MERGEDLAYER-2
 10
2.301584
 20
3.333865
 30
0.000000
  0
VERTEX
  8
MERGEDLAYER-2
 10
2.285011
 20
3.404378
 30
0.000000
  0
VERTEX
  8
MERGEDLAYER-2
 10
2.257566
 20
3.473527
 30
0.000000
  0
VERTEX
  8
MERGEDLAYER-2
 10
2.219513
 20
3.540646
 30
0.000000
  0
VERTEX
  8
MERGEDLAYER-2
 10
2.171220
 20
3.605087
 30
0.000000
  0
VERTEX
  8
MERGEDLAYER-2
 10
2.113151
 20
3.666230
 30
0.000000
  0
VERTEX
  8
MERGEDLAYER-2
 10
2.045865
 20
3.723487
 30
0.000000
  0
VERTEX
  8
MERGEDLAYER-2
 10
1.970011
 20
3.776306
 30
0.000000
  0
VERTEX
  8
MERGEDLAYER-2
 10
1.886318
 20
3.824178
 30
0.000000
  0
VERTEX
  8
MERGEDLAYER-2
 10
1.795594
 20
3.866643
 30
0.000000
  0
VERTEX
  8
MERGEDLAYER-2
 10
1.698712
 20
3.903290
 30
0.000000
  0
VERTEX
  8
MERGEDLAYER-2
 10
1.596604
 20
3.933769
 30
0.000000
  0
VERTEX
  8
MERGEDLAYER-2
 10
1.490254
 20
3.957784
 30
0.000000
  0
VERTEX
  8
MERGEDLAYER-2
 10
1.380687
 20
3.975105
 30
0.000000
  0
VERTEX
  8
MERGEDLAYER-2
 10
1.268957
 20
3.985565
 30
0.000000
  0
VERTEX
  8
MERGEDLAYER-2
 10
1.156140
 20
3.989063
 30
0.000000
  0
VERTEX
  8
MERGEDLAYER-2
 10
1.043324
 20
3.985565
 30
0.000000
  0
VERTEX
  8
MERGEDLAYER-2
 10
0.931594
 20
3.975105
 30
0.000000
  0
VERTEX
  8
MERGEDLAYER-2
 10
0.822027
 20
3.957784
 30
0.000000
  0
VERTEX
  8
MERGEDLAYER-2
 10
0.715677
 20
3.933769
 30
0.000000
  0
VERTEX
  8
MERGEDLAYER-2
 10
0.613569
 20
3.903290
 30
0.000000
  0
VERTEX
  8
MERGEDLAYER-2
 10
0.516687
 20
3.866643
 30
0.000000
  0
VERTEX
  8
MERGEDLAYER-2
 10
0.425962
 20
3.824178
 30
0.000000
  0
VERTEX
  8
MERGEDLAYER-2
 10
0.342270
 20
3.776306
 30
0.000000
  0
VERTEX
  8
MERGEDLAYER-2
 10
0.266416
 20
3.723487
 30
0.000000
  0
VERTEX
  8
MERGEDLAYER-2
 10
0.199130
 20
3.666230
 30
0.000000
  0
VERTEX
  8
MERGEDLAYER-2
 10
0.141061
 20
3.605087
 30
0.000000
  0
VERTEX
  8
MERGEDLAYER-2
 10
0.092768
 20
3.540646
 30
0.000000
  0
VERTEX
  8
MERGEDLAYER-2
 10
0.054715
 20
3.473527
 30
0.000000
  0
VERTEX
  8
MERGEDLAYER-2
 10
0.027270
 20
3.404378
 30
0.000000
  0
VERTEX
  8
MERGEDLAYER-2
 10
0.010696
 20
3.333865
 30
0.000000
  0
VERTEX
  8
MERGEDLAYER-2
 10
0.005154
 20
3.262665
 30
0.000000
  0
VERTEX
  8
MERGEDLAYER-2
 10
0.010696
 20
3.191466
 30
0.000000
  0
VERTEX
  8
MERGEDLAYER-2
 10
0.027270
 20
3.120953
 30
0.000000
  0
VERTEX
  8
MERGEDLAYER-2
 10
0.054715
 20
3.051803
 30
0.000000
  0
VERTEX
  8
MERGEDLAYER-2
 10
0.092768
 20
2.984686
 30
0.000000
  0
VERTEX
  8
MERGEDLAYER-2
 10
0.141061
 20
2.920244
 30
0.000000
  0
VERTEX
  8
MERGEDLAYER-2
 10
0.199130
 20
2.859101
 30
0.000000
  0
VERTEX
  8
MERGEDLAYER-2
 10
0.266416
 20
2.801844
 30
0.000000
  0
VERTEX
  8
MERGEDLAYER-2
 10
0.342270
 20
2.749026
 30
0.000000
  0
VERTEX
  8
MERGEDLAYER-2
 10
0.425962
 20
2.701153
 30
0.000000
  0
VERTEX
  8
MERGEDLAYER-2
 10
0.516687
 20
2.658689
 30
0.000000
  0
VERTEX
  8
MERGEDLAYER-2
 10
0.613569
 20
2.622040
 30
0.000000
  0
VERTEX
  8
MERGEDLAYER-2
 10
0.715677
 20
2.591562
 30
0.000000
  0
VERTEX
  8
MERGEDLAYER-2
 10
0.822027
 20
2.567547
 30
0.000000
  0
VERTEX
  8
MERGEDLAYER-2
 10
0.931594
 20
2.550226
 30
0.000000
  0
VERTEX
  8
MERGEDLAYER-2
 10
1.043324
 20
2.539766
 30
0.000000
  0
VERTEX
  8
MERGEDLAYER-2
 10
1.156140
 20
2.536268
 30
0.000000
  0
VERTEX
  8
MERGEDLAYER-2
 10
1.268957
 20
2.539766
 30
0.000000
  0
VERTEX
  8
MERGEDLAYER-2
 10
1.380687
 20
2.550226
 30
0.000000
  0
VERTEX
  8
MERGEDLAYER-2
 10
1.490254
 20
2.567547
 30
0.000000
  0
VERTEX
  8
MERGEDLAYER-2
 10
1.596604
 20
2.591562
 30
0.000000
  0
VERTEX
  8
MERGEDLAYER-2
 10
1.698712
 20
2.622040
 30
0.000000
  0
VERTEX
  8
MERGEDLAYER-2
 10
1.795594
 20
2.658689
 30
0.000000
  0
VERTEX
  8
MERGEDLAYER-2
 10
1.886318
 20
2.701153
 30
0.000000
  0
VERTEX
  8
MERGEDLAYER-2
 10
1.970011
 20
2.749026
 30
0.000000
  0
VERTEX
  8
MERGEDLAYER-2
 10
2.045865
 20
2.801844
 30
0.000000
  0
VERTEX
  8
MERGEDLAYER-2
 10
2.113151
 20
2.859101
 30
0.000000
  0
VERTEX
  8
MERGEDLAYER-2
 10
2.171220
 20
2.920244
 30
0.000000
  0
VERTEX
  8
MERGEDLAYER-2
 10
2.219513
 20
2.984686
 30
0.000000
  0
VERTEX
  8
MERGEDLAYER-2
 10
2.257566
 20
3.051803
 30
0.000000
  0
VERTEX
  8
MERGEDLAYER-2
 10
2.285011
 20
3.120953
 30
0.000000
  0
VERTEX
  8
MERGEDLAYER-2
 10
2.301584
 20
3.191466
 30
0.000000
  0
VERTEX
  8
MERGEDLAYER-2
 10
2.307127
 20
3.262665
 30
0.000000
  0
SEQEND
  8
MERGEDLAYER-2
  0
POLYLINE
  8
MERGEDLAYER-2
 66
  1
 70
  0
 62
  7
 10
1.664810
 20
4.384627
 30
0.000000
  0
VERTEX
  8
MERGEDLAYER-2
 10
1.664810
 20
4.384627
 30
0.000000
  0
VERTEX
  8
MERGEDLAYER-2
 10
5.398783
 20
4.384450
 30
0.000000
  0
SEQEND
  8
MERGEDLAYER-2
  0
POLYLINE
  8
MERGEDLAYER-2
 66
  1
 70
  0
 62
  7
 10
1.666060
 20
4.251234
 30
0.000000
  0
VERTEX
  8
MERGEDLAYER-2
 10
1.666060
 20
4.251234
 30
0.000000
  0
VERTEX
  8
MERGEDLAYER-2
 10
5.398477
 20
4.251234
 30
0.000000
  0
SEQEND
  8
MERGEDLAYER-2
  0
POLYLINE
  8
MERGEDLAYER-2
 66
  1
 70
  0
 62
  7
 10
1.666060
 20
4.233482
 30
0.000000
  0
VERTEX
  8
MERGEDLAYER-2
 10
1.666060
 20
4.233482
 30
0.000000
  0
VERTEX
  8
MERGEDLAYER-2
 10
5.398477
 20
4.233482
 30
0.000000
  0
SEQEND
  8
MERGEDLAYER-2
  0
TEXT
  8
MERGEDLAYER-2
 62
  7
 10
2.637646
 20
3.549905
 30
0.000000
 40
0.122727
  1
INTERIOR ELEVATION
 72
  5
 11
4.446737
 21
3.549905
 31
0.000000
  0
POLYLINE
  8
MERGEDLAYER-2
 66
  1
 70
  0
 62
  7
 10
2.614823
 20
3.979747
 30
0.000000
  0
VERTEX
  8
MERGEDLAYER-2
 10
2.614823
 20
3.979747
 30
0.000000
  0
VERTEX
  8
MERGEDLAYER-2
 10
3.161520
 20
3.981590
 30
0.000000
  0
SEQEND
  8
MERGEDLAYER-2
  0
POLYLINE
  8
MERGEDLAYER-2
 66
  1
 70
  1
 62
  7
  0
VERTEX
  8
MERGEDLAYER-2
 10
2.595137
 20
3.979681
 30
0.000000
  0
VERTEX
  8
MERGEDLAYER-2
 10
2.640684
 20
3.952562
 30
0.000000
  0
VERTEX
  8
MERGEDLAYER-2
 10
2.640592
 20
3.979835
 30
0.000000
  0
VERTEX
  8
MERGEDLAYER-2
 10
2.640500
 20
4.007107
 30
0.000000
  0
VERTEX
  8
MERGEDLAYER-2
 10
2.595137
 20
3.979681
 30
0.000000
  0
SEQEND
  8
MERGEDLAYER-2
  0
POLYLINE
  8
MERGEDLAYER-2
 66
  1
 70
  0
 62
  7
 10
4.452758
 20
3.977456
 30
0.000000
  0
VERTEX
  8
MERGEDLAYER-2
 10
4.452758
 20
3.977456
 30
0.000000
  0
VERTEX
  8
MERGEDLAYER-2
 10
3.881922
 20
3.977308
 30
0.000000
  0
SEQEND
  8
MERGEDLAYER-2
  0
POLYLINE
  8
MERGEDLAYER-2
 66
  1
 70
  1
 62
  7
  0
VERTEX
  8
MERGEDLAYER-2
 10
4.472443
 20
3.977462
 30
0.000000
  0
VERTEX
  8
MERGEDLAYER-2
 10
4.426981
 20
4.004723
 30
0.000000
  0
VERTEX
  8
MERGEDLAYER-2
 10
4.426988
 20
3.977450
 30
0.000000
  0
VERTEX
  8
MERGEDLAYER-2
 10
4.426996
 20
3.950178
 30
0.000000
  0
VERTEX
  8
MERGEDLAYER-2
 10
4.472443
 20
3.977462
 30
0.000000
  0
SEQEND
  8
MERGEDLAYER-2
  0
POLYLINE
  8
MERGEDLAYER-2
 66
  1
 70
  0
 62
  7
 10
2.597710
 20
4.296510
 30
0.000000
  0
VERTEX
  8
MERGEDLAYER-2
 10
2.597710
 20
4.296510
 30
0.000000
  0
VERTEX
  8
MERGEDLAYER-2
 10
2.597710
 20
3.915557
 30
0.000000
  0
SEQEND
  8
MERGEDLAYER-2
  0
POLYLINE
  8
MERGEDLAYER-2
 66
  1
 70
  0
 62
  7
 10
4.472001
 20
4.301590
 30
0.000000
  0
VERTEX
  8
MERGEDLAYER-2
 10
4.472001
 20
4.301590
 30
0.000000
  0
VERTEX
  8
MERGEDLAYER-2
 10
4.472001
 20
3.910479
 30
0.000000
  0
SEQEND
  8
MERGEDLAYER-2
  0
POLYLINE
  8
MERGEDLAYER-2
 66
  1
 70
  1
 62
  7
  0
VERTEX
  8
MERGEDLAYER-2
 10
2.128770
 20
4.535012
 30
0.000000
  0
VERTEX
  8
MERGEDLAYER-2
 10
2.135158
 20
4.535012
 30
0.000000
  0
VERTEX
  8
MERGEDLAYER-2
 10
2.135158
 20
4.384848
 30
0.000000
  0
VERTEX
  8
MERGEDLAYER-2
 10
2.128770
 20
4.384848
 30
0.000000
  0
SEQEND
  8
MERGEDLAYER-2
  0
POLYLINE
  8
MERGEDLAYER-2
 66
  1
 70
  1
 62
  7
  0
VERTEX
  8
MERGEDLAYER-2
 10
2.135158
 20
4.662403
 30
0.000000
  0
VERTEX
  8
MERGEDLAYER-2
 10
2.141552
 20
4.662403
 30
0.000000
  0
VERTEX
  8
MERGEDLAYER-2
 10
2.141552
 20
4.502669
 30
0.000000
  0
VERTEX
  8
MERGEDLAYER-2
 10
2.135158
 20
4.502669
 30
0.000000
  0
SEQEND
  8
MERGEDLAYER-2
  0
POLYLINE
  8
MERGEDLAYER-2
 66
  1
 70
  1
 62
  7
  0
VERTEX
  8
MERGEDLAYER-2
 10
2.128770
 20
4.790654
 30
0.000000
  0
VERTEX
  8
MERGEDLAYER-2
 10
2.135158
 20
4.790654
 30
0.000000
  0
VERTEX
  8
MERGEDLAYER-2
 10
2.135158
 20
4.630485
 30
0.000000
  0
VERTEX
  8
MERGEDLAYER-2
 10
2.128770
 20
4.630485
 30
0.000000
  0
SEQEND
  8
MERGEDLAYER-2
  0
POLYLINE
  8
MERGEDLAYER-2
 66
  1
 70
  1
 62
  7
  0
VERTEX
  8
MERGEDLAYER-2
 10
2.135158
 20
4.919772
 30
0.000000
  0
VERTEX
  8
MERGEDLAYER-2
 10
2.141552
 20
4.919772
 30
0.000000
  0
VERTEX
  8
MERGEDLAYER-2
 10
2.141552
 20
4.757867
 30
0.000000
  0
VERTEX
  8
MERGEDLAYER-2
 10
2.135158
 20
4.757867
 30
0.000000
  0
SEQEND
  8
MERGEDLAYER-2
  0
POLYLINE
  8
MERGEDLAYER-2
 66
  1
 70
  1
 62
  7
  0
VERTEX
  8
MERGEDLAYER-2
 10
2.128770
 20
5.045851
 30
0.000000
  0
VERTEX
  8
MERGEDLAYER-2
 10
2.135158
 20
5.045851
 30
0.000000
  0
VERTEX
  8
MERGEDLAYER-2
 10
2.135158
 20
4.886553
 30
0.000000
  0
VERTEX
  8
MERGEDLAYER-2
 10
2.128770
 20
4.886553
 30
0.000000
  0
SEQEND
  8
MERGEDLAYER-2
  0
POLYLINE
  8
MERGEDLAYER-2
 66
  1
 70
  1
 62
  7
  0
VERTEX
  8
MERGEDLAYER-2
 10
2.135158
 20
5.174103
 30
0.000000
  0
VERTEX
  8
MERGEDLAYER-2
 10
2.141552
 20
5.174103
 30
0.000000
  0
VERTEX
  8
MERGEDLAYER-2
 10
2.141552
 20
5.013499
 30
0.000000
  0
VERTEX
  8
MERGEDLAYER-2
 10
2.135158
 20
5.013499
 30
0.000000
  0
SEQEND
  8
MERGEDLAYER-2
  0
POLYLINE
  8
MERGEDLAYER-2
 66
  1
 70
  1
 62
  7
  0
VERTEX
  8
MERGEDLAYER-2
 10
2.128770
 20
5.301918
 30
0.000000
  0
VERTEX
  8
MERGEDLAYER-2
 10
2.135158
 20
5.301918
 30
0.000000
  0
VERTEX
  8
MERGEDLAYER-2
 10
2.135158
 20
5.140883
 30
0.000000
  0
VERTEX
  8
MERGEDLAYER-2
 10
2.128770
 20
5.140883
 30
0.000000
  0
SEQEND
  8
MERGEDLAYER-2
  0
POLYLINE
  8
MERGEDLAYER-2
 66
  1
 70
  1
 62
  7
  0
VERTEX
  8
MERGEDLAYER-2
 10
2.135158
 20
5.430169
 30
0.000000
  0
VERTEX
  8
MERGEDLAYER-2
 10
2.141552
 20
5.430169
 30
0.000000
  0
VERTEX
  8
MERGEDLAYER-2
 10
2.141552
 20
5.269131
 30
0.000000
  0
VERTEX
  8
MERGEDLAYER-2
 10
2.135158
 20
5.269131
 30
0.000000
  0
SEQEND
  8
MERGEDLAYER-2
  0
POLYLINE
  8
MERGEDLAYER-2
 66
  1
 70
  1
 62
  7
  0
VERTEX
  8
MERGEDLAYER-2
 10
2.128770
 20
5.557118
 30
0.000000
  0
VERTEX
  8
MERGEDLAYER-2
 10
2.135158
 20
5.557118
 30
0.000000
  0
VERTEX
  8
MERGEDLAYER-2
 10
2.135158
 20
5.396949
 30
0.000000
  0
VERTEX
  8
MERGEDLAYER-2
 10
2.128770
 20
5.396949
 30
0.000000
  0
SEQEND
  8
MERGEDLAYER-2
  0
POLYLINE
  8
MERGEDLAYER-2
 66
  1
 70
  1
 62
  7
  0
VERTEX
  8
MERGEDLAYER-2
 10
2.135158
 20
5.685367
 30
0.000000
  0
VERTEX
  8
MERGEDLAYER-2
 10
2.141552
 20
5.685367
 30
0.000000
  0
VERTEX
  8
MERGEDLAYER-2
 10
2.141552
 20
5.524765
 30
0.000000
  0
VERTEX
  8
MERGEDLAYER-2
 10
2.135158
 20
5.524765
 30
0.000000
  0
SEQEND
  8
MERGEDLAYER-2
  0
POLYLINE
  8
MERGEDLAYER-2
 66
  1
 70
  1
 62
  7
  0
VERTEX
  8
MERGEDLAYER-2
 10
2.128770
 20
5.813183
 30
0.000000
  0
VERTEX
  8
MERGEDLAYER-2
 10
2.135158
 20
5.813183
 30
0.000000
  0
VERTEX
  8
MERGEDLAYER-2
 10
2.135158
 20
5.653448
 30
0.000000
  0
VERTEX
  8
MERGEDLAYER-2
 10
2.128770
 20
5.653448
 30
0.000000
  0
SEQEND
  8
MERGEDLAYER-2
  0
POLYLINE
  8
MERGEDLAYER-2
 66
  1
 70
  1
 62
  7
  0
VERTEX
  8
MERGEDLAYER-2
 10
2.135158
 20
5.941868
 30
0.000000
  0
VERTEX
  8
MERGEDLAYER-2
 10
2.141552
 20
5.941868
 30
0.000000
  0
VERTEX
  8
MERGEDLAYER-2
 10
2.141552
 20
5.780829
 30
0.000000
  0
VERTEX
  8
MERGEDLAYER-2
 10
2.135158
 20
5.780829
 30
0.000000
  0
SEQEND
  8
MERGEDLAYER-2
  0
POLYLINE
  8
MERGEDLAYER-2
 66
  1
 70
  1
 62
  7
  0
VERTEX
  8
MERGEDLAYER-2
 10
2.128770
 20
6.069251
 30
0.000000
  0
VERTEX
  8
MERGEDLAYER-2
 10
2.135158
 20
6.069251
 30
0.000000
  0
VERTEX
  8
MERGEDLAYER-2
 10
2.135158
 20
5.908647
 30
0.000000
  0
VERTEX
  8
MERGEDLAYER-2
 10
2.128770
 20
5.908647
 30
0.000000
  0
SEQEND
  8
MERGEDLAYER-2
  0
POLYLINE
  8
MERGEDLAYER-2
 66
  1
 70
  1
 62
  7
  0
VERTEX
  8
MERGEDLAYER-2
 10
2.135158
 20
6.196632
 30
0.000000
  0
VERTEX
  8
MERGEDLAYER-2
 10
2.141552
 20
6.196632
 30
0.000000
  0
VERTEX
  8
MERGEDLAYER-2
 10
2.141552
 20
6.036464
 30
0.000000
  0
VERTEX
  8
MERGEDLAYER-2
 10
2.135158
 20
6.036464
 30
0.000000
  0
SEQEND
  8
MERGEDLAYER-2
  0
POLYLINE
  8
MERGEDLAYER-2
 66
  1
 70
  1
 62
  7
  0
VERTEX
  8
MERGEDLAYER-2
 10
2.128770
 20
6.323580
 30
0.000000
  0
VERTEX
  8
MERGEDLAYER-2
 10
2.135158
 20
6.323580
 30
0.000000
  0
VERTEX
  8
MERGEDLAYER-2
 10
2.135158
 20
6.163413
 30
0.000000
  0
VERTEX
  8
MERGEDLAYER-2
 10
2.128770
 20
6.163413
 30
0.000000
  0
SEQEND
  8
MERGEDLAYER-2
  0
POLYLINE
  8
MERGEDLAYER-2
 66
  1
 70
  1
 62
  7
  0
VERTEX
  8
MERGEDLAYER-2
 10
2.135158
 20
6.452265
 30
0.000000
  0
VERTEX
  8
MERGEDLAYER-2
 10
2.141552
 20
6.452265
 30
0.000000
  0
VERTEX
  8
MERGEDLAYER-2
 10
2.141552
 20
6.292529
 30
0.000000
  0
VERTEX
  8
MERGEDLAYER-2
 10
2.135158
 20
6.292529
 30
0.000000
  0
SEQEND
  8
MERGEDLAYER-2
  0
POLYLINE
  8
MERGEDLAYER-2
 66
  1
 70
  1
 62
  7
  0
VERTEX
  8
MERGEDLAYER-2
 10
2.128770
 20
6.580080
 30
0.000000
  0
VERTEX
  8
MERGEDLAYER-2
 10
2.135158
 20
6.580080
 30
0.000000
  0
VERTEX
  8
MERGEDLAYER-2
 10
2.135158
 20
6.419477
 30
0.000000
  0
VERTEX
  8
MERGEDLAYER-2
 10
2.128770
 20
6.419477
 30
0.000000
  0
SEQEND
  8
MERGEDLAYER-2
  0
POLYLINE
  8
MERGEDLAYER-2
 66
  1
 70
  1
 62
  7
  0
VERTEX
  8
MERGEDLAYER-2
 10
2.135158
 20
6.708329
 30
0.000000
  0
VERTEX
  8
MERGEDLAYER-2
 10
2.141552
 20
6.708329
 30
0.000000
  0
VERTEX
  8
MERGEDLAYER-2
 10
2.141552
 20
6.547728
 30
0.000000
  0
VERTEX
  8
MERGEDLAYER-2
 10
2.135158
 20
6.547728
 30
0.000000
  0
SEQEND
  8
MERGEDLAYER-2
  0
POLYLINE
  8
MERGEDLAYER-2
 66
  1
 70
  1
 62
  7
  0
VERTEX
  8
MERGEDLAYER-2
 10
2.128770
 20
6.835711
 30
0.000000
  0
VERTEX
  8
MERGEDLAYER-2
 10
2.135158
 20
6.835711
 30
0.000000
  0
VERTEX
  8
MERGEDLAYER-2
 10
2.135158
 20
6.675543
 30
0.000000
  0
VERTEX
  8
MERGEDLAYER-2
 10
2.128770
 20
6.675543
 30
0.000000
  0
SEQEND
  8
MERGEDLAYER-2
  0
POLYLINE
  8
MERGEDLAYER-2
 66
  1
 70
  1
 62
  7
  0
VERTEX
  8
MERGEDLAYER-2
 10
2.135158
 20
8.239283
 30
0.000000
  0
VERTEX
  8
MERGEDLAYER-2
 10
2.141552
 20
8.239283
 30
0.000000
  0
VERTEX
  8
MERGEDLAYER-2
 10
2.141552
 20
8.079549
 30
0.000000
  0
VERTEX
  8
MERGEDLAYER-2
 10
2.135158
 20
8.079549
 30
0.000000
  0
SEQEND
  8
MERGEDLAYER-2
  0
POLYLINE
  8
MERGEDLAYER-2
 66
  1
 70
  1
 62
  7
  0
VERTEX
  8
MERGEDLAYER-2
 10
2.128770
 20
8.367100
 30
0.000000
  0
VERTEX
  8
MERGEDLAYER-2
 10
2.135158
 20
8.367100
 30
0.000000
  0
VERTEX
  8
MERGEDLAYER-2
 10
2.135158
 20
8.206940
 30
0.000000
  0
VERTEX
  8
MERGEDLAYER-2
 10
2.128770
 20
8.206940
 30
0.000000
  0
SEQEND
  8
MERGEDLAYER-2
  0
POLYLINE
  8
MERGEDLAYER-2
 66
  1
 70
  1
 62
  7
  0
VERTEX
  8
MERGEDLAYER-2
 10
2.135158
 20
7.984045
 30
0.000000
  0
VERTEX
  8
MERGEDLAYER-2
 10
2.141552
 20
7.984045
 30
0.000000
  0
VERTEX
  8
MERGEDLAYER-2
 10
2.141552
 20
7.824311
 30
0.000000
  0
VERTEX
  8
MERGEDLAYER-2
 10
2.135158
 20
7.824311
 30
0.000000
  0
SEQEND
  8
MERGEDLAYER-2
  0
POLYLINE
  8
MERGEDLAYER-2
 66
  1
 70
  1
 62
  7
  0
VERTEX
  8
MERGEDLAYER-2
 10
2.128770
 20
8.112296
 30
0.000000
  0
VERTEX
  8
MERGEDLAYER-2
 10
2.135158
 20
8.112296
 30
0.000000
  0
VERTEX
  8
MERGEDLAYER-2
 10
2.135158
 20
7.952570
 30
0.000000
  0
VERTEX
  8
MERGEDLAYER-2
 10
2.128770
 20
7.952570
 30
0.000000
  0
SEQEND
  8
MERGEDLAYER-2
  0
POLYLINE
  8
MERGEDLAYER-2
 66
  1
 70
  1
 62
  7
  0
VERTEX
  8
MERGEDLAYER-2
 10
2.135158
 20
7.728374
 30
0.000000
  0
VERTEX
  8
MERGEDLAYER-2
 10
2.141552
 20
7.728374
 30
0.000000
  0
VERTEX
  8
MERGEDLAYER-2
 10
2.141552
 20
7.569073
 30
0.000000
  0
VERTEX
  8
MERGEDLAYER-2
 10
2.135158
 20
7.569073
 30
0.000000
  0
SEQEND
  8
MERGEDLAYER-2
  0
POLYLINE
  8
MERGEDLAYER-2
 66
  1
 70
  1
 62
  7
  0
VERTEX
  8
MERGEDLAYER-2
 10
2.128770
 20
7.856190
 30
0.000000
  0
VERTEX
  8
MERGEDLAYER-2
 10
2.135158
 20
7.856190
 30
0.000000
  0
VERTEX
  8
MERGEDLAYER-2
 10
2.135158
 20
7.697766
 30
0.000000
  0
VERTEX
  8
MERGEDLAYER-2
 10
2.128770
 20
7.697766
 30
0.000000
  0
SEQEND
  8
MERGEDLAYER-2
  0
POLYLINE
  8
MERGEDLAYER-2
 66
  1
 70
  1
 62
  7
  0
VERTEX
  8
MERGEDLAYER-2
 10
2.135158
 20
7.474436
 30
0.000000
  0
VERTEX
  8
MERGEDLAYER-2
 10
2.141552
 20
7.474436
 30
0.000000
  0
VERTEX
  8
MERGEDLAYER-2
 10
2.141552
 20
7.314268
 30
0.000000
  0
VERTEX
  8
MERGEDLAYER-2
 10
2.135158
 20
7.314268
 30
0.000000
  0
SEQEND
  8
MERGEDLAYER-2
  0
POLYLINE
  8
MERGEDLAYER-2
 66
  1
 70
  1
 62
  7
  0
VERTEX
  8
MERGEDLAYER-2
 10
2.128770
 20
7.601385
 30
0.000000
  0
VERTEX
  8
MERGEDLAYER-2
 10
2.135158
 20
7.601385
 30
0.000000
  0
VERTEX
  8
MERGEDLAYER-2
 10
2.135158
 20
7.441659
 30
0.000000
  0
VERTEX
  8
MERGEDLAYER-2
 10
2.128770
 20
7.441659
 30
0.000000
  0
SEQEND
  8
MERGEDLAYER-2
  0
POLYLINE
  8
MERGEDLAYER-2
 66
  1
 70
  1
 62
  7
  0
VERTEX
  8
MERGEDLAYER-2
 10
2.135158
 20
7.219199
 30
0.000000
  0
VERTEX
  8
MERGEDLAYER-2
 10
2.141552
 20
7.219199
 30
0.000000
  0
VERTEX
  8
MERGEDLAYER-2
 10
2.141552
 20
7.058597
 30
0.000000
  0
VERTEX
  8
MERGEDLAYER-2
 10
2.135158
 20
7.058597
 30
0.000000
  0
SEQEND
  8
MERGEDLAYER-2
  0
POLYLINE
  8
MERGEDLAYER-2
 66
  1
 70
  1
 62
  7
  0
VERTEX
  8
MERGEDLAYER-2
 10
2.128770
 20
7.345714
 30
0.000000
  0
VERTEX
  8
MERGEDLAYER-2
 10
2.135158
 20
7.345714
 30
0.000000
  0
VERTEX
  8
MERGEDLAYER-2
 10
2.135158
 20
7.186421
 30
0.000000
  0
VERTEX
  8
MERGEDLAYER-2
 10
2.128770
 20
7.186421
 30
0.000000
  0
SEQEND
  8
MERGEDLAYER-2
  0
POLYLINE
  8
MERGEDLAYER-2
 66
  1
 70
  1
 62
  7
  0
VERTEX
  8
MERGEDLAYER-2
 10
2.135158
 20
6.963962
 30
0.000000
  0
VERTEX
  8
MERGEDLAYER-2
 10
2.141552
 20
6.963962
 30
0.000000
  0
VERTEX
  8
MERGEDLAYER-2
 10
2.141552
 20
6.802925
 30
0.000000
  0
VERTEX
  8
MERGEDLAYER-2
 10
2.135158
 20
6.802925
 30
0.000000
  0
SEQEND
  8
MERGEDLAYER-2
  0
POLYLINE
  8
MERGEDLAYER-2
 66
  1
 70
  1
 62
  7
  0
VERTEX
  8
MERGEDLAYER-2
 10
2.128770
 20
7.090475
 30
0.000000
  0
VERTEX
  8
MERGEDLAYER-2
 10
2.135158
 20
7.090475
 30
0.000000
  0
VERTEX
  8
MERGEDLAYER-2
 10
2.135158
 20
6.931183
 30
0.000000
  0
VERTEX
  8
MERGEDLAYER-2
 10
2.128770
 20
6.931183
 30
0.000000
  0
SEQEND
  8
MERGEDLAYER-2
  0
CIRCLE
  8
MERGEDLAYER-2
 62
  7
 10
3.534292
 20
4.319668
 30
0.000000
 40
0.040004
  0
CIRCLE
  8
MERGEDLAYER-2
 62
  7
 10
3.534292
 20
4.319668
 30
0.000000
 40
0.028933
  0
CIRCLE
  8
MERGEDLAYER-2
 62
  7
 10
3.544636
 20
4.319528
 30
0.000000
 40
0.010344
  0
POLYLINE
  8
MERGEDLAYER-2
 66
  1
 70
  0
 62
  7
 10
3.784281
 20
4.308660
 30
0.000000
  0
VERTEX
  8
MERGEDLAYER-2
 10
3.784281
 20
4.308660
 30
0.000000
  0
VERTEX
  8
MERGEDLAYER-2
 10
3.778276
 20
4.322956
 30
0.000000
  0
VERTEX
  8
MERGEDLAYER-2
 10
3.761175
 20
4.335076
 30
0.000000
  0
VERTEX
  8
MERGEDLAYER-2
 10
3.735582
 20
4.343174
 30
0.000000
  0
VERTEX
  8
MERGEDLAYER-2
 10
3.705392
 20
4.346018
 30
0.000000
  0
VERTEX
  8
MERGEDLAYER-2
 10
3.675203
 20
4.343174
 30
0.000000
  0
VERTEX
  8
MERGEDLAYER-2
 10
3.649610
 20
4.335076
 30
0.000000
  0
VERTEX
  8
MERGEDLAYER-2
 10
3.632509
 20
4.322956
 30
0.000000
  0
VERTEX
  8
MERGEDLAYER-2
 10
3.626504
 20
4.308660
 30
0.000000
  0
VERTEX
  8
MERGEDLAYER-2
 10
3.632509
 20
4.294364
 30
0.000000
  0
VERTEX
  8
MERGEDLAYER-2
 10
3.649610
 20
4.282243
 30
0.000000
  0
VERTEX
  8
MERGEDLAYER-2
 10
3.675203
 20
4.274146
 30
0.000000
  0
VERTEX
  8
MERGEDLAYER-2
 10
3.705392
 20
4.271302
 30
0.000000
  0
VERTEX
  8
MERGEDLAYER-2
 10
3.735582
 20
4.274146
 30
0.000000
  0
VERTEX
  8
MERGEDLAYER-2
 10
3.761175
 20
4.282243
 30
0.000000
  0
VERTEX
  8
MERGEDLAYER-2
 10
3.778276
 20
4.294364
 30
0.000000
  0
VERTEX
  8
MERGEDLAYER-2
 10
3.784281
 20
4.308660
 30
0.000000
  0
SEQEND
  8
MERGEDLAYER-2
  0
POLYLINE
  8
MERGEDLAYER-2
 66
  1
 70
  0
 62
  7
 10
3.890833
 20
4.298363
 30
0.000000
  0
VERTEX
  8
MERGEDLAYER-2
 10
3.890833
 20
4.298363
 30
0.000000
  0
VERTEX
  8
MERGEDLAYER-2
 10
3.707172
 20
4.287728
 30
0.000000
  0
SEQEND
  8
MERGEDLAYER-2
  0
POLYLINE
  8
MERGEDLAYER-2
 66
  1
 70
  0
 62
  7
 10
3.890835
 20
4.298360
 30
0.000000
  0
VERTEX
  8
MERGEDLAYER-2
 10
3.890835
 20
4.298360
 30
0.000000
  0
VERTEX
  8
MERGEDLAYER-2
 10
3.896722
 20
4.309134
 30
0.000000
  0
VERTEX
  8
MERGEDLAYER-2
 10
3.890851
 20
4.315021
 30
0.000000
  0
SEQEND
  8
MERGEDLAYER-2
  0
POLYLINE
  8
MERGEDLAYER-2
 66
  1
 70
  0
 62
  7
 10
3.890852
 20
4.315021
 30
0.000000
  0
VERTEX
  8
MERGEDLAYER-2
 10
3.890852
 20
4.315021
 30
0.000000
  0
VERTEX
  8
MERGEDLAYER-2
 10
3.707361
 20
4.325654
 30
0.000000
  0
SEQEND
  8
MERGEDLAYER-2
  0
POLYLINE
  8
MERGEDLAYER-2
 66
  1
 70
  0
 62
  7
 10
3.707361
 20
4.325655
 30
0.000000
  0
VERTEX
  8
MERGEDLAYER-2
 10
3.707361
 20
4.325655
 30
0.000000
  0
VERTEX
  8
MERGEDLAYER-2
 10
3.691984
 20
4.322069
 30
0.000000
  0
VERTEX
  8
MERGEDLAYER-2
 10
3.686429
 20
4.308660
 30
0.000000
  0
VERTEX
  8
MERGEDLAYER-2
 10
3.691984
 20
4.295251
 30
0.000000
  0
VERTEX
  8
MERGEDLAYER-2
 10
3.707171
 20
4.287729
 30
0.000000
  0
SEQEND
  8
MERGEDLAYER-2
  0
POLYLINE
  8
MERGEDLAYER-2
 66
  1
 70
  1
 62
  7
  0
VERTEX
  8
MERGEDLAYER-2
 10
3.521593
 20
4.324749
 30
0.000000
  0
VERTEX
  8
MERGEDLAYER-2
 10
3.559690
 20
4.324749
 30
0.000000
  0
VERTEX
  8
MERGEDLAYER-2
 10
3.559690
 20
4.314589
 30
0.000000
  0
VERTEX
  8
MERGEDLAYER-2
 10
3.521593
 20
4.314589
 30
0.000000
  0
SEQEND
  8
MERGEDLAYER-2
  0
TEXT
  8
MERGEDLAYER-2
 62
  7
 10
3.264919
 20
3.922632
 30
0.000000
 40
0.102273
  1
37" to 48"
 72
  5
 11
3.874010
 21
3.922632
 31
0.000000
  0
TEXT
  8
MERGEDLAYER-2
 62
  7
 10
2.964919
 20
3.786268
 30
0.000000
 40
0.102273
  1
940mm to 1220mm
 72
  5
 11
4.174010
 21
3.786268
 31
0.000000
  0
POLYLINE
  8
MERGEDLAYER-2
 66
  1
 70
  0
 62
  7
 10
5.584782
 20
5.680592
 30
0.000000
  0
VERTEX
  8
MERGEDLAYER-2
 10
5.584782
 20
5.680592
 30
0.000000
  0
VERTEX
  8
MERGEDLAYER-2
 10
6.221282
 20
5.680592
 30
0.000000
  0
SEQEND
  8
MERGEDLAYER-2
  0
POLYLINE
  8
MERGEDLAYER-2
 66
  1
 70
  0
 62
  7
 10
5.584782
 20
4.384848
 30
0.000000
  0
VERTEX
  8
MERGEDLAYER-2
 10
5.584782
 20
4.384848
 30
0.000000
  0
VERTEX
  8
MERGEDLAYER-2
 10
6.221282
 20
4.384848
 30
0.000000
  0
SEQEND
  8
MERGEDLAYER-2
  0
POLYLINE
  8
MERGEDLAYER-2
 66
  1
 70
  0
 62
  7
 10
6.092950
 20
5.661156
 30
0.000000
  0
VERTEX
  8
MERGEDLAYER-2
 10
6.092950
 20
5.661156
 30
0.000000
  0
VERTEX
  8
MERGEDLAYER-2
 10
6.092950
 20
4.401915
 30
0.000000
  0
SEQEND
  8
MERGEDLAYER-2
  0
POLYLINE
  8
MERGEDLAYER-2
 66
  1
 70
  1
 62
  7
  0
VERTEX
  8
MERGEDLAYER-2
 10
6.092950
 20
5.680841
 30
0.000000
  0
VERTEX
  8
MERGEDLAYER-2
 10
6.065677
 20
5.635387
 30
0.000000
  0
VERTEX
  8
MERGEDLAYER-2
 10
6.092950
 20
5.635387
 30
0.000000
  0
VERTEX
  8
MERGEDLAYER-2
 10
6.120223
 20
5.635387
 30
0.000000
  0
VERTEX
  8
MERGEDLAYER-2
 10
6.092950
 20
5.680841
 30
0.000000
  0
SEQEND
  8
MERGEDLAYER-2
  0
POLYLINE
  8
MERGEDLAYER-2
 66
  1
 70
  1
 62
  7
  0
VERTEX
  8
MERGEDLAYER-2
 10
6.092950
 20
4.382230
 30
0.000000
  0
VERTEX
  8
MERGEDLAYER-2
 10
6.065677
 20
4.427684
 30
0.000000
  0
VERTEX
  8
MERGEDLAYER-2
 10
6.092950
 20
4.427684
 30
0.000000
  0
VERTEX
  8
MERGEDLAYER-2
 10
6.120223
 20
4.427684
 30
0.000000
  0
VERTEX
  8
MERGEDLAYER-2
 10
6.092950
 20
4.382230
 30
0.000000
  0
SEQEND
  8
MERGEDLAYER-2
  0
TEXT
  8
MERGEDLAYER-2
 62
  7
 10
5.746737
 20
5.131723
 30
0.000000
 40
0.102273
  1
Height of
 72
  5
 11
6.310373
 21
5.131723
 31
0.000000
  0
TEXT
  8
MERGEDLAYER-2
 62
  7
 10
5.746737
 20
4.977177
 30
0.000000
 40
0.102273
  1
protection
 72
  5
 11
6.374010
 21
4.977177
 31
0.000000
  0
TEXT
  8
MERGEDLAYER-2
 62
  7
 10
5.746737
 20
4.822632
 30
0.000000
 40
0.102273
  1
25" (635mm)
 72
  5
 11
6.564919
 21
4.822632
 31
0.000000
  0
TEXT
  8
MERGEDLAYER-2
 62
  7
 10
1.728555
 20
9.040814
 30
0.000000
 40
0.177273
  1
Thumbturn protection / Roll-126
 72
  5
 11
5.346737
 21
9.040814
 31
0.000000
  0
TEXT
  8
MERGEDLAYER-2
 62
  7
 10
4.528555
 20
2.895359
 30
0.000000
 40
0.102273
  1
Bottom
 72
  5
 11
5.001283
 21
2.895359
 31
0.000000
  0
TEXT
  8
MERGEDLAYER-2
 62
  7
 10
4.528555
 20
2.740814
 30
0.000000
 40
0.102273
  1
Bar
 72
  5
 11
4.783101
 21
2.740814
 31
0.000000
  0
POLYLINE
  8
MERGEDLAYER-2
 66
  1
 70
  0
 62
  7
 10
5.209000
 20
2.546618
 30
0.000000
  0
VERTEX
  8
MERGEDLAYER-2
 10
5.209000
 20
2.546618
 30
0.000000
  0
VERTEX
  8
MERGEDLAYER-2
 10
4.863782
 20
2.798892
 30
0.000000
  0
SEQEND
  8
MERGEDLAYER-2
  0
POLYLINE
  8
MERGEDLAYER-2
 66
  1
 70
  1
 62
  7
  0
VERTEX
  8
MERGEDLAYER-2
 10
5.224893
 20
2.535004
 30
0.000000
  0
VERTEX
  8
MERGEDLAYER-2
 10
5.204285
 20
2.583842
 30
0.000000
  0
VERTEX
  8
MERGEDLAYER-2
 10
5.188194
 20
2.561823
 30
0.000000
  0
VERTEX
  8
MERGEDLAYER-2
 10
5.172102
 20
2.539803
 30
0.000000
  0
VERTEX
  8
MERGEDLAYER-2
 10
5.224893
 20
2.535004
 30
0.000000
  0
SEQEND
  8
MERGEDLAYER-2
  0
TEXT
  8
MERGEDLAYER-2
 62
  7
 10
3.455828
 20
0.331723
 30
0.000000
 40
0.102273
  1
Thumbturn
 72
  5
 11
4.146737
 21
0.331723
 31
0.000000
  0
POLYLINE
  8
MERGEDLAYER-2
 66
  1
 70
  0
 62
  7
 10
4.495727
 20
0.743339
 30
0.000000
  0
VERTEX
  8
MERGEDLAYER-2
 10
4.495727
 20
0.743339
 30
0.000000
  0
VERTEX
  8
MERGEDLAYER-2
 10
3.763837
 20
1.055070
 30
0.000000
  0
SEQEND
  8
MERGEDLAYER-2
  0
POLYLINE
  8
MERGEDLAYER-2
 66
  1
 70
  1
 62
  7
  0
VERTEX
  8
MERGEDLAYER-2
 10
3.745727
 20
1.062784
 30
0.000000
  0
VERTEX
  8
MERGEDLAYER-2
 10
3.798233
 20
1.070065
 30
0.000000
  0
VERTEX
  8
MERGEDLAYER-2
 10
3.787546
 20
1.044973
 30
0.000000
  0
VERTEX
  8
MERGEDLAYER-2
 10
3.776859
 20
1.019881
 30
0.000000
  0
VERTEX
  8
MERGEDLAYER-2
 10
3.745727
 20
1.062784
 30
0.000000
  0
SEQEND
  8
MERGEDLAYER-2
  0
POLYLINE
  8
MERGEDLAYER-2
 66
  1
 70
  0
 62
  7
 10
3.686699
 20
0.486395
 30
0.000000
  0
VERTEX
  8
MERGEDLAYER-2
 10
3.686699
 20
0.486395
 30
0.000000
  0
VERTEX
  8
MERGEDLAYER-2
 10
3.510487
 20
1.149260
 30
0.000000
  0
SEQEND
  8
MERGEDLAYER-2
  0
POLYLINE
  8
MERGEDLAYER-2
 66
  1
 70
  1
 62
  7
  0
VERTEX
  8
MERGEDLAYER-2
 10
3.505430
 20
1.168285
 30
0.000000
  0
VERTEX
  8
MERGEDLAYER-2
 10
3.543465
 20
1.131363
 30
0.000000
  0
VERTEX
  8
MERGEDLAYER-2
 10
3.517108
 20
1.124356
 30
0.000000
  0
VERTEX
  8
MERGEDLAYER-2
 10
3.490750
 20
1.117350
 30
0.000000
  0
VERTEX
  8
MERGEDLAYER-2
 10
3.505430
 20
1.168285
 30
0.000000
  0
SEQEND
  8
MERGEDLAYER-2
  0
POLYLINE
  8
MERGEDLAYER-2
 66
  1
 70
  0
 62
  7
 10
0.676282
 20
1.250283
 30
0.000000
  0
VERTEX
  8
MERGEDLAYER-2
 10
0.676282
 20
1.250283
 30
0.000000
  0
VERTEX
  8
MERGEDLAYER-2
 10
0.794802
 20
1.181855
 30
0.000000
  0
SEQEND
  8
MERGEDLAYER-2
  0
POLYLINE
  8
MERGEDLAYER-2
 66
  1
 70
  0
 62
  7
 10
0.869043
 20
1.126112
 30
0.000000
  0
VERTEX
  8
MERGEDLAYER-2
 10
0.869043
 20
1.126112
 30
0.000000
  0
VERTEX
  8
MERGEDLAYER-2
 10
0.869043
 20
0.387439
 30
0.000000
  0
SEQEND
  8
MERGEDLAYER-2
  0
POLYLINE
  8
MERGEDLAYER-2
 66
  1
 70
  0
 62
  7
 10
0.869043
 20
0.387439
 30
0.000000
  0
VERTEX
  8
MERGEDLAYER-2
 10
0.869043
 20
0.387439
 30
0.000000
  0
VERTEX
  8
MERGEDLAYER-2
 10
0.871470
 20
0.367310
 30
0.000000
  0
VERTEX
  8
MERGEDLAYER-2
 10
0.876779
 20
0.358567
 30
0.000000
  0
SEQEND
  8
MERGEDLAYER-2
  0
POLYLINE
  8
MERGEDLAYER-2
 66
  1
 70
  0
 62
  7
 10
0.840641
 20
1.121761
 30
0.000000
  0
VERTEX
  8
MERGEDLAYER-2
 10
0.840641
 20
1.121761
 30
0.000000
  0
VERTEX
  8
MERGEDLAYER-2
 10
0.638048
 20
1.238726
 30
0.000000
  0
SEQEND
  8
MERGEDLAYER-2
  0
POLYLINE
  8
MERGEDLAYER-2
 66
  1
 70
  0
 62
  7
 10
0.638048
 20
1.238726
 30
0.000000
  0
VERTEX
  8
MERGEDLAYER-2
 10
0.638048
 20
1.238726
 30
0.000000
  0
VERTEX
  8
MERGEDLAYER-2
 10
0.634110
 20
1.236455
 30
0.000000
  0
SEQEND
  8
MERGEDLAYER-2
  0
POLYLINE
  8
MERGEDLAYER-2
 66
  1
 70
  0
 62
  7
 10
0.843265
 20
1.117213
 30
0.000000
  0
VERTEX
  8
MERGEDLAYER-2
 10
0.843265
 20
1.117213
 30
0.000000
  0
VERTEX
  8
MERGEDLAYER-2
 10
0.843265
 20
0.593299
 30
0.000000
  0
SEQEND
  8
MERGEDLAYER-2
  0
POLYLINE
  8
MERGEDLAYER-2
 66
  1
 70
  0
 62
  7
 10
0.839329
 20
0.591027
 30
0.000000
  0
VERTEX
  8
MERGEDLAYER-2
 10
0.839329
 20
0.591027
 30
0.000000
  0
VERTEX
  8
MERGEDLAYER-2
 10
0.843266
 20
0.593299
 30
0.000000
  0
SEQEND
  8
MERGEDLAYER-2
  0
POLYLINE
  8
MERGEDLAYER-2
 66
  1
 70
  0
 62
  7
 10
0.843265
 20
1.117213
 30
0.000000
  0
VERTEX
  8
MERGEDLAYER-2
 10
0.843265
 20
1.117213
 30
0.000000
  0
VERTEX
  8
MERGEDLAYER-2
 10
0.840641
 20
1.121760
 30
0.000000
  0
SEQEND
  8
MERGEDLAYER-2
  0
POLYLINE
  8
MERGEDLAYER-2
 66
  1
 70
  0
 62
  7
 10
0.720676
 20
0.156241
 30
0.000000
  0
VERTEX
  8
MERGEDLAYER-2
 10
0.720676
 20
0.156241
 30
0.000000
  0
VERTEX
  8
MERGEDLAYER-2
 10
0.832298
 20
0.091796
 30
0.000000
  0
SEQEND
  8
MERGEDLAYER-2
  0
POLYLINE
  8
MERGEDLAYER-2
 66
  1
 70
  0
 62
  7
 10
0.838859
 20
0.169136
 30
0.000000
  0
VERTEX
  8
MERGEDLAYER-2
 10
0.838859
 20
0.169136
 30
0.000000
  0
VERTEX
  8
MERGEDLAYER-2
 10
0.942873
 20
0.109084
 30
0.000000
  0
SEQEND
  8
MERGEDLAYER-2
  0
POLYLINE
  8
MERGEDLAYER-2
 66
  1
 70
  0
 62
  7
 10
0.945497
 20
0.104538
 30
0.000000
  0
VERTEX
  8
MERGEDLAYER-2
 10
0.945497
 20
0.104538
 30
0.000000
  0
VERTEX
  8
MERGEDLAYER-2
 10
0.942873
 20
0.109084
 30
0.000000
  0
SEQEND
  8
MERGEDLAYER-2
  0
POLYLINE
  8
MERGEDLAYER-2
 66
  1
 70
  0
 62
  7
 10
0.836235
 20
0.173682
 30
0.000000
  0
VERTEX
  8
MERGEDLAYER-2
 10
0.836235
 20
0.173682
 30
0.000000
  0
VERTEX
  8
MERGEDLAYER-2
 10
0.838859
 20
0.169135
 30
0.000000
  0
SEQEND
  8
MERGEDLAYER-2
  0
POLYLINE
  8
MERGEDLAYER-2
 66
  1
 70
  0
 62
  7
 10
0.816315
 20
1.216845
 30
0.000000
  0
VERTEX
  8
MERGEDLAYER-2
 10
0.816315
 20
1.216845
 30
0.000000
  0
VERTEX
  8
MERGEDLAYER-2
 10
0.816315
 20
1.172465
 30
0.000000
  0
SEQEND
  8
MERGEDLAYER-2
  0
POLYLINE
  8
MERGEDLAYER-2
 66
  1
 70
  0
 62
  7
 10
0.816315
 20
1.172465
 30
0.000000
  0
VERTEX
  8
MERGEDLAYER-2
 10
0.816315
 20
1.172465
 30
0.000000
  0
VERTEX
  8
MERGEDLAYER-2
 10
0.818939
 20
1.167920
 30
0.000000
  0
SEQEND
  8
MERGEDLAYER-2
  0
POLYLINE
  8
MERGEDLAYER-2
 66
  1
 70
  0
 62
  7
 10
0.798739
 20
1.205558
 30
0.000000
  0
VERTEX
  8
MERGEDLAYER-2
 10
0.798739
 20
1.205558
 30
0.000000
  0
VERTEX
  8
MERGEDLAYER-2
 10
0.798739
 20
1.184129
 30
0.000000
  0
SEQEND
  8
MERGEDLAYER-2
  0
POLYLINE
  8
MERGEDLAYER-2
 66
  1
 70
  0
 62
  7
 10
0.794803
 20
1.181855
 30
0.000000
  0
VERTEX
  8
MERGEDLAYER-2
 10
0.794803
 20
1.181855
 30
0.000000
  0
VERTEX
  8
MERGEDLAYER-2
 10
0.798740
 20
1.184129
 30
0.000000
  0
SEQEND
  8
MERGEDLAYER-2
  0
POLYLINE
  8
MERGEDLAYER-2
 66
  1
 70
  0
 62
  7
 10
0.673658
 20
1.254830
 30
0.000000
  0
VERTEX
  8
MERGEDLAYER-2
 10
0.673658
 20
1.254830
 30
0.000000
  0
VERTEX
  8
MERGEDLAYER-2
 10
0.673658
 20
1.276258
 30
0.000000
  0
SEQEND
  8
MERGEDLAYER-2
  0
POLYLINE
  8
MERGEDLAYER-2
 66
  1
 70
  0
 62
  7
 10
0.677594
 20
1.278531
 30
0.000000
  0
VERTEX
  8
MERGEDLAYER-2
 10
0.677594
 20
1.278531
 30
0.000000
  0
VERTEX
  8
MERGEDLAYER-2
 10
0.673658
 20
1.276258
 30
0.000000
  0
SEQEND
  8
MERGEDLAYER-2
  0
POLYLINE
  8
MERGEDLAYER-2
 66
  1
 70
  0
 62
  7
 10
0.673658
 20
1.254830
 30
0.000000
  0
VERTEX
  8
MERGEDLAYER-2
 10
0.673658
 20
1.254830
 30
0.000000
  0
VERTEX
  8
MERGEDLAYER-2
 10
0.676281
 20
1.250284
 30
0.000000
  0
SEQEND
  8
MERGEDLAYER-2
  0
POLYLINE
  8
MERGEDLAYER-2
 66
  1
 70
  0
 62
  7
 10
0.659304
 20
1.305979
 30
0.000000
  0
VERTEX
  8
MERGEDLAYER-2
 10
0.659304
 20
1.305979
 30
0.000000
  0
VERTEX
  8
MERGEDLAYER-2
 10
0.659304
 20
1.264631
 30
0.000000
  0
SEQEND
  8
MERGEDLAYER-2
  0
POLYLINE
  8
MERGEDLAYER-2
 66
  1
 70
  0
 62
  7
 10
0.655367
 20
1.262358
 30
0.000000
  0
VERTEX
  8
MERGEDLAYER-2
 10
0.655367
 20
1.262358
 30
0.000000
  0
VERTEX
  8
MERGEDLAYER-2
 10
0.659304
 20
1.264631
 30
0.000000
  0
SEQEND
  8
MERGEDLAYER-2
  0
POLYLINE
  8
MERGEDLAYER-2
 66
  1
 70
  0
 62
  7
 10
0.816314
 20
1.216845
 30
0.000000
  0
VERTEX
  8
MERGEDLAYER-2
 10
0.816314
 20
1.216845
 30
0.000000
  0
VERTEX
  8
MERGEDLAYER-2
 10
0.813690
 20
1.221390
 30
0.000000
  0
SEQEND
  8
MERGEDLAYER-2
  0
POLYLINE
  8
MERGEDLAYER-2
 66
  1
 70
  0
 62
  7
 10
0.778820
 20
1.223120
 30
0.000000
  0
VERTEX
  8
MERGEDLAYER-2
 10
0.778820
 20
1.223120
 30
0.000000
  0
VERTEX
  8
MERGEDLAYER-2
 10
0.778820
 20
1.236977
 30
0.000000
  0
SEQEND
  8
MERGEDLAYER-2
  0
POLYLINE
  8
MERGEDLAYER-2
 66
  1
 70
  0
 62
  7
 10
0.782757
 20
1.239249
 30
0.000000
  0
VERTEX
  8
MERGEDLAYER-2
 10
0.782757
 20
1.239249
 30
0.000000
  0
VERTEX
  8
MERGEDLAYER-2
 10
0.778820
 20
1.236977
 30
0.000000
  0
SEQEND
  8
MERGEDLAYER-2
  0
POLYLINE
  8
MERGEDLAYER-2
 66
  1
 70
  0
 62
  7
 10
0.695627
 20
1.286523
 30
0.000000
  0
VERTEX
  8
MERGEDLAYER-2
 10
0.695627
 20
1.286523
 30
0.000000
  0
VERTEX
  8
MERGEDLAYER-2
 10
0.695627
 20
1.272666
 30
0.000000
  0
SEQEND
  8
MERGEDLAYER-2
  0
POLYLINE
  8
MERGEDLAYER-2
 66
  1
 70
  0
 62
  7
 10
0.695627
 20
1.286523
 30
0.000000
  0
VERTEX
  8
MERGEDLAYER-2
 10
0.695627
 20
1.286523
 30
0.000000
  0
VERTEX
  8
MERGEDLAYER-2
 10
0.693003
 20
1.291069
 30
0.000000
  0
SEQEND
  8
MERGEDLAYER-2
  0
POLYLINE
  8
MERGEDLAYER-2
 66
  1
 70
  0
 62
  7
 10
0.798739
 20
1.205558
 30
0.000000
  0
VERTEX
  8
MERGEDLAYER-2
 10
0.798739
 20
1.205558
 30
0.000000
  0
VERTEX
  8
MERGEDLAYER-2
 10
0.796115
 20
1.210103
 30
0.000000
  0
SEQEND
  8
MERGEDLAYER-2
  0
POLYLINE
  8
MERGEDLAYER-2
 66
  1
 70
  0
 62
  7
 10
0.843558
 20
0.564202
 30
0.000000
  0
VERTEX
  8
MERGEDLAYER-2
 10
0.843558
 20
0.564202
 30
0.000000
  0
VERTEX
  8
MERGEDLAYER-2
 10
0.843558
 20
0.384578
 30
0.000000
  0
SEQEND
  8
MERGEDLAYER-2
  0
POLYLINE
  8
MERGEDLAYER-2
 66
  1
 70
  0
 62
  7
 10
0.963600
 20
0.208188
 30
0.000000
  0
VERTEX
  8
MERGEDLAYER-2
 10
0.963600
 20
0.208188
 30
0.000000
  0
VERTEX
  8
MERGEDLAYER-2
 10
0.876779
 20
0.358567
 30
0.000000
  0
SEQEND
  8
MERGEDLAYER-2
  0
POLYLINE
  8
MERGEDLAYER-2
 66
  1
 70
  0
 62
  7
 10
0.966590
 20
0.197033
 30
0.000000
  0
VERTEX
  8
MERGEDLAYER-2
 10
0.966590
 20
0.197033
 30
0.000000
  0
VERTEX
  8
MERGEDLAYER-2
 10
0.964498
 20
0.201334
 30
0.000000
  0
VERTEX
  8
MERGEDLAYER-2
 10
0.964133
 20
0.203640
 30
0.000000
  0
VERTEX
  8
MERGEDLAYER-2
 10
0.963529
 20
0.205896
 30
0.000000
  0
VERTEX
  8
MERGEDLAYER-2
 10
0.962692
 20
0.208077
 30
0.000000
  0
VERTEX
  8
MERGEDLAYER-2
 10
0.963600
 20
0.208188
 30
0.000000
  0
SEQEND
  8
MERGEDLAYER-2
  0
POLYLINE
  8
MERGEDLAYER-2
 66
  1
 70
  0
 62
  7
 10
0.944795
 20
0.197978
 30
0.000000
  0
VERTEX
  8
MERGEDLAYER-2
 10
0.944795
 20
0.197978
 30
0.000000
  0
VERTEX
  8
MERGEDLAYER-2
 10
0.849184
 20
0.363580
 30
0.000000
  0
SEQEND
  8
MERGEDLAYER-2
  0
POLYLINE
  8
MERGEDLAYER-2
 66
  1
 70
  0
 62
  7
 10
0.843558
 20
0.384578
 30
0.000000
  0
VERTEX
  8
MERGEDLAYER-2
 10
0.843558
 20
0.384578
 30
0.000000
  0
VERTEX
  8
MERGEDLAYER-2
 10
0.844787
 20
0.370476
 30
0.000000
  0
VERTEX
  8
MERGEDLAYER-2
 10
0.849185
 20
0.363580
 30
0.000000
  0
SEQEND
  8
MERGEDLAYER-2
  0
POLYLINE
  8
MERGEDLAYER-2
 66
  1
 70
  0
 62
  7
 10
0.945497
 20
0.195352
 30
0.000000
  0
VERTEX
  8
MERGEDLAYER-2
 10
0.945497
 20
0.195352
 30
0.000000
  0
VERTEX
  8
MERGEDLAYER-2
 10
0.944795
 20
0.197978
 30
0.000000
  0
SEQEND
  8
MERGEDLAYER-2
  0
POLYLINE
  8
MERGEDLAYER-2
 66
  1
 70
  0
 62
  7
 10
0.945498
 20
0.195352
 30
0.000000
  0
VERTEX
  8
MERGEDLAYER-2
 10
0.945498
 20
0.195352
 30
0.000000
  0
VERTEX
  8
MERGEDLAYER-2
 10
0.945498
 20
0.145260
 30
0.000000
  0
SEQEND
  8
MERGEDLAYER-2
  0
POLYLINE
  8
MERGEDLAYER-2
 66
  1
 70
  0
 62
  7
 10
0.941561
 20
0.142988
 30
0.000000
  0
VERTEX
  8
MERGEDLAYER-2
 10
0.941561
 20
0.142988
 30
0.000000
  0
VERTEX
  8
MERGEDLAYER-2
 10
0.945498
 20
0.145260
 30
0.000000
  0
SEQEND
  8
MERGEDLAYER-2
  0
POLYLINE
  8
MERGEDLAYER-2
 66
  1
 70
  0
 62
  7
 10
0.849545
 20
0.196114
 30
0.000000
  0
VERTEX
  8
MERGEDLAYER-2
 10
0.849545
 20
0.196114
 30
0.000000
  0
VERTEX
  8
MERGEDLAYER-2
 10
0.941561
 20
0.142989
 30
0.000000
  0
SEQEND
  8
MERGEDLAYER-2
  0
POLYLINE
  8
MERGEDLAYER-2
 66
  1
 70
  0
 62
  7
 10
0.849545
 20
0.196114
 30
0.000000
  0
VERTEX
  8
MERGEDLAYER-2
 10
0.849545
 20
0.196114
 30
0.000000
  0
VERTEX
  8
MERGEDLAYER-2
 10
0.845608
 20
0.193841
 30
0.000000
  0
SEQEND
  8
MERGEDLAYER-2
  0
POLYLINE
  8
MERGEDLAYER-2
 66
  1
 70
  0
 62
  7
 10
0.966590
 20
0.011434
 30
0.000000
  0
VERTEX
  8
MERGEDLAYER-2
 10
0.966590
 20
0.011434
 30
0.000000
  0
VERTEX
  8
MERGEDLAYER-2
 10
0.966590
 20
0.197033
 30
0.000000
  0
SEQEND
  8
MERGEDLAYER-2
  0
POLYLINE
  8
MERGEDLAYER-2
 66
  1
 70
  0
 62
  7
 10
0.962653
 20
0.009160
 30
0.000000
  0
VERTEX
  8
MERGEDLAYER-2
 10
0.962653
 20
0.009160
 30
0.000000
  0
VERTEX
  8
MERGEDLAYER-2
 10
0.966590
 20
0.011434
 30
0.000000
  0
SEQEND
  8
MERGEDLAYER-2
  0
POLYLINE
  8
MERGEDLAYER-2
 66
  1
 70
  0
 62
  7
 10
0.821881
 20
0.408528
 30
0.000000
  0
VERTEX
  8
MERGEDLAYER-2
 10
0.821881
 20
0.408528
 30
0.000000
  0
VERTEX
  8
MERGEDLAYER-2
 10
0.821881
 20
0.125729
 30
0.000000
  0
SEQEND
  8
MERGEDLAYER-2
  0
POLYLINE
  8
MERGEDLAYER-2
 66
  1
 70
  0
 62
  7
 10
0.817945
 20
0.123456
 30
0.000000
  0
VERTEX
  8
MERGEDLAYER-2
 10
0.817945
 20
0.123456
 30
0.000000
  0
VERTEX
  8
MERGEDLAYER-2
 10
0.821882
 20
0.125729
 30
0.000000
  0
SEQEND
  8
MERGEDLAYER-2
  0
POLYLINE
  8
MERGEDLAYER-2
 66
  1
 70
  0
 62
  7
 10
0.821881
 20
0.408528
 30
0.000000
  0
VERTEX
  8
MERGEDLAYER-2
 10
0.821881
 20
0.408528
 30
0.000000
  0
VERTEX
  8
MERGEDLAYER-2
 10
0.819257
 20
0.413074
 30
0.000000
  0
SEQEND
  8
MERGEDLAYER-2
  0
POLYLINE
  8
MERGEDLAYER-2
 66
  1
 70
  0
 62
  7
 10
0.748327
 20
0.163650
 30
0.000000
  0
VERTEX
  8
MERGEDLAYER-2
 10
0.748327
 20
0.163650
 30
0.000000
  0
VERTEX
  8
MERGEDLAYER-2
 10
0.817944
 20
0.123456
 30
0.000000
  0
SEQEND
  8
MERGEDLAYER-2
  0
POLYLINE
  8
MERGEDLAYER-2
 66
  1
 70
  0
 62
  7
 10
0.845608
 20
0.168271
 30
0.000000
  0
VERTEX
  8
MERGEDLAYER-2
 10
0.845608
 20
0.168271
 30
0.000000
  0
VERTEX
  8
MERGEDLAYER-2
 10
0.845608
 20
0.193841
 30
0.000000
  0
SEQEND
  8
MERGEDLAYER-2
  0
POLYLINE
  8
MERGEDLAYER-2
 66
  1
 70
  0
 62
  7
 10
0.845609
 20
0.168271
 30
0.000000
  0
VERTEX
  8
MERGEDLAYER-2
 10
0.845609
 20
0.168271
 30
0.000000
  0
VERTEX
  8
MERGEDLAYER-2
 10
0.848233
 20
0.163725
 30
0.000000
  0
SEQEND
  8
MERGEDLAYER-2
  0
POLYLINE
  8
MERGEDLAYER-2
 66
  1
 70
  0
 62
  7
 10
0.836235
 20
0.568430
 30
0.000000
  0
VERTEX
  8
MERGEDLAYER-2
 10
0.836235
 20
0.568430
 30
0.000000
  0
VERTEX
  8
MERGEDLAYER-2
 10
0.836235
 20
0.173682
 30
0.000000
  0
SEQEND
  8
MERGEDLAYER-2
  0
POLYLINE
  8
MERGEDLAYER-2
 66
  1
 70
  0
 62
  7
 10
0.939347
 20
0.086573
 30
0.000000
  0
VERTEX
  8
MERGEDLAYER-2
 10
0.939347
 20
0.086573
 30
0.000000
  0
VERTEX
  8
MERGEDLAYER-2
 10
0.939347
 20
0.108089
 30
0.000000
  0
SEQEND
  8
MERGEDLAYER-2
  0
POLYLINE
  8
MERGEDLAYER-2
 66
  1
 70
  0
 62
  7
 10
0.939346
 20
0.108089
 30
0.000000
  0
VERTEX
  8
MERGEDLAYER-2
 10
0.939346
 20
0.108089
 30
0.000000
  0
VERTEX
  8
MERGEDLAYER-2
 10
0.936722
 20
0.112634
 30
0.000000
  0
SEQEND
  8
MERGEDLAYER-2
  0
POLYLINE
  8
MERGEDLAYER-2
 66
  1
 70
  0
 62
  7
 10
0.935410
 20
0.084298
 30
0.000000
  0
VERTEX
  8
MERGEDLAYER-2
 10
0.935410
 20
0.084298
 30
0.000000
  0
VERTEX
  8
MERGEDLAYER-2
 10
0.939347
 20
0.086573
 30
0.000000
  0
SEQEND
  8
MERGEDLAYER-2
  0
POLYLINE
  8
MERGEDLAYER-2
 66
  1
 70
  0
 62
  7
 10
0.693003
 20
1.291069
 30
0.000000
  0
VERTEX
  8
MERGEDLAYER-2
 10
0.693003
 20
1.291069
 30
0.000000
  0
VERTEX
  8
MERGEDLAYER-2
 10
0.663241
 20
1.308253
 30
0.000000
  0
SEQEND
  8
MERGEDLAYER-2
  0
POLYLINE
  8
MERGEDLAYER-2
 66
  1
 70
  0
 62
  7
 10
0.663240
 20
1.308253
 30
0.000000
  0
VERTEX
  8
MERGEDLAYER-2
 10
0.663240
 20
1.308253
 30
0.000000
  0
VERTEX
  8
MERGEDLAYER-2
 10
0.659303
 20
1.305979
 30
0.000000
  0
SEQEND
  8
MERGEDLAYER-2
  0
POLYLINE
  8
MERGEDLAYER-2
 66
  1
 70
  0
 62
  7
 10
0.691690
 20
1.270394
 30
0.000000
  0
VERTEX
  8
MERGEDLAYER-2
 10
0.691690
 20
1.270394
 30
0.000000
  0
VERTEX
  8
MERGEDLAYER-2
 10
0.677594
 20
1.278532
 30
0.000000
  0
SEQEND
  8
MERGEDLAYER-2
  0
POLYLINE
  8
MERGEDLAYER-2
 66
  1
 70
  0
 62
  7
 10
0.691691
 20
1.270392
 30
0.000000
  0
VERTEX
  8
MERGEDLAYER-2
 10
0.691691
 20
1.270392
 30
0.000000
  0
VERTEX
  8
MERGEDLAYER-2
 10
0.695628
 20
1.272666
 30
0.000000
  0
SEQEND
  8
MERGEDLAYER-2
  0
POLYLINE
  8
MERGEDLAYER-2
 66
  1
 70
  0
 62
  7
 10
0.813690
 20
1.221390
 30
0.000000
  0
VERTEX
  8
MERGEDLAYER-2
 10
0.813690
 20
1.221390
 30
0.000000
  0
VERTEX
  8
MERGEDLAYER-2
 10
0.782757
 20
1.239249
 30
0.000000
  0
SEQEND
  8
MERGEDLAYER-2
  0
POLYLINE
  8
MERGEDLAYER-2
 66
  1
 70
  0
 62
  7
 10
0.796115
 20
1.210104
 30
0.000000
  0
VERTEX
  8
MERGEDLAYER-2
 10
0.796115
 20
1.210104
 30
0.000000
  0
VERTEX
  8
MERGEDLAYER-2
 10
0.781445
 20
1.218575
 30
0.000000
  0
SEQEND
  8
MERGEDLAYER-2
  0
POLYLINE
  8
MERGEDLAYER-2
 66
  1
 70
  0
 62
  7
 10
0.778821
 20
1.223120
 30
0.000000
  0
VERTEX
  8
MERGEDLAYER-2
 10
0.778821
 20
1.223120
 30
0.000000
  0
VERTEX
  8
MERGEDLAYER-2
 10
0.781445
 20
1.218575
 30
0.000000
  0
SEQEND
  8
MERGEDLAYER-2
  0
POLYLINE
  8
MERGEDLAYER-2
 66
  1
 70
  0
 62
  7
 10
0.655367
 20
1.262358
 30
0.000000
  0
VERTEX
  8
MERGEDLAYER-2
 10
0.655367
 20
1.262358
 30
0.000000
  0
VERTEX
  8
MERGEDLAYER-2
 10
0.637229
 20
1.272832
 30
0.000000
  0
SEQEND
  8
MERGEDLAYER-2
  0
POLYLINE
  8
MERGEDLAYER-2
 66
  1
 70
  0
 62
  7
 10
0.637229
 20
1.272830
 30
0.000000
  0
VERTEX
  8
MERGEDLAYER-2
 10
0.637229
 20
1.272830
 30
0.000000
  0
VERTEX
  8
MERGEDLAYER-2
 10
0.623310
 20
1.276372
 30
0.000000
  0
VERTEX
  8
MERGEDLAYER-2
 10
0.613748
 20
1.269034
 30
0.000000
  0
VERTEX
  8
MERGEDLAYER-2
 10
0.613607
 20
1.259192
 30
0.000000
  0
SEQEND
  8
MERGEDLAYER-2
  0
POLYLINE
  8
MERGEDLAYER-2
 66
  1
 70
  0
 62
  7
 10
0.818939
 20
1.167920
 30
0.000000
  0
VERTEX
  8
MERGEDLAYER-2
 10
0.818939
 20
1.167920
 30
0.000000
  0
VERTEX
  8
MERGEDLAYER-2
 10
0.857889
 20
1.145433
 30
0.000000
  0
SEQEND
  8
MERGEDLAYER-2
  0
POLYLINE
  8
MERGEDLAYER-2
 66
  1
 70
  0
 62
  7
 10
0.869043
 20
1.126112
 30
0.000000
  0
VERTEX
  8
MERGEDLAYER-2
 10
0.869043
 20
1.126112
 30
0.000000
  0
VERTEX
  8
MERGEDLAYER-2
 10
0.860540
 20
1.143855
 30
0.000000
  0
VERTEX
  8
MERGEDLAYER-2
 10
0.857888
 20
1.145432
 30
0.000000
  0
SEQEND
  8
MERGEDLAYER-2
  0
POLYLINE
  8
MERGEDLAYER-2
 66
  1
 70
  0
 62
  7
 10
0.825818
 20
0.598827
 30
0.000000
  0
VERTEX
  8
MERGEDLAYER-2
 10
0.825818
 20
0.598827
 30
0.000000
  0
VERTEX
  8
MERGEDLAYER-2
 10
0.839328
 20
0.591027
 30
0.000000
  0
SEQEND
  8
MERGEDLAYER-2
  0
POLYLINE
  8
MERGEDLAYER-2
 66
  1
 70
  0
 62
  7
 10
0.825818
 20
0.598827
 30
0.000000
  0
VERTEX
  8
MERGEDLAYER-2
 10
0.825818
 20
0.598827
 30
0.000000
  0
VERTEX
  8
MERGEDLAYER-2
 10
0.821881
 20
0.596554
 30
0.000000
  0
SEQEND
  8
MERGEDLAYER-2
  0
POLYLINE
  8
MERGEDLAYER-2
 66
  1
 70
  0
 62
  7
 10
0.840933
 20
0.568749
 30
0.000000
  0
VERTEX
  8
MERGEDLAYER-2
 10
0.840933
 20
0.568749
 30
0.000000
  0
VERTEX
  8
MERGEDLAYER-2
 10
0.823194
 20
0.578991
 30
0.000000
  0
SEQEND
  8
MERGEDLAYER-2
  0
POLYLINE
  8
MERGEDLAYER-2
 66
  1
 70
  0
 62
  7
 10
0.825818
 20
0.577476
 30
0.000000
  0
VERTEX
  8
MERGEDLAYER-2
 10
0.825818
 20
0.577476
 30
0.000000
  0
VERTEX
  8
MERGEDLAYER-2
 10
0.821881
 20
0.575202
 30
0.000000
  0
SEQEND
  8
MERGEDLAYER-2
  0
POLYLINE
  8
MERGEDLAYER-2
 66
  1
 70
  0
 62
  7
 10
0.836234
 20
0.568430
 30
0.000000
  0
VERTEX
  8
MERGEDLAYER-2
 10
0.836234
 20
0.568430
 30
0.000000
  0
VERTEX
  8
MERGEDLAYER-2
 10
0.833610
 20
0.572976
 30
0.000000
  0
SEQEND
  8
MERGEDLAYER-2
  0
POLYLINE
  8
MERGEDLAYER-2
 66
  1
 70
  0
 62
  7
 10
0.843558
 20
0.564202
 30
0.000000
  0
VERTEX
  8
MERGEDLAYER-2
 10
0.843558
 20
0.564202
 30
0.000000
  0
VERTEX
  8
MERGEDLAYER-2
 10
0.840934
 20
0.568749
 30
0.000000
  0
SEQEND
  8
MERGEDLAYER-2
  0
POLYLINE
  8
MERGEDLAYER-2
 66
  1
 70
  0
 62
  7
 10
0.821881
 20
0.575202
 30
0.000000
  0
VERTEX
  8
MERGEDLAYER-2
 10
0.821881
 20
0.575202
 30
0.000000
  0
VERTEX
  8
MERGEDLAYER-2
 10
0.821881
 20
0.498464
 30
0.000000
  0
SEQEND
  8
MERGEDLAYER-2
  0
POLYLINE
  8
MERGEDLAYER-2
 66
  1
 70
  0
 62
  7
 10
0.817945
 20
0.496191
 30
0.000000
  0
VERTEX
  8
MERGEDLAYER-2
 10
0.817945
 20
0.496191
 30
0.000000
  0
VERTEX
  8
MERGEDLAYER-2
 10
0.821882
 20
0.498464
 30
0.000000
  0
SEQEND
  8
MERGEDLAYER-2
  0
POLYLINE
  8
MERGEDLAYER-2
 66
  1
 70
  0
 62
  7
 10
0.817944
 20
0.496191
 30
0.000000
  0
VERTEX
  8
MERGEDLAYER-2
 10
0.817944
 20
0.496191
 30
0.000000
  0
VERTEX
  8
MERGEDLAYER-2
 10
0.809414
 20
0.501114
 30
0.000000
  0
SEQEND
  8
MERGEDLAYER-2
  0
POLYLINE
  8
MERGEDLAYER-2
 66
  1
 70
  0
 62
  7
 10
0.805477
 20
0.487953
 30
0.000000
  0
VERTEX
  8
MERGEDLAYER-2
 10
0.805477
 20
0.487953
 30
0.000000
  0
VERTEX
  8
MERGEDLAYER-2
 10
0.805477
 20
0.500010
 30
0.000000
  0
SEQEND
  8
MERGEDLAYER-2
  0
POLYLINE
  8
MERGEDLAYER-2
 66
  1
 70
  0
 62
  7
 10
0.808101
 20
0.483405
 30
0.000000
  0
VERTEX
  8
MERGEDLAYER-2
 10
0.808101
 20
0.483405
 30
0.000000
  0
VERTEX
  8
MERGEDLAYER-2
 10
0.819257
 20
0.476965
 30
0.000000
  0
SEQEND
  8
MERGEDLAYER-2
  0
POLYLINE
  8
MERGEDLAYER-2
 66
  1
 70
  0
 62
  7
 10
0.805477
 20
0.487953
 30
0.000000
  0
VERTEX
  8
MERGEDLAYER-2
 10
0.805477
 20
0.487953
 30
0.000000
  0
VERTEX
  8
MERGEDLAYER-2
 10
0.808101
 20
0.483407
 30
0.000000
  0
SEQEND
  8
MERGEDLAYER-2
  0
POLYLINE
  8
MERGEDLAYER-2
 66
  1
 70
  0
 62
  7
 10
0.821881
 20
0.472420
 30
0.000000
  0
VERTEX
  8
MERGEDLAYER-2
 10
0.821881
 20
0.472420
 30
0.000000
  0
VERTEX
  8
MERGEDLAYER-2
 10
0.821881
 20
0.436192
 30
0.000000
  0
SEQEND
  8
MERGEDLAYER-2
  0
POLYLINE
  8
MERGEDLAYER-2
 66
  1
 70
  0
 62
  7
 10
0.817945
 20
0.433920
 30
0.000000
  0
VERTEX
  8
MERGEDLAYER-2
 10
0.817945
 20
0.433920
 30
0.000000
  0
VERTEX
  8
MERGEDLAYER-2
 10
0.821882
 20
0.436192
 30
0.000000
  0
SEQEND
  8
MERGEDLAYER-2
  0
POLYLINE
  8
MERGEDLAYER-2
 66
  1
 70
  0
 62
  7
 10
0.821881
 20
0.472420
 30
0.000000
  0
VERTEX
  8
MERGEDLAYER-2
 10
0.821881
 20
0.472420
 30
0.000000
  0
VERTEX
  8
MERGEDLAYER-2
 10
0.819257
 20
0.476965
 30
0.000000
  0
SEQEND
  8
MERGEDLAYER-2
  0
POLYLINE
  8
MERGEDLAYER-2
 66
  1
 70
  0
 62
  7
 10
0.817944
 20
0.433919
 30
0.000000
  0
VERTEX
  8
MERGEDLAYER-2
 10
0.817944
 20
0.433919
 30
0.000000
  0
VERTEX
  8
MERGEDLAYER-2
 10
0.809414
 20
0.438845
 30
0.000000
  0
SEQEND
  8
MERGEDLAYER-2
  0
POLYLINE
  8
MERGEDLAYER-2
 66
  1
 70
  0
 62
  7
 10
0.805477
 20
0.424060
 30
0.000000
  0
VERTEX
  8
MERGEDLAYER-2
 10
0.805477
 20
0.424060
 30
0.000000
  0
VERTEX
  8
MERGEDLAYER-2
 10
0.805477
 20
0.436571
 30
0.000000
  0
SEQEND
  8
MERGEDLAYER-2
  0
POLYLINE
  8
MERGEDLAYER-2
 66
  1
 70
  0
 62
  7
 10
0.809413
 20
0.438845
 30
0.000000
  0
VERTEX
  8
MERGEDLAYER-2
 10
0.809413
 20
0.438845
 30
0.000000
  0
VERTEX
  8
MERGEDLAYER-2
 10
0.805476
 20
0.436571
 30
0.000000
  0
SEQEND
  8
MERGEDLAYER-2
  0
POLYLINE
  8
MERGEDLAYER-2
 66
  1
 70
  0
 62
  7
 10
0.805477
 20
0.424060
 30
0.000000
  0
VERTEX
  8
MERGEDLAYER-2
 10
0.805477
 20
0.424060
 30
0.000000
  0
VERTEX
  8
MERGEDLAYER-2
 10
0.808101
 20
0.419513
 30
0.000000
  0
SEQEND
  8
MERGEDLAYER-2
  0
POLYLINE
  8
MERGEDLAYER-2
 66
  1
 70
  0
 62
  7
 10
0.808101
 20
0.419513
 30
0.000000
  0
VERTEX
  8
MERGEDLAYER-2
 10
0.808101
 20
0.419513
 30
0.000000
  0
VERTEX
  8
MERGEDLAYER-2
 10
0.819257
 20
0.413073
 30
0.000000
  0
SEQEND
  8
MERGEDLAYER-2
  0
POLYLINE
  8
MERGEDLAYER-2
 66
  1
 70
  0
 62
  7
 10
0.821881
 20
0.596554
 30
0.000000
  0
VERTEX
  8
MERGEDLAYER-2
 10
0.821881
 20
0.596554
 30
0.000000
  0
VERTEX
  8
MERGEDLAYER-2
 10
0.821881
 20
0.581264
 30
0.000000
  0
SEQEND
  8
MERGEDLAYER-2
  0
POLYLINE
  8
MERGEDLAYER-2
 66
  1
 70
  0
 62
  7
 10
0.821881
 20
0.581264
 30
0.000000
  0
VERTEX
  8
MERGEDLAYER-2
 10
0.821881
 20
0.581264
 30
0.000000
  0
VERTEX
  8
MERGEDLAYER-2
 10
0.823194
 20
0.578991
 30
0.000000
  0
SEQEND
  8
MERGEDLAYER-2
  0
POLYLINE
  8
MERGEDLAYER-2
 66
  1
 70
  0
 62
  7
 10
0.840172
 20
0.139286
 30
0.000000
  0
VERTEX
  8
MERGEDLAYER-2
 10
0.840172
 20
0.139286
 30
0.000000
  0
VERTEX
  8
MERGEDLAYER-2
 10
0.935410
 20
0.084298
 30
0.000000
  0
SEQEND
  8
MERGEDLAYER-2
  0
POLYLINE
  8
MERGEDLAYER-2
 66
  1
 70
  0
 62
  7
 10
0.840171
 20
0.139287
 30
0.000000
  0
VERTEX
  8
MERGEDLAYER-2
 10
0.840171
 20
0.139287
 30
0.000000
  0
VERTEX
  8
MERGEDLAYER-2
 10
0.836234
 20
0.137013
 30
0.000000
  0
SEQEND
  8
MERGEDLAYER-2
  0
POLYLINE
  8
MERGEDLAYER-2
 66
  1
 70
  0
 62
  7
 10
0.836235
 20
0.094070
 30
0.000000
  0
VERTEX
  8
MERGEDLAYER-2
 10
0.836235
 20
0.094070
 30
0.000000
  0
VERTEX
  8
MERGEDLAYER-2
 10
0.836235
 20
0.137013
 30
0.000000
  0
SEQEND
  8
MERGEDLAYER-2
  0
POLYLINE
  8
MERGEDLAYER-2
 66
  1
 70
  0
 62
  7
 10
0.832298
 20
0.091796
 30
0.000000
  0
VERTEX
  8
MERGEDLAYER-2
 10
0.832298
 20
0.091796
 30
0.000000
  0
VERTEX
  8
MERGEDLAYER-2
 10
0.836235
 20
0.094070
 30
0.000000
  0
SEQEND
  8
MERGEDLAYER-2
  0
POLYLINE
  8
MERGEDLAYER-2
 66
  1
 70
  0
 62
  7
 10
0.948122
 20
0.017549
 30
0.000000
  0
VERTEX
  8
MERGEDLAYER-2
 10
0.948122
 20
0.017549
 30
0.000000
  0
VERTEX
  8
MERGEDLAYER-2
 10
0.962653
 20
0.009160
 30
0.000000
  0
SEQEND
  8
MERGEDLAYER-2
  0
POLYLINE
  8
MERGEDLAYER-2
 66
  1
 70
  0
 62
  7
 10
0.945498
 20
0.022097
 30
0.000000
  0
VERTEX
  8
MERGEDLAYER-2
 10
0.945498
 20
0.022097
 30
0.000000
  0
VERTEX
  8
MERGEDLAYER-2
 10
0.948122
 20
0.017550
 30
0.000000
  0
SEQEND
  8
MERGEDLAYER-2
  0
POLYLINE
  8
MERGEDLAYER-2
 66
  1
 70
  0
 62
  7
 10
0.945498
 20
0.022097
 30
0.000000
  0
VERTEX
  8
MERGEDLAYER-2
 10
0.945498
 20
0.022097
 30
0.000000
  0
VERTEX
  8
MERGEDLAYER-2
 10
0.945498
 20
0.104538
 30
0.000000
  0
SEQEND
  8
MERGEDLAYER-2
  0
POLYLINE
  8
MERGEDLAYER-2
 66
  1
 70
  0
 62
  7
 10
0.964832
 20
0.009091
 30
0.000000
  0
VERTEX
  8
MERGEDLAYER-2
 10
0.964832
 20
0.009091
 30
0.000000
  0
VERTEX
  8
MERGEDLAYER-2
 10
6.632511
 20
1.527742
 30
0.000000
  0
SEQEND
  8
MERGEDLAYER-2
  0
POLYLINE
  8
MERGEDLAYER-2
 66
  1
 70
  0
 62
  7
 10
0.966590
 20
0.197033
 30
0.000000
  0
VERTEX
  8
MERGEDLAYER-2
 10
0.966590
 20
0.197033
 30
0.000000
  0
VERTEX
  8
MERGEDLAYER-2
 10
6.633836
 20
1.715568
 30
0.000000
  0
SEQEND
  8
MERGEDLAYER-2
  0
POLYLINE
  8
MERGEDLAYER-2
 66
  1
 70
  0
 62
  7
 10
0.869043
 20
1.126112
 30
0.000000
  0
VERTEX
  8
MERGEDLAYER-2
 10
0.869043
 20
1.126112
 30
0.000000
  0
VERTEX
  8
MERGEDLAYER-2
 10
6.536287
 20
2.644648
 30
0.000000
  0
SEQEND
  8
MERGEDLAYER-2
  0
POLYLINE
  8
MERGEDLAYER-2
 66
  1
 70
  0
 62
  7
 10
0.857889
 20
1.145433
 30
0.000000
  0
VERTEX
  8
MERGEDLAYER-2
 10
0.857889
 20
1.145433
 30
0.000000
  0
VERTEX
  8
MERGEDLAYER-2
 10
6.525132
 20
2.663968
 30
0.000000
  0
SEQEND
  8
MERGEDLAYER-2
  0
POLYLINE
  8
MERGEDLAYER-2
 66
  1
 70
  0
 62
  7
 10
0.818939
 20
1.167920
 30
0.000000
  0
VERTEX
  8
MERGEDLAYER-2
 10
0.818939
 20
1.167920
 30
0.000000
  0
VERTEX
  8
MERGEDLAYER-2
 10
6.486185
 20
2.686455
 30
0.000000
  0
SEQEND
  8
MERGEDLAYER-2
  0
POLYLINE
  8
MERGEDLAYER-2
 66
  1
 70
  0
 62
  7
 10
0.816315
 20
1.216845
 30
0.000000
  0
VERTEX
  8
MERGEDLAYER-2
 10
0.816315
 20
1.216845
 30
0.000000
  0
VERTEX
  8
MERGEDLAYER-2
 10
6.483560
 20
2.735380
 30
0.000000
  0
SEQEND
  8
MERGEDLAYER-2
  0
POLYLINE
  8
MERGEDLAYER-2
 66
  1
 70
  0
 62
  7
 10
0.779828
 20
1.239836
 30
0.000000
  0
VERTEX
  8
MERGEDLAYER-2
 10
0.779828
 20
1.239836
 30
0.000000
  0
VERTEX
  8
MERGEDLAYER-2
 10
6.449017
 20
2.758892
 30
0.000000
  0
SEQEND
  8
MERGEDLAYER-2
  0
POLYLINE
  8
MERGEDLAYER-2
 66
  1
 70
  0
 62
  7
 10
0.869043
 20
0.387439
 30
0.000000
  0
VERTEX
  8
MERGEDLAYER-2
 10
0.869043
 20
0.387439
 30
0.000000
  0
VERTEX
  8
MERGEDLAYER-2
 10
3.208568
 20
1.014312
 30
0.000000
  0
SEQEND
  8
MERGEDLAYER-2
  0
POLYLINE
  8
MERGEDLAYER-2
 66
  1
 70
  0
 62
  7
 10
0.876779
 20
0.358567
 30
0.000000
  0
VERTEX
  8
MERGEDLAYER-2
 10
0.876779
 20
0.358567
 30
0.000000
  0
VERTEX
  8
MERGEDLAYER-2
 10
3.244843
 20
0.993089
 30
0.000000
  0
SEQEND
  8
MERGEDLAYER-2
  0
POLYLINE
  8
MERGEDLAYER-2
 66
  1
 70
  0
 62
  7
 10
0.963600
 20
0.208188
 30
0.000000
  0
VERTEX
  8
MERGEDLAYER-2
 10
0.963600
 20
0.208188
 30
0.000000
  0
VERTEX
  8
MERGEDLAYER-2
 10
6.630844
 20
1.726722
 30
0.000000
  0
SEQEND
  8
MERGEDLAYER-2
  0
POLYLINE
  8
MERGEDLAYER-2
 66
  1
 70
  0
 62
  7
 10
0.694315
 20
1.270394
 30
0.000000
  0
VERTEX
  8
MERGEDLAYER-2
 10
0.694315
 20
1.270394
 30
0.000000
  0
VERTEX
  8
MERGEDLAYER-2
 10
6.362703
 20
2.789235
 30
0.000000
  0
SEQEND
  8
MERGEDLAYER-2
  0
POLYLINE
  8
MERGEDLAYER-2
 66
  1
 70
  0
 62
  7
 10
0.693003
 20
1.291069
 30
0.000000
  0
VERTEX
  8
MERGEDLAYER-2
 10
0.693003
 20
1.291069
 30
0.000000
  0
VERTEX
  8
MERGEDLAYER-2
 10
6.360247
 20
2.809605
 30
0.000000
  0
SEQEND
  8
MERGEDLAYER-2
  0
POLYLINE
  8
MERGEDLAYER-2
 66
  1
 70
  0
 62
  7
 10
0.660311
 20
1.308838
 30
0.000000
  0
VERTEX
  8
MERGEDLAYER-2
 10
0.660311
 20
1.308838
 30
0.000000
  0
VERTEX
  8
MERGEDLAYER-2
 10
6.329500
 20
2.827895
 30
0.000000
  0
SEQEND
  8
MERGEDLAYER-2
  0
POLYLINE
  8
MERGEDLAYER-2
 66
  1
 70
  0
 62
  7
 10
0.637814
 20
1.272832
 30
0.000000
  0
VERTEX
  8
MERGEDLAYER-2
 10
0.637814
 20
1.272832
 30
0.000000
  0
VERTEX
  8
MERGEDLAYER-2
 10
0.658718
 20
1.278432
 30
0.000000
  0
SEQEND
  8
MERGEDLAYER-2
  0
POLYLINE
  8
MERGEDLAYER-2
 66
  1
 70
  0
 62
  7
 10
0.622066
 20
1.273416
 30
0.000000
  0
VERTEX
  8
MERGEDLAYER-2
 10
0.622066
 20
1.273416
 30
0.000000
  0
VERTEX
  8
MERGEDLAYER-2
 10
0.659527
 20
1.283454
 30
0.000000
  0
SEQEND
  8
MERGEDLAYER-2
  0
POLYLINE
  8
MERGEDLAYER-2
 66
  1
 70
  0
 62
  7
 10
0.832298
 20
0.091796
 30
0.000000
  0
VERTEX
  8
MERGEDLAYER-2
 10
0.832298
 20
0.091796
 30
0.000000
  0
VERTEX
  8
MERGEDLAYER-2
 10
0.891306
 20
0.107608
 30
0.000000
  0
SEQEND
  8
MERGEDLAYER-2
  0
POLYLINE
  8
MERGEDLAYER-2
 66
  1
 70
  0
 62
  7
 10
0.936581
 20
0.083714
 30
0.000000
  0
VERTEX
  8
MERGEDLAYER-2
 10
0.936581
 20
0.083714
 30
0.000000
  0
VERTEX
  8
MERGEDLAYER-2
 10
0.945498
 20
0.086104
 30
0.000000
  0
SEQEND
  8
MERGEDLAYER-2
  0
POLYLINE
  8
MERGEDLAYER-2
 66
  1
 70
  0
 62
  7
 10
0.846780
 20
0.196771
 30
0.000000
  0
VERTEX
  8
MERGEDLAYER-2
 10
0.846780
 20
0.196771
 30
0.000000
  0
VERTEX
  8
MERGEDLAYER-2
 10
0.931644
 20
0.219509
 30
0.000000
  0
SEQEND
  8
MERGEDLAYER-2
  0
POLYLINE
  8
MERGEDLAYER-2
 66
  1
 70
  0
 62
  7
 10
0.824647
 20
0.599413
 30
0.000000
  0
VERTEX
  8
MERGEDLAYER-2
 10
0.824647
 20
0.599413
 30
0.000000
  0
VERTEX
  8
MERGEDLAYER-2
 10
0.843265
 20
0.604402
 30
0.000000
  0
SEQEND
  8
MERGEDLAYER-2
  0
POLYLINE
  8
MERGEDLAYER-2
 66
  1
 70
  0
 62
  7
 10
0.807656
 20
0.439429
 30
0.000000
  0
VERTEX
  8
MERGEDLAYER-2
 10
0.807656
 20
0.439429
 30
0.000000
  0
VERTEX
  8
MERGEDLAYER-2
 10
0.821588
 20
0.443164
 30
0.000000
  0
SEQEND
  8
MERGEDLAYER-2
  0
POLYLINE
  8
MERGEDLAYER-2
 66
  1
 70
  0
 62
  7
 10
3.721504
 20
1.131839
 30
0.000000
  0
VERTEX
  8
MERGEDLAYER-2
 10
3.721504
 20
1.131839
 30
0.000000
  0
VERTEX
  8
MERGEDLAYER-2
 10
3.740055
 20
1.182218
 30
0.000000
  0
VERTEX
  8
MERGEDLAYER-2
 10
3.750686
 20
1.233936
 30
0.000000
  0
VERTEX
  8
MERGEDLAYER-2
 10
3.752986
 20
1.285008
 30
0.000000
  0
VERTEX
  8
MERGEDLAYER-2
 10
3.746869
 20
1.333469
 30
0.000000
  0
VERTEX
  8
MERGEDLAYER-2
 10
3.732571
 20
1.377458
 30
0.000000
  0
VERTEX
  8
MERGEDLAYER-2
 10
3.710639
 20
1.415284
 30
0.000000
  0
VERTEX
  8
MERGEDLAYER-2
 10
3.681917
 20
1.445494
 30
0.000000
  0
VERTEX
  8
MERGEDLAYER-2
 10
3.647508
 20
1.466927
 30
0.000000
  0
VERTEX
  8
MERGEDLAYER-2
 10
3.608736
 20
1.478758
 30
0.000000
  0
VERTEX
  8
MERGEDLAYER-2
 10
3.567089
 20
1.480534
 30
0.000000
  0
VERTEX
  8
MERGEDLAYER-2
 10
3.524169
 20
1.472186
 30
0.000000
  0
VERTEX
  8
MERGEDLAYER-2
 10
3.481624
 20
1.454034
 30
0.000000
  0
VERTEX
  8
MERGEDLAYER-2
 10
3.441090
 20
1.426778
 30
0.000000
  0
VERTEX
  8
MERGEDLAYER-2
 10
3.404125
 20
1.391463
 30
0.000000
  0
VERTEX
  8
MERGEDLAYER-2
 10
3.372149
 20
1.349447
 30
0.000000
  0
VERTEX
  8
MERGEDLAYER-2
 10
3.346390
 20
1.302345
 30
0.000000
  0
VERTEX
  8
MERGEDLAYER-2
 10
3.327839
 20
1.251966
 30
0.000000
  0
VERTEX
  8
MERGEDLAYER-2
 10
3.317209
 20
1.200249
 30
0.000000
  0
VERTEX
  8
MERGEDLAYER-2
 10
3.314908
 20
1.149177
 30
0.000000
  0
VERTEX
  8
MERGEDLAYER-2
 10
3.321025
 20
1.100715
 30
0.000000
  0
VERTEX
  8
MERGEDLAYER-2
 10
3.335324
 20
1.056726
 30
0.000000
  0
VERTEX
  8
MERGEDLAYER-2
 10
3.357256
 20
1.018900
 30
0.000000
  0
VERTEX
  8
MERGEDLAYER-2
 10
3.385978
 20
0.988690
 30
0.000000
  0
VERTEX
  8
MERGEDLAYER-2
 10
3.420386
 20
0.967257
 30
0.000000
  0
VERTEX
  8
MERGEDLAYER-2
 10
3.459159
 20
0.955427
 30
0.000000
  0
VERTEX
  8
MERGEDLAYER-2
 10
3.500806
 20
0.953650
 30
0.000000
  0
VERTEX
  8
MERGEDLAYER-2
 10
3.543726
 20
0.961997
 30
0.000000
  0
VERTEX
  8
MERGEDLAYER-2
 10
3.586271
 20
0.980150
 30
0.000000
  0
VERTEX
  8
MERGEDLAYER-2
 10
3.626804
 20
1.007406
 30
0.000000
  0
VERTEX
  8
MERGEDLAYER-2
 10
3.663770
 20
1.042721
 30
0.000000
  0
VERTEX
  8
MERGEDLAYER-2
 10
3.695746
 20
1.084737
 30
0.000000
  0
VERTEX
  8
MERGEDLAYER-2
 10
3.721504
 20
1.131839
 30
0.000000
  0
SEQEND
  8
MERGEDLAYER-2
  0
POLYLINE
  8
MERGEDLAYER-2
 66
  1
 70
  0
 62
  7
 10
3.505430
 20
1.168285
 30
0.000000
  0
VERTEX
  8
MERGEDLAYER-2
 10
3.505430
 20
1.168285
 30
0.000000
  0
VERTEX
  8
MERGEDLAYER-2
 10
3.548783
 20
1.179902
 30
0.000000
  0
SEQEND
  8
MERGEDLAYER-2
  0
POLYLINE
  8
MERGEDLAYER-2
 66
  1
 70
  0
 62
  7
 10
3.548785
 20
1.179902
 30
0.000000
  0
VERTEX
  8
MERGEDLAYER-2
 10
3.548785
 20
1.179902
 30
0.000000
  0
VERTEX
  8
MERGEDLAYER-2
 10
3.556774
 20
1.234786
 30
0.000000
  0
VERTEX
  8
MERGEDLAYER-2
 10
3.561498
 20
1.288423
 30
0.000000
  0
VERTEX
  8
MERGEDLAYER-2
 10
3.560942
 20
1.342265
 30
0.000000
  0
VERTEX
  8
MERGEDLAYER-2
 10
3.555111
 20
1.395792
 30
0.000000
  0
VERTEX
  8
MERGEDLAYER-2
 10
3.544061
 20
1.448491
 30
0.000000
  0
VERTEX
  8
MERGEDLAYER-2
 10
3.545269
 20
1.449400
 30
0.000000
  0
SEQEND
  8
MERGEDLAYER-2
  0
POLYLINE
  8
MERGEDLAYER-2
 66
  1
 70
  0
 62
  7
 10
3.505430
 20
1.462389
 30
0.000000
  0
VERTEX
  8
MERGEDLAYER-2
 10
3.505430
 20
1.462389
 30
0.000000
  0
VERTEX
  8
MERGEDLAYER-2
 10
3.545268
 20
1.449401
 30
0.000000
  0
SEQEND
  8
MERGEDLAYER-2
  0
ARC
  8
MERGEDLAYER-2
 62
  7
 10
3.603021
 20
1.227901
 30
0.000000
 40
0.253986
 50
112.596405
 51
132.481506
  0
ARC
  8
MERGEDLAYER-2
 62
  7
 10
3.671315
 20
1.154921
 30
0.000000
 40
0.353933
 50
132.656311
 51
186.576385
  0
POLYLINE
  8
MERGEDLAYER-2
 66
  1
 70
  0
 62
  7
 10
3.319712
 20
1.114387
 30
0.000000
  0
VERTEX
  8
MERGEDLAYER-2
 10
3.319712
 20
1.114387
 30
0.000000
  0
VERTEX
  8
MERGEDLAYER-2
 10
3.376120
 20
1.153469
 30
0.000000
  0
VERTEX
  8
MERGEDLAYER-2
 10
3.426135
 20
1.201260
 30
0.000000
  0
VERTEX
  8
MERGEDLAYER-2
 10
3.432403
 20
1.204390
 30
0.000000
  0
SEQEND
  8
MERGEDLAYER-2
  0
POLYLINE
  8
MERGEDLAYER-2
 66
  1
 70
  0
 62
  7
 10
3.432403
 20
1.204390
 30
0.000000
  0
VERTEX
  8
MERGEDLAYER-2
 10
3.432403
 20
1.204390
 30
0.000000
  0
VERTEX
  8
MERGEDLAYER-2
 10
3.505430
 20
1.168285
 30
0.000000
  0
SEQEND
  8
MERGEDLAYER-2
  0
POLYLINE
  8
MERGEDLAYER-2
 66
  1
 70
  0
 62
  7
 10
3.501913
 20
1.437782
 30
0.000000
  0
VERTEX
  8
MERGEDLAYER-2
 10
3.501913
 20
1.437782
 30
0.000000
  0
VERTEX
  8
MERGEDLAYER-2
 10
3.496807
 20
1.277191
 30
0.000000
  0
VERTEX
  8
MERGEDLAYER-2
 10
3.505429
 20
1.168284
 30
0.000000
  0
SEQEND
  8
MERGEDLAYER-2
  0
POLYLINE
  8
MERGEDLAYER-2
 66
  1
 70
  0
 62
  7
 10
3.501915
 20
1.437782
 30
0.000000
  0
VERTEX
  8
MERGEDLAYER-2
 10
3.501915
 20
1.437782
 30
0.000000
  0
VERTEX
  8
MERGEDLAYER-2
 10
3.476723
 20
1.447157
 30
0.000000
  0
SEQEND
  8
MERGEDLAYER-2
  0
POLYLINE
  8
MERGEDLAYER-2
 66
  1
 70
  0
 62
  7
 10
3.432403
 20
1.204390
 30
0.000000
  0
VERTEX
  8
MERGEDLAYER-2
 10
3.432403
 20
1.204390
 30
0.000000
  0
VERTEX
  8
MERGEDLAYER-2
 10
3.382399
 20
1.229215
 30
0.000000
  0
SEQEND
  8
MERGEDLAYER-2
  0
POLYLINE
  8
MERGEDLAYER-2
 66
  1
 70
  0
 62
  7
 10
3.382398
 20
1.229215
 30
0.000000
  0
VERTEX
  8
MERGEDLAYER-2
 10
3.382398
 20
1.229215
 30
0.000000
  0
VERTEX
  8
MERGEDLAYER-2
 10
3.370832
 20
1.259684
 30
0.000000
  0
VERTEX
  8
MERGEDLAYER-2
 10
3.355448
 20
1.278427
 30
0.000000
  0
SEQEND
  8
MERGEDLAYER-2
  0
POLYLINE
  8
MERGEDLAYER-2
 66
  1
 70
  0
 62
  7
 10
3.501915
 20
1.437782
 30
0.000000
  0
VERTEX
  8
MERGEDLAYER-2
 10
3.501915
 20
1.437782
 30
0.000000
  0
VERTEX
  8
MERGEDLAYER-2
 10
3.545268
 20
1.449401
 30
0.000000
  0
SEQEND
  8
MERGEDLAYER-2
  0
POLYLINE
  8
MERGEDLAYER-2
 66
  1
 70
  0
 62
  7
 10
3.339631
 20
1.278427
 30
0.000000
  0
VERTEX
  8
MERGEDLAYER-2
 10
3.339631
 20
1.278427
 30
0.000000
  0
VERTEX
  8
MERGEDLAYER-2
 10
3.341691
 20
1.278628
 30
0.000000
  0
VERTEX
  8
MERGEDLAYER-2
 10
3.345836
 20
1.277151
 30
0.000000
  0
VERTEX
  8
MERGEDLAYER-2
 10
3.350076
 20
1.275973
 30
0.000000
  0
VERTEX
  8
MERGEDLAYER-2
 10
3.354389
 20
1.275100
 30
0.000000
  0
VERTEX
  8
MERGEDLAYER-2
 10
3.360721
 20
1.272569
 30
0.000000
  0
SEQEND
  8
MERGEDLAYER-2
  0
POLYLINE
  8
MERGEDLAYER-2
 66
  1
 70
  0
 62
  7
 10
3.355448
 20
1.278427
 30
0.000000
  0
VERTEX
  8
MERGEDLAYER-2
 10
3.355448
 20
1.278427
 30
0.000000
  0
VERTEX
  8
MERGEDLAYER-2
 10
3.366767
 20
1.324641
 30
0.000000
  0
VERTEX
  8
MERGEDLAYER-2
 10
3.371854
 20
1.343459
 30
0.000000
  0
SEQEND
  8
MERGEDLAYER-2
  0
POLYLINE
  8
MERGEDLAYER-2
 66
  1
 70
  0
 62
  7
 10
3.316782
 20
1.144851
 30
0.000000
  0
VERTEX
  8
MERGEDLAYER-2
 10
3.316782
 20
1.144851
 30
0.000000
  0
VERTEX
  8
MERGEDLAYER-2
 10
3.360416
 20
1.176272
 30
0.000000
  0
VERTEX
  8
MERGEDLAYER-2
 10
3.399396
 20
1.214054
 30
0.000000
  0
VERTEX
  8
MERGEDLAYER-2
 10
3.405832
 20
1.217497
 30
0.000000
  0
SEQEND
  8
MERGEDLAYER-2
  0
POLYLINE
  8
MERGEDLAYER-2
 66
  1
 70
  0
 62
  7
 10
5.238000
 20
1.800972
 30
0.000000
  0
VERTEX
  8
MERGEDLAYER-2
 10
5.238000
 20
1.800972
 30
0.000000
  0
VERTEX
  8
MERGEDLAYER-2
 10
4.344034
 20
1.638802
 30
0.000000
  0
SEQEND
  8
MERGEDLAYER-2
  0
POLYLINE
  8
MERGEDLAYER-2
 66
  1
 70
  0
 62
  7
 10
4.171729
 20
1.684970
 30
0.000000
  0
VERTEX
  8
MERGEDLAYER-2
 10
4.171729
 20
1.684970
 30
0.000000
  0
VERTEX
  8
MERGEDLAYER-2
 10
4.143841
 20
1.683282
 30
0.000000
  0
VERTEX
  8
MERGEDLAYER-2
 10
4.119134
 20
1.674638
 30
0.000000
  0
VERTEX
  8
MERGEDLAYER-2
 10
4.096587
 20
1.661341
 30
0.000000
  0
VERTEX
  8
MERGEDLAYER-2
 10
4.077068
 20
1.643901
 30
0.000000
  0
VERTEX
  8
MERGEDLAYER-2
 10
4.061327
 20
1.622988
 30
0.000000
  0
VERTEX
  8
MERGEDLAYER-2
 10
4.049968
 20
1.599405
 30
0.000000
  0
VERTEX
  8
MERGEDLAYER-2
 10
4.043428
 20
1.574060
 30
0.000000
  0
VERTEX
  8
MERGEDLAYER-2
 10
4.044596
 20
1.566040
 30
0.000000
  0
SEQEND
  8
MERGEDLAYER-2
  0
POLYLINE
  8
MERGEDLAYER-2
 66
  1
 70
  0
 62
  7
 10
4.044596
 20
1.566040
 30
0.000000
  0
VERTEX
  8
MERGEDLAYER-2
 10
4.044596
 20
1.566040
 30
0.000000
  0
VERTEX
  8
MERGEDLAYER-2
 10
4.040763
 20
1.544130
 30
0.000000
  0
VERTEX
  8
MERGEDLAYER-2
 10
4.043594
 20
1.520346
 30
0.000000
  0
VERTEX
  8
MERGEDLAYER-2
 10
4.051010
 20
1.497572
 30
0.000000
  0
VERTEX
  8
MERGEDLAYER-2
 10
4.062727
 20
1.476682
 30
0.000000
  0
VERTEX
  8
MERGEDLAYER-2
 10
4.078294
 20
1.458479
 30
0.000000
  0
VERTEX
  8
MERGEDLAYER-2
 10
4.097113
 20
1.443663
 30
0.000000
  0
VERTEX
  8
MERGEDLAYER-2
 10
4.118461
 20
1.432803
 30
0.000000
  0
VERTEX
  8
MERGEDLAYER-2
 10
4.120759
 20
1.430706
 30
0.000000
  0
SEQEND
  8
MERGEDLAYER-2
  0
POLYLINE
  8
MERGEDLAYER-2
 66
  1
 70
  0
 62
  7
 10
5.262023
 20
1.800973
 30
0.000000
  0
VERTEX
  8
MERGEDLAYER-2
 10
5.262023
 20
1.800973
 30
0.000000
  0
VERTEX
  8
MERGEDLAYER-2
 10
5.248155
 20
1.805352
 30
0.000000
  0
VERTEX
  8
MERGEDLAYER-2
 10
5.236238
 20
1.803026
 30
0.000000
  0
VERTEX
  8
MERGEDLAYER-2
 10
5.238000
 20
1.800972
 30
0.000000
  0
SEQEND
  8
MERGEDLAYER-2
  0
POLYLINE
  8
MERGEDLAYER-2
 66
  1
 70
  0
 62
  7
 10
4.493368
 20
1.747073
 30
0.000000
  0
VERTEX
  8
MERGEDLAYER-2
 10
4.493368
 20
1.747073
 30
0.000000
  0
VERTEX
  8
MERGEDLAYER-2
 10
4.440862
 20
1.764148
 30
0.000000
  0
VERTEX
  8
MERGEDLAYER-2
 10
4.389089
 20
1.774228
 30
0.000000
  0
VERTEX
  8
MERGEDLAYER-2
 10
4.336576
 20
1.779185
 30
0.000000
  0
VERTEX
  8
MERGEDLAYER-2
 10
4.283830
 20
1.778971
 30
0.000000
  0
VERTEX
  8
MERGEDLAYER-2
 10
4.231359
 20
1.773588
 30
0.000000
  0
VERTEX
  8
MERGEDLAYER-2
 10
4.181688
 20
1.761133
 30
0.000000
  0
SEQEND
  8
MERGEDLAYER-2
  0
POLYLINE
  8
MERGEDLAYER-2
 66
  1
 70
  0
 62
  7
 10
4.181688
 20
1.761133
 30
0.000000
  0
VERTEX
  8
MERGEDLAYER-2
 10
4.181688
 20
1.761133
 30
0.000000
  0
VERTEX
  8
MERGEDLAYER-2
 10
4.109549
 20
1.744738
 30
0.000000
  0
VERTEX
  8
MERGEDLAYER-2
 10
4.041516
 20
1.719585
 30
0.000000
  0
VERTEX
  8
MERGEDLAYER-2
 10
3.976276
 20
1.687883
 30
0.000000
  0
VERTEX
  8
MERGEDLAYER-2
 10
3.914459
 20
1.649941
 30
0.000000
  0
VERTEX
  8
MERGEDLAYER-2
 10
3.856657
 20
1.606121
 30
0.000000
  0
VERTEX
  8
MERGEDLAYER-2
 10
3.803429
 20
1.556848
 30
0.000000
  0
VERTEX
  8
MERGEDLAYER-2
 10
3.800876
 20
1.550222
 30
0.000000
  0
SEQEND
  8
MERGEDLAYER-2
  0
POLYLINE
  8
MERGEDLAYER-2
 66
  1
 70
  0
 62
  7
 10
3.800878
 20
1.550222
 30
0.000000
  0
VERTEX
  8
MERGEDLAYER-2
 10
3.800878
 20
1.550222
 30
0.000000
  0
VERTEX
  8
MERGEDLAYER-2
 10
3.783028
 20
1.533457
 30
0.000000
  0
VERTEX
  8
MERGEDLAYER-2
 10
3.771106
 20
1.511985
 30
0.000000
  0
VERTEX
  8
MERGEDLAYER-2
 10
3.763603
 20
1.488600
 30
0.000000
  0
VERTEX
  8
MERGEDLAYER-2
 10
3.760805
 20
1.464201
 30
0.000000
  0
VERTEX
  8
MERGEDLAYER-2
 10
3.764382
 20
1.440127
 30
0.000000
  0
SEQEND
  8
MERGEDLAYER-2
  0
POLYLINE
  8
MERGEDLAYER-2
 66
  1
 70
  0
 62
  7
 10
3.782544
 20
1.401459
 30
0.000000
  0
VERTEX
  8
MERGEDLAYER-2
 10
3.782544
 20
1.401459
 30
0.000000
  0
VERTEX
  8
MERGEDLAYER-2
 10
3.796633
 20
1.386032
 30
0.000000
  0
VERTEX
  8
MERGEDLAYER-2
 10
3.815776
 20
1.372104
 30
0.000000
  0
VERTEX
  8
MERGEDLAYER-2
 10
3.837269
 20
1.362179
 30
0.000000
  0
VERTEX
  8
MERGEDLAYER-2
 10
3.855948
 20
1.355715
 30
0.000000
  0
SEQEND
  8
MERGEDLAYER-2
  0
POLYLINE
  8
MERGEDLAYER-2
 66
  1
 70
  0
 62
  7
 10
3.855948
 20
1.355716
 30
0.000000
  0
VERTEX
  8
MERGEDLAYER-2
 10
3.855948
 20
1.355716
 30
0.000000
  0
VERTEX
  8
MERGEDLAYER-2
 10
3.917424
 20
1.347077
 30
0.000000
  0
VERTEX
  8
MERGEDLAYER-2
 10
3.981603
 20
1.342740
 30
0.000000
  0
VERTEX
  8
MERGEDLAYER-2
 10
4.045898
 20
1.344714
 30
0.000000
  0
VERTEX
  8
MERGEDLAYER-2
 10
4.109689
 20
1.352981
 30
0.000000
  0
VERTEX
  8
MERGEDLAYER-2
 10
4.172364
 20
1.367462
 30
0.000000
  0
VERTEX
  8
MERGEDLAYER-2
 10
4.233317
 20
1.388014
 30
0.000000
  0
VERTEX
  8
MERGEDLAYER-2
 10
4.255508
 20
1.394383
 30
0.000000
  0
SEQEND
  8
MERGEDLAYER-2
  0
POLYLINE
  8
MERGEDLAYER-2
 66
  1
 70
  0
 62
  7
 10
3.903298
 20
1.459440
 30
0.000000
  0
VERTEX
  8
MERGEDLAYER-2
 10
3.903298
 20
1.459440
 30
0.000000
  0
VERTEX
  8
MERGEDLAYER-2
 10
3.907846
 20
1.484628
 30
0.000000
  0
VERTEX
  8
MERGEDLAYER-2
 10
3.904122
 20
1.508629
 30
0.000000
  0
VERTEX
  8
MERGEDLAYER-2
 10
3.892695
 20
1.527787
 30
0.000000
  0
VERTEX
  8
MERGEDLAYER-2
 10
3.875304
 20
1.539188
 30
0.000000
  0
VERTEX
  8
MERGEDLAYER-2
 10
3.854597
 20
1.541096
 30
0.000000
  0
VERTEX
  8
MERGEDLAYER-2
 10
3.833726
 20
1.533220
 30
0.000000
  0
VERTEX
  8
MERGEDLAYER-2
 10
3.815867
 20
1.516757
 30
0.000000
  0
VERTEX
  8
MERGEDLAYER-2
 10
3.803743
 20
1.494218
 30
0.000000
  0
VERTEX
  8
MERGEDLAYER-2
 10
3.799195
 20
1.469030
 30
0.000000
  0
VERTEX
  8
MERGEDLAYER-2
 10
3.802919
 20
1.445029
 30
0.000000
  0
VERTEX
  8
MERGEDLAYER-2
 10
3.814346
 20
1.425871
 30
0.000000
  0
VERTEX
  8
MERGEDLAYER-2
 10
3.831737
 20
1.414469
 30
0.000000
  0
VERTEX
  8
MERGEDLAYER-2
 10
3.852444
 20
1.412562
 30
0.000000
  0
VERTEX
  8
MERGEDLAYER-2
 10
3.873316
 20
1.420438
 30
0.000000
  0
VERTEX
  8
MERGEDLAYER-2
 10
3.891173
 20
1.436900
 30
0.000000
  0
VERTEX
  8
MERGEDLAYER-2
 10
3.903298
 20
1.459440
 30
0.000000
  0
SEQEND
  8
MERGEDLAYER-2
  0
POLYLINE
  8
MERGEDLAYER-2
 66
  1
 70
  0
 62
  7
 10
3.870263
 20
1.470322
 30
0.000000
  0
VERTEX
  8
MERGEDLAYER-2
 10
3.870263
 20
1.470322
 30
0.000000
  0
VERTEX
  8
MERGEDLAYER-2
 10
3.870538
 20
1.486718
 30
0.000000
  0
VERTEX
  8
MERGEDLAYER-2
 10
3.860932
 20
1.496905
 30
0.000000
  0
VERTEX
  8
MERGEDLAYER-2
 10
3.847072
 20
1.494915
 30
0.000000
  0
VERTEX
  8
MERGEDLAYER-2
 10
3.837078
 20
1.481914
 30
0.000000
  0
VERTEX
  8
MERGEDLAYER-2
 10
3.836803
 20
1.465518
 30
0.000000
  0
VERTEX
  8
MERGEDLAYER-2
 10
3.846409
 20
1.455332
 30
0.000000
  0
VERTEX
  8
MERGEDLAYER-2
 10
3.860269
 20
1.457321
 30
0.000000
  0
VERTEX
  8
MERGEDLAYER-2
 10
3.870263
 20
1.470322
 30
0.000000
  0
SEQEND
  8
MERGEDLAYER-2
  0
POLYLINE
  8
MERGEDLAYER-2
 66
  1
 70
  0
 62
  7
 10
4.470851
 20
1.754711
 30
0.000000
  0
VERTEX
  8
MERGEDLAYER-2
 10
4.470851
 20
1.754711
 30
0.000000
  0
VERTEX
  8
MERGEDLAYER-2
 10
4.418346
 20
1.771786
 30
0.000000
  0
VERTEX
  8
MERGEDLAYER-2
 10
4.366572
 20
1.781866
 30
0.000000
  0
VERTEX
  8
MERGEDLAYER-2
 10
4.314059
 20
1.786824
 30
0.000000
  0
VERTEX
  8
MERGEDLAYER-2
 10
4.261313
 20
1.786609
 30
0.000000
  0
VERTEX
  8
MERGEDLAYER-2
 10
4.208842
 20
1.781227
 30
0.000000
  0
VERTEX
  8
MERGEDLAYER-2
 10
4.159171
 20
1.768772
 30
0.000000
  0
SEQEND
  8
MERGEDLAYER-2
  0
POLYLINE
  8
MERGEDLAYER-2
 66
  1
 70
  0
 62
  7
 10
4.159171
 20
1.768773
 30
0.000000
  0
VERTEX
  8
MERGEDLAYER-2
 10
4.159171
 20
1.768773
 30
0.000000
  0
VERTEX
  8
MERGEDLAYER-2
 10
4.087033
 20
1.752377
 30
0.000000
  0
VERTEX
  8
MERGEDLAYER-2
 10
4.019000
 20
1.727224
 30
0.000000
  0
VERTEX
  8
MERGEDLAYER-2
 10
3.953760
 20
1.695523
 30
0.000000
  0
VERTEX
  8
MERGEDLAYER-2
 10
3.891942
 20
1.657581
 30
0.000000
  0
VERTEX
  8
MERGEDLAYER-2
 10
3.834140
 20
1.613761
 30
0.000000
  0
VERTEX
  8
MERGEDLAYER-2
 10
3.780912
 20
1.564488
 30
0.000000
  0
VERTEX
  8
MERGEDLAYER-2
 10
3.778360
 20
1.557861
 30
0.000000
  0
SEQEND
  8
MERGEDLAYER-2
  0
POLYLINE
  8
MERGEDLAYER-2
 66
  1
 70
  0
 62
  7
 10
3.778360
 20
1.557861
 30
0.000000
  0
VERTEX
  8
MERGEDLAYER-2
 10
3.778360
 20
1.557861
 30
0.000000
  0
VERTEX
  8
MERGEDLAYER-2
 10
3.760262
 20
1.539802
 30
0.000000
  0
VERTEX
  8
MERGEDLAYER-2
 10
3.748350
 20
1.517011
 30
0.000000
  0
VERTEX
  8
MERGEDLAYER-2
 10
3.741113
 20
1.492335
 30
0.000000
  0
VERTEX
  8
MERGEDLAYER-2
 10
3.740948
 20
1.472350
 30
0.000000
  0
SEQEND
  8
MERGEDLAYER-2
  0
POLYLINE
  8
MERGEDLAYER-2
 66
  1
 70
  0
 62
  7
 10
4.401387
 20
1.619940
 30
0.000000
  0
VERTEX
  8
MERGEDLAYER-2
 10
4.401387
 20
1.619940
 30
0.000000
  0
VERTEX
  8
MERGEDLAYER-2
 10
5.298345
 20
1.785740
 30
0.000000
  0
SEQEND
  8
MERGEDLAYER-2
  0
POLYLINE
  8
MERGEDLAYER-2
 66
  1
 70
  0
 62
  7
 10
4.409003
 20
1.369776
 30
0.000000
  0
VERTEX
  8
MERGEDLAYER-2
 10
4.409003
 20
1.369776
 30
0.000000
  0
VERTEX
  8
MERGEDLAYER-2
 10
5.310063
 20
1.690829
 30
0.000000
  0
SEQEND
  8
MERGEDLAYER-2
  0
POLYLINE
  8
MERGEDLAYER-2
 66
  1
 70
  0
 62
  7
 10
4.401386
 20
1.619940
 30
0.000000
  0
VERTEX
  8
MERGEDLAYER-2
 10
4.401386
 20
1.619940
 30
0.000000
  0
VERTEX
  8
MERGEDLAYER-2
 10
4.369057
 20
1.608210
 30
0.000000
  0
VERTEX
  8
MERGEDLAYER-2
 10
4.341950
 20
1.588852
 30
0.000000
  0
VERTEX
  8
MERGEDLAYER-2
 10
4.319141
 20
1.564578
 30
0.000000
  0
VERTEX
  8
MERGEDLAYER-2
 10
4.301507
 20
1.536320
 30
0.000000
  0
VERTEX
  8
MERGEDLAYER-2
 10
4.289724
 20
1.505165
 30
0.000000
  0
VERTEX
  8
MERGEDLAYER-2
 10
4.284245
 20
1.472311
 30
0.000000
  0
VERTEX
  8
MERGEDLAYER-2
 10
4.285972
 20
1.465857
 30
0.000000
  0
SEQEND
  8
MERGEDLAYER-2
  0
POLYLINE
  8
MERGEDLAYER-2
 66
  1
 70
  0
 62
  7
 10
4.285972
 20
1.465858
 30
0.000000
  0
VERTEX
  8
MERGEDLAYER-2
 10
4.285972
 20
1.465858
 30
0.000000
  0
VERTEX
  8
MERGEDLAYER-2
 10
4.288163
 20
1.431630
 30
0.000000
  0
VERTEX
  8
MERGEDLAYER-2
 10
4.305859
 20
1.399781
 30
0.000000
  0
VERTEX
  8
MERGEDLAYER-2
 10
4.334395
 20
1.377128
 30
0.000000
  0
VERTEX
  8
MERGEDLAYER-2
 10
4.369428
 20
1.367119
 30
0.000000
  0
VERTEX
  8
MERGEDLAYER-2
 10
4.405625
 20
1.371279
 30
0.000000
  0
VERTEX
  8
MERGEDLAYER-2
 10
4.409003
 20
1.369776
 30
0.000000
  0
SEQEND
  8
MERGEDLAYER-2
  0
POLYLINE
  8
MERGEDLAYER-2
 66
  1
 70
  0
 62
  7
 10
5.344044
 20
1.751760
 30
0.000000
  0
VERTEX
  8
MERGEDLAYER-2
 10
5.344044
 20
1.751760
 30
0.000000
  0
VERTEX
  8
MERGEDLAYER-2
 10
5.340469
 20
1.766788
 30
0.000000
  0
VERTEX
  8
MERGEDLAYER-2
 10
5.333985
 20
1.778238
 30
0.000000
  0
VERTEX
  8
MERGEDLAYER-2
 10
5.323613
 20
1.786336
 30
0.000000
  0
VERTEX
  8
MERGEDLAYER-2
 10
5.310932
 20
1.789848
 30
0.000000
  0
VERTEX
  8
MERGEDLAYER-2
 10
5.297873
 20
1.788240
 30
0.000000
  0
VERTEX
  8
MERGEDLAYER-2
 10
5.298347
 20
1.785740
 30
0.000000
  0
SEQEND
  8
MERGEDLAYER-2
  0
POLYLINE
  8
MERGEDLAYER-2
 66
  1
 70
  0
 62
  7
 10
5.310063
 20
1.690829
 30
0.000000
  0
VERTEX
  8
MERGEDLAYER-2
 10
5.310063
 20
1.690829
 30
0.000000
  0
VERTEX
  8
MERGEDLAYER-2
 10
5.327411
 20
1.708324
 30
0.000000
  0
VERTEX
  8
MERGEDLAYER-2
 10
5.339317
 20
1.730060
 30
0.000000
  0
VERTEX
  8
MERGEDLAYER-2
 10
5.344043
 20
1.751759
 30
0.000000
  0
SEQEND
  8
MERGEDLAYER-2
  0
POLYLINE
  8
MERGEDLAYER-2
 66
  1
 70
  0
 62
  7
 10
4.171729
 20
1.684971
 30
0.000000
  0
VERTEX
  8
MERGEDLAYER-2
 10
4.171729
 20
1.684971
 30
0.000000
  0
VERTEX
  8
MERGEDLAYER-2
 10
4.344034
 20
1.638802
 30
0.000000
  0
SEQEND
  8
MERGEDLAYER-2
  0
POLYLINE
  8
MERGEDLAYER-2
 66
  1
 70
  0
 62
  7
 10
4.120759
 20
1.430706
 30
0.000000
  0
VERTEX
  8
MERGEDLAYER-2
 10
4.120759
 20
1.430706
 30
0.000000
  0
VERTEX
  8
MERGEDLAYER-2
 10
4.360963
 20
1.366344
 30
0.000000
  0
SEQEND
  8
MERGEDLAYER-2
  0
POLYLINE
  8
MERGEDLAYER-2
 66
  1
 70
  0
 62
  7
 10
5.259648
 20
1.802026
 30
0.000000
  0
VERTEX
  8
MERGEDLAYER-2
 10
5.259648
 20
1.802026
 30
0.000000
  0
VERTEX
  8
MERGEDLAYER-2
 10
5.317023
 20
1.786653
 30
0.000000
  0
SEQEND
  8
MERGEDLAYER-2
  0
POLYLINE
  8
MERGEDLAYER-2
 66
  1
 70
  0
 62
  7
 10
4.130718
 20
1.704890
 30
0.000000
  0
VERTEX
  8
MERGEDLAYER-2
 10
4.130718
 20
1.704890
 30
0.000000
  0
VERTEX
  8
MERGEDLAYER-2
 10
4.098999
 20
1.694000
 30
0.000000
  0
VERTEX
  8
MERGEDLAYER-2
 10
4.072328
 20
1.675583
 30
0.000000
  0
VERTEX
  8
MERGEDLAYER-2
 10
4.049762
 20
1.652317
 30
0.000000
  0
VERTEX
  8
MERGEDLAYER-2
 10
4.032170
 20
1.625096
 30
0.000000
  0
VERTEX
  8
MERGEDLAYER-2
 10
4.020225
 20
1.594966
 30
0.000000
  0
VERTEX
  8
MERGEDLAYER-2
 10
4.018818
 20
1.578930
 30
0.000000
  0
SEQEND
  8
MERGEDLAYER-2
  0
POLYLINE
  8
MERGEDLAYER-2
 66
  1
 70
  0
 62
  7
 10
4.015303
 20
1.498667
 30
0.000000
  0
VERTEX
  8
MERGEDLAYER-2
 10
4.015303
 20
1.498667
 30
0.000000
  0
VERTEX
  8
MERGEDLAYER-2
 10
4.019174
 20
1.477828
 30
0.000000
  0
VERTEX
  8
MERGEDLAYER-2
 10
4.029351
 20
1.456597
 30
0.000000
  0
VERTEX
  8
MERGEDLAYER-2
 10
4.043475
 20
1.437760
 30
0.000000
  0
VERTEX
  8
MERGEDLAYER-2
 10
4.061001
 20
1.422039
 30
0.000000
  0
VERTEX
  8
MERGEDLAYER-2
 10
4.081257
 20
1.410041
 30
0.000000
  0
VERTEX
  8
MERGEDLAYER-2
 10
4.099082
 20
1.401999
 30
0.000000
  0
SEQEND
  8
MERGEDLAYER-2
  0
POLYLINE
  8
MERGEDLAYER-2
 66
  1
 70
  0
 62
  7
 10
4.018818
 20
1.578930
 30
0.000000
  0
VERTEX
  8
MERGEDLAYER-2
 10
4.018818
 20
1.578930
 30
0.000000
  0
VERTEX
  8
MERGEDLAYER-2
 10
4.011083
 20
1.541984
 30
0.000000
  0
VERTEX
  8
MERGEDLAYER-2
 10
4.013019
 20
1.502692
 30
0.000000
  0
VERTEX
  8
MERGEDLAYER-2
 10
4.015303
 20
1.498667
 30
0.000000
  0
SEQEND
  8
MERGEDLAYER-2
  0
POLYLINE
  8
MERGEDLAYER-2
 66
  1
 70
  0
 62
  7
 10
4.099082
 20
1.401999
 30
0.000000
  0
VERTEX
  8
MERGEDLAYER-2
 10
4.099082
 20
1.401999
 30
0.000000
  0
VERTEX
  8
MERGEDLAYER-2
 10
4.139462
 20
1.401677
 30
0.000000
  0
VERTEX
  8
MERGEDLAYER-2
 10
4.179463
 20
1.415766
 30
0.000000
  0
VERTEX
  8
MERGEDLAYER-2
 10
4.182275
 20
1.414302
 30
0.000000
  0
SEQEND
  8
MERGEDLAYER-2
  0
POLYLINE
  8
MERGEDLAYER-2
 66
  1
 70
  0
 62
  7
 10
4.221528
 20
1.689658
 30
0.000000
  0
VERTEX
  8
MERGEDLAYER-2
 10
4.221528
 20
1.689658
 30
0.000000
  0
VERTEX
  8
MERGEDLAYER-2
 10
4.183769
 20
1.708518
 30
0.000000
  0
VERTEX
  8
MERGEDLAYER-2
 10
4.144238
 20
1.710428
 30
0.000000
  0
VERTEX
  8
MERGEDLAYER-2
 10
4.130719
 20
1.704890
 30
0.000000
  0
SEQEND
  8
MERGEDLAYER-2
  0
POLYLINE
  8
MERGEDLAYER-2
 66
  1
 70
  0
 62
  7
 10
4.246719
 20
1.665052
 30
0.000000
  0
VERTEX
  8
MERGEDLAYER-2
 10
4.246719
 20
1.665052
 30
0.000000
  0
VERTEX
  8
MERGEDLAYER-2
 10
4.240379
 20
1.672581
 30
0.000000
  0
VERTEX
  8
MERGEDLAYER-2
 10
4.235654
 20
1.677844
 30
0.000000
  0
VERTEX
  8
MERGEDLAYER-2
 10
4.230594
 20
1.682786
 30
0.000000
  0
VERTEX
  8
MERGEDLAYER-2
 10
4.225221
 20
1.687387
 30
0.000000
  0
VERTEX
  8
MERGEDLAYER-2
 10
4.219559
 20
1.691627
 30
0.000000
  0
VERTEX
  8
MERGEDLAYER-2
 10
4.221528
 20
1.689658
 30
0.000000
  0
SEQEND
  8
MERGEDLAYER-2
  0
POLYLINE
  8
MERGEDLAYER-2
 66
  1
 70
  0
 62
  7
 10
4.252579
 20
1.662708
 30
0.000000
  0
VERTEX
  8
MERGEDLAYER-2
 10
4.252579
 20
1.662708
 30
0.000000
  0
VERTEX
  8
MERGEDLAYER-2
 10
4.228819
 20
1.691800
 30
0.000000
  0
VERTEX
  8
MERGEDLAYER-2
 10
4.224723
 20
1.695736
 30
0.000000
  0
SEQEND
  8
MERGEDLAYER-2
  0
POLYLINE
  8
MERGEDLAYER-2
 66
  1
 70
  0
 62
  7
 10
4.224723
 20
1.695735
 30
0.000000
  0
VERTEX
  8
MERGEDLAYER-2
 10
4.224723
 20
1.695735
 30
0.000000
  0
VERTEX
  8
MERGEDLAYER-2
 10
4.181636
 20
1.717364
 30
0.000000
  0
VERTEX
  8
MERGEDLAYER-2
 10
4.136124
 20
1.719792
 30
0.000000
  0
VERTEX
  8
MERGEDLAYER-2
 10
4.127247
 20
1.715735
 30
0.000000
  0
SEQEND
  8
MERGEDLAYER-2
  0
POLYLINE
  8
MERGEDLAYER-2
 66
  1
 70
  0
 62
  7
 10
4.127247
 20
1.715735
 30
0.000000
  0
VERTEX
  8
MERGEDLAYER-2
 10
4.127247
 20
1.715735
 30
0.000000
  0
VERTEX
  8
MERGEDLAYER-2
 10
4.092981
 20
1.703559
 30
0.000000
  0
VERTEX
  8
MERGEDLAYER-2
 10
4.064063
 20
1.683387
 30
0.000000
  0
VERTEX
  8
MERGEDLAYER-2
 10
4.039637
 20
1.657960
 30
0.000000
  0
VERTEX
  8
MERGEDLAYER-2
 10
4.020640
 20
1.628257
 30
0.000000
  0
VERTEX
  8
MERGEDLAYER-2
 10
4.007802
 20
1.595418
 30
0.000000
  0
VERTEX
  8
MERGEDLAYER-2
 10
4.006929
 20
1.581905
 30
0.000000
  0
SEQEND
  8
MERGEDLAYER-2
  0
POLYLINE
  8
MERGEDLAYER-2
 66
  1
 70
  0
 62
  7
 10
4.006930
 20
1.581905
 30
0.000000
  0
VERTEX
  8
MERGEDLAYER-2
 10
4.006930
 20
1.581905
 30
0.000000
  0
VERTEX
  8
MERGEDLAYER-2
 10
3.998842
 20
1.542580
 30
0.000000
  0
VERTEX
  8
MERGEDLAYER-2
 10
4.000897
 20
1.500887
 30
0.000000
  0
VERTEX
  8
MERGEDLAYER-2
 10
4.003200
 20
1.496741
 30
0.000000
  0
SEQEND
  8
MERGEDLAYER-2
  0
POLYLINE
  8
MERGEDLAYER-2
 66
  1
 70
  0
 62
  7
 10
4.003200
 20
1.496741
 30
0.000000
  0
VERTEX
  8
MERGEDLAYER-2
 10
4.003200
 20
1.496741
 30
0.000000
  0
VERTEX
  8
MERGEDLAYER-2
 10
4.007772
 20
1.474454
 30
0.000000
  0
VERTEX
  8
MERGEDLAYER-2
 10
4.018919
 20
1.451940
 30
0.000000
  0
VERTEX
  8
MERGEDLAYER-2
 10
4.034244
 20
1.432033
 30
0.000000
  0
VERTEX
  8
MERGEDLAYER-2
 10
4.053159
 20
1.415498
 30
0.000000
  0
VERTEX
  8
MERGEDLAYER-2
 10
4.074935
 20
1.402972
 30
0.000000
  0
VERTEX
  8
MERGEDLAYER-2
 10
4.097325
 20
1.393797
 30
0.000000
  0
SEQEND
  8
MERGEDLAYER-2
  0
POLYLINE
  8
MERGEDLAYER-2
 66
  1
 70
  0
 62
  7
 10
4.097325
 20
1.393796
 30
0.000000
  0
VERTEX
  8
MERGEDLAYER-2
 10
4.097325
 20
1.393796
 30
0.000000
  0
VERTEX
  8
MERGEDLAYER-2
 10
4.140367
 20
1.395513
 30
0.000000
  0
VERTEX
  8
MERGEDLAYER-2
 10
4.182049
 20
1.412503
 30
0.000000
  0
VERTEX
  8
MERGEDLAYER-2
 10
4.186962
 20
1.412544
 30
0.000000
  0
SEQEND
  8
MERGEDLAYER-2
  0
POLYLINE
  8
MERGEDLAYER-2
 66
  1
 70
  0
 62
  7
 10
4.545511
 20
1.675011
 30
0.000000
  0
VERTEX
  8
MERGEDLAYER-2
 10
4.545511
 20
1.675011
 30
0.000000
  0
VERTEX
  8
MERGEDLAYER-2
 10
4.528189
 20
1.714901
 30
0.000000
  0
VERTEX
  8
MERGEDLAYER-2
 10
4.499491
 20
1.744061
 30
0.000000
  0
VERTEX
  8
MERGEDLAYER-2
 10
4.493369
 20
1.747071
 30
0.000000
  0
SEQEND
  8
MERGEDLAYER-2
  0
POLYLINE
  8
MERGEDLAYER-2
 66
  1
 70
  0
 62
  7
 10
4.462904
 20
1.700790
 30
0.000000
  0
VERTEX
  8
MERGEDLAYER-2
 10
4.462904
 20
1.700790
 30
0.000000
  0
VERTEX
  8
MERGEDLAYER-2
 10
4.435830
 20
1.690710
 30
0.000000
  0
VERTEX
  8
MERGEDLAYER-2
 10
4.417245
 20
1.669973
 30
0.000000
  0
VERTEX
  8
MERGEDLAYER-2
 10
4.411934
 20
1.650992
 30
0.000000
  0
SEQEND
  8
MERGEDLAYER-2
  0
POLYLINE
  8
MERGEDLAYER-2
 66
  1
 70
  0
 62
  7
 10
4.514460
 20
1.669153
 30
0.000000
  0
VERTEX
  8
MERGEDLAYER-2
 10
4.514460
 20
1.669153
 30
0.000000
  0
VERTEX
  8
MERGEDLAYER-2
 10
4.502402
 20
1.687433
 30
0.000000
  0
VERTEX
  8
MERGEDLAYER-2
 10
4.486837
 20
1.698640
 30
0.000000
  0
VERTEX
  8
MERGEDLAYER-2
 10
4.468169
 20
1.703038
 30
0.000000
  0
VERTEX
  8
MERGEDLAYER-2
 10
4.462904
 20
1.700790
 30
0.000000
  0
SEQEND
  8
MERGEDLAYER-2
  0
POLYLINE
  8
MERGEDLAYER-2
 66
  1
 70
  0
 62
  7
 10
3.790160
 20
1.380368
 30
0.000000
  0
VERTEX
  8
MERGEDLAYER-2
 10
3.790160
 20
1.380368
 30
0.000000
  0
VERTEX
  8
MERGEDLAYER-2
 10
3.811312
 20
1.369583
 30
0.000000
  0
VERTEX
  8
MERGEDLAYER-2
 10
3.836476
 20
1.361584
 30
0.000000
  0
VERTEX
  8
MERGEDLAYER-2
 10
3.847161
 20
1.358059
 30
0.000000
  0
SEQEND
  8
MERGEDLAYER-2
  0
POLYLINE
  8
MERGEDLAYER-2
 66
  1
 70
  0
 62
  7
 10
6.536287
 20
1.905973
 30
0.000000
  0
VERTEX
  8
MERGEDLAYER-2
 10
6.536287
 20
1.905973
 30
0.000000
  0
VERTEX
  8
MERGEDLAYER-2
 10
3.786121
 20
1.169067
 30
0.000000
  0
SEQEND
  8
MERGEDLAYER-2
  0
POLYLINE
  8
MERGEDLAYER-2
 66
  1
 70
  0
 62
  7
 10
6.544025
 20
1.877101
 30
0.000000
  0
VERTEX
  8
MERGEDLAYER-2
 10
6.544025
 20
1.877101
 30
0.000000
  0
VERTEX
  8
MERGEDLAYER-2
 10
3.774723
 20
1.135069
 30
0.000000
  0
SEQEND
  8
MERGEDLAYER-2
  0
POLYLINE
  8
MERGEDLAYER-2
 66
  1
 70
  0
 62
  7
 10
6.343356
 20
2.769454
 30
0.000000
  0
VERTEX
  8
MERGEDLAYER-2
 10
6.343356
 20
2.769454
 30
0.000000
  0
VERTEX
  8
MERGEDLAYER-2
 10
6.389344
 20
2.742904
 30
0.000000
  0
SEQEND
  8
MERGEDLAYER-2
  0
POLYLINE
  8
MERGEDLAYER-2
 66
  1
 70
  0
 62
  7
 10
6.483392
 20
2.691636
 30
0.000000
  0
VERTEX
  8
MERGEDLAYER-2
 10
6.483392
 20
2.691636
 30
0.000000
  0
VERTEX
  8
MERGEDLAYER-2
 10
6.486016
 20
2.687090
 30
0.000000
  0
SEQEND
  8
MERGEDLAYER-2
  0
POLYLINE
  8
MERGEDLAYER-2
 66
  1
 70
  0
 62
  7
 10
6.486016
 20
2.687091
 30
0.000000
  0
VERTEX
  8
MERGEDLAYER-2
 10
6.486016
 20
2.687091
 30
0.000000
  0
VERTEX
  8
MERGEDLAYER-2
 10
6.524963
 20
2.664603
 30
0.000000
  0
SEQEND
  8
MERGEDLAYER-2
  0
POLYLINE
  8
MERGEDLAYER-2
 66
  1
 70
  0
 62
  7
 10
6.536118
 20
2.645283
 30
0.000000
  0
VERTEX
  8
MERGEDLAYER-2
 10
6.536118
 20
2.645283
 30
0.000000
  0
VERTEX
  8
MERGEDLAYER-2
 10
6.527616
 20
2.663027
 30
0.000000
  0
VERTEX
  8
MERGEDLAYER-2
 10
6.524963
 20
2.664603
 30
0.000000
  0
SEQEND
  8
MERGEDLAYER-2
  0
POLYLINE
  8
MERGEDLAYER-2
 66
  1
 70
  0
 62
  7
 10
6.536117
 20
2.645283
 30
0.000000
  0
VERTEX
  8
MERGEDLAYER-2
 10
6.536117
 20
2.645283
 30
0.000000
  0
VERTEX
  8
MERGEDLAYER-2
 10
6.536117
 20
1.906608
 30
0.000000
  0
SEQEND
  8
MERGEDLAYER-2
  0
POLYLINE
  8
MERGEDLAYER-2
 66
  1
 70
  0
 62
  7
 10
6.536118
 20
1.906608
 30
0.000000
  0
VERTEX
  8
MERGEDLAYER-2
 10
6.536118
 20
1.906608
 30
0.000000
  0
VERTEX
  8
MERGEDLAYER-2
 10
6.538545
 20
1.886480
 30
0.000000
  0
VERTEX
  8
MERGEDLAYER-2
 10
6.543854
 20
1.877738
 30
0.000000
  0
SEQEND
  8
MERGEDLAYER-2
  0
POLYLINE
  8
MERGEDLAYER-2
 66
  1
 70
  0
 62
  7
 10
6.624494
 20
1.738064
 30
0.000000
  0
VERTEX
  8
MERGEDLAYER-2
 10
6.624494
 20
1.738064
 30
0.000000
  0
VERTEX
  8
MERGEDLAYER-2
 10
6.543853
 20
1.877737
 30
0.000000
  0
SEQEND
  8
MERGEDLAYER-2
  0
POLYLINE
  8
MERGEDLAYER-2
 66
  1
 70
  0
 62
  7
 10
6.708350
 20
1.760533
 30
0.000000
  0
VERTEX
  8
MERGEDLAYER-2
 10
6.708350
 20
1.760533
 30
0.000000
  0
VERTEX
  8
MERGEDLAYER-2
 10
6.624493
 20
1.738063
 30
0.000000
  0
SEQEND
  8
MERGEDLAYER-2
  0
POLYLINE
  8
MERGEDLAYER-2
 66
  1
 70
  0
 62
  7
 10
6.708350
 20
2.672140
 30
0.000000
  0
VERTEX
  8
MERGEDLAYER-2
 10
6.708350
 20
2.672140
 30
0.000000
  0
VERTEX
  8
MERGEDLAYER-2
 10
6.708350
 20
1.760533
 30
0.000000
  0
SEQEND
  8
MERGEDLAYER-2
  0
POLYLINE
  8
MERGEDLAYER-2
 66
  1
 70
  0
 62
  7
 10
6.708350
 20
2.672140
 30
0.000000
  0
VERTEX
  8
MERGEDLAYER-2
 10
6.708350
 20
2.672140
 30
0.000000
  0
VERTEX
  8
MERGEDLAYER-2
 10
6.606214
 20
2.731107
 30
0.000000
  0
SEQEND
  8
MERGEDLAYER-2
  0
POLYLINE
  8
MERGEDLAYER-2
 66
  1
 70
  0
 62
  7
 10
6.606214
 20
2.731168
 30
0.000000
  0
VERTEX
  8
MERGEDLAYER-2
 10
6.606214
 20
2.731168
 30
0.000000
  0
VERTEX
  8
MERGEDLAYER-2
 10
6.483391
 20
2.698257
 30
0.000000
  0
SEQEND
  8
MERGEDLAYER-2
  0
POLYLINE
  8
MERGEDLAYER-2
 66
  1
 70
  0
 62
  7
 10
6.483392
 20
2.691636
 30
0.000000
  0
VERTEX
  8
MERGEDLAYER-2
 10
6.483392
 20
2.691636
 30
0.000000
  0
VERTEX
  8
MERGEDLAYER-2
 10
6.483392
 20
2.698257
 30
0.000000
  0
SEQEND
  8
MERGEDLAYER-2
  0
POLYLINE
  8
MERGEDLAYER-2
 66
  1
 70
  0
 62
  7
 10
6.483391
 20
2.736016
 30
0.000000
  0
VERTEX
  8
MERGEDLAYER-2
 10
6.483391
 20
2.736016
 30
0.000000
  0
VERTEX
  8
MERGEDLAYER-2
 10
6.483391
 20
2.698257
 30
0.000000
  0
SEQEND
  8
MERGEDLAYER-2
  0
POLYLINE
  8
MERGEDLAYER-2
 66
  1
 70
  0
 62
  7
 10
6.340732
 20
2.774000
 30
0.000000
  0
VERTEX
  8
MERGEDLAYER-2
 10
6.340732
 20
2.774000
 30
0.000000
  0
VERTEX
  8
MERGEDLAYER-2
 10
6.340732
 20
2.783348
 30
0.000000
  0
SEQEND
  8
MERGEDLAYER-2
  0
POLYLINE
  8
MERGEDLAYER-2
 66
  1
 70
  0
 62
  7
 10
6.340732
 20
2.774000
 30
0.000000
  0
VERTEX
  8
MERGEDLAYER-2
 10
6.340732
 20
2.774000
 30
0.000000
  0
VERTEX
  8
MERGEDLAYER-2
 10
6.343355
 20
2.769455
 30
0.000000
  0
SEQEND
  8
MERGEDLAYER-2
  0
POLYLINE
  8
MERGEDLAYER-2
 66
  1
 70
  0
 62
  7
 10
6.483391
 20
2.736016
 30
0.000000
  0
VERTEX
  8
MERGEDLAYER-2
 10
6.483391
 20
2.736016
 30
0.000000
  0
VERTEX
  8
MERGEDLAYER-2
 10
6.480767
 20
2.740562
 30
0.000000
  0
SEQEND
  8
MERGEDLAYER-2
  0
POLYLINE
  8
MERGEDLAYER-2
 66
  1
 70
  0
 62
  7
 10
6.362703
 20
2.805694
 30
0.000000
  0
VERTEX
  8
MERGEDLAYER-2
 10
6.362703
 20
2.805694
 30
0.000000
  0
VERTEX
  8
MERGEDLAYER-2
 10
6.362703
 20
2.789235
 30
0.000000
  0
SEQEND
  8
MERGEDLAYER-2
  0
POLYLINE
  8
MERGEDLAYER-2
 66
  1
 70
  0
 62
  7
 10
6.362702
 20
2.805694
 30
0.000000
  0
VERTEX
  8
MERGEDLAYER-2
 10
6.362702
 20
2.805694
 30
0.000000
  0
VERTEX
  8
MERGEDLAYER-2
 10
6.360077
 20
2.810241
 30
0.000000
  0
SEQEND
  8
MERGEDLAYER-2
  0
POLYLINE
  8
MERGEDLAYER-2
 66
  1
 70
  0
 62
  7
 10
6.633664
 20
1.716203
 30
0.000000
  0
VERTEX
  8
MERGEDLAYER-2
 10
6.633664
 20
1.716203
 30
0.000000
  0
VERTEX
  8
MERGEDLAYER-2
 10
6.631573
 20
1.720503
 30
0.000000
  0
VERTEX
  8
MERGEDLAYER-2
 10
6.631208
 20
1.722810
 30
0.000000
  0
VERTEX
  8
MERGEDLAYER-2
 10
6.630603
 20
1.725066
 30
0.000000
  0
VERTEX
  8
MERGEDLAYER-2
 10
6.629766
 20
1.727246
 30
0.000000
  0
VERTEX
  8
MERGEDLAYER-2
 10
6.630675
 20
1.727358
 30
0.000000
  0
SEQEND
  8
MERGEDLAYER-2
  0
POLYLINE
  8
MERGEDLAYER-2
 66
  1
 70
  0
 62
  7
 10
6.633664
 20
1.530603
 30
0.000000
  0
VERTEX
  8
MERGEDLAYER-2
 10
6.633664
 20
1.530603
 30
0.000000
  0
VERTEX
  8
MERGEDLAYER-2
 10
6.633664
 20
1.716203
 30
0.000000
  0
SEQEND
  8
MERGEDLAYER-2
  0
POLYLINE
  8
MERGEDLAYER-2
 66
  1
 70
  0
 62
  7
 10
6.629727
 20
1.528330
 30
0.000000
  0
VERTEX
  8
MERGEDLAYER-2
 10
6.629727
 20
1.528330
 30
0.000000
  0
VERTEX
  8
MERGEDLAYER-2
 10
6.633664
 20
1.530603
 30
0.000000
  0
SEQEND
  8
MERGEDLAYER-2
  0
POLYLINE
  8
MERGEDLAYER-2
 66
  1
 70
  0
 62
  7
 10
6.360077
 20
2.810241
 30
0.000000
  0
VERTEX
  8
MERGEDLAYER-2
 10
6.360077
 20
2.810241
 30
0.000000
  0
VERTEX
  8
MERGEDLAYER-2
 10
6.329500
 20
2.827895
 30
0.000000
  0
SEQEND
  8
MERGEDLAYER-2
  0
POLYLINE
  8
MERGEDLAYER-2
 66
  1
 70
  0
 62
  7
 10
6.480767
 20
2.740561
 30
0.000000
  0
VERTEX
  8
MERGEDLAYER-2
 10
6.480767
 20
2.740561
 30
0.000000
  0
VERTEX
  8
MERGEDLAYER-2
 10
6.449017
 20
2.758892
 30
0.000000
  0
SEQEND
  8
MERGEDLAYER-2
  0
POLYLINE
  8
MERGEDLAYER-2
 66
  1
 70
  0
 62
  7
 10
0.676282
 20
1.250283
 30
0.000000
  0
VERTEX
  8
MERGEDLAYER-2
 10
0.676282
 20
1.250283
 30
0.000000
  0
VERTEX
  8
MERGEDLAYER-2
 10
6.343527
 20
2.768818
 30
0.000000
  0
SEQEND
  8
MERGEDLAYER-2
  0
POLYLINE
  8
MERGEDLAYER-2
 66
  1
 70
  0
 62
  7
 10
0.800204
 20
0.498597
 30
0.000000
  0
VERTEX
  8
MERGEDLAYER-2
 10
0.800204
 20
0.498597
 30
0.000000
  0
VERTEX
  8
MERGEDLAYER-2
 10
0.800204
 20
1.060680
 30
0.000000
  0
SEQEND
  8
MERGEDLAYER-2
  0
POLYLINE
  8
MERGEDLAYER-2
 66
  1
 70
  0
 62
  7
 10
0.775304
 20
0.420075
 30
0.000000
  0
VERTEX
  8
MERGEDLAYER-2
 10
0.775304
 20
0.420075
 30
0.000000
  0
VERTEX
  8
MERGEDLAYER-2
 10
0.775304
 20
0.512972
 30
0.000000
  0
SEQEND
  8
MERGEDLAYER-2
  0
POLYLINE
  8
MERGEDLAYER-2
 66
  1
 70
  0
 62
  7
 10
0.766516
 20
0.168525
 30
0.000000
  0
VERTEX
  8
MERGEDLAYER-2
 10
0.766516
 20
0.168525
 30
0.000000
  0
VERTEX
  8
MERGEDLAYER-2
 10
0.766516
 20
1.080130
 30
0.000000
  0
SEQEND
  8
MERGEDLAYER-2
  0
POLYLINE
  8
MERGEDLAYER-2
 66
  1
 70
  0
 62
  7
 10
0.800204
 20
1.060680
 30
0.000000
  0
VERTEX
  8
MERGEDLAYER-2
 10
0.800204
 20
1.060680
 30
0.000000
  0
VERTEX
  8
MERGEDLAYER-2
 10
0.766516
 20
1.080130
 30
0.000000
  0
SEQEND
  8
MERGEDLAYER-2
  0
POLYLINE
  8
MERGEDLAYER-2
 66
  1
 70
  0
 62
  7
 10
0.766516
 20
1.080130
 30
0.000000
  0
VERTEX
  8
MERGEDLAYER-2
 10
0.766516
 20
1.080130
 30
0.000000
  0
VERTEX
  8
MERGEDLAYER-2
 10
0.444877
 20
0.993946
 30
0.000000
  0
SEQEND
  8
MERGEDLAYER-2
  0
POLYLINE
  8
MERGEDLAYER-2
 66
  1
 70
  0
 62
  7
 10
0.664382
 20
1.139097
 30
0.000000
  0
VERTEX
  8
MERGEDLAYER-2
 10
0.664382
 20
1.139097
 30
0.000000
  0
VERTEX
  8
MERGEDLAYER-2
 10
0.342742
 20
1.052914
 30
0.000000
  0
SEQEND
  8
MERGEDLAYER-2
  0
POLYLINE
  8
MERGEDLAYER-2
 66
  1
 70
  0
 62
  7
 10
0.444877
 20
0.993946
 30
0.000000
  0
VERTEX
  8
MERGEDLAYER-2
 10
0.444877
 20
0.993946
 30
0.000000
  0
VERTEX
  8
MERGEDLAYER-2
 10
0.342742
 20
1.052914
 30
0.000000
  0
SEQEND
  8
MERGEDLAYER-2
  0
POLYLINE
  8
MERGEDLAYER-2
 66
  1
 70
  0
 62
  7
 10
0.444877
 20
0.993946
 30
0.000000
  0
VERTEX
  8
MERGEDLAYER-2
 10
0.444877
 20
0.993946
 30
0.000000
  0
VERTEX
  8
MERGEDLAYER-2
 10
0.444877
 20
0.082341
 30
0.000000
  0
SEQEND
  8
MERGEDLAYER-2
  0
POLYLINE
  8
MERGEDLAYER-2
 66
  1
 70
  0
 62
  7
 10
0.342742
 20
0.484011
 30
0.000000
  0
VERTEX
  8
MERGEDLAYER-2
 10
0.342742
 20
0.484011
 30
0.000000
  0
VERTEX
  8
MERGEDLAYER-2
 10
0.342742
 20
0.141309
 30
0.000000
  0
SEQEND
  8
MERGEDLAYER-2
  0
POLYLINE
  8
MERGEDLAYER-2
 66
  1
 70
  0
 62
  7
 10
0.444877
 20
0.082341
 30
0.000000
  0
VERTEX
  8
MERGEDLAYER-2
 10
0.444877
 20
0.082341
 30
0.000000
  0
VERTEX
  8
MERGEDLAYER-2
 10
0.342742
 20
0.141309
 30
0.000000
  0
SEQEND
  8
MERGEDLAYER-2
  0
POLYLINE
  8
MERGEDLAYER-2
 66
  1
 70
  0
 62
  7
 10
0.342742
 20
1.052914
 30
0.000000
  0
VERTEX
  8
MERGEDLAYER-2
 10
0.342742
 20
1.052914
 30
0.000000
  0
VERTEX
  8
MERGEDLAYER-2
 10
0.342742
 20
0.638601
 30
0.000000
  0
SEQEND
  8
MERGEDLAYER-2
  0
POLYLINE
  8
MERGEDLAYER-2
 66
  1
 70
  0
 62
  7
 10
0.800204
 20
1.060680
 30
0.000000
  0
VERTEX
  8
MERGEDLAYER-2
 10
0.800204
 20
1.060680
 30
0.000000
  0
VERTEX
  8
MERGEDLAYER-2
 10
0.843851
 20
1.072375
 30
0.000000
  0
SEQEND
  8
MERGEDLAYER-2
  0
POLYLINE
  8
MERGEDLAYER-2
 66
  1
 70
  0
 62
  7
 10
0.800204
 20
0.498597
 30
0.000000
  0
VERTEX
  8
MERGEDLAYER-2
 10
0.800204
 20
0.498597
 30
0.000000
  0
VERTEX
  8
MERGEDLAYER-2
 10
0.822174
 20
0.504484
 30
0.000000
  0
SEQEND
  8
MERGEDLAYER-2
  0
POLYLINE
  8
MERGEDLAYER-2
 66
  1
 70
  0
 62
  7
 10
0.775304
 20
0.420075
 30
0.000000
  0
VERTEX
  8
MERGEDLAYER-2
 10
0.775304
 20
0.420075
 30
0.000000
  0
VERTEX
  8
MERGEDLAYER-2
 10
0.800204
 20
0.405698
 30
0.000000
  0
SEQEND
  8
MERGEDLAYER-2
  0
POLYLINE
  8
MERGEDLAYER-2
 66
  1
 70
  0
 62
  7
 10
0.775304
 20
0.420075
 30
0.000000
  0
VERTEX
  8
MERGEDLAYER-2
 10
0.775304
 20
0.420075
 30
0.000000
  0
VERTEX
  8
MERGEDLAYER-2
 10
0.805184
 20
0.428080
 30
0.000000
  0
SEQEND
  8
MERGEDLAYER-2
  0
POLYLINE
  8
MERGEDLAYER-2
 66
  1
 70
  0
 62
  7
 10
0.800204
 20
0.498597
 30
0.000000
  0
VERTEX
  8
MERGEDLAYER-2
 10
0.800204
 20
0.498597
 30
0.000000
  0
VERTEX
  8
MERGEDLAYER-2
 10
0.775304
 20
0.512972
 30
0.000000
  0
SEQEND
  8
MERGEDLAYER-2
  0
POLYLINE
  8
MERGEDLAYER-2
 66
  1
 70
  0
 62
  7
 10
0.630597
 20
1.158604
 30
0.000000
  0
VERTEX
  8
MERGEDLAYER-2
 10
0.630597
 20
1.158604
 30
0.000000
  0
VERTEX
  8
MERGEDLAYER-2
 10
0.730780
 20
1.185447
 30
0.000000
  0
SEQEND
  8
MERGEDLAYER-2
  0
POLYLINE
  8
MERGEDLAYER-2
 66
  1
 70
  0
 62
  7
 10
0.634111
 20
1.236455
 30
0.000000
  0
VERTEX
  8
MERGEDLAYER-2
 10
0.634111
 20
1.236455
 30
0.000000
  0
VERTEX
  8
MERGEDLAYER-2
 10
0.634111
 20
1.159545
 30
0.000000
  0
SEQEND
  8
MERGEDLAYER-2
  0
POLYLINE
  8
MERGEDLAYER-2
 66
  1
 70
  0
 62
  7
 10
0.630597
 20
1.158604
 30
0.000000
  0
VERTEX
  8
MERGEDLAYER-2
 10
0.630597
 20
1.158604
 30
0.000000
  0
VERTEX
  8
MERGEDLAYER-2
 10
0.664382
 20
1.139097
 30
0.000000
  0
SEQEND
  8
MERGEDLAYER-2
  0
POLYLINE
  8
MERGEDLAYER-2
 66
  1
 70
  0
 62
  7
 10
0.630597
 20
1.158604
 30
0.000000
  0
VERTEX
  8
MERGEDLAYER-2
 10
0.630597
 20
1.158604
 30
0.000000
  0
VERTEX
  8
MERGEDLAYER-2
 10
0.630597
 20
1.130044
 30
0.000000
  0
SEQEND
  8
MERGEDLAYER-2
  0
POLYLINE
  8
MERGEDLAYER-2
 66
  1
 70
  0
 62
  7
 10
0.800204
 20
0.149074
 30
0.000000
  0
VERTEX
  8
MERGEDLAYER-2
 10
0.800204
 20
0.149074
 30
0.000000
  0
VERTEX
  8
MERGEDLAYER-2
 10
0.766516
 20
0.168525
 30
0.000000
  0
SEQEND
  8
MERGEDLAYER-2
  0
POLYLINE
  8
MERGEDLAYER-2
 66
  1
 70
  0
 62
  7
 10
0.766516
 20
0.168525
 30
0.000000
  0
VERTEX
  8
MERGEDLAYER-2
 10
0.766516
 20
0.168525
 30
0.000000
  0
VERTEX
  8
MERGEDLAYER-2
 10
0.444877
 20
0.082341
 30
0.000000
  0
SEQEND
  8
MERGEDLAYER-2
  0
POLYLINE
  8
MERGEDLAYER-2
 66
  1
 70
  0
 62
  7
 10
0.800204
 20
0.149074
 30
0.000000
  0
VERTEX
  8
MERGEDLAYER-2
 10
0.800204
 20
0.149074
 30
0.000000
  0
VERTEX
  8
MERGEDLAYER-2
 10
0.821881
 20
0.154883
 30
0.000000
  0
SEQEND
  8
MERGEDLAYER-2
  0
POLYLINE
  8
MERGEDLAYER-2
 66
  1
 70
  0
 62
  7
 10
0.800204
 20
0.405698
 30
0.000000
  0
VERTEX
  8
MERGEDLAYER-2
 10
0.800204
 20
0.405698
 30
0.000000
  0
VERTEX
  8
MERGEDLAYER-2
 10
0.821137
 20
0.411307
 30
0.000000
  0
SEQEND
  8
MERGEDLAYER-2
  0
POLYLINE
  8
MERGEDLAYER-2
 66
  1
 70
  0
 62
  7
 10
0.800204
 20
0.405698
 30
0.000000
  0
VERTEX
  8
MERGEDLAYER-2
 10
0.800204
 20
0.405698
 30
0.000000
  0
VERTEX
  8
MERGEDLAYER-2
 10
0.800204
 20
0.149074
 30
0.000000
  0
SEQEND
  8
MERGEDLAYER-2
  0
POLYLINE
  8
MERGEDLAYER-2
 66
  1
 70
  0
 62
  7
 10
0.836938
 20
0.171057
 30
0.000000
  0
VERTEX
  8
MERGEDLAYER-2
 10
0.836938
 20
0.171057
 30
0.000000
  0
VERTEX
  8
MERGEDLAYER-2
 10
0.845608
 20
0.173380
 30
0.000000
  0
SEQEND
  8
MERGEDLAYER-2
  0
POLYLINE
  8
MERGEDLAYER-2
 66
  1
 70
  0
 62
  7
 10
0.613607
 20
1.259192
 30
0.000000
  0
VERTEX
  8
MERGEDLAYER-2
 10
0.613607
 20
1.259192
 30
0.000000
  0
VERTEX
  8
MERGEDLAYER-2
 10
0.613607
 20
1.125492
 30
0.000000
  0
SEQEND
  8
MERGEDLAYER-2
  0
POLYLINE
  8
MERGEDLAYER-2
 66
  1
 70
  0
 62
  7
 10
7.001083
 20
2.268223
 30
0.000000
  0
VERTEX
  8
MERGEDLAYER-2
 10
7.001083
 20
2.268223
 30
0.000000
  0
VERTEX
  8
MERGEDLAYER-2
 10
6.708350
 20
2.189786
 30
0.000000
  0
SEQEND
  8
MERGEDLAYER-2
  0
POLYLINE
  8
MERGEDLAYER-2
 66
  1
 70
  0
 62
  7
 10
7.001083
 20
2.268223
 30
0.000000
  0
VERTEX
  8
MERGEDLAYER-2
 10
7.001083
 20
2.268223
 30
0.000000
  0
VERTEX
  8
MERGEDLAYER-2
 10
7.010957
 20
2.276009
 30
0.000000
  0
VERTEX
  8
MERGEDLAYER-2
 10
7.019673
 20
2.285915
 30
0.000000
  0
VERTEX
  8
MERGEDLAYER-2
 10
7.023932
 20
2.288728
 30
0.000000
  0
SEQEND
  8
MERGEDLAYER-2
  0
POLYLINE
  8
MERGEDLAYER-2
 66
  1
 70
  0
 62
  7
 10
7.023934
 20
2.288727
 30
0.000000
  0
VERTEX
  8
MERGEDLAYER-2
 10
7.023934
 20
2.288727
 30
0.000000
  0
VERTEX
  8
MERGEDLAYER-2
 10
7.027683
 20
2.331429
 30
0.000000
  0
VERTEX
  8
MERGEDLAYER-2
 10
7.025910
 20
2.351920
 30
0.000000
  0
SEQEND
  8
MERGEDLAYER-2
  0
POLYLINE
  8
MERGEDLAYER-2
 66
  1
 70
  0
 62
  7
 10
7.025908
 20
2.351922
 30
0.000000
  0
VERTEX
  8
MERGEDLAYER-2
 10
7.025908
 20
2.351922
 30
0.000000
  0
VERTEX
  8
MERGEDLAYER-2
 10
7.011157
 20
2.385485
 30
0.000000
  0
VERTEX
  8
MERGEDLAYER-2
 10
6.991123
 20
2.406487
 30
0.000000
  0
SEQEND
  8
MERGEDLAYER-2
  0
POLYLINE
  8
MERGEDLAYER-2
 66
  1
 70
  0
 62
  7
 10
6.991124
 20
2.406487
 30
0.000000
  0
VERTEX
  8
MERGEDLAYER-2
 10
6.991124
 20
2.406487
 30
0.000000
  0
VERTEX
  8
MERGEDLAYER-2
 10
6.978785
 20
2.414258
 30
0.000000
  0
VERTEX
  8
MERGEDLAYER-2
 10
6.966983
 20
2.415648
 30
0.000000
  0
VERTEX
  8
MERGEDLAYER-2
 10
6.963202
 20
2.412664
 30
0.000000
  0
SEQEND
  8
MERGEDLAYER-2
  0
POLYLINE
  8
MERGEDLAYER-2
 66
  1
 70
  0
 62
  7
 10
6.963202
 20
2.412664
 30
0.000000
  0
VERTEX
  8
MERGEDLAYER-2
 10
6.963202
 20
2.412664
 30
0.000000
  0
VERTEX
  8
MERGEDLAYER-2
 10
6.708350
 20
2.344376
 30
0.000000
  0
SEQEND
  8
MERGEDLAYER-2
  0
POLYLINE
  8
MERGEDLAYER-2
 66
  1
 70
  0
 62
  7
 10
6.708350
 20
2.344376
 30
0.000000
  0
VERTEX
  8
MERGEDLAYER-2
 10
6.708350
 20
2.344376
 30
0.000000
  0
VERTEX
  8
MERGEDLAYER-2
 10
6.708350
 20
2.189786
 30
0.000000
  0
SEQEND
  8
MERGEDLAYER-2
  0
POLYLINE
  8
MERGEDLAYER-2
 66
  1
 70
  0
 62
  7
 10
6.708352
 20
2.672201
 30
0.000000
  0
VERTEX
  8
MERGEDLAYER-2
 10
6.708352
 20
2.672201
 30
0.000000
  0
VERTEX
  8
MERGEDLAYER-2
 10
6.536117
 20
2.626051
 30
0.000000
  0
SEQEND
  8
MERGEDLAYER-2
  0
TEXT
  8
MERGEDLAYER-2
 62
  7
 10
0.046737
 20
4.749905
 30
0.000000
 40
0.102273
  1
Additionnal rods
 72
  5
 11
1.028555
 21
4.749905
 31
0.000000
  0
TEXT
  8
MERGEDLAYER-2
 62
  7
 10
0.046737
 20
4.595359
 30
0.000000
 40
0.102273
  1
to prevent access
 72
  5
 11
1.146737
 21
4.595359
 31
0.000000
  0
TEXT
  8
MERGEDLAYER-2
 62
  7
 10
0.046737
 20
4.440814
 30
0.000000
 40
0.102273
  1
to thumbturn from
 72
  5
 11
1.146737
 21
4.440814
 31
0.000000
  0
TEXT
  8
MERGEDLAYER-2
 62
  7
 10
0.046737
 20
4.286268
 30
0.000000
 40
0.102273
  1
exterior side
 72
  5
 11
0.810373
 21
4.286268
 31
0.000000
  0
POLYLINE
  8
MERGEDLAYER-2
 66
  1
 70
  0
 62
  7
 10
3.046705
 20
4.884596
 30
0.000000
  0
VERTEX
  8
MERGEDLAYER-2
 10
3.046705
 20
4.884596
 30
0.000000
  0
VERTEX
  8
MERGEDLAYER-2
 10
1.951109
 20
3.788999
 30
0.000000
  0
SEQEND
  8
MERGEDLAYER-2
  0
POLYLINE
  8
MERGEDLAYER-2
 66
  1
 70
  0
 62
  7
 10
0.185658
 20
4.216951
 30
0.000000
  0
VERTEX
  8
MERGEDLAYER-2
 10
0.185658
 20
4.216951
 30
0.000000
  0
VERTEX
  8
MERGEDLAYER-2
 10
0.500788
 20
3.874228
 30
0.000000
  0
SEQEND
  8
MERGEDLAYER-2
  0
POLYLINE
  8
MERGEDLAYER-2
 66
  1
 70
  1
 62
  7
  0
VERTEX
  8
MERGEDLAYER-2
 10
0.514112
 20
3.859737
 30
0.000000
  0
VERTEX
  8
MERGEDLAYER-2
 10
0.463270
 20
3.874738
 30
0.000000
  0
VERTEX
  8
MERGEDLAYER-2
 10
0.483346
 20
3.893197
 30
0.000000
  0
VERTEX
  8
MERGEDLAYER-2
 10
0.503422
 20
3.911656
 30
0.000000
  0
VERTEX
  8
MERGEDLAYER-2
 10
0.514112
 20
3.859737
 30
0.000000
  0
SEQEND
  8
MERGEDLAYER-2
  0
POLYLINE
  8
MERGEDLAYER-2
 66
  1
 70
  1
 62
  7
  0
VERTEX
  8
MERGEDLAYER-2
 10
2.595270
 20
4.535012
 30
0.000000
  0
VERTEX
  8
MERGEDLAYER-2
 10
2.601658
 20
4.535012
 30
0.000000
  0
VERTEX
  8
MERGEDLAYER-2
 10
2.601658
 20
4.384848
 30
0.000000
  0
VERTEX
  8
MERGEDLAYER-2
 10
2.595270
 20
4.384848
 30
0.000000
  0
SEQEND
  8
MERGEDLAYER-2
  0
POLYLINE
  8
MERGEDLAYER-2
 66
  1
 70
  1
 62
  7
  0
VERTEX
  8
MERGEDLAYER-2
 10
2.601658
 20
4.662403
 30
0.000000
  0
VERTEX
  8
MERGEDLAYER-2
 10
2.608052
 20
4.662403
 30
0.000000
  0
VERTEX
  8
MERGEDLAYER-2
 10
2.608052
 20
4.502669
 30
0.000000
  0
VERTEX
  8
MERGEDLAYER-2
 10
2.601658
 20
4.502669
 30
0.000000
  0
SEQEND
  8
MERGEDLAYER-2
  0
POLYLINE
  8
MERGEDLAYER-2
 66
  1
 70
  1
 62
  7
  0
VERTEX
  8
MERGEDLAYER-2
 10
2.595270
 20
4.790654
 30
0.000000
  0
VERTEX
  8
MERGEDLAYER-2
 10
2.601658
 20
4.790654
 30
0.000000
  0
VERTEX
  8
MERGEDLAYER-2
 10
2.601658
 20
4.630485
 30
0.000000
  0
VERTEX
  8
MERGEDLAYER-2
 10
2.595270
 20
4.630485
 30
0.000000
  0
SEQEND
  8
MERGEDLAYER-2
  0
POLYLINE
  8
MERGEDLAYER-2
 66
  1
 70
  1
 62
  7
  0
VERTEX
  8
MERGEDLAYER-2
 10
2.601658
 20
4.919772
 30
0.000000
  0
VERTEX
  8
MERGEDLAYER-2
 10
2.608052
 20
4.919772
 30
0.000000
  0
VERTEX
  8
MERGEDLAYER-2
 10
2.608052
 20
4.757867
 30
0.000000
  0
VERTEX
  8
MERGEDLAYER-2
 10
2.601658
 20
4.757867
 30
0.000000
  0
SEQEND
  8
MERGEDLAYER-2
  0
POLYLINE
  8
MERGEDLAYER-2
 66
  1
 70
  1
 62
  7
  0
VERTEX
  8
MERGEDLAYER-2
 10
2.595270
 20
5.045851
 30
0.000000
  0
VERTEX
  8
MERGEDLAYER-2
 10
2.601658
 20
5.045851
 30
0.000000
  0
VERTEX
  8
MERGEDLAYER-2
 10
2.601658
 20
4.886553
 30
0.000000
  0
VERTEX
  8
MERGEDLAYER-2
 10
2.595270
 20
4.886553
 30
0.000000
  0
SEQEND
  8
MERGEDLAYER-2
  0
POLYLINE
  8
MERGEDLAYER-2
 66
  1
 70
  1
 62
  7
  0
VERTEX
  8
MERGEDLAYER-2
 10
2.601658
 20
5.174103
 30
0.000000
  0
VERTEX
  8
MERGEDLAYER-2
 10
2.608052
 20
5.174103
 30
0.000000
  0
VERTEX
  8
MERGEDLAYER-2
 10
2.608052
 20
5.013499
 30
0.000000
  0
VERTEX
  8
MERGEDLAYER-2
 10
2.601658
 20
5.013499
 30
0.000000
  0
SEQEND
  8
MERGEDLAYER-2
  0
POLYLINE
  8
MERGEDLAYER-2
 66
  1
 70
  1
 62
  7
  0
VERTEX
  8
MERGEDLAYER-2
 10
2.595270
 20
5.301918
 30
0.000000
  0
VERTEX
  8
MERGEDLAYER-2
 10
2.601658
 20
5.301918
 30
0.000000
  0
VERTEX
  8
MERGEDLAYER-2
 10
2.601658
 20
5.140883
 30
0.000000
  0
VERTEX
  8
MERGEDLAYER-2
 10
2.595270
 20
5.140883
 30
0.000000
  0
SEQEND
  8
MERGEDLAYER-2
  0
POLYLINE
  8
MERGEDLAYER-2
 66
  1
 70
  1
 62
  7
  0
VERTEX
  8
MERGEDLAYER-2
 10
2.601658
 20
5.430169
 30
0.000000
  0
VERTEX
  8
MERGEDLAYER-2
 10
2.608052
 20
5.430169
 30
0.000000
  0
VERTEX
  8
MERGEDLAYER-2
 10
2.608052
 20
5.269131
 30
0.000000
  0
VERTEX
  8
MERGEDLAYER-2
 10
2.601658
 20
5.269131
 30
0.000000
  0
SEQEND
  8
MERGEDLAYER-2
  0
POLYLINE
  8
MERGEDLAYER-2
 66
  1
 70
  1
 62
  7
  0
VERTEX
  8
MERGEDLAYER-2
 10
2.595270
 20
5.557118
 30
0.000000
  0
VERTEX
  8
MERGEDLAYER-2
 10
2.601658
 20
5.557118
 30
0.000000
  0
VERTEX
  8
MERGEDLAYER-2
 10
2.601658
 20
5.396949
 30
0.000000
  0
VERTEX
  8
MERGEDLAYER-2
 10
2.595270
 20
5.396949
 30
0.000000
  0
SEQEND
  8
MERGEDLAYER-2
  0
POLYLINE
  8
MERGEDLAYER-2
 66
  1
 70
  1
 62
  7
  0
VERTEX
  8
MERGEDLAYER-2
 10
2.601658
 20
5.685367
 30
0.000000
  0
VERTEX
  8
MERGEDLAYER-2
 10
2.608052
 20
5.685367
 30
0.000000
  0
VERTEX
  8
MERGEDLAYER-2
 10
2.608052
 20
5.524765
 30
0.000000
  0
VERTEX
  8
MERGEDLAYER-2
 10
2.601658
 20
5.524765
 30
0.000000
  0
SEQEND
  8
MERGEDLAYER-2
  0
POLYLINE
  8
MERGEDLAYER-2
 66
  1
 70
  1
 62
  7
  0
VERTEX
  8
MERGEDLAYER-2
 10
2.595270
 20
5.813183
 30
0.000000
  0
VERTEX
  8
MERGEDLAYER-2
 10
2.601658
 20
5.813183
 30
0.000000
  0
VERTEX
  8
MERGEDLAYER-2
 10
2.601658
 20
5.653448
 30
0.000000
  0
VERTEX
  8
MERGEDLAYER-2
 10
2.595270
 20
5.653448
 30
0.000000
  0
SEQEND
  8
MERGEDLAYER-2
  0
POLYLINE
  8
MERGEDLAYER-2
 66
  1
 70
  1
 62
  7
  0
VERTEX
  8
MERGEDLAYER-2
 10
2.601658
 20
5.941868
 30
0.000000
  0
VERTEX
  8
MERGEDLAYER-2
 10
2.608052
 20
5.941868
 30
0.000000
  0
VERTEX
  8
MERGEDLAYER-2
 10
2.608052
 20
5.780829
 30
0.000000
  0
VERTEX
  8
MERGEDLAYER-2
 10
2.601658
 20
5.780829
 30
0.000000
  0
SEQEND
  8
MERGEDLAYER-2
  0
POLYLINE
  8
MERGEDLAYER-2
 66
  1
 70
  1
 62
  7
  0
VERTEX
  8
MERGEDLAYER-2
 10
2.595270
 20
6.069251
 30
0.000000
  0
VERTEX
  8
MERGEDLAYER-2
 10
2.601658
 20
6.069251
 30
0.000000
  0
VERTEX
  8
MERGEDLAYER-2
 10
2.601658
 20
5.908647
 30
0.000000
  0
VERTEX
  8
MERGEDLAYER-2
 10
2.595270
 20
5.908647
 30
0.000000
  0
SEQEND
  8
MERGEDLAYER-2
  0
POLYLINE
  8
MERGEDLAYER-2
 66
  1
 70
  1
 62
  7
  0
VERTEX
  8
MERGEDLAYER-2
 10
2.601658
 20
6.196632
 30
0.000000
  0
VERTEX
  8
MERGEDLAYER-2
 10
2.608052
 20
6.196632
 30
0.000000
  0
VERTEX
  8
MERGEDLAYER-2
 10
2.608052
 20
6.036464
 30
0.000000
  0
VERTEX
  8
MERGEDLAYER-2
 10
2.601658
 20
6.036464
 30
0.000000
  0
SEQEND
  8
MERGEDLAYER-2
  0
POLYLINE
  8
MERGEDLAYER-2
 66
  1
 70
  1
 62
  7
  0
VERTEX
  8
MERGEDLAYER-2
 10
2.595270
 20
6.323580
 30
0.000000
  0
VERTEX
  8
MERGEDLAYER-2
 10
2.601658
 20
6.323580
 30
0.000000
  0
VERTEX
  8
MERGEDLAYER-2
 10
2.601658
 20
6.163413
 30
0.000000
  0
VERTEX
  8
MERGEDLAYER-2
 10
2.595270
 20
6.163413
 30
0.000000
  0
SEQEND
  8
MERGEDLAYER-2
  0
POLYLINE
  8
MERGEDLAYER-2
 66
  1
 70
  1
 62
  7
  0
VERTEX
  8
MERGEDLAYER-2
 10
2.601658
 20
6.452265
 30
0.000000
  0
VERTEX
  8
MERGEDLAYER-2
 10
2.608052
 20
6.452265
 30
0.000000
  0
VERTEX
  8
MERGEDLAYER-2
 10
2.608052
 20
6.292529
 30
0.000000
  0
VERTEX
  8
MERGEDLAYER-2
 10
2.601658
 20
6.292529
 30
0.000000
  0
SEQEND
  8
MERGEDLAYER-2
  0
POLYLINE
  8
MERGEDLAYER-2
 66
  1
 70
  1
 62
  7
  0
VERTEX
  8
MERGEDLAYER-2
 10
2.595270
 20
6.580080
 30
0.000000
  0
VERTEX
  8
MERGEDLAYER-2
 10
2.601658
 20
6.580080
 30
0.000000
  0
VERTEX
  8
MERGEDLAYER-2
 10
2.601658
 20
6.419477
 30
0.000000
  0
VERTEX
  8
MERGEDLAYER-2
 10
2.595270
 20
6.419477
 30
0.000000
  0
SEQEND
  8
MERGEDLAYER-2
  0
POLYLINE
  8
MERGEDLAYER-2
 66
  1
 70
  1
 62
  7
  0
VERTEX
  8
MERGEDLAYER-2
 10
2.601658
 20
6.708329
 30
0.000000
  0
VERTEX
  8
MERGEDLAYER-2
 10
2.608052
 20
6.708329
 30
0.000000
  0
VERTEX
  8
MERGEDLAYER-2
 10
2.608052
 20
6.547728
 30
0.000000
  0
VERTEX
  8
MERGEDLAYER-2
 10
2.601658
 20
6.547728
 30
0.000000
  0
SEQEND
  8
MERGEDLAYER-2
  0
POLYLINE
  8
MERGEDLAYER-2
 66
  1
 70
  1
 62
  7
  0
VERTEX
  8
MERGEDLAYER-2
 10
2.595270
 20
6.835711
 30
0.000000
  0
VERTEX
  8
MERGEDLAYER-2
 10
2.601658
 20
6.835711
 30
0.000000
  0
VERTEX
  8
MERGEDLAYER-2
 10
2.601658
 20
6.675543
 30
0.000000
  0
VERTEX
  8
MERGEDLAYER-2
 10
2.595270
 20
6.675543
 30
0.000000
  0
SEQEND
  8
MERGEDLAYER-2
  0
POLYLINE
  8
MERGEDLAYER-2
 66
  1
 70
  1
 62
  7
  0
VERTEX
  8
MERGEDLAYER-2
 10
2.601658
 20
8.239283
 30
0.000000
  0
VERTEX
  8
MERGEDLAYER-2
 10
2.608052
 20
8.239283
 30
0.000000
  0
VERTEX
  8
MERGEDLAYER-2
 10
2.608052
 20
8.079549
 30
0.000000
  0
VERTEX
  8
MERGEDLAYER-2
 10
2.601658
 20
8.079549
 30
0.000000
  0
SEQEND
  8
MERGEDLAYER-2
  0
POLYLINE
  8
MERGEDLAYER-2
 66
  1
 70
  1
 62
  7
  0
VERTEX
  8
MERGEDLAYER-2
 10
2.595270
 20
8.367100
 30
0.000000
  0
VERTEX
  8
MERGEDLAYER-2
 10
2.601658
 20
8.367100
 30
0.000000
  0
VERTEX
  8
MERGEDLAYER-2
 10
2.601658
 20
8.206940
 30
0.000000
  0
VERTEX
  8
MERGEDLAYER-2
 10
2.595270
 20
8.206940
 30
0.000000
  0
SEQEND
  8
MERGEDLAYER-2
  0
POLYLINE
  8
MERGEDLAYER-2
 66
  1
 70
  1
 62
  7
  0
VERTEX
  8
MERGEDLAYER-2
 10
2.601658
 20
7.984045
 30
0.000000
  0
VERTEX
  8
MERGEDLAYER-2
 10
2.608052
 20
7.984045
 30
0.000000
  0
VERTEX
  8
MERGEDLAYER-2
 10
2.608052
 20
7.824311
 30
0.000000
  0
VERTEX
  8
MERGEDLAYER-2
 10
2.601658
 20
7.824311
 30
0.000000
  0
SEQEND
  8
MERGEDLAYER-2
  0
POLYLINE
  8
MERGEDLAYER-2
 66
  1
 70
  1
 62
  7
  0
VERTEX
  8
MERGEDLAYER-2
 10
2.595270
 20
8.112296
 30
0.000000
  0
VERTEX
  8
MERGEDLAYER-2
 10
2.601658
 20
8.112296
 30
0.000000
  0
VERTEX
  8
MERGEDLAYER-2
 10
2.601658
 20
7.952570
 30
0.000000
  0
VERTEX
  8
MERGEDLAYER-2
 10
2.595270
 20
7.952570
 30
0.000000
  0
SEQEND
  8
MERGEDLAYER-2
  0
POLYLINE
  8
MERGEDLAYER-2
 66
  1
 70
  1
 62
  7
  0
VERTEX
  8
MERGEDLAYER-2
 10
2.601658
 20
7.728374
 30
0.000000
  0
VERTEX
  8
MERGEDLAYER-2
 10
2.608052
 20
7.728374
 30
0.000000
  0
VERTEX
  8
MERGEDLAYER-2
 10
2.608052
 20
7.569073
 30
0.000000
  0
VERTEX
  8
MERGEDLAYER-2
 10
2.601658
 20
7.569073
 30
0.000000
  0
SEQEND
  8
MERGEDLAYER-2
  0
POLYLINE
  8
MERGEDLAYER-2
 66
  1
 70
  1
 62
  7
  0
VERTEX
  8
MERGEDLAYER-2
 10
2.595270
 20
7.856190
 30
0.000000
  0
VERTEX
  8
MERGEDLAYER-2
 10
2.601658
 20
7.856190
 30
0.000000
  0
VERTEX
  8
MERGEDLAYER-2
 10
2.601658
 20
7.697766
 30
0.000000
  0
VERTEX
  8
MERGEDLAYER-2
 10
2.595270
 20
7.697766
 30
0.000000
  0
SEQEND
  8
MERGEDLAYER-2
  0
POLYLINE
  8
MERGEDLAYER-2
 66
  1
 70
  1
 62
  7
  0
VERTEX
  8
MERGEDLAYER-2
 10
2.601658
 20
7.474436
 30
0.000000
  0
VERTEX
  8
MERGEDLAYER-2
 10
2.608052
 20
7.474436
 30
0.000000
  0
VERTEX
  8
MERGEDLAYER-2
 10
2.608052
 20
7.314268
 30
0.000000
  0
VERTEX
  8
MERGEDLAYER-2
 10
2.601658
 20
7.314268
 30
0.000000
  0
SEQEND
  8
MERGEDLAYER-2
  0
POLYLINE
  8
MERGEDLAYER-2
 66
  1
 70
  1
 62
  7
  0
VERTEX
  8
MERGEDLAYER-2
 10
2.595270
 20
7.601385
 30
0.000000
  0
VERTEX
  8
MERGEDLAYER-2
 10
2.601658
 20
7.601385
 30
0.000000
  0
VERTEX
  8
MERGEDLAYER-2
 10
2.601658
 20
7.441659
 30
0.000000
  0
VERTEX
  8
MERGEDLAYER-2
 10
2.595270
 20
7.441659
 30
0.000000
  0
SEQEND
  8
MERGEDLAYER-2
  0
POLYLINE
  8
MERGEDLAYER-2
 66
  1
 70
  1
 62
  7
  0
VERTEX
  8
MERGEDLAYER-2
 10
2.601658
 20
7.219199
 30
0.000000
  0
VERTEX
  8
MERGEDLAYER-2
 10
2.608052
 20
7.219199
 30
0.000000
  0
VERTEX
  8
MERGEDLAYER-2
 10
2.608052
 20
7.058597
 30
0.000000
  0
VERTEX
  8
MERGEDLAYER-2
 10
2.601658
 20
7.058597
 30
0.000000
  0
SEQEND
  8
MERGEDLAYER-2
  0
POLYLINE
  8
MERGEDLAYER-2
 66
  1
 70
  1
 62
  7
  0
VERTEX
  8
MERGEDLAYER-2
 10
2.595270
 20
7.345714
 30
0.000000
  0
VERTEX
  8
MERGEDLAYER-2
 10
2.601658
 20
7.345714
 30
0.000000
  0
VERTEX
  8
MERGEDLAYER-2
 10
2.601658
 20
7.186421
 30
0.000000
  0
VERTEX
  8
MERGEDLAYER-2
 10
2.595270
 20
7.186421
 30
0.000000
  0
SEQEND
  8
MERGEDLAYER-2
  0
POLYLINE
  8
MERGEDLAYER-2
 66
  1
 70
  1
 62
  7
  0
VERTEX
  8
MERGEDLAYER-2
 10
2.601658
 20
6.963962
 30
0.000000
  0
VERTEX
  8
MERGEDLAYER-2
 10
2.608052
 20
6.963962
 30
0.000000
  0
VERTEX
  8
MERGEDLAYER-2
 10
2.608052
 20
6.802925
 30
0.000000
  0
VERTEX
  8
MERGEDLAYER-2
 10
2.601658
 20
6.802925
 30
0.000000
  0
SEQEND
  8
MERGEDLAYER-2
  0
POLYLINE
  8
MERGEDLAYER-2
 66
  1
 70
  1
 62
  7
  0
VERTEX
  8
MERGEDLAYER-2
 10
2.595270
 20
7.090475
 30
0.000000
  0
VERTEX
  8
MERGEDLAYER-2
 10
2.601658
 20
7.090475
 30
0.000000
  0
VERTEX
  8
MERGEDLAYER-2
 10
2.601658
 20
6.931183
 30
0.000000
  0
VERTEX
  8
MERGEDLAYER-2
 10
2.595270
 20
6.931183
 30
0.000000
  0
SEQEND
  8
MERGEDLAYER-2
  0
POLYLINE
  8
MERGEDLAYER-2
 66
  1
 70
  1
 62
  7
  0
VERTEX
  8
MERGEDLAYER-2
 10
3.061770
 20
4.535012
 30
0.000000
  0
VERTEX
  8
MERGEDLAYER-2
 10
3.068158
 20
4.535012
 30
0.000000
  0
VERTEX
  8
MERGEDLAYER-2
 10
3.068158
 20
4.384848
 30
0.000000
  0
VERTEX
  8
MERGEDLAYER-2
 10
3.061770
 20
4.384848
 30
0.000000
  0
SEQEND
  8
MERGEDLAYER-2
  0
POLYLINE
  8
MERGEDLAYER-2
 66
  1
 70
  1
 62
  7
  0
VERTEX
  8
MERGEDLAYER-2
 10
3.068158
 20
4.662403
 30
0.000000
  0
VERTEX
  8
MERGEDLAYER-2
 10
3.074552
 20
4.662403
 30
0.000000
  0
VERTEX
  8
MERGEDLAYER-2
 10
3.074552
 20
4.502669
 30
0.000000
  0
VERTEX
  8
MERGEDLAYER-2
 10
3.068158
 20
4.502669
 30
0.000000
  0
SEQEND
  8
MERGEDLAYER-2
  0
POLYLINE
  8
MERGEDLAYER-2
 66
  1
 70
  1
 62
  7
  0
VERTEX
  8
MERGEDLAYER-2
 10
3.061770
 20
4.790654
 30
0.000000
  0
VERTEX
  8
MERGEDLAYER-2
 10
3.068158
 20
4.790654
 30
0.000000
  0
VERTEX
  8
MERGEDLAYER-2
 10
3.068158
 20
4.630485
 30
0.000000
  0
VERTEX
  8
MERGEDLAYER-2
 10
3.061770
 20
4.630485
 30
0.000000
  0
SEQEND
  8
MERGEDLAYER-2
  0
POLYLINE
  8
MERGEDLAYER-2
 66
  1
 70
  1
 62
  7
  0
VERTEX
  8
MERGEDLAYER-2
 10
3.068158
 20
4.919772
 30
0.000000
  0
VERTEX
  8
MERGEDLAYER-2
 10
3.074552
 20
4.919772
 30
0.000000
  0
VERTEX
  8
MERGEDLAYER-2
 10
3.074552
 20
4.757867
 30
0.000000
  0
VERTEX
  8
MERGEDLAYER-2
 10
3.068158
 20
4.757867
 30
0.000000
  0
SEQEND
  8
MERGEDLAYER-2
  0
POLYLINE
  8
MERGEDLAYER-2
 66
  1
 70
  1
 62
  7
  0
VERTEX
  8
MERGEDLAYER-2
 10
3.061770
 20
5.045851
 30
0.000000
  0
VERTEX
  8
MERGEDLAYER-2
 10
3.068158
 20
5.045851
 30
0.000000
  0
VERTEX
  8
MERGEDLAYER-2
 10
3.068158
 20
4.886553
 30
0.000000
  0
VERTEX
  8
MERGEDLAYER-2
 10
3.061770
 20
4.886553
 30
0.000000
  0
SEQEND
  8
MERGEDLAYER-2
  0
POLYLINE
  8
MERGEDLAYER-2
 66
  1
 70
  1
 62
  7
  0
VERTEX
  8
MERGEDLAYER-2
 10
3.068158
 20
5.174103
 30
0.000000
  0
VERTEX
  8
MERGEDLAYER-2
 10
3.074552
 20
5.174103
 30
0.000000
  0
VERTEX
  8
MERGEDLAYER-2
 10
3.074552
 20
5.013499
 30
0.000000
  0
VERTEX
  8
MERGEDLAYER-2
 10
3.068158
 20
5.013499
 30
0.000000
  0
SEQEND
  8
MERGEDLAYER-2
  0
POLYLINE
  8
MERGEDLAYER-2
 66
  1
 70
  1
 62
  7
  0
VERTEX
  8
MERGEDLAYER-2
 10
3.061770
 20
5.301918
 30
0.000000
  0
VERTEX
  8
MERGEDLAYER-2
 10
3.068158
 20
5.301918
 30
0.000000
  0
VERTEX
  8
MERGEDLAYER-2
 10
3.068158
 20
5.140883
 30
0.000000
  0
VERTEX
  8
MERGEDLAYER-2
 10
3.061770
 20
5.140883
 30
0.000000
  0
SEQEND
  8
MERGEDLAYER-2
  0
POLYLINE
  8
MERGEDLAYER-2
 66
  1
 70
  1
 62
  7
  0
VERTEX
  8
MERGEDLAYER-2
 10
3.068158
 20
5.430169
 30
0.000000
  0
VERTEX
  8
MERGEDLAYER-2
 10
3.074552
 20
5.430169
 30
0.000000
  0
VERTEX
  8
MERGEDLAYER-2
 10
3.074552
 20
5.269131
 30
0.000000
  0
VERTEX
  8
MERGEDLAYER-2
 10
3.068158
 20
5.269131
 30
0.000000
  0
SEQEND
  8
MERGEDLAYER-2
  0
POLYLINE
  8
MERGEDLAYER-2
 66
  1
 70
  1
 62
  7
  0
VERTEX
  8
MERGEDLAYER-2
 10
3.061770
 20
5.557118
 30
0.000000
  0
VERTEX
  8
MERGEDLAYER-2
 10
3.068158
 20
5.557118
 30
0.000000
  0
VERTEX
  8
MERGEDLAYER-2
 10
3.068158
 20
5.396949
 30
0.000000
  0
VERTEX
  8
MERGEDLAYER-2
 10
3.061770
 20
5.396949
 30
0.000000
  0
SEQEND
  8
MERGEDLAYER-2
  0
POLYLINE
  8
MERGEDLAYER-2
 66
  1
 70
  1
 62
  7
  0
VERTEX
  8
MERGEDLAYER-2
 10
3.068158
 20
5.685367
 30
0.000000
  0
VERTEX
  8
MERGEDLAYER-2
 10
3.074552
 20
5.685367
 30
0.000000
  0
VERTEX
  8
MERGEDLAYER-2
 10
3.074552
 20
5.524765
 30
0.000000
  0
VERTEX
  8
MERGEDLAYER-2
 10
3.068158
 20
5.524765
 30
0.000000
  0
SEQEND
  8
MERGEDLAYER-2
  0
POLYLINE
  8
MERGEDLAYER-2
 66
  1
 70
  1
 62
  7
  0
VERTEX
  8
MERGEDLAYER-2
 10
3.061770
 20
5.813183
 30
0.000000
  0
VERTEX
  8
MERGEDLAYER-2
 10
3.068158
 20
5.813183
 30
0.000000
  0
VERTEX
  8
MERGEDLAYER-2
 10
3.068158
 20
5.653448
 30
0.000000
  0
VERTEX
  8
MERGEDLAYER-2
 10
3.061770
 20
5.653448
 30
0.000000
  0
SEQEND
  8
MERGEDLAYER-2
  0
POLYLINE
  8
MERGEDLAYER-2
 66
  1
 70
  1
 62
  7
  0
VERTEX
  8
MERGEDLAYER-2
 10
3.068158
 20
5.941868
 30
0.000000
  0
VERTEX
  8
MERGEDLAYER-2
 10
3.074552
 20
5.941868
 30
0.000000
  0
VERTEX
  8
MERGEDLAYER-2
 10
3.074552
 20
5.780829
 30
0.000000
  0
VERTEX
  8
MERGEDLAYER-2
 10
3.068158
 20
5.780829
 30
0.000000
  0
SEQEND
  8
MERGEDLAYER-2
  0
POLYLINE
  8
MERGEDLAYER-2
 66
  1
 70
  1
 62
  7
  0
VERTEX
  8
MERGEDLAYER-2
 10
3.061770
 20
6.069251
 30
0.000000
  0
VERTEX
  8
MERGEDLAYER-2
 10
3.068158
 20
6.069251
 30
0.000000
  0
VERTEX
  8
MERGEDLAYER-2
 10
3.068158
 20
5.908647
 30
0.000000
  0
VERTEX
  8
MERGEDLAYER-2
 10
3.061770
 20
5.908647
 30
0.000000
  0
SEQEND
  8
MERGEDLAYER-2
  0
POLYLINE
  8
MERGEDLAYER-2
 66
  1
 70
  1
 62
  7
  0
VERTEX
  8
MERGEDLAYER-2
 10
3.068158
 20
6.196632
 30
0.000000
  0
VERTEX
  8
MERGEDLAYER-2
 10
3.074552
 20
6.196632
 30
0.000000
  0
VERTEX
  8
MERGEDLAYER-2
 10
3.074552
 20
6.036464
 30
0.000000
  0
VERTEX
  8
MERGEDLAYER-2
 10
3.068158
 20
6.036464
 30
0.000000
  0
SEQEND
  8
MERGEDLAYER-2
  0
POLYLINE
  8
MERGEDLAYER-2
 66
  1
 70
  1
 62
  7
  0
VERTEX
  8
MERGEDLAYER-2
 10
3.061770
 20
6.323580
 30
0.000000
  0
VERTEX
  8
MERGEDLAYER-2
 10
3.068158
 20
6.323580
 30
0.000000
  0
VERTEX
  8
MERGEDLAYER-2
 10
3.068158
 20
6.163413
 30
0.000000
  0
VERTEX
  8
MERGEDLAYER-2
 10
3.061770
 20
6.163413
 30
0.000000
  0
SEQEND
  8
MERGEDLAYER-2
  0
POLYLINE
  8
MERGEDLAYER-2
 66
  1
 70
  1
 62
  7
  0
VERTEX
  8
MERGEDLAYER-2
 10
3.068158
 20
6.452265
 30
0.000000
  0
VERTEX
  8
MERGEDLAYER-2
 10
3.074552
 20
6.452265
 30
0.000000
  0
VERTEX
  8
MERGEDLAYER-2
 10
3.074552
 20
6.292529
 30
0.000000
  0
VERTEX
  8
MERGEDLAYER-2
 10
3.068158
 20
6.292529
 30
0.000000
  0
SEQEND
  8
MERGEDLAYER-2
  0
POLYLINE
  8
MERGEDLAYER-2
 66
  1
 70
  1
 62
  7
  0
VERTEX
  8
MERGEDLAYER-2
 10
3.061770
 20
6.580080
 30
0.000000
  0
VERTEX
  8
MERGEDLAYER-2
 10
3.068158
 20
6.580080
 30
0.000000
  0
VERTEX
  8
MERGEDLAYER-2
 10
3.068158
 20
6.419477
 30
0.000000
  0
VERTEX
  8
MERGEDLAYER-2
 10
3.061770
 20
6.419477
 30
0.000000
  0
SEQEND
  8
MERGEDLAYER-2
  0
POLYLINE
  8
MERGEDLAYER-2
 66
  1
 70
  1
 62
  7
  0
VERTEX
  8
MERGEDLAYER-2
 10
3.068158
 20
6.708329
 30
0.000000
  0
VERTEX
  8
MERGEDLAYER-2
 10
3.074552
 20
6.708329
 30
0.000000
  0
VERTEX
  8
MERGEDLAYER-2
 10
3.074552
 20
6.547728
 30
0.000000
  0
VERTEX
  8
MERGEDLAYER-2
 10
3.068158
 20
6.547728
 30
0.000000
  0
SEQEND
  8
MERGEDLAYER-2
  0
POLYLINE
  8
MERGEDLAYER-2
 66
  1
 70
  1
 62
  7
  0
VERTEX
  8
MERGEDLAYER-2
 10
3.061770
 20
6.835711
 30
0.000000
  0
VERTEX
  8
MERGEDLAYER-2
 10
3.068158
 20
6.835711
 30
0.000000
  0
VERTEX
  8
MERGEDLAYER-2
 10
3.068158
 20
6.675543
 30
0.000000
  0
VERTEX
  8
MERGEDLAYER-2
 10
3.061770
 20
6.675543
 30
0.000000
  0
SEQEND
  8
MERGEDLAYER-2
  0
POLYLINE
  8
MERGEDLAYER-2
 66
  1
 70
  1
 62
  7
  0
VERTEX
  8
MERGEDLAYER-2
 10
3.068158
 20
8.239283
 30
0.000000
  0
VERTEX
  8
MERGEDLAYER-2
 10
3.074552
 20
8.239283
 30
0.000000
  0
VERTEX
  8
MERGEDLAYER-2
 10
3.074552
 20
8.079549
 30
0.000000
  0
VERTEX
  8
MERGEDLAYER-2
 10
3.068158
 20
8.079549
 30
0.000000
  0
SEQEND
  8
MERGEDLAYER-2
  0
POLYLINE
  8
MERGEDLAYER-2
 66
  1
 70
  1
 62
  7
  0
VERTEX
  8
MERGEDLAYER-2
 10
3.061770
 20
8.367100
 30
0.000000
  0
VERTEX
  8
MERGEDLAYER-2
 10
3.068158
 20
8.367100
 30
0.000000
  0
VERTEX
  8
MERGEDLAYER-2
 10
3.068158
 20
8.206940
 30
0.000000
  0
VERTEX
  8
MERGEDLAYER-2
 10
3.061770
 20
8.206940
 30
0.000000
  0
SEQEND
  8
MERGEDLAYER-2
  0
POLYLINE
  8
MERGEDLAYER-2
 66
  1
 70
  1
 62
  7
  0
VERTEX
  8
MERGEDLAYER-2
 10
3.068158
 20
7.984045
 30
0.000000
  0
VERTEX
  8
MERGEDLAYER-2
 10
3.074552
 20
7.984045
 30
0.000000
  0
VERTEX
  8
MERGEDLAYER-2
 10
3.074552
 20
7.824311
 30
0.000000
  0
VERTEX
  8
MERGEDLAYER-2
 10
3.068158
 20
7.824311
 30
0.000000
  0
SEQEND
  8
MERGEDLAYER-2
  0
POLYLINE
  8
MERGEDLAYER-2
 66
  1
 70
  1
 62
  7
  0
VERTEX
  8
MERGEDLAYER-2
 10
3.061770
 20
8.112296
 30
0.000000
  0
VERTEX
  8
MERGEDLAYER-2
 10
3.068158
 20
8.112296
 30
0.000000
  0
VERTEX
  8
MERGEDLAYER-2
 10
3.068158
 20
7.952570
 30
0.000000
  0
VERTEX
  8
MERGEDLAYER-2
 10
3.061770
 20
7.952570
 30
0.000000
  0
SEQEND
  8
MERGEDLAYER-2
  0
POLYLINE
  8
MERGEDLAYER-2
 66
  1
 70
  1
 62
  7
  0
VERTEX
  8
MERGEDLAYER-2
 10
3.068158
 20
7.728374
 30
0.000000
  0
VERTEX
  8
MERGEDLAYER-2
 10
3.074552
 20
7.728374
 30
0.000000
  0
VERTEX
  8
MERGEDLAYER-2
 10
3.074552
 20
7.569073
 30
0.000000
  0
VERTEX
  8
MERGEDLAYER-2
 10
3.068158
 20
7.569073
 30
0.000000
  0
SEQEND
  8
MERGEDLAYER-2
  0
POLYLINE
  8
MERGEDLAYER-2
 66
  1
 70
  1
 62
  7
  0
VERTEX
  8
MERGEDLAYER-2
 10
3.061770
 20
7.856190
 30
0.000000
  0
VERTEX
  8
MERGEDLAYER-2
 10
3.068158
 20
7.856190
 30
0.000000
  0
VERTEX
  8
MERGEDLAYER-2
 10
3.068158
 20
7.697766
 30
0.000000
  0
VERTEX
  8
MERGEDLAYER-2
 10
3.061770
 20
7.697766
 30
0.000000
  0
SEQEND
  8
MERGEDLAYER-2
  0
POLYLINE
  8
MERGEDLAYER-2
 66
  1
 70
  1
 62
  7
  0
VERTEX
  8
MERGEDLAYER-2
 10
3.068158
 20
7.474436
 30
0.000000
  0
VERTEX
  8
MERGEDLAYER-2
 10
3.074552
 20
7.474436
 30
0.000000
  0
VERTEX
  8
MERGEDLAYER-2
 10
3.074552
 20
7.314268
 30
0.000000
  0
VERTEX
  8
MERGEDLAYER-2
 10
3.068158
 20
7.314268
 30
0.000000
  0
SEQEND
  8
MERGEDLAYER-2
  0
POLYLINE
  8
MERGEDLAYER-2
 66
  1
 70
  1
 62
  7
  0
VERTEX
  8
MERGEDLAYER-2
 10
3.061770
 20
7.601385
 30
0.000000
  0
VERTEX
  8
MERGEDLAYER-2
 10
3.068158
 20
7.601385
 30
0.000000
  0
VERTEX
  8
MERGEDLAYER-2
 10
3.068158
 20
7.441659
 30
0.000000
  0
VERTEX
  8
MERGEDLAYER-2
 10
3.061770
 20
7.441659
 30
0.000000
  0
SEQEND
  8
MERGEDLAYER-2
  0
POLYLINE
  8
MERGEDLAYER-2
 66
  1
 70
  1
 62
  7
  0
VERTEX
  8
MERGEDLAYER-2
 10
3.068158
 20
7.219199
 30
0.000000
  0
VERTEX
  8
MERGEDLAYER-2
 10
3.074552
 20
7.219199
 30
0.000000
  0
VERTEX
  8
MERGEDLAYER-2
 10
3.074552
 20
7.058597
 30
0.000000
  0
VERTEX
  8
MERGEDLAYER-2
 10
3.068158
 20
7.058597
 30
0.000000
  0
SEQEND
  8
MERGEDLAYER-2
  0
POLYLINE
  8
MERGEDLAYER-2
 66
  1
 70
  1
 62
  7
  0
VERTEX
  8
MERGEDLAYER-2
 10
3.061770
 20
7.345714
 30
0.000000
  0
VERTEX
  8
MERGEDLAYER-2
 10
3.068158
 20
7.345714
 30
0.000000
  0
VERTEX
  8
MERGEDLAYER-2
 10
3.068158
 20
7.186421
 30
0.000000
  0
VERTEX
  8
MERGEDLAYER-2
 10
3.061770
 20
7.186421
 30
0.000000
  0
SEQEND
  8
MERGEDLAYER-2
  0
POLYLINE
  8
MERGEDLAYER-2
 66
  1
 70
  1
 62
  7
  0
VERTEX
  8
MERGEDLAYER-2
 10
3.068158
 20
6.963962
 30
0.000000
  0
VERTEX
  8
MERGEDLAYER-2
 10
3.074552
 20
6.963962
 30
0.000000
  0
VERTEX
  8
MERGEDLAYER-2
 10
3.074552
 20
6.802925
 30
0.000000
  0
VERTEX
  8
MERGEDLAYER-2
 10
3.068158
 20
6.802925
 30
0.000000
  0
SEQEND
  8
MERGEDLAYER-2
  0
POLYLINE
  8
MERGEDLAYER-2
 66
  1
 70
  1
 62
  7
  0
VERTEX
  8
MERGEDLAYER-2
 10
3.061770
 20
7.090475
 30
0.000000
  0
VERTEX
  8
MERGEDLAYER-2
 10
3.068158
 20
7.090475
 30
0.000000
  0
VERTEX
  8
MERGEDLAYER-2
 10
3.068158
 20
6.931183
 30
0.000000
  0
VERTEX
  8
MERGEDLAYER-2
 10
3.061770
 20
6.931183
 30
0.000000
  0
SEQEND
  8
MERGEDLAYER-2
  0
POLYLINE
  8
MERGEDLAYER-2
 66
  1
 70
  1
 62
  7
  0
VERTEX
  8
MERGEDLAYER-2
 10
3.528270
 20
4.535012
 30
0.000000
  0
VERTEX
  8
MERGEDLAYER-2
 10
3.534658
 20
4.535012
 30
0.000000
  0
VERTEX
  8
MERGEDLAYER-2
 10
3.534658
 20
4.384848
 30
0.000000
  0
VERTEX
  8
MERGEDLAYER-2
 10
3.528270
 20
4.384848
 30
0.000000
  0
SEQEND
  8
MERGEDLAYER-2
  0
POLYLINE
  8
MERGEDLAYER-2
 66
  1
 70
  1
 62
  7
  0
VERTEX
  8
MERGEDLAYER-2
 10
3.534658
 20
4.662403
 30
0.000000
  0
VERTEX
  8
MERGEDLAYER-2
 10
3.541052
 20
4.662403
 30
0.000000
  0
VERTEX
  8
MERGEDLAYER-2
 10
3.541052
 20
4.502669
 30
0.000000
  0
VERTEX
  8
MERGEDLAYER-2
 10
3.534658
 20
4.502669
 30
0.000000
  0
SEQEND
  8
MERGEDLAYER-2
  0
POLYLINE
  8
MERGEDLAYER-2
 66
  1
 70
  1
 62
  7
  0
VERTEX
  8
MERGEDLAYER-2
 10
3.528270
 20
4.790654
 30
0.000000
  0
VERTEX
  8
MERGEDLAYER-2
 10
3.534658
 20
4.790654
 30
0.000000
  0
VERTEX
  8
MERGEDLAYER-2
 10
3.534658
 20
4.630485
 30
0.000000
  0
VERTEX
  8
MERGEDLAYER-2
 10
3.528270
 20
4.630485
 30
0.000000
  0
SEQEND
  8
MERGEDLAYER-2
  0
POLYLINE
  8
MERGEDLAYER-2
 66
  1
 70
  1
 62
  7
  0
VERTEX
  8
MERGEDLAYER-2
 10
3.534658
 20
4.919772
 30
0.000000
  0
VERTEX
  8
MERGEDLAYER-2
 10
3.541052
 20
4.919772
 30
0.000000
  0
VERTEX
  8
MERGEDLAYER-2
 10
3.541052
 20
4.757867
 30
0.000000
  0
VERTEX
  8
MERGEDLAYER-2
 10
3.534658
 20
4.757867
 30
0.000000
  0
SEQEND
  8
MERGEDLAYER-2
  0
POLYLINE
  8
MERGEDLAYER-2
 66
  1
 70
  1
 62
  7
  0
VERTEX
  8
MERGEDLAYER-2
 10
3.528270
 20
5.045851
 30
0.000000
  0
VERTEX
  8
MERGEDLAYER-2
 10
3.534658
 20
5.045851
 30
0.000000
  0
VERTEX
  8
MERGEDLAYER-2
 10
3.534658
 20
4.886553
 30
0.000000
  0
VERTEX
  8
MERGEDLAYER-2
 10
3.528270
 20
4.886553
 30
0.000000
  0
SEQEND
  8
MERGEDLAYER-2
  0
POLYLINE
  8
MERGEDLAYER-2
 66
  1
 70
  1
 62
  7
  0
VERTEX
  8
MERGEDLAYER-2
 10
3.534658
 20
5.174103
 30
0.000000
  0
VERTEX
  8
MERGEDLAYER-2
 10
3.541052
 20
5.174103
 30
0.000000
  0
VERTEX
  8
MERGEDLAYER-2
 10
3.541052
 20
5.013499
 30
0.000000
  0
VERTEX
  8
MERGEDLAYER-2
 10
3.534658
 20
5.013499
 30
0.000000
  0
SEQEND
  8
MERGEDLAYER-2
  0
POLYLINE
  8
MERGEDLAYER-2
 66
  1
 70
  1
 62
  7
  0
VERTEX
  8
MERGEDLAYER-2
 10
3.528270
 20
5.301918
 30
0.000000
  0
VERTEX
  8
MERGEDLAYER-2
 10
3.534658
 20
5.301918
 30
0.000000
  0
VERTEX
  8
MERGEDLAYER-2
 10
3.534658
 20
5.140883
 30
0.000000
  0
VERTEX
  8
MERGEDLAYER-2
 10
3.528270
 20
5.140883
 30
0.000000
  0
SEQEND
  8
MERGEDLAYER-2
  0
POLYLINE
  8
MERGEDLAYER-2
 66
  1
 70
  1
 62
  7
  0
VERTEX
  8
MERGEDLAYER-2
 10
3.534658
 20
5.430169
 30
0.000000
  0
VERTEX
  8
MERGEDLAYER-2
 10
3.541052
 20
5.430169
 30
0.000000
  0
VERTEX
  8
MERGEDLAYER-2
 10
3.541052
 20
5.269131
 30
0.000000
  0
VERTEX
  8
MERGEDLAYER-2
 10
3.534658
 20
5.269131
 30
0.000000
  0
SEQEND
  8
MERGEDLAYER-2
  0
POLYLINE
  8
MERGEDLAYER-2
 66
  1
 70
  1
 62
  7
  0
VERTEX
  8
MERGEDLAYER-2
 10
3.528270
 20
5.557118
 30
0.000000
  0
VERTEX
  8
MERGEDLAYER-2
 10
3.534658
 20
5.557118
 30
0.000000
  0
VERTEX
  8
MERGEDLAYER-2
 10
3.534658
 20
5.396949
 30
0.000000
  0
VERTEX
  8
MERGEDLAYER-2
 10
3.528270
 20
5.396949
 30
0.000000
  0
SEQEND
  8
MERGEDLAYER-2
  0
POLYLINE
  8
MERGEDLAYER-2
 66
  1
 70
  1
 62
  7
  0
VERTEX
  8
MERGEDLAYER-2
 10
3.534658
 20
5.685367
 30
0.000000
  0
VERTEX
  8
MERGEDLAYER-2
 10
3.541052
 20
5.685367
 30
0.000000
  0
VERTEX
  8
MERGEDLAYER-2
 10
3.541052
 20
5.524765
 30
0.000000
  0
VERTEX
  8
MERGEDLAYER-2
 10
3.534658
 20
5.524765
 30
0.000000
  0
SEQEND
  8
MERGEDLAYER-2
  0
POLYLINE
  8
MERGEDLAYER-2
 66
  1
 70
  1
 62
  7
  0
VERTEX
  8
MERGEDLAYER-2
 10
3.528270
 20
5.813183
 30
0.000000
  0
VERTEX
  8
MERGEDLAYER-2
 10
3.534658
 20
5.813183
 30
0.000000
  0
VERTEX
  8
MERGEDLAYER-2
 10
3.534658
 20
5.653448
 30
0.000000
  0
VERTEX
  8
MERGEDLAYER-2
 10
3.528270
 20
5.653448
 30
0.000000
  0
SEQEND
  8
MERGEDLAYER-2
  0
POLYLINE
  8
MERGEDLAYER-2
 66
  1
 70
  1
 62
  7
  0
VERTEX
  8
MERGEDLAYER-2
 10
3.534658
 20
5.941868
 30
0.000000
  0
VERTEX
  8
MERGEDLAYER-2
 10
3.541052
 20
5.941868
 30
0.000000
  0
VERTEX
  8
MERGEDLAYER-2
 10
3.541052
 20
5.780829
 30
0.000000
  0
VERTEX
  8
MERGEDLAYER-2
 10
3.534658
 20
5.780829
 30
0.000000
  0
SEQEND
  8
MERGEDLAYER-2
  0
POLYLINE
  8
MERGEDLAYER-2
 66
  1
 70
  1
 62
  7
  0
VERTEX
  8
MERGEDLAYER-2
 10
3.528270
 20
6.069251
 30
0.000000
  0
VERTEX
  8
MERGEDLAYER-2
 10
3.534658
 20
6.069251
 30
0.000000
  0
VERTEX
  8
MERGEDLAYER-2
 10
3.534658
 20
5.908647
 30
0.000000
  0
VERTEX
  8
MERGEDLAYER-2
 10
3.528270
 20
5.908647
 30
0.000000
  0
SEQEND
  8
MERGEDLAYER-2
  0
POLYLINE
  8
MERGEDLAYER-2
 66
  1
 70
  1
 62
  7
  0
VERTEX
  8
MERGEDLAYER-2
 10
3.534658
 20
6.196632
 30
0.000000
  0
VERTEX
  8
MERGEDLAYER-2
 10
3.541052
 20
6.196632
 30
0.000000
  0
VERTEX
  8
MERGEDLAYER-2
 10
3.541052
 20
6.036464
 30
0.000000
  0
VERTEX
  8
MERGEDLAYER-2
 10
3.534658
 20
6.036464
 30
0.000000
  0
SEQEND
  8
MERGEDLAYER-2
  0
POLYLINE
  8
MERGEDLAYER-2
 66
  1
 70
  1
 62
  7
  0
VERTEX
  8
MERGEDLAYER-2
 10
3.528270
 20
6.323580
 30
0.000000
  0
VERTEX
  8
MERGEDLAYER-2
 10
3.534658
 20
6.323580
 30
0.000000
  0
VERTEX
  8
MERGEDLAYER-2
 10
3.534658
 20
6.163413
 30
0.000000
  0
VERTEX
  8
MERGEDLAYER-2
 10
3.528270
 20
6.163413
 30
0.000000
  0
SEQEND
  8
MERGEDLAYER-2
  0
POLYLINE
  8
MERGEDLAYER-2
 66
  1
 70
  1
 62
  7
  0
VERTEX
  8
MERGEDLAYER-2
 10
3.534658
 20
6.452265
 30
0.000000
  0
VERTEX
  8
MERGEDLAYER-2
 10
3.541052
 20
6.452265
 30
0.000000
  0
VERTEX
  8
MERGEDLAYER-2
 10
3.541052
 20
6.292529
 30
0.000000
  0
VERTEX
  8
MERGEDLAYER-2
 10
3.534658
 20
6.292529
 30
0.000000
  0
SEQEND
  8
MERGEDLAYER-2
  0
POLYLINE
  8
MERGEDLAYER-2
 66
  1
 70
  1
 62
  7
  0
VERTEX
  8
MERGEDLAYER-2
 10
3.528270
 20
6.580080
 30
0.000000
  0
VERTEX
  8
MERGEDLAYER-2
 10
3.534658
 20
6.580080
 30
0.000000
  0
VERTEX
  8
MERGEDLAYER-2
 10
3.534658
 20
6.419477
 30
0.000000
  0
VERTEX
  8
MERGEDLAYER-2
 10
3.528270
 20
6.419477
 30
0.000000
  0
SEQEND
  8
MERGEDLAYER-2
  0
POLYLINE
  8
MERGEDLAYER-2
 66
  1
 70
  1
 62
  7
  0
VERTEX
  8
MERGEDLAYER-2
 10
3.534658
 20
6.708329
 30
0.000000
  0
VERTEX
  8
MERGEDLAYER-2
 10
3.541052
 20
6.708329
 30
0.000000
  0
VERTEX
  8
MERGEDLAYER-2
 10
3.541052
 20
6.547728
 30
0.000000
  0
VERTEX
  8
MERGEDLAYER-2
 10
3.534658
 20
6.547728
 30
0.000000
  0
SEQEND
  8
MERGEDLAYER-2
  0
POLYLINE
  8
MERGEDLAYER-2
 66
  1
 70
  1
 62
  7
  0
VERTEX
  8
MERGEDLAYER-2
 10
3.528270
 20
6.835711
 30
0.000000
  0
VERTEX
  8
MERGEDLAYER-2
 10
3.534658
 20
6.835711
 30
0.000000
  0
VERTEX
  8
MERGEDLAYER-2
 10
3.534658
 20
6.675543
 30
0.000000
  0
VERTEX
  8
MERGEDLAYER-2
 10
3.528270
 20
6.675543
 30
0.000000
  0
SEQEND
  8
MERGEDLAYER-2
  0
POLYLINE
  8
MERGEDLAYER-2
 66
  1
 70
  1
 62
  7
  0
VERTEX
  8
MERGEDLAYER-2
 10
3.534658
 20
8.239283
 30
0.000000
  0
VERTEX
  8
MERGEDLAYER-2
 10
3.541052
 20
8.239283
 30
0.000000
  0
VERTEX
  8
MERGEDLAYER-2
 10
3.541052
 20
8.079549
 30
0.000000
  0
VERTEX
  8
MERGEDLAYER-2
 10
3.534658
 20
8.079549
 30
0.000000
  0
SEQEND
  8
MERGEDLAYER-2
  0
POLYLINE
  8
MERGEDLAYER-2
 66
  1
 70
  1
 62
  7
  0
VERTEX
  8
MERGEDLAYER-2
 10
3.528270
 20
8.367100
 30
0.000000
  0
VERTEX
  8
MERGEDLAYER-2
 10
3.534658
 20
8.367100
 30
0.000000
  0
VERTEX
  8
MERGEDLAYER-2
 10
3.534658
 20
8.206940
 30
0.000000
  0
VERTEX
  8
MERGEDLAYER-2
 10
3.528270
 20
8.206940
 30
0.000000
  0
SEQEND
  8
MERGEDLAYER-2
  0
POLYLINE
  8
MERGEDLAYER-2
 66
  1
 70
  1
 62
  7
  0
VERTEX
  8
MERGEDLAYER-2
 10
3.534658
 20
7.984045
 30
0.000000
  0
VERTEX
  8
MERGEDLAYER-2
 10
3.541052
 20
7.984045
 30
0.000000
  0
VERTEX
  8
MERGEDLAYER-2
 10
3.541052
 20
7.824311
 30
0.000000
  0
VERTEX
  8
MERGEDLAYER-2
 10
3.534658
 20
7.824311
 30
0.000000
  0
SEQEND
  8
MERGEDLAYER-2
  0
POLYLINE
  8
MERGEDLAYER-2
 66
  1
 70
  1
 62
  7
  0
VERTEX
  8
MERGEDLAYER-2
 10
3.528270
 20
8.112296
 30
0.000000
  0
VERTEX
  8
MERGEDLAYER-2
 10
3.534658
 20
8.112296
 30
0.000000
  0
VERTEX
  8
MERGEDLAYER-2
 10
3.534658
 20
7.952570
 30
0.000000
  0
VERTEX
  8
MERGEDLAYER-2
 10
3.528270
 20
7.952570
 30
0.000000
  0
SEQEND
  8
MERGEDLAYER-2
  0
POLYLINE
  8
MERGEDLAYER-2
 66
  1
 70
  1
 62
  7
  0
VERTEX
  8
MERGEDLAYER-2
 10
3.534658
 20
7.728374
 30
0.000000
  0
VERTEX
  8
MERGEDLAYER-2
 10
3.541052
 20
7.728374
 30
0.000000
  0
VERTEX
  8
MERGEDLAYER-2
 10
3.541052
 20
7.569073
 30
0.000000
  0
VERTEX
  8
MERGEDLAYER-2
 10
3.534658
 20
7.569073
 30
0.000000
  0
SEQEND
  8
MERGEDLAYER-2
  0
POLYLINE
  8
MERGEDLAYER-2
 66
  1
 70
  1
 62
  7
  0
VERTEX
  8
MERGEDLAYER-2
 10
3.528270
 20
7.856190
 30
0.000000
  0
VERTEX
  8
MERGEDLAYER-2
 10
3.534658
 20
7.856190
 30
0.000000
  0
VERTEX
  8
MERGEDLAYER-2
 10
3.534658
 20
7.697766
 30
0.000000
  0
VERTEX
  8
MERGEDLAYER-2
 10
3.528270
 20
7.697766
 30
0.000000
  0
SEQEND
  8
MERGEDLAYER-2
  0
POLYLINE
  8
MERGEDLAYER-2
 66
  1
 70
  1
 62
  7
  0
VERTEX
  8
MERGEDLAYER-2
 10
3.534658
 20
7.474436
 30
0.000000
  0
VERTEX
  8
MERGEDLAYER-2
 10
3.541052
 20
7.474436
 30
0.000000
  0
VERTEX
  8
MERGEDLAYER-2
 10
3.541052
 20
7.314268
 30
0.000000
  0
VERTEX
  8
MERGEDLAYER-2
 10
3.534658
 20
7.314268
 30
0.000000
  0
SEQEND
  8
MERGEDLAYER-2
  0
POLYLINE
  8
MERGEDLAYER-2
 66
  1
 70
  1
 62
  7
  0
VERTEX
  8
MERGEDLAYER-2
 10
3.528270
 20
7.601385
 30
0.000000
  0
VERTEX
  8
MERGEDLAYER-2
 10
3.534658
 20
7.601385
 30
0.000000
  0
VERTEX
  8
MERGEDLAYER-2
 10
3.534658
 20
7.441659
 30
0.000000
  0
VERTEX
  8
MERGEDLAYER-2
 10
3.528270
 20
7.441659
 30
0.000000
  0
SEQEND
  8
MERGEDLAYER-2
  0
POLYLINE
  8
MERGEDLAYER-2
 66
  1
 70
  1
 62
  7
  0
VERTEX
  8
MERGEDLAYER-2
 10
3.534658
 20
7.219199
 30
0.000000
  0
VERTEX
  8
MERGEDLAYER-2
 10
3.541052
 20
7.219199
 30
0.000000
  0
VERTEX
  8
MERGEDLAYER-2
 10
3.541052
 20
7.058597
 30
0.000000
  0
VERTEX
  8
MERGEDLAYER-2
 10
3.534658
 20
7.058597
 30
0.000000
  0
SEQEND
  8
MERGEDLAYER-2
  0
POLYLINE
  8
MERGEDLAYER-2
 66
  1
 70
  1
 62
  7
  0
VERTEX
  8
MERGEDLAYER-2
 10
3.528270
 20
7.345714
 30
0.000000
  0
VERTEX
  8
MERGEDLAYER-2
 10
3.534658
 20
7.345714
 30
0.000000
  0
VERTEX
  8
MERGEDLAYER-2
 10
3.534658
 20
7.186421
 30
0.000000
  0
VERTEX
  8
MERGEDLAYER-2
 10
3.528270
 20
7.186421
 30
0.000000
  0
SEQEND
  8
MERGEDLAYER-2
  0
POLYLINE
  8
MERGEDLAYER-2
 66
  1
 70
  1
 62
  7
  0
VERTEX
  8
MERGEDLAYER-2
 10
3.534658
 20
6.963962
 30
0.000000
  0
VERTEX
  8
MERGEDLAYER-2
 10
3.541052
 20
6.963962
 30
0.000000
  0
VERTEX
  8
MERGEDLAYER-2
 10
3.541052
 20
6.802925
 30
0.000000
  0
VERTEX
  8
MERGEDLAYER-2
 10
3.534658
 20
6.802925
 30
0.000000
  0
SEQEND
  8
MERGEDLAYER-2
  0
POLYLINE
  8
MERGEDLAYER-2
 66
  1
 70
  1
 62
  7
  0
VERTEX
  8
MERGEDLAYER-2
 10
3.528270
 20
7.090475
 30
0.000000
  0
VERTEX
  8
MERGEDLAYER-2
 10
3.534658
 20
7.090475
 30
0.000000
  0
VERTEX
  8
MERGEDLAYER-2
 10
3.534658
 20
6.931183
 30
0.000000
  0
VERTEX
  8
MERGEDLAYER-2
 10
3.528270
 20
6.931183
 30
0.000000
  0
SEQEND
  8
MERGEDLAYER-2
  0
POLYLINE
  8
MERGEDLAYER-2
 66
  1
 70
  1
 62
  7
  0
VERTEX
  8
MERGEDLAYER-2
 10
3.994770
 20
4.535012
 30
0.000000
  0
VERTEX
  8
MERGEDLAYER-2
 10
4.001158
 20
4.535012
 30
0.000000
  0
VERTEX
  8
MERGEDLAYER-2
 10
4.001158
 20
4.384848
 30
0.000000
  0
VERTEX
  8
MERGEDLAYER-2
 10
3.994770
 20
4.384848
 30
0.000000
  0
SEQEND
  8
MERGEDLAYER-2
  0
POLYLINE
  8
MERGEDLAYER-2
 66
  1
 70
  1
 62
  7
  0
VERTEX
  8
MERGEDLAYER-2
 10
4.001158
 20
4.662403
 30
0.000000
  0
VERTEX
  8
MERGEDLAYER-2
 10
4.007551
 20
4.662403
 30
0.000000
  0
VERTEX
  8
MERGEDLAYER-2
 10
4.007551
 20
4.502669
 30
0.000000
  0
VERTEX
  8
MERGEDLAYER-2
 10
4.001158
 20
4.502669
 30
0.000000
  0
SEQEND
  8
MERGEDLAYER-2
  0
POLYLINE
  8
MERGEDLAYER-2
 66
  1
 70
  1
 62
  7
  0
VERTEX
  8
MERGEDLAYER-2
 10
3.994770
 20
4.790654
 30
0.000000
  0
VERTEX
  8
MERGEDLAYER-2
 10
4.001158
 20
4.790654
 30
0.000000
  0
VERTEX
  8
MERGEDLAYER-2
 10
4.001158
 20
4.630485
 30
0.000000
  0
VERTEX
  8
MERGEDLAYER-2
 10
3.994770
 20
4.630485
 30
0.000000
  0
SEQEND
  8
MERGEDLAYER-2
  0
POLYLINE
  8
MERGEDLAYER-2
 66
  1
 70
  1
 62
  7
  0
VERTEX
  8
MERGEDLAYER-2
 10
4.001158
 20
4.919772
 30
0.000000
  0
VERTEX
  8
MERGEDLAYER-2
 10
4.007551
 20
4.919772
 30
0.000000
  0
VERTEX
  8
MERGEDLAYER-2
 10
4.007551
 20
4.757867
 30
0.000000
  0
VERTEX
  8
MERGEDLAYER-2
 10
4.001158
 20
4.757867
 30
0.000000
  0
SEQEND
  8
MERGEDLAYER-2
  0
POLYLINE
  8
MERGEDLAYER-2
 66
  1
 70
  1
 62
  7
  0
VERTEX
  8
MERGEDLAYER-2
 10
3.994770
 20
5.045851
 30
0.000000
  0
VERTEX
  8
MERGEDLAYER-2
 10
4.001158
 20
5.045851
 30
0.000000
  0
VERTEX
  8
MERGEDLAYER-2
 10
4.001158
 20
4.886553
 30
0.000000
  0
VERTEX
  8
MERGEDLAYER-2
 10
3.994770
 20
4.886553
 30
0.000000
  0
SEQEND
  8
MERGEDLAYER-2
  0
POLYLINE
  8
MERGEDLAYER-2
 66
  1
 70
  1
 62
  7
  0
VERTEX
  8
MERGEDLAYER-2
 10
4.001158
 20
5.174103
 30
0.000000
  0
VERTEX
  8
MERGEDLAYER-2
 10
4.007551
 20
5.174103
 30
0.000000
  0
VERTEX
  8
MERGEDLAYER-2
 10
4.007551
 20
5.013499
 30
0.000000
  0
VERTEX
  8
MERGEDLAYER-2
 10
4.001158
 20
5.013499
 30
0.000000
  0
SEQEND
  8
MERGEDLAYER-2
  0
POLYLINE
  8
MERGEDLAYER-2
 66
  1
 70
  1
 62
  7
  0
VERTEX
  8
MERGEDLAYER-2
 10
3.994770
 20
5.301918
 30
0.000000
  0
VERTEX
  8
MERGEDLAYER-2
 10
4.001158
 20
5.301918
 30
0.000000
  0
VERTEX
  8
MERGEDLAYER-2
 10
4.001158
 20
5.140883
 30
0.000000
  0
VERTEX
  8
MERGEDLAYER-2
 10
3.994770
 20
5.140883
 30
0.000000
  0
SEQEND
  8
MERGEDLAYER-2
  0
POLYLINE
  8
MERGEDLAYER-2
 66
  1
 70
  1
 62
  7
  0
VERTEX
  8
MERGEDLAYER-2
 10
4.001158
 20
5.430169
 30
0.000000
  0
VERTEX
  8
MERGEDLAYER-2
 10
4.007551
 20
5.430169
 30
0.000000
  0
VERTEX
  8
MERGEDLAYER-2
 10
4.007551
 20
5.269131
 30
0.000000
  0
VERTEX
  8
MERGEDLAYER-2
 10
4.001158
 20
5.269131
 30
0.000000
  0
SEQEND
  8
MERGEDLAYER-2
  0
POLYLINE
  8
MERGEDLAYER-2
 66
  1
 70
  1
 62
  7
  0
VERTEX
  8
MERGEDLAYER-2
 10
3.994770
 20
5.557118
 30
0.000000
  0
VERTEX
  8
MERGEDLAYER-2
 10
4.001158
 20
5.557118
 30
0.000000
  0
VERTEX
  8
MERGEDLAYER-2
 10
4.001158
 20
5.396949
 30
0.000000
  0
VERTEX
  8
MERGEDLAYER-2
 10
3.994770
 20
5.396949
 30
0.000000
  0
SEQEND
  8
MERGEDLAYER-2
  0
POLYLINE
  8
MERGEDLAYER-2
 66
  1
 70
  1
 62
  7
  0
VERTEX
  8
MERGEDLAYER-2
 10
4.001158
 20
5.685367
 30
0.000000
  0
VERTEX
  8
MERGEDLAYER-2
 10
4.007551
 20
5.685367
 30
0.000000
  0
VERTEX
  8
MERGEDLAYER-2
 10
4.007551
 20
5.524765
 30
0.000000
  0
VERTEX
  8
MERGEDLAYER-2
 10
4.001158
 20
5.524765
 30
0.000000
  0
SEQEND
  8
MERGEDLAYER-2
  0
POLYLINE
  8
MERGEDLAYER-2
 66
  1
 70
  1
 62
  7
  0
VERTEX
  8
MERGEDLAYER-2
 10
3.994770
 20
5.813183
 30
0.000000
  0
VERTEX
  8
MERGEDLAYER-2
 10
4.001158
 20
5.813183
 30
0.000000
  0
VERTEX
  8
MERGEDLAYER-2
 10
4.001158
 20
5.653448
 30
0.000000
  0
VERTEX
  8
MERGEDLAYER-2
 10
3.994770
 20
5.653448
 30
0.000000
  0
SEQEND
  8
MERGEDLAYER-2
  0
POLYLINE
  8
MERGEDLAYER-2
 66
  1
 70
  1
 62
  7
  0
VERTEX
  8
MERGEDLAYER-2
 10
4.001158
 20
5.941868
 30
0.000000
  0
VERTEX
  8
MERGEDLAYER-2
 10
4.007551
 20
5.941868
 30
0.000000
  0
VERTEX
  8
MERGEDLAYER-2
 10
4.007551
 20
5.780829
 30
0.000000
  0
VERTEX
  8
MERGEDLAYER-2
 10
4.001158
 20
5.780829
 30
0.000000
  0
SEQEND
  8
MERGEDLAYER-2
  0
POLYLINE
  8
MERGEDLAYER-2
 66
  1
 70
  1
 62
  7
  0
VERTEX
  8
MERGEDLAYER-2
 10
3.994770
 20
6.069251
 30
0.000000
  0
VERTEX
  8
MERGEDLAYER-2
 10
4.001158
 20
6.069251
 30
0.000000
  0
VERTEX
  8
MERGEDLAYER-2
 10
4.001158
 20
5.908647
 30
0.000000
  0
VERTEX
  8
MERGEDLAYER-2
 10
3.994770
 20
5.908647
 30
0.000000
  0
SEQEND
  8
MERGEDLAYER-2
  0
POLYLINE
  8
MERGEDLAYER-2
 66
  1
 70
  1
 62
  7
  0
VERTEX
  8
MERGEDLAYER-2
 10
4.001158
 20
6.196632
 30
0.000000
  0
VERTEX
  8
MERGEDLAYER-2
 10
4.007551
 20
6.196632
 30
0.000000
  0
VERTEX
  8
MERGEDLAYER-2
 10
4.007551
 20
6.036464
 30
0.000000
  0
VERTEX
  8
MERGEDLAYER-2
 10
4.001158
 20
6.036464
 30
0.000000
  0
SEQEND
  8
MERGEDLAYER-2
  0
POLYLINE
  8
MERGEDLAYER-2
 66
  1
 70
  1
 62
  7
  0
VERTEX
  8
MERGEDLAYER-2
 10
3.994770
 20
6.323580
 30
0.000000
  0
VERTEX
  8
MERGEDLAYER-2
 10
4.001158
 20
6.323580
 30
0.000000
  0
VERTEX
  8
MERGEDLAYER-2
 10
4.001158
 20
6.163413
 30
0.000000
  0
VERTEX
  8
MERGEDLAYER-2
 10
3.994770
 20
6.163413
 30
0.000000
  0
SEQEND
  8
MERGEDLAYER-2
  0
POLYLINE
  8
MERGEDLAYER-2
 66
  1
 70
  1
 62
  7
  0
VERTEX
  8
MERGEDLAYER-2
 10
4.001158
 20
6.452265
 30
0.000000
  0
VERTEX
  8
MERGEDLAYER-2
 10
4.007551
 20
6.452265
 30
0.000000
  0
VERTEX
  8
MERGEDLAYER-2
 10
4.007551
 20
6.292529
 30
0.000000
  0
VERTEX
  8
MERGEDLAYER-2
 10
4.001158
 20
6.292529
 30
0.000000
  0
SEQEND
  8
MERGEDLAYER-2
  0
POLYLINE
  8
MERGEDLAYER-2
 66
  1
 70
  1
 62
  7
  0
VERTEX
  8
MERGEDLAYER-2
 10
3.994770
 20
6.580080
 30
0.000000
  0
VERTEX
  8
MERGEDLAYER-2
 10
4.001158
 20
6.580080
 30
0.000000
  0
VERTEX
  8
MERGEDLAYER-2
 10
4.001158
 20
6.419477
 30
0.000000
  0
VERTEX
  8
MERGEDLAYER-2
 10
3.994770
 20
6.419477
 30
0.000000
  0
SEQEND
  8
MERGEDLAYER-2
  0
POLYLINE
  8
MERGEDLAYER-2
 66
  1
 70
  1
 62
  7
  0
VERTEX
  8
MERGEDLAYER-2
 10
4.001158
 20
6.708329
 30
0.000000
  0
VERTEX
  8
MERGEDLAYER-2
 10
4.007551
 20
6.708329
 30
0.000000
  0
VERTEX
  8
MERGEDLAYER-2
 10
4.007551
 20
6.547728
 30
0.000000
  0
VERTEX
  8
MERGEDLAYER-2
 10
4.001158
 20
6.547728
 30
0.000000
  0
SEQEND
  8
MERGEDLAYER-2
  0
POLYLINE
  8
MERGEDLAYER-2
 66
  1
 70
  1
 62
  7
  0
VERTEX
  8
MERGEDLAYER-2
 10
3.994770
 20
6.835711
 30
0.000000
  0
VERTEX
  8
MERGEDLAYER-2
 10
4.001158
 20
6.835711
 30
0.000000
  0
VERTEX
  8
MERGEDLAYER-2
 10
4.001158
 20
6.675543
 30
0.000000
  0
VERTEX
  8
MERGEDLAYER-2
 10
3.994770
 20
6.675543
 30
0.000000
  0
SEQEND
  8
MERGEDLAYER-2
  0
POLYLINE
  8
MERGEDLAYER-2
 66
  1
 70
  1
 62
  7
  0
VERTEX
  8
MERGEDLAYER-2
 10
4.001158
 20
8.239283
 30
0.000000
  0
VERTEX
  8
MERGEDLAYER-2
 10
4.007551
 20
8.239283
 30
0.000000
  0
VERTEX
  8
MERGEDLAYER-2
 10
4.007551
 20
8.079549
 30
0.000000
  0
VERTEX
  8
MERGEDLAYER-2
 10
4.001158
 20
8.079549
 30
0.000000
  0
SEQEND
  8
MERGEDLAYER-2
  0
POLYLINE
  8
MERGEDLAYER-2
 66
  1
 70
  1
 62
  7
  0
VERTEX
  8
MERGEDLAYER-2
 10
3.994770
 20
8.367100
 30
0.000000
  0
VERTEX
  8
MERGEDLAYER-2
 10
4.001158
 20
8.367100
 30
0.000000
  0
VERTEX
  8
MERGEDLAYER-2
 10
4.001158
 20
8.206940
 30
0.000000
  0
VERTEX
  8
MERGEDLAYER-2
 10
3.994770
 20
8.206940
 30
0.000000
  0
SEQEND
  8
MERGEDLAYER-2
  0
POLYLINE
  8
MERGEDLAYER-2
 66
  1
 70
  1
 62
  7
  0
VERTEX
  8
MERGEDLAYER-2
 10
4.001158
 20
7.984045
 30
0.000000
  0
VERTEX
  8
MERGEDLAYER-2
 10
4.007551
 20
7.984045
 30
0.000000
  0
VERTEX
  8
MERGEDLAYER-2
 10
4.007551
 20
7.824311
 30
0.000000
  0
VERTEX
  8
MERGEDLAYER-2
 10
4.001158
 20
7.824311
 30
0.000000
  0
SEQEND
  8
MERGEDLAYER-2
  0
POLYLINE
  8
MERGEDLAYER-2
 66
  1
 70
  1
 62
  7
  0
VERTEX
  8
MERGEDLAYER-2
 10
3.994770
 20
8.112296
 30
0.000000
  0
VERTEX
  8
MERGEDLAYER-2
 10
4.001158
 20
8.112296
 30
0.000000
  0
VERTEX
  8
MERGEDLAYER-2
 10
4.001158
 20
7.952570
 30
0.000000
  0
VERTEX
  8
MERGEDLAYER-2
 10
3.994770
 20
7.952570
 30
0.000000
  0
SEQEND
  8
MERGEDLAYER-2
  0
POLYLINE
  8
MERGEDLAYER-2
 66
  1
 70
  1
 62
  7
  0
VERTEX
  8
MERGEDLAYER-2
 10
4.001158
 20
7.728374
 30
0.000000
  0
VERTEX
  8
MERGEDLAYER-2
 10
4.007551
 20
7.728374
 30
0.000000
  0
VERTEX
  8
MERGEDLAYER-2
 10
4.007551
 20
7.569073
 30
0.000000
  0
VERTEX
  8
MERGEDLAYER-2
 10
4.001158
 20
7.569073
 30
0.000000
  0
SEQEND
  8
MERGEDLAYER-2
  0
POLYLINE
  8
MERGEDLAYER-2
 66
  1
 70
  1
 62
  7
  0
VERTEX
  8
MERGEDLAYER-2
 10
3.994770
 20
7.856190
 30
0.000000
  0
VERTEX
  8
MERGEDLAYER-2
 10
4.001158
 20
7.856190
 30
0.000000
  0
VERTEX
  8
MERGEDLAYER-2
 10
4.001158
 20
7.697766
 30
0.000000
  0
VERTEX
  8
MERGEDLAYER-2
 10
3.994770
 20
7.697766
 30
0.000000
  0
SEQEND
  8
MERGEDLAYER-2
  0
POLYLINE
  8
MERGEDLAYER-2
 66
  1
 70
  1
 62
  7
  0
VERTEX
  8
MERGEDLAYER-2
 10
4.001158
 20
7.474436
 30
0.000000
  0
VERTEX
  8
MERGEDLAYER-2
 10
4.007551
 20
7.474436
 30
0.000000
  0
VERTEX
  8
MERGEDLAYER-2
 10
4.007551
 20
7.314268
 30
0.000000
  0
VERTEX
  8
MERGEDLAYER-2
 10
4.001158
 20
7.314268
 30
0.000000
  0
SEQEND
  8
MERGEDLAYER-2
  0
POLYLINE
  8
MERGEDLAYER-2
 66
  1
 70
  1
 62
  7
  0
VERTEX
  8
MERGEDLAYER-2
 10
3.994770
 20
7.601385
 30
0.000000
  0
VERTEX
  8
MERGEDLAYER-2
 10
4.001158
 20
7.601385
 30
0.000000
  0
VERTEX
  8
MERGEDLAYER-2
 10
4.001158
 20
7.441659
 30
0.000000
  0
VERTEX
  8
MERGEDLAYER-2
 10
3.994770
 20
7.441659
 30
0.000000
  0
SEQEND
  8
MERGEDLAYER-2
  0
POLYLINE
  8
MERGEDLAYER-2
 66
  1
 70
  1
 62
  7
  0
VERTEX
  8
MERGEDLAYER-2
 10
4.001158
 20
7.219199
 30
0.000000
  0
VERTEX
  8
MERGEDLAYER-2
 10
4.007551
 20
7.219199
 30
0.000000
  0
VERTEX
  8
MERGEDLAYER-2
 10
4.007551
 20
7.058597
 30
0.000000
  0
VERTEX
  8
MERGEDLAYER-2
 10
4.001158
 20
7.058597
 30
0.000000
  0
SEQEND
  8
MERGEDLAYER-2
  0
POLYLINE
  8
MERGEDLAYER-2
 66
  1
 70
  1
 62
  7
  0
VERTEX
  8
MERGEDLAYER-2
 10
3.994770
 20
7.345714
 30
0.000000
  0
VERTEX
  8
MERGEDLAYER-2
 10
4.001158
 20
7.345714
 30
0.000000
  0
VERTEX
  8
MERGEDLAYER-2
 10
4.001158
 20
7.186421
 30
0.000000
  0
VERTEX
  8
MERGEDLAYER-2
 10
3.994770
 20
7.186421
 30
0.000000
  0
SEQEND
  8
MERGEDLAYER-2
  0
POLYLINE
  8
MERGEDLAYER-2
 66
  1
 70
  1
 62
  7
  0
VERTEX
  8
MERGEDLAYER-2
 10
4.001158
 20
6.963962
 30
0.000000
  0
VERTEX
  8
MERGEDLAYER-2
 10
4.007551
 20
6.963962
 30
0.000000
  0
VERTEX
  8
MERGEDLAYER-2
 10
4.007551
 20
6.802925
 30
0.000000
  0
VERTEX
  8
MERGEDLAYER-2
 10
4.001158
 20
6.802925
 30
0.000000
  0
SEQEND
  8
MERGEDLAYER-2
  0
POLYLINE
  8
MERGEDLAYER-2
 66
  1
 70
  1
 62
  7
  0
VERTEX
  8
MERGEDLAYER-2
 10
3.994770
 20
7.090475
 30
0.000000
  0
VERTEX
  8
MERGEDLAYER-2
 10
4.001158
 20
7.090475
 30
0.000000
  0
VERTEX
  8
MERGEDLAYER-2
 10
4.001158
 20
6.931183
 30
0.000000
  0
VERTEX
  8
MERGEDLAYER-2
 10
3.994770
 20
6.931183
 30
0.000000
  0
SEQEND
  8
MERGEDLAYER-2
  0
POLYLINE
  8
MERGEDLAYER-2
 66
  1
 70
  1
 62
  7
  0
VERTEX
  8
MERGEDLAYER-2
 10
4.461269
 20
4.535012
 30
0.000000
  0
VERTEX
  8
MERGEDLAYER-2
 10
4.467658
 20
4.535012
 30
0.000000
  0
VERTEX
  8
MERGEDLAYER-2
 10
4.467658
 20
4.384848
 30
0.000000
  0
VERTEX
  8
MERGEDLAYER-2
 10
4.461269
 20
4.384848
 30
0.000000
  0
SEQEND
  8
MERGEDLAYER-2
  0
POLYLINE
  8
MERGEDLAYER-2
 66
  1
 70
  1
 62
  7
  0
VERTEX
  8
MERGEDLAYER-2
 10
4.467658
 20
4.662403
 30
0.000000
  0
VERTEX
  8
MERGEDLAYER-2
 10
4.474051
 20
4.662403
 30
0.000000
  0
VERTEX
  8
MERGEDLAYER-2
 10
4.474051
 20
4.502669
 30
0.000000
  0
VERTEX
  8
MERGEDLAYER-2
 10
4.467658
 20
4.502669
 30
0.000000
  0
SEQEND
  8
MERGEDLAYER-2
  0
POLYLINE
  8
MERGEDLAYER-2
 66
  1
 70
  1
 62
  7
  0
VERTEX
  8
MERGEDLAYER-2
 10
4.461269
 20
4.790654
 30
0.000000
  0
VERTEX
  8
MERGEDLAYER-2
 10
4.467658
 20
4.790654
 30
0.000000
  0
VERTEX
  8
MERGEDLAYER-2
 10
4.467658
 20
4.630485
 30
0.000000
  0
VERTEX
  8
MERGEDLAYER-2
 10
4.461269
 20
4.630485
 30
0.000000
  0
SEQEND
  8
MERGEDLAYER-2
  0
POLYLINE
  8
MERGEDLAYER-2
 66
  1
 70
  1
 62
  7
  0
VERTEX
  8
MERGEDLAYER-2
 10
4.467658
 20
4.919772
 30
0.000000
  0
VERTEX
  8
MERGEDLAYER-2
 10
4.474051
 20
4.919772
 30
0.000000
  0
VERTEX
  8
MERGEDLAYER-2
 10
4.474051
 20
4.757867
 30
0.000000
  0
VERTEX
  8
MERGEDLAYER-2
 10
4.467658
 20
4.757867
 30
0.000000
  0
SEQEND
  8
MERGEDLAYER-2
  0
POLYLINE
  8
MERGEDLAYER-2
 66
  1
 70
  1
 62
  7
  0
VERTEX
  8
MERGEDLAYER-2
 10
4.461269
 20
5.045851
 30
0.000000
  0
VERTEX
  8
MERGEDLAYER-2
 10
4.467658
 20
5.045851
 30
0.000000
  0
VERTEX
  8
MERGEDLAYER-2
 10
4.467658
 20
4.886553
 30
0.000000
  0
VERTEX
  8
MERGEDLAYER-2
 10
4.461269
 20
4.886553
 30
0.000000
  0
SEQEND
  8
MERGEDLAYER-2
  0
POLYLINE
  8
MERGEDLAYER-2
 66
  1
 70
  1
 62
  7
  0
VERTEX
  8
MERGEDLAYER-2
 10
4.467658
 20
5.174103
 30
0.000000
  0
VERTEX
  8
MERGEDLAYER-2
 10
4.474051
 20
5.174103
 30
0.000000
  0
VERTEX
  8
MERGEDLAYER-2
 10
4.474051
 20
5.013499
 30
0.000000
  0
VERTEX
  8
MERGEDLAYER-2
 10
4.467658
 20
5.013499
 30
0.000000
  0
SEQEND
  8
MERGEDLAYER-2
  0
POLYLINE
  8
MERGEDLAYER-2
 66
  1
 70
  1
 62
  7
  0
VERTEX
  8
MERGEDLAYER-2
 10
4.461269
 20
5.301918
 30
0.000000
  0
VERTEX
  8
MERGEDLAYER-2
 10
4.467658
 20
5.301918
 30
0.000000
  0
VERTEX
  8
MERGEDLAYER-2
 10
4.467658
 20
5.140883
 30
0.000000
  0
VERTEX
  8
MERGEDLAYER-2
 10
4.461269
 20
5.140883
 30
0.000000
  0
SEQEND
  8
MERGEDLAYER-2
  0
POLYLINE
  8
MERGEDLAYER-2
 66
  1
 70
  1
 62
  7
  0
VERTEX
  8
MERGEDLAYER-2
 10
4.467658
 20
5.430169
 30
0.000000
  0
VERTEX
  8
MERGEDLAYER-2
 10
4.474051
 20
5.430169
 30
0.000000
  0
VERTEX
  8
MERGEDLAYER-2
 10
4.474051
 20
5.269131
 30
0.000000
  0
VERTEX
  8
MERGEDLAYER-2
 10
4.467658
 20
5.269131
 30
0.000000
  0
SEQEND
  8
MERGEDLAYER-2
  0
POLYLINE
  8
MERGEDLAYER-2
 66
  1
 70
  1
 62
  7
  0
VERTEX
  8
MERGEDLAYER-2
 10
4.461269
 20
5.557118
 30
0.000000
  0
VERTEX
  8
MERGEDLAYER-2
 10
4.467658
 20
5.557118
 30
0.000000
  0
VERTEX
  8
MERGEDLAYER-2
 10
4.467658
 20
5.396949
 30
0.000000
  0
VERTEX
  8
MERGEDLAYER-2
 10
4.461269
 20
5.396949
 30
0.000000
  0
SEQEND
  8
MERGEDLAYER-2
  0
POLYLINE
  8
MERGEDLAYER-2
 66
  1
 70
  1
 62
  7
  0
VERTEX
  8
MERGEDLAYER-2
 10
4.467658
 20
5.685367
 30
0.000000
  0
VERTEX
  8
MERGEDLAYER-2
 10
4.474051
 20
5.685367
 30
0.000000
  0
VERTEX
  8
MERGEDLAYER-2
 10
4.474051
 20
5.524765
 30
0.000000
  0
VERTEX
  8
MERGEDLAYER-2
 10
4.467658
 20
5.524765
 30
0.000000
  0
SEQEND
  8
MERGEDLAYER-2
  0
POLYLINE
  8
MERGEDLAYER-2
 66
  1
 70
  1
 62
  7
  0
VERTEX
  8
MERGEDLAYER-2
 10
4.461269
 20
5.813183
 30
0.000000
  0
VERTEX
  8
MERGEDLAYER-2
 10
4.467658
 20
5.813183
 30
0.000000
  0
VERTEX
  8
MERGEDLAYER-2
 10
4.467658
 20
5.653448
 30
0.000000
  0
VERTEX
  8
MERGEDLAYER-2
 10
4.461269
 20
5.653448
 30
0.000000
  0
SEQEND
  8
MERGEDLAYER-2
  0
POLYLINE
  8
MERGEDLAYER-2
 66
  1
 70
  1
 62
  7
  0
VERTEX
  8
MERGEDLAYER-2
 10
4.467658
 20
5.941868
 30
0.000000
  0
VERTEX
  8
MERGEDLAYER-2
 10
4.474051
 20
5.941868
 30
0.000000
  0
VERTEX
  8
MERGEDLAYER-2
 10
4.474051
 20
5.780829
 30
0.000000
  0
VERTEX
  8
MERGEDLAYER-2
 10
4.467658
 20
5.780829
 30
0.000000
  0
SEQEND
  8
MERGEDLAYER-2
  0
POLYLINE
  8
MERGEDLAYER-2
 66
  1
 70
  1
 62
  7
  0
VERTEX
  8
MERGEDLAYER-2
 10
4.461269
 20
6.069251
 30
0.000000
  0
VERTEX
  8
MERGEDLAYER-2
 10
4.467658
 20
6.069251
 30
0.000000
  0
VERTEX
  8
MERGEDLAYER-2
 10
4.467658
 20
5.908647
 30
0.000000
  0
VERTEX
  8
MERGEDLAYER-2
 10
4.461269
 20
5.908647
 30
0.000000
  0
SEQEND
  8
MERGEDLAYER-2
  0
POLYLINE
  8
MERGEDLAYER-2
 66
  1
 70
  1
 62
  7
  0
VERTEX
  8
MERGEDLAYER-2
 10
4.467658
 20
6.196632
 30
0.000000
  0
VERTEX
  8
MERGEDLAYER-2
 10
4.474051
 20
6.196632
 30
0.000000
  0
VERTEX
  8
MERGEDLAYER-2
 10
4.474051
 20
6.036464
 30
0.000000
  0
VERTEX
  8
MERGEDLAYER-2
 10
4.467658
 20
6.036464
 30
0.000000
  0
SEQEND
  8
MERGEDLAYER-2
  0
POLYLINE
  8
MERGEDLAYER-2
 66
  1
 70
  1
 62
  7
  0
VERTEX
  8
MERGEDLAYER-2
 10
4.461269
 20
6.323580
 30
0.000000
  0
VERTEX
  8
MERGEDLAYER-2
 10
4.467658
 20
6.323580
 30
0.000000
  0
VERTEX
  8
MERGEDLAYER-2
 10
4.467658
 20
6.163413
 30
0.000000
  0
VERTEX
  8
MERGEDLAYER-2
 10
4.461269
 20
6.163413
 30
0.000000
  0
SEQEND
  8
MERGEDLAYER-2
  0
POLYLINE
  8
MERGEDLAYER-2
 66
  1
 70
  1
 62
  7
  0
VERTEX
  8
MERGEDLAYER-2
 10
4.467658
 20
6.452265
 30
0.000000
  0
VERTEX
  8
MERGEDLAYER-2
 10
4.474051
 20
6.452265
 30
0.000000
  0
VERTEX
  8
MERGEDLAYER-2
 10
4.474051
 20
6.292529
 30
0.000000
  0
VERTEX
  8
MERGEDLAYER-2
 10
4.467658
 20
6.292529
 30
0.000000
  0
SEQEND
  8
MERGEDLAYER-2
  0
POLYLINE
  8
MERGEDLAYER-2
 66
  1
 70
  1
 62
  7
  0
VERTEX
  8
MERGEDLAYER-2
 10
4.461269
 20
6.580080
 30
0.000000
  0
VERTEX
  8
MERGEDLAYER-2
 10
4.467658
 20
6.580080
 30
0.000000
  0
VERTEX
  8
MERGEDLAYER-2
 10
4.467658
 20
6.419477
 30
0.000000
  0
VERTEX
  8
MERGEDLAYER-2
 10
4.461269
 20
6.419477
 30
0.000000
  0
SEQEND
  8
MERGEDLAYER-2
  0
POLYLINE
  8
MERGEDLAYER-2
 66
  1
 70
  1
 62
  7
  0
VERTEX
  8
MERGEDLAYER-2
 10
4.467658
 20
6.708329
 30
0.000000
  0
VERTEX
  8
MERGEDLAYER-2
 10
4.474051
 20
6.708329
 30
0.000000
  0
VERTEX
  8
MERGEDLAYER-2
 10
4.474051
 20
6.547728
 30
0.000000
  0
VERTEX
  8
MERGEDLAYER-2
 10
4.467658
 20
6.547728
 30
0.000000
  0
SEQEND
  8
MERGEDLAYER-2
  0
POLYLINE
  8
MERGEDLAYER-2
 66
  1
 70
  1
 62
  7
  0
VERTEX
  8
MERGEDLAYER-2
 10
4.461269
 20
6.835711
 30
0.000000
  0
VERTEX
  8
MERGEDLAYER-2
 10
4.467658
 20
6.835711
 30
0.000000
  0
VERTEX
  8
MERGEDLAYER-2
 10
4.467658
 20
6.675543
 30
0.000000
  0
VERTEX
  8
MERGEDLAYER-2
 10
4.461269
 20
6.675543
 30
0.000000
  0
SEQEND
  8
MERGEDLAYER-2
  0
POLYLINE
  8
MERGEDLAYER-2
 66
  1
 70
  1
 62
  7
  0
VERTEX
  8
MERGEDLAYER-2
 10
4.467658
 20
8.239283
 30
0.000000
  0
VERTEX
  8
MERGEDLAYER-2
 10
4.474051
 20
8.239283
 30
0.000000
  0
VERTEX
  8
MERGEDLAYER-2
 10
4.474051
 20
8.079549
 30
0.000000
  0
VERTEX
  8
MERGEDLAYER-2
 10
4.467658
 20
8.079549
 30
0.000000
  0
SEQEND
  8
MERGEDLAYER-2
  0
POLYLINE
  8
MERGEDLAYER-2
 66
  1
 70
  1
 62
  7
  0
VERTEX
  8
MERGEDLAYER-2
 10
4.461269
 20
8.367100
 30
0.000000
  0
VERTEX
  8
MERGEDLAYER-2
 10
4.467658
 20
8.367100
 30
0.000000
  0
VERTEX
  8
MERGEDLAYER-2
 10
4.467658
 20
8.206940
 30
0.000000
  0
VERTEX
  8
MERGEDLAYER-2
 10
4.461269
 20
8.206940
 30
0.000000
  0
SEQEND
  8
MERGEDLAYER-2
  0
POLYLINE
  8
MERGEDLAYER-2
 66
  1
 70
  1
 62
  7
  0
VERTEX
  8
MERGEDLAYER-2
 10
4.467658
 20
7.984045
 30
0.000000
  0
VERTEX
  8
MERGEDLAYER-2
 10
4.474051
 20
7.984045
 30
0.000000
  0
VERTEX
  8
MERGEDLAYER-2
 10
4.474051
 20
7.824311
 30
0.000000
  0
VERTEX
  8
MERGEDLAYER-2
 10
4.467658
 20
7.824311
 30
0.000000
  0
SEQEND
  8
MERGEDLAYER-2
  0
POLYLINE
  8
MERGEDLAYER-2
 66
  1
 70
  1
 62
  7
  0
VERTEX
  8
MERGEDLAYER-2
 10
4.461269
 20
8.112296
 30
0.000000
  0
VERTEX
  8
MERGEDLAYER-2
 10
4.467658
 20
8.112296
 30
0.000000
  0
VERTEX
  8
MERGEDLAYER-2
 10
4.467658
 20
7.952570
 30
0.000000
  0
VERTEX
  8
MERGEDLAYER-2
 10
4.461269
 20
7.952570
 30
0.000000
  0
SEQEND
  8
MERGEDLAYER-2
  0
POLYLINE
  8
MERGEDLAYER-2
 66
  1
 70
  1
 62
  7
  0
VERTEX
  8
MERGEDLAYER-2
 10
4.467658
 20
7.728374
 30
0.000000
  0
VERTEX
  8
MERGEDLAYER-2
 10
4.474051
 20
7.728374
 30
0.000000
  0
VERTEX
  8
MERGEDLAYER-2
 10
4.474051
 20
7.569073
 30
0.000000
  0
VERTEX
  8
MERGEDLAYER-2
 10
4.467658
 20
7.569073
 30
0.000000
  0
SEQEND
  8
MERGEDLAYER-2
  0
POLYLINE
  8
MERGEDLAYER-2
 66
  1
 70
  1
 62
  7
  0
VERTEX
  8
MERGEDLAYER-2
 10
4.461269
 20
7.856190
 30
0.000000
  0
VERTEX
  8
MERGEDLAYER-2
 10
4.467658
 20
7.856190
 30
0.000000
  0
VERTEX
  8
MERGEDLAYER-2
 10
4.467658
 20
7.697766
 30
0.000000
  0
VERTEX
  8
MERGEDLAYER-2
 10
4.461269
 20
7.697766
 30
0.000000
  0
SEQEND
  8
MERGEDLAYER-2
  0
POLYLINE
  8
MERGEDLAYER-2
 66
  1
 70
  1
 62
  7
  0
VERTEX
  8
MERGEDLAYER-2
 10
4.467658
 20
7.474436
 30
0.000000
  0
VERTEX
  8
MERGEDLAYER-2
 10
4.474051
 20
7.474436
 30
0.000000
  0
VERTEX
  8
MERGEDLAYER-2
 10
4.474051
 20
7.314268
 30
0.000000
  0
VERTEX
  8
MERGEDLAYER-2
 10
4.467658
 20
7.314268
 30
0.000000
  0
SEQEND
  8
MERGEDLAYER-2
  0
POLYLINE
  8
MERGEDLAYER-2
 66
  1
 70
  1
 62
  7
  0
VERTEX
  8
MERGEDLAYER-2
 10
4.461269
 20
7.601385
 30
0.000000
  0
VERTEX
  8
MERGEDLAYER-2
 10
4.467658
 20
7.601385
 30
0.000000
  0
VERTEX
  8
MERGEDLAYER-2
 10
4.467658
 20
7.441659
 30
0.000000
  0
VERTEX
  8
MERGEDLAYER-2
 10
4.461269
 20
7.441659
 30
0.000000
  0
SEQEND
  8
MERGEDLAYER-2
  0
POLYLINE
  8
MERGEDLAYER-2
 66
  1
 70
  1
 62
  7
  0
VERTEX
  8
MERGEDLAYER-2
 10
4.467658
 20
7.219199
 30
0.000000
  0
VERTEX
  8
MERGEDLAYER-2
 10
4.474051
 20
7.219199
 30
0.000000
  0
VERTEX
  8
MERGEDLAYER-2
 10
4.474051
 20
7.058597
 30
0.000000
  0
VERTEX
  8
MERGEDLAYER-2
 10
4.467658
 20
7.058597
 30
0.000000
  0
SEQEND
  8
MERGEDLAYER-2
  0
POLYLINE
  8
MERGEDLAYER-2
 66
  1
 70
  1
 62
  7
  0
VERTEX
  8
MERGEDLAYER-2
 10
4.461269
 20
7.345714
 30
0.000000
  0
VERTEX
  8
MERGEDLAYER-2
 10
4.467658
 20
7.345714
 30
0.000000
  0
VERTEX
  8
MERGEDLAYER-2
 10
4.467658
 20
7.186421
 30
0.000000
  0
VERTEX
  8
MERGEDLAYER-2
 10
4.461269
 20
7.186421
 30
0.000000
  0
SEQEND
  8
MERGEDLAYER-2
  0
POLYLINE
  8
MERGEDLAYER-2
 66
  1
 70
  1
 62
  7
  0
VERTEX
  8
MERGEDLAYER-2
 10
4.467658
 20
6.963962
 30
0.000000
  0
VERTEX
  8
MERGEDLAYER-2
 10
4.474051
 20
6.963962
 30
0.000000
  0
VERTEX
  8
MERGEDLAYER-2
 10
4.474051
 20
6.802925
 30
0.000000
  0
VERTEX
  8
MERGEDLAYER-2
 10
4.467658
 20
6.802925
 30
0.000000
  0
SEQEND
  8
MERGEDLAYER-2
  0
POLYLINE
  8
MERGEDLAYER-2
 66
  1
 70
  1
 62
  7
  0
VERTEX
  8
MERGEDLAYER-2
 10
4.461269
 20
7.090475
 30
0.000000
  0
VERTEX
  8
MERGEDLAYER-2
 10
4.467658
 20
7.090475
 30
0.000000
  0
VERTEX
  8
MERGEDLAYER-2
 10
4.467658
 20
6.931183
 30
0.000000
  0
VERTEX
  8
MERGEDLAYER-2
 10
4.461269
 20
6.931183
 30
0.000000
  0
SEQEND
  8
MERGEDLAYER-2
  0
POLYLINE
  8
MERGEDLAYER-2
 66
  1
 70
  1
 62
  7
  0
VERTEX
  8
MERGEDLAYER-2
 10
4.927769
 20
4.535012
 30
0.000000
  0
VERTEX
  8
MERGEDLAYER-2
 10
4.934157
 20
4.535012
 30
0.000000
  0
VERTEX
  8
MERGEDLAYER-2
 10
4.934157
 20
4.384848
 30
0.000000
  0
VERTEX
  8
MERGEDLAYER-2
 10
4.927769
 20
4.384848
 30
0.000000
  0
SEQEND
  8
MERGEDLAYER-2
  0
POLYLINE
  8
MERGEDLAYER-2
 66
  1
 70
  1
 62
  7
  0
VERTEX
  8
MERGEDLAYER-2
 10
4.934157
 20
4.662403
 30
0.000000
  0
VERTEX
  8
MERGEDLAYER-2
 10
4.940552
 20
4.662403
 30
0.000000
  0
VERTEX
  8
MERGEDLAYER-2
 10
4.940552
 20
4.502669
 30
0.000000
  0
VERTEX
  8
MERGEDLAYER-2
 10
4.934157
 20
4.502669
 30
0.000000
  0
SEQEND
  8
MERGEDLAYER-2
  0
POLYLINE
  8
MERGEDLAYER-2
 66
  1
 70
  1
 62
  7
  0
VERTEX
  8
MERGEDLAYER-2
 10
4.927769
 20
4.790654
 30
0.000000
  0
VERTEX
  8
MERGEDLAYER-2
 10
4.934157
 20
4.790654
 30
0.000000
  0
VERTEX
  8
MERGEDLAYER-2
 10
4.934157
 20
4.630485
 30
0.000000
  0
VERTEX
  8
MERGEDLAYER-2
 10
4.927769
 20
4.630485
 30
0.000000
  0
SEQEND
  8
MERGEDLAYER-2
  0
POLYLINE
  8
MERGEDLAYER-2
 66
  1
 70
  1
 62
  7
  0
VERTEX
  8
MERGEDLAYER-2
 10
4.934157
 20
4.919772
 30
0.000000
  0
VERTEX
  8
MERGEDLAYER-2
 10
4.940552
 20
4.919772
 30
0.000000
  0
VERTEX
  8
MERGEDLAYER-2
 10
4.940552
 20
4.757867
 30
0.000000
  0
VERTEX
  8
MERGEDLAYER-2
 10
4.934157
 20
4.757867
 30
0.000000
  0
SEQEND
  8
MERGEDLAYER-2
  0
POLYLINE
  8
MERGEDLAYER-2
 66
  1
 70
  1
 62
  7
  0
VERTEX
  8
MERGEDLAYER-2
 10
4.927769
 20
5.045851
 30
0.000000
  0
VERTEX
  8
MERGEDLAYER-2
 10
4.934157
 20
5.045851
 30
0.000000
  0
VERTEX
  8
MERGEDLAYER-2
 10
4.934157
 20
4.886553
 30
0.000000
  0
VERTEX
  8
MERGEDLAYER-2
 10
4.927769
 20
4.886553
 30
0.000000
  0
SEQEND
  8
MERGEDLAYER-2
  0
POLYLINE
  8
MERGEDLAYER-2
 66
  1
 70
  1
 62
  7
  0
VERTEX
  8
MERGEDLAYER-2
 10
4.934157
 20
5.174103
 30
0.000000
  0
VERTEX
  8
MERGEDLAYER-2
 10
4.940552
 20
5.174103
 30
0.000000
  0
VERTEX
  8
MERGEDLAYER-2
 10
4.940552
 20
5.013499
 30
0.000000
  0
VERTEX
  8
MERGEDLAYER-2
 10
4.934157
 20
5.013499
 30
0.000000
  0
SEQEND
  8
MERGEDLAYER-2
  0
POLYLINE
  8
MERGEDLAYER-2
 66
  1
 70
  1
 62
  7
  0
VERTEX
  8
MERGEDLAYER-2
 10
4.927769
 20
5.301918
 30
0.000000
  0
VERTEX
  8
MERGEDLAYER-2
 10
4.934157
 20
5.301918
 30
0.000000
  0
VERTEX
  8
MERGEDLAYER-2
 10
4.934157
 20
5.140883
 30
0.000000
  0
VERTEX
  8
MERGEDLAYER-2
 10
4.927769
 20
5.140883
 30
0.000000
  0
SEQEND
  8
MERGEDLAYER-2
  0
POLYLINE
  8
MERGEDLAYER-2
 66
  1
 70
  1
 62
  7
  0
VERTEX
  8
MERGEDLAYER-2
 10
4.934157
 20
5.430169
 30
0.000000
  0
VERTEX
  8
MERGEDLAYER-2
 10
4.940552
 20
5.430169
 30
0.000000
  0
VERTEX
  8
MERGEDLAYER-2
 10
4.940552
 20
5.269131
 30
0.000000
  0
VERTEX
  8
MERGEDLAYER-2
 10
4.934157
 20
5.269131
 30
0.000000
  0
SEQEND
  8
MERGEDLAYER-2
  0
POLYLINE
  8
MERGEDLAYER-2
 66
  1
 70
  1
 62
  7
  0
VERTEX
  8
MERGEDLAYER-2
 10
4.927769
 20
5.557118
 30
0.000000
  0
VERTEX
  8
MERGEDLAYER-2
 10
4.934157
 20
5.557118
 30
0.000000
  0
VERTEX
  8
MERGEDLAYER-2
 10
4.934157
 20
5.396949
 30
0.000000
  0
VERTEX
  8
MERGEDLAYER-2
 10
4.927769
 20
5.396949
 30
0.000000
  0
SEQEND
  8
MERGEDLAYER-2
  0
POLYLINE
  8
MERGEDLAYER-2
 66
  1
 70
  1
 62
  7
  0
VERTEX
  8
MERGEDLAYER-2
 10
4.934157
 20
5.685367
 30
0.000000
  0
VERTEX
  8
MERGEDLAYER-2
 10
4.940552
 20
5.685367
 30
0.000000
  0
VERTEX
  8
MERGEDLAYER-2
 10
4.940552
 20
5.524765
 30
0.000000
  0
VERTEX
  8
MERGEDLAYER-2
 10
4.934157
 20
5.524765
 30
0.000000
  0
SEQEND
  8
MERGEDLAYER-2
  0
POLYLINE
  8
MERGEDLAYER-2
 66
  1
 70
  1
 62
  7
  0
VERTEX
  8
MERGEDLAYER-2
 10
4.927769
 20
5.813183
 30
0.000000
  0
VERTEX
  8
MERGEDLAYER-2
 10
4.934157
 20
5.813183
 30
0.000000
  0
VERTEX
  8
MERGEDLAYER-2
 10
4.934157
 20
5.653448
 30
0.000000
  0
VERTEX
  8
MERGEDLAYER-2
 10
4.927769
 20
5.653448
 30
0.000000
  0
SEQEND
  8
MERGEDLAYER-2
  0
POLYLINE
  8
MERGEDLAYER-2
 66
  1
 70
  1
 62
  7
  0
VERTEX
  8
MERGEDLAYER-2
 10
4.934157
 20
5.941868
 30
0.000000
  0
VERTEX
  8
MERGEDLAYER-2
 10
4.940552
 20
5.941868
 30
0.000000
  0
VERTEX
  8
MERGEDLAYER-2
 10
4.940552
 20
5.780829
 30
0.000000
  0
VERTEX
  8
MERGEDLAYER-2
 10
4.934157
 20
5.780829
 30
0.000000
  0
SEQEND
  8
MERGEDLAYER-2
  0
POLYLINE
  8
MERGEDLAYER-2
 66
  1
 70
  1
 62
  7
  0
VERTEX
  8
MERGEDLAYER-2
 10
4.927769
 20
6.069251
 30
0.000000
  0
VERTEX
  8
MERGEDLAYER-2
 10
4.934157
 20
6.069251
 30
0.000000
  0
VERTEX
  8
MERGEDLAYER-2
 10
4.934157
 20
5.908647
 30
0.000000
  0
VERTEX
  8
MERGEDLAYER-2
 10
4.927769
 20
5.908647
 30
0.000000
  0
SEQEND
  8
MERGEDLAYER-2
  0
POLYLINE
  8
MERGEDLAYER-2
 66
  1
 70
  1
 62
  7
  0
VERTEX
  8
MERGEDLAYER-2
 10
4.934157
 20
6.196632
 30
0.000000
  0
VERTEX
  8
MERGEDLAYER-2
 10
4.940552
 20
6.196632
 30
0.000000
  0
VERTEX
  8
MERGEDLAYER-2
 10
4.940552
 20
6.036464
 30
0.000000
  0
VERTEX
  8
MERGEDLAYER-2
 10
4.934157
 20
6.036464
 30
0.000000
  0
SEQEND
  8
MERGEDLAYER-2
  0
POLYLINE
  8
MERGEDLAYER-2
 66
  1
 70
  1
 62
  7
  0
VERTEX
  8
MERGEDLAYER-2
 10
4.927769
 20
6.323580
 30
0.000000
  0
VERTEX
  8
MERGEDLAYER-2
 10
4.934157
 20
6.323580
 30
0.000000
  0
VERTEX
  8
MERGEDLAYER-2
 10
4.934157
 20
6.163413
 30
0.000000
  0
VERTEX
  8
MERGEDLAYER-2
 10
4.927769
 20
6.163413
 30
0.000000
  0
SEQEND
  8
MERGEDLAYER-2
  0
POLYLINE
  8
MERGEDLAYER-2
 66
  1
 70
  1
 62
  7
  0
VERTEX
  8
MERGEDLAYER-2
 10
4.934157
 20
6.452265
 30
0.000000
  0
VERTEX
  8
MERGEDLAYER-2
 10
4.940552
 20
6.452265
 30
0.000000
  0
VERTEX
  8
MERGEDLAYER-2
 10
4.940552
 20
6.292529
 30
0.000000
  0
VERTEX
  8
MERGEDLAYER-2
 10
4.934157
 20
6.292529
 30
0.000000
  0
SEQEND
  8
MERGEDLAYER-2
  0
POLYLINE
  8
MERGEDLAYER-2
 66
  1
 70
  1
 62
  7
  0
VERTEX
  8
MERGEDLAYER-2
 10
4.927769
 20
6.580080
 30
0.000000
  0
VERTEX
  8
MERGEDLAYER-2
 10
4.934157
 20
6.580080
 30
0.000000
  0
VERTEX
  8
MERGEDLAYER-2
 10
4.934157
 20
6.419477
 30
0.000000
  0
VERTEX
  8
MERGEDLAYER-2
 10
4.927769
 20
6.419477
 30
0.000000
  0
SEQEND
  8
MERGEDLAYER-2
  0
POLYLINE
  8
MERGEDLAYER-2
 66
  1
 70
  1
 62
  7
  0
VERTEX
  8
MERGEDLAYER-2
 10
4.934157
 20
6.708329
 30
0.000000
  0
VERTEX
  8
MERGEDLAYER-2
 10
4.940552
 20
6.708329
 30
0.000000
  0
VERTEX
  8
MERGEDLAYER-2
 10
4.940552
 20
6.547728
 30
0.000000
  0
VERTEX
  8
MERGEDLAYER-2
 10
4.934157
 20
6.547728
 30
0.000000
  0
SEQEND
  8
MERGEDLAYER-2
  0
POLYLINE
  8
MERGEDLAYER-2
 66
  1
 70
  1
 62
  7
  0
VERTEX
  8
MERGEDLAYER-2
 10
4.927769
 20
6.835711
 30
0.000000
  0
VERTEX
  8
MERGEDLAYER-2
 10
4.934157
 20
6.835711
 30
0.000000
  0
VERTEX
  8
MERGEDLAYER-2
 10
4.934157
 20
6.675543
 30
0.000000
  0
VERTEX
  8
MERGEDLAYER-2
 10
4.927769
 20
6.675543
 30
0.000000
  0
SEQEND
  8
MERGEDLAYER-2
  0
POLYLINE
  8
MERGEDLAYER-2
 66
  1
 70
  1
 62
  7
  0
VERTEX
  8
MERGEDLAYER-2
 10
4.934157
 20
8.239283
 30
0.000000
  0
VERTEX
  8
MERGEDLAYER-2
 10
4.940552
 20
8.239283
 30
0.000000
  0
VERTEX
  8
MERGEDLAYER-2
 10
4.940552
 20
8.079549
 30
0.000000
  0
VERTEX
  8
MERGEDLAYER-2
 10
4.934157
 20
8.079549
 30
0.000000
  0
SEQEND
  8
MERGEDLAYER-2
  0
POLYLINE
  8
MERGEDLAYER-2
 66
  1
 70
  1
 62
  7
  0
VERTEX
  8
MERGEDLAYER-2
 10
4.927769
 20
8.367100
 30
0.000000
  0
VERTEX
  8
MERGEDLAYER-2
 10
4.934157
 20
8.367100
 30
0.000000
  0
VERTEX
  8
MERGEDLAYER-2
 10
4.934157
 20
8.206940
 30
0.000000
  0
VERTEX
  8
MERGEDLAYER-2
 10
4.927769
 20
8.206940
 30
0.000000
  0
SEQEND
  8
MERGEDLAYER-2
  0
POLYLINE
  8
MERGEDLAYER-2
 66
  1
 70
  1
 62
  7
  0
VERTEX
  8
MERGEDLAYER-2
 10
4.934157
 20
7.984045
 30
0.000000
  0
VERTEX
  8
MERGEDLAYER-2
 10
4.940552
 20
7.984045
 30
0.000000
  0
VERTEX
  8
MERGEDLAYER-2
 10
4.940552
 20
7.824311
 30
0.000000
  0
VERTEX
  8
MERGEDLAYER-2
 10
4.934157
 20
7.824311
 30
0.000000
  0
SEQEND
  8
MERGEDLAYER-2
  0
POLYLINE
  8
MERGEDLAYER-2
 66
  1
 70
  1
 62
  7
  0
VERTEX
  8
MERGEDLAYER-2
 10
4.927769
 20
8.112296
 30
0.000000
  0
VERTEX
  8
MERGEDLAYER-2
 10
4.934157
 20
8.112296
 30
0.000000
  0
VERTEX
  8
MERGEDLAYER-2
 10
4.934157
 20
7.952570
 30
0.000000
  0
VERTEX
  8
MERGEDLAYER-2
 10
4.927769
 20
7.952570
 30
0.000000
  0
SEQEND
  8
MERGEDLAYER-2
  0
POLYLINE
  8
MERGEDLAYER-2
 66
  1
 70
  1
 62
  7
  0
VERTEX
  8
MERGEDLAYER-2
 10
4.934157
 20
7.728374
 30
0.000000
  0
VERTEX
  8
MERGEDLAYER-2
 10
4.940552
 20
7.728374
 30
0.000000
  0
VERTEX
  8
MERGEDLAYER-2
 10
4.940552
 20
7.569073
 30
0.000000
  0
VERTEX
  8
MERGEDLAYER-2
 10
4.934157
 20
7.569073
 30
0.000000
  0
SEQEND
  8
MERGEDLAYER-2
  0
POLYLINE
  8
MERGEDLAYER-2
 66
  1
 70
  1
 62
  7
  0
VERTEX
  8
MERGEDLAYER-2
 10
4.927769
 20
7.856190
 30
0.000000
  0
VERTEX
  8
MERGEDLAYER-2
 10
4.934157
 20
7.856190
 30
0.000000
  0
VERTEX
  8
MERGEDLAYER-2
 10
4.934157
 20
7.697766
 30
0.000000
  0
VERTEX
  8
MERGEDLAYER-2
 10
4.927769
 20
7.697766
 30
0.000000
  0
SEQEND
  8
MERGEDLAYER-2
  0
POLYLINE
  8
MERGEDLAYER-2
 66
  1
 70
  1
 62
  7
  0
VERTEX
  8
MERGEDLAYER-2
 10
4.934157
 20
7.474436
 30
0.000000
  0
VERTEX
  8
MERGEDLAYER-2
 10
4.940552
 20
7.474436
 30
0.000000
  0
VERTEX
  8
MERGEDLAYER-2
 10
4.940552
 20
7.314268
 30
0.000000
  0
VERTEX
  8
MERGEDLAYER-2
 10
4.934157
 20
7.314268
 30
0.000000
  0
SEQEND
  8
MERGEDLAYER-2
  0
POLYLINE
  8
MERGEDLAYER-2
 66
  1
 70
  1
 62
  7
  0
VERTEX
  8
MERGEDLAYER-2
 10
4.927769
 20
7.601385
 30
0.000000
  0
VERTEX
  8
MERGEDLAYER-2
 10
4.934157
 20
7.601385
 30
0.000000
  0
VERTEX
  8
MERGEDLAYER-2
 10
4.934157
 20
7.441659
 30
0.000000
  0
VERTEX
  8
MERGEDLAYER-2
 10
4.927769
 20
7.441659
 30
0.000000
  0
SEQEND
  8
MERGEDLAYER-2
  0
POLYLINE
  8
MERGEDLAYER-2
 66
  1
 70
  1
 62
  7
  0
VERTEX
  8
MERGEDLAYER-2
 10
4.934157
 20
7.219199
 30
0.000000
  0
VERTEX
  8
MERGEDLAYER-2
 10
4.940552
 20
7.219199
 30
0.000000
  0
VERTEX
  8
MERGEDLAYER-2
 10
4.940552
 20
7.058597
 30
0.000000
  0
VERTEX
  8
MERGEDLAYER-2
 10
4.934157
 20
7.058597
 30
0.000000
  0
SEQEND
  8
MERGEDLAYER-2
  0
POLYLINE
  8
MERGEDLAYER-2
 66
  1
 70
  1
 62
  7
  0
VERTEX
  8
MERGEDLAYER-2
 10
4.927769
 20
7.345714
 30
0.000000
  0
VERTEX
  8
MERGEDLAYER-2
 10
4.934157
 20
7.345714
 30
0.000000
  0
VERTEX
  8
MERGEDLAYER-2
 10
4.934157
 20
7.186421
 30
0.000000
  0
VERTEX
  8
MERGEDLAYER-2
 10
4.927769
 20
7.186421
 30
0.000000
  0
SEQEND
  8
MERGEDLAYER-2
  0
POLYLINE
  8
MERGEDLAYER-2
 66
  1
 70
  1
 62
  7
  0
VERTEX
  8
MERGEDLAYER-2
 10
4.934157
 20
6.963962
 30
0.000000
  0
VERTEX
  8
MERGEDLAYER-2
 10
4.940552
 20
6.963962
 30
0.000000
  0
VERTEX
  8
MERGEDLAYER-2
 10
4.940552
 20
6.802925
 30
0.000000
  0
VERTEX
  8
MERGEDLAYER-2
 10
4.934157
 20
6.802925
 30
0.000000
  0
SEQEND
  8
MERGEDLAYER-2
  0
POLYLINE
  8
MERGEDLAYER-2
 66
  1
 70
  1
 62
  7
  0
VERTEX
  8
MERGEDLAYER-2
 10
4.927769
 20
7.090475
 30
0.000000
  0
VERTEX
  8
MERGEDLAYER-2
 10
4.934157
 20
7.090475
 30
0.000000
  0
VERTEX
  8
MERGEDLAYER-2
 10
4.934157
 20
6.931183
 30
0.000000
  0
VERTEX
  8
MERGEDLAYER-2
 10
4.927769
 20
6.931183
 30
0.000000
  0
SEQEND
  8
MERGEDLAYER-2
  0
POLYLINE
  8
MERGEDLAYER-2
 66
  1
 70
  0
 62
  7
 10
6.624493
 20
1.738063
 30
0.000000
  0
VERTEX
  8
MERGEDLAYER-2
 10
6.624493
 20
1.738063
 30
0.000000
  0
VERTEX
  8
MERGEDLAYER-2
 10
6.630675
 20
1.727358
 30
0.000000
  0
SEQEND
  8
MERGEDLAYER-2
  0
POLYLINE
  8
MERGEDLAYER-2
 66
  1
 70
  1
 62
  7
 10
0.051177
 20
0.560476
 30
0.000000
  0
VERTEX
  8
MERGEDLAYER-2
 10
0.051177
 20
0.560476
 30
0.000000
  0
VERTEX
  8
MERGEDLAYER-2
 10
0.374774
 20
0.647185
 30
0.000000
  0
VERTEX
  8
MERGEDLAYER-2
 10
0.378105
 20
0.647853
 30
0.000000
  0
VERTEX
  8
MERGEDLAYER-2
 10
0.381578
 20
0.648288
 30
0.000000
  0
VERTEX
  8
MERGEDLAYER-2
 10
0.384182
 20
0.648288
 30
0.000000
  0
VERTEX
  8
MERGEDLAYER-2
 10
0.386352
 20
0.647853
 30
0.000000
  0
VERTEX
  8
MERGEDLAYER-2
 10
0.389505
 20
0.647576
 30
0.000000
  0
VERTEX
  8
MERGEDLAYER-2
 10
0.392428
 20
0.646551
 30
0.000000
  0
VERTEX
  8
MERGEDLAYER-2
 10
0.395033
 20
0.645683
 30
0.000000
  0
VERTEX
  8
MERGEDLAYER-2
 10
0.396769
 20
0.644815
 30
0.000000
  0
VERTEX
  8
MERGEDLAYER-2
 10
0.402695
 20
0.641008
 30
0.000000
  0
VERTEX
  8
MERGEDLAYER-2
 10
0.405449
 20
0.639172
 30
0.000000
  0
VERTEX
  8
MERGEDLAYER-2
 10
0.407619
 20
0.637437
 30
0.000000
  0
VERTEX
  8
MERGEDLAYER-2
 10
0.410223
 20
0.634832
 30
0.000000
  0
VERTEX
  8
MERGEDLAYER-2
 10
0.412394
 20
0.633097
 30
0.000000
  0
VERTEX
  8
MERGEDLAYER-2
 10
0.414130
 20
0.631360
 30
0.000000
  0
VERTEX
  8
MERGEDLAYER-2
 10
0.415866
 20
0.629190
 30
0.000000
  0
VERTEX
  8
MERGEDLAYER-2
 10
0.418470
 20
0.626586
 30
0.000000
  0
VERTEX
  8
MERGEDLAYER-2
 10
0.421508
 20
0.622680
 30
0.000000
  0
VERTEX
  8
MERGEDLAYER-2
 10
0.423678
 20
0.619641
 30
0.000000
  0
VERTEX
  8
MERGEDLAYER-2
 10
0.425326
 20
0.617064
 30
0.000000
  0
VERTEX
  8
MERGEDLAYER-2
 10
0.427585
 20
0.613999
 30
0.000000
  0
VERTEX
  8
MERGEDLAYER-2
 10
0.429755
 20
0.610093
 30
0.000000
  0
VERTEX
  8
MERGEDLAYER-2
 10
0.431057
 20
0.607055
 30
0.000000
  0
VERTEX
  8
MERGEDLAYER-2
 10
0.432793
 20
0.602714
 30
0.000000
  0
VERTEX
  8
MERGEDLAYER-2
 10
0.434095
 20
0.599676
 30
0.000000
  0
VERTEX
  8
MERGEDLAYER-2
 10
0.435831
 20
0.594902
 30
0.000000
  0
VERTEX
  8
MERGEDLAYER-2
 10
0.436699
 20
0.591430
 30
0.000000
  0
VERTEX
  8
MERGEDLAYER-2
 10
0.437479
 20
0.586441
 30
0.000000
  0
VERTEX
  8
MERGEDLAYER-2
 10
0.438869
 20
0.581881
 30
0.000000
  0
VERTEX
  8
MERGEDLAYER-2
 10
0.439737
 20
0.577540
 30
0.000000
  0
VERTEX
  8
MERGEDLAYER-2
 10
0.440605
 20
0.572766
 30
0.000000
  0
VERTEX
  8
MERGEDLAYER-2
 10
0.441039
 20
0.569295
 30
0.000000
  0
VERTEX
  8
MERGEDLAYER-2
 10
0.441473
 20
0.564520
 30
0.000000
  0
VERTEX
  8
MERGEDLAYER-2
 10
0.441473
 20
0.558444
 30
0.000000
  0
VERTEX
  8
MERGEDLAYER-2
 10
0.441340
 20
0.554693
 30
0.000000
  0
VERTEX
  8
MERGEDLAYER-2
 10
0.441039
 20
0.548895
 30
0.000000
  0
VERTEX
  8
MERGEDLAYER-2
 10
0.440171
 20
0.543687
 30
0.000000
  0
VERTEX
  8
MERGEDLAYER-2
 10
0.439737
 20
0.538478
 30
0.000000
  0
VERTEX
  8
MERGEDLAYER-2
 10
0.438869
 20
0.534571
 30
0.000000
  0
VERTEX
  8
MERGEDLAYER-2
 10
0.438001
 20
0.530665
 30
0.000000
  0
VERTEX
  8
MERGEDLAYER-2
 10
0.436699
 20
0.526326
 30
0.000000
  0
VERTEX
  8
MERGEDLAYER-2
 10
0.435504
 20
0.523250
 30
0.000000
  0
VERTEX
  8
MERGEDLAYER-2
 10
0.433661
 20
0.518946
 30
0.000000
  0
VERTEX
  8
MERGEDLAYER-2
 10
0.431925
 20
0.515909
 30
0.000000
  0
VERTEX
  8
MERGEDLAYER-2
 10
0.429755
 20
0.512871
 30
0.000000
  0
VERTEX
  8
MERGEDLAYER-2
 10
0.426540
 20
0.510255
 30
0.000000
  0
VERTEX
  8
MERGEDLAYER-2
 10
0.424112
 20
0.507663
 30
0.000000
  0
VERTEX
  8
MERGEDLAYER-2
 10
0.420206
 20
0.505492
 30
0.000000
  0
VERTEX
  8
MERGEDLAYER-2
 10
0.416300
 20
0.503321
 30
0.000000
  0
VERTEX
  8
MERGEDLAYER-2
 10
0.412655
 20
0.502744
 30
0.000000
  0
VERTEX
  8
MERGEDLAYER-2
 10
0.091016
 20
0.416561
 30
0.000000
  0
SEQEND
  8
MERGEDLAYER-2
  0
POLYLINE
  8
MERGEDLAYER-2
 66
  1
 70
  0
 62
  7
 10
0.111553
 20
0.501403
 30
0.000000
  0
VERTEX
  8
MERGEDLAYER-2
 10
0.111553
 20
0.501403
 30
0.000000
  0
VERTEX
  8
MERGEDLAYER-2
 10
0.100974
 20
0.528166
 30
0.000000
  0
VERTEX
  8
MERGEDLAYER-2
 10
0.085342
 20
0.549107
 30
0.000000
  0
VERTEX
  8
MERGEDLAYER-2
 10
0.067037
 20
0.561038
 30
0.000000
  0
VERTEX
  8
MERGEDLAYER-2
 10
0.048847
 20
0.562144
 30
0.000000
  0
VERTEX
  8
MERGEDLAYER-2
 10
0.033541
 20
0.552253
 30
0.000000
  0
VERTEX
  8
MERGEDLAYER-2
 10
0.023448
 20
0.532875
 30
0.000000
  0
VERTEX
  8
MERGEDLAYER-2
 10
0.020105
 20
0.506956
 30
0.000000
  0
VERTEX
  8
MERGEDLAYER-2
 10
0.024022
 20
0.478446
 30
0.000000
  0
VERTEX
  8
MERGEDLAYER-2
 10
0.034602
 20
0.451682
 30
0.000000
  0
VERTEX
  8
MERGEDLAYER-2
 10
0.050234
 20
0.430741
 30
0.000000
  0
VERTEX
  8
MERGEDLAYER-2
 10
0.068539
 20
0.418810
 30
0.000000
  0
VERTEX
  8
MERGEDLAYER-2
 10
0.086729
 20
0.417705
 30
0.000000
  0
VERTEX
  8
MERGEDLAYER-2
 10
0.102035
 20
0.427595
 30
0.000000
  0
VERTEX
  8
MERGEDLAYER-2
 10
0.112128
 20
0.446974
 30
0.000000
  0
VERTEX
  8
MERGEDLAYER-2
 10
0.115470
 20
0.472892
 30
0.000000
  0
VERTEX
  8
MERGEDLAYER-2
 10
0.111553
 20
0.501403
 30
0.000000
  0
SEQEND
  8
MERGEDLAYER-2
  0
POLYLINE
  8
MERGEDLAYER-2
 66
  1
 70
  0
 62
  7
 10
0.097980
 20
0.496353
 30
0.000000
  0
VERTEX
  8
MERGEDLAYER-2
 10
0.097980
 20
0.496353
 30
0.000000
  0
VERTEX
  8
MERGEDLAYER-2
 10
0.088274
 20
0.520907
 30
0.000000
  0
VERTEX
  8
MERGEDLAYER-2
 10
0.073933
 20
0.540119
 30
0.000000
  0
VERTEX
  8
MERGEDLAYER-2
 10
0.057140
 20
0.551065
 30
0.000000
  0
VERTEX
  8
MERGEDLAYER-2
 10
0.040451
 20
0.552079
 30
0.000000
  0
VERTEX
  8
MERGEDLAYER-2
 10
0.026409
 20
0.543005
 30
0.000000
  0
VERTEX
  8
MERGEDLAYER-2
 10
0.017149
 20
0.525226
 30
0.000000
  0
VERTEX
  8
MERGEDLAYER-2
 10
0.014083
 20
0.501448
 30
0.000000
  0
VERTEX
  8
MERGEDLAYER-2
 10
0.017676
 20
0.475292
 30
0.000000
  0
VERTEX
  8
MERGEDLAYER-2
 10
0.027382
 20
0.450738
 30
0.000000
  0
VERTEX
  8
MERGEDLAYER-2
 10
0.041724
 20
0.431526
 30
0.000000
  0
VERTEX
  8
MERGEDLAYER-2
 10
0.058517
 20
0.420580
 30
0.000000
  0
VERTEX
  8
MERGEDLAYER-2
 10
0.075205
 20
0.419567
 30
0.000000
  0
VERTEX
  8
MERGEDLAYER-2
 10
0.089248
 20
0.428640
 30
0.000000
  0
VERTEX
  8
MERGEDLAYER-2
 10
0.098507
 20
0.446419
 30
0.000000
  0
VERTEX
  8
MERGEDLAYER-2
 10
0.101573
 20
0.470197
 30
0.000000
  0
VERTEX
  8
MERGEDLAYER-2
 10
0.097980
 20
0.496353
 30
0.000000
  0
SEQEND
  8
MERGEDLAYER-2
  0
TEXT
  8
MERGEDLAYER-2
 62
  7
 10
5.774010
 20
7.168086
 30
0.000000
 40
0.102273
  1
2 
 72
  5
 11
5.928555
 21
7.168086
 31
0.000000
  0
TEXT
  8
MERGEDLAYER-2
 62
  7
 10
5.928555
 20
7.168086
 30
0.000000
 40
0.095455
  1
1/16
 72
  5
 11
6.228555
 21
7.168086
 31
0.000000
  0
TEXT
  8
MERGEDLAYER-2
 62
  7
 10
6.228555
 20
7.168086
 30
0.000000
 40
0.102273
  1
" (52mm)
 72
  5
 11
6.828555
 21
7.168086
 31
0.000000
  0
TEXT
  8
MERGEDLAYER-2
 62
  7
 10
5.774010
 20
7.013541
 30
0.000000
 40
0.102273
  1
between rods
 72
  5
 11
6.619464
 21
7.013541
 31
0.000000
  0
POLYLINE
  8
MERGEDLAYER-2
 66
  1
 70
  0
 62
  7
 10
5.582533
 20
6.821638
 30
0.000000
  0
VERTEX
  8
MERGEDLAYER-2
 10
5.582533
 20
6.821638
 30
0.000000
  0
VERTEX
  8
MERGEDLAYER-2
 10
6.215345
 20
6.821638
 30
0.000000
  0
SEQEND
  8
MERGEDLAYER-2
  0
POLYLINE
  8
MERGEDLAYER-2
 66
  1
 70
  0
 62
  7
 10
5.582533
 20
6.691950
 30
0.000000
  0
VERTEX
  8
MERGEDLAYER-2
 10
5.582533
 20
6.691950
 30
0.000000
  0
VERTEX
  8
MERGEDLAYER-2
 10
6.215345
 20
6.691950
 30
0.000000
  0
SEQEND
  8
MERGEDLAYER-2
  0
POLYLINE
  8
MERGEDLAYER-2
 66
  1
 70
  0
 62
  7
 10
6.096595
 20
6.966950
 30
0.000000
  0
VERTEX
  8
MERGEDLAYER-2
 10
6.096595
 20
6.966950
 30
0.000000
  0
VERTEX
  8
MERGEDLAYER-2
 10
6.096595
 20
6.841323
 30
0.000000
  0
SEQEND
  8
MERGEDLAYER-2
  0
POLYLINE
  8
MERGEDLAYER-2
 66
  1
 70
  1
 62
  7
  0
VERTEX
  8
MERGEDLAYER-2
 10
6.096595
 20
6.821638
 30
0.000000
  0
VERTEX
  8
MERGEDLAYER-2
 10
6.069323
 20
6.867092
 30
0.000000
  0
VERTEX
  8
MERGEDLAYER-2
 10
6.096595
 20
6.867092
 30
0.000000
  0
VERTEX
  8
MERGEDLAYER-2
 10
6.123868
 20
6.867092
 30
0.000000
  0
VERTEX
  8
MERGEDLAYER-2
 10
6.096595
 20
6.821638
 30
0.000000
  0
SEQEND
  8
MERGEDLAYER-2
  0
POLYLINE
  8
MERGEDLAYER-2
 66
  1
 70
  0
 62
  7
 10
6.096595
 20
6.546638
 30
0.000000
  0
VERTEX
  8
MERGEDLAYER-2
 10
6.096595
 20
6.546638
 30
0.000000
  0
VERTEX
  8
MERGEDLAYER-2
 10
6.096595
 20
6.672266
 30
0.000000
  0
SEQEND
  8
MERGEDLAYER-2
  0
POLYLINE
  8
MERGEDLAYER-2
 66
  1
 70
  1
 62
  7
  0
VERTEX
  8
MERGEDLAYER-2
 10
6.096595
 20
6.691950
 30
0.000000
  0
VERTEX
  8
MERGEDLAYER-2
 10
6.123868
 20
6.646495
 30
0.000000
  0
VERTEX
  8
MERGEDLAYER-2
 10
6.096595
 20
6.646495
 30
0.000000
  0
VERTEX
  8
MERGEDLAYER-2
 10
6.069323
 20
6.646495
 30
0.000000
  0
VERTEX
  8
MERGEDLAYER-2
 10
6.096595
 20
6.691950
 30
0.000000
  0
SEQEND
  8
MERGEDLAYER-2
  0
POLYLINE
  8
MERGEDLAYER-2
 66
  1
 70
  1
 62
  7
  0
VERTEX
  8
MERGEDLAYER-2
 10
1.665345
 20
4.361628
 30
0.000000
  0
VERTEX
  8
MERGEDLAYER-2
 10
1.678487
 20
4.361628
 30
0.000000
  0
VERTEX
  8
MERGEDLAYER-2
 10
1.678487
 20
4.216168
 30
0.000000
  0
VERTEX
  8
MERGEDLAYER-2
 10
1.665345
 20
4.216168
 30
0.000000
  0
SEQEND
  8
MERGEDLAYER-2
  0
POLYLINE
  8
MERGEDLAYER-2
 66
  1
 70
  1
 62
  7
  0
VERTEX
  8
MERGEDLAYER-2
 10
5.385344
 20
4.361628
 30
0.000000
  0
VERTEX
  8
MERGEDLAYER-2
 10
5.398486
 20
4.361628
 30
0.000000
  0
VERTEX
  8
MERGEDLAYER-2
 10
5.398486
 20
4.216168
 30
0.000000
  0
VERTEX
  8
MERGEDLAYER-2
 10
5.385344
 20
4.216168
 30
0.000000
  0
SEQEND
  8
MERGEDLAYER-2
  0
POLYLINE
  8
MERGEDLAYER-2
 66
  1
 70
  0
 62
  7
 10
3.642799
 20
5.032851
 30
0.000000
  0
VERTEX
  8
MERGEDLAYER-2
 10
3.642799
 20
5.032851
 30
0.000000
  0
VERTEX
  8
MERGEDLAYER-2
 10
3.636190
 20
5.075204
 30
0.000000
  0
VERTEX
  8
MERGEDLAYER-2
 10
3.616615
 20
5.115930
 30
0.000000
  0
VERTEX
  8
MERGEDLAYER-2
 10
3.584827
 20
5.153462
 30
0.000000
  0
VERTEX
  8
MERGEDLAYER-2
 10
3.542047
 20
5.186360
 30
0.000000
  0
VERTEX
  8
MERGEDLAYER-2
 10
3.489920
 20
5.213359
 30
0.000000
  0
VERTEX
  8
MERGEDLAYER-2
 10
3.430449
 20
5.233421
 30
0.000000
  0
VERTEX
  8
MERGEDLAYER-2
 10
3.365919
 20
5.245774
 30
0.000000
  0
VERTEX
  8
MERGEDLAYER-2
 10
3.298810
 20
5.249946
 30
0.000000
  0
VERTEX
  8
MERGEDLAYER-2
 10
3.231700
 20
5.245774
 30
0.000000
  0
VERTEX
  8
MERGEDLAYER-2
 10
3.167170
 20
5.233421
 30
0.000000
  0
VERTEX
  8
MERGEDLAYER-2
 10
3.107699
 20
5.213359
 30
0.000000
  0
VERTEX
  8
MERGEDLAYER-2
 10
3.055572
 20
5.186360
 30
0.000000
  0
VERTEX
  8
MERGEDLAYER-2
 10
3.012792
 20
5.153462
 30
0.000000
  0
VERTEX
  8
MERGEDLAYER-2
 10
2.981004
 20
5.115930
 30
0.000000
  0
VERTEX
  8
MERGEDLAYER-2
 10
2.961429
 20
5.075204
 30
0.000000
  0
VERTEX
  8
MERGEDLAYER-2
 10
2.954819
 20
5.032851
 30
0.000000
  0
VERTEX
  8
MERGEDLAYER-2
 10
2.961429
 20
4.990498
 30
0.000000
  0
VERTEX
  8
MERGEDLAYER-2
 10
2.981004
 20
4.949773
 30
0.000000
  0
VERTEX
  8
MERGEDLAYER-2
 10
3.012792
 20
4.912240
 30
0.000000
  0
VERTEX
  8
MERGEDLAYER-2
 10
3.055572
 20
4.879342
 30
0.000000
  0
VERTEX
  8
MERGEDLAYER-2
 10
3.107699
 20
4.852343
 30
0.000000
  0
VERTEX
  8
MERGEDLAYER-2
 10
3.167170
 20
4.832281
 30
0.000000
  0
VERTEX
  8
MERGEDLAYER-2
 10
3.231700
 20
4.819927
 30
0.000000
  0
VERTEX
  8
MERGEDLAYER-2
 10
3.298810
 20
4.815756
 30
0.000000
  0
VERTEX
  8
MERGEDLAYER-2
 10
3.365919
 20
4.819927
 30
0.000000
  0
VERTEX
  8
MERGEDLAYER-2
 10
3.430449
 20
4.832281
 30
0.000000
  0
VERTEX
  8
MERGEDLAYER-2
 10
3.489920
 20
4.852343
 30
0.000000
  0
VERTEX
  8
MERGEDLAYER-2
 10
3.542047
 20
4.879342
 30
0.000000
  0
VERTEX
  8
MERGEDLAYER-2
 10
3.584827
 20
4.912240
 30
0.000000
  0
VERTEX
  8
MERGEDLAYER-2
 10
3.616615
 20
4.949773
 30
0.000000
  0
VERTEX
  8
MERGEDLAYER-2
 10
3.636190
 20
4.990498
 30
0.000000
  0
VERTEX
  8
MERGEDLAYER-2
 10
3.642799
 20
5.032851
 30
0.000000
  0
SEQEND
  8
MERGEDLAYER-2
  0
POLYLINE
  8
MERGEDLAYER-2
 66
  1
 70
  1
 62
  7
  0
VERTEX
  8
MERGEDLAYER-2
 10
1.524918
 20
8.360700
 30
0.000000
  0
VERTEX
  8
MERGEDLAYER-2
 10
1.665218
 20
8.360700
 30
0.000000
  0
VERTEX
  8
MERGEDLAYER-2
 10
1.665218
 20
4.201099
 30
0.000000
  0
VERTEX
  8
MERGEDLAYER-2
 10
1.524918
 20
4.201099
 30
0.000000
  0
SEQEND
  8
MERGEDLAYER-2
  0
POLYLINE
  8
MERGEDLAYER-2
 66
  1
 70
  0
 62
252
 10
1.578810
 20
8.360931
 30
0.000000
  0
VERTEX
  8
MERGEDLAYER-2
 10
1.578810
 20
8.360931
 30
0.000000
  0
VERTEX
  8
MERGEDLAYER-2
 10
1.578810
 20
4.201325
 30
0.000000
  0
SEQEND
  8
MERGEDLAYER-2
  0
POLYLINE
  8
MERGEDLAYER-2
 66
  1
 70
  0
 62
252
 10
1.633810
 20
8.360758
 30
0.000000
  0
VERTEX
  8
MERGEDLAYER-2
 10
1.633810
 20
8.360758
 30
0.000000
  0
VERTEX
  8
MERGEDLAYER-2
 10
1.633810
 20
4.201325
 30
0.000000
  0
SEQEND
  8
MERGEDLAYER-2
  0
POLYLINE
  8
MERGEDLAYER-2
 66
  1
 70
  1
 62
  7
  0
VERTEX
  8
MERGEDLAYER-2
 10
5.398216
 20
8.360700
 30
0.000000
  0
VERTEX
  8
MERGEDLAYER-2
 10
5.538515
 20
8.360700
 30
0.000000
  0
VERTEX
  8
MERGEDLAYER-2
 10
5.538515
 20
4.201099
 30
0.000000
  0
VERTEX
  8
MERGEDLAYER-2
 10
5.398216
 20
4.201099
 30
0.000000
  0
SEQEND
  8
MERGEDLAYER-2
  0
POLYLINE
  8
MERGEDLAYER-2
 66
  1
 70
  0
 62
252
 10
5.484622
 20
8.360931
 30
0.000000
  0
VERTEX
  8
MERGEDLAYER-2
 10
5.484622
 20
8.360931
 30
0.000000
  0
VERTEX
  8
MERGEDLAYER-2
 10
5.484622
 20
4.201325
 30
0.000000
  0
SEQEND
  8
MERGEDLAYER-2
  0
POLYLINE
  8
MERGEDLAYER-2
 66
  1
 70
  0
 62
252
 10
5.429623
 20
8.360758
 30
0.000000
  0
VERTEX
  8
MERGEDLAYER-2
 10
5.429623
 20
8.360758
 30
0.000000
  0
VERTEX
  8
MERGEDLAYER-2
 10
5.429623
 20
4.201325
 30
0.000000
  0
SEQEND
  8
MERGEDLAYER-2
  0
POLYLINE
  8
MERGEDLAYER-2
 66
  1
 70
  0
 62
  7
 40
0.018182
 41
0.018182
 10
0.672628
 20
4.200002
 30
0.000000
  0
VERTEX
  8
MERGEDLAYER-2
 10
0.672628
 20
4.200002
 30
0.000000
  0
VERTEX
  8
MERGEDLAYER-2
 10
6.407239
 20
4.200002
 30
0.000000
  0
SEQEND
  8
MERGEDLAYER-2
  0
ENDSEC
  0
EOF
