  0
SECTION
  2
HEADER
999
MacDraft 5.0\0
  9
$ACADVER
  1
AC1006
  9
$CLAYER
  8
LAYER-1
  9
$EXTMIN
 10
0.000000
 20
0.000000
  9
$EXTMAX
 10
6.298611
 20
7.604168
  9
$FASTZOOM
 70
0
  9
$FILLMODE
 70
1
  0
ENDSEC
  0
SECTION
  2
TABLES
  0
TABLE
  2
LTYPE
 70
16
  0
LTYPE
  2
CONTINUOUS
 70
64
  3
Solid Line
 72
65
 73
0
 40
0.000000
  0
LTYPE
  2
LTYPE01
 70
64
  3
CUSTOM
 72
65
 73
2
 40
0.111111
 49
0.083333
 49
-0.027778
  0
LTYPE
  2
LTYPE02
 70
64
  3
CUSTOM
 72
65
 73
2
 40
0.194444
 49
0.166667
 49
-0.027778
  0
LTYPE
  2
LTYPE03
 70
64
  3
CUSTOM
 72
65
 73
2
 40
0.375000
 49
0.333333
 49
-0.041667
  0
LTYPE
  2
LTYPE04
 70
64
  3
CUSTOM
 72
65
 73
2
 40
0.722222
 49
0.666667
 49
-0.055556
  0
LTYPE
  2
LTYPE05
 70
64
  3
CUSTOM
 72
65
 73
4
 40
0.152778
 49
0.083333
 49
-0.027778
 49
0.013889
 49
-0.027778
  0
LTYPE
  2
LTYPE06
 70
64
  3
CUSTOM
 72
65
 73
4
 40
0.236111
 49
0.166667
 49
-0.027778
 49
0.013889
 49
-0.027778
  0
LTYPE
  2
LTYPE07
 70
64
  3
CUSTOM
 72
65
 73
4
 40
0.444444
 49
0.333333
 49
-0.041667
 49
0.027778
 49
-0.041667
  0
LTYPE
  2
LTYPE08
 70
64
  3
CUSTOM
 72
65
 73
4
 40
0.805556
 49
0.666667
 49
-0.055556
 49
0.027778
 49
-0.055556
  0
LTYPE
  2
LTYPE09
 70
64
  3
CUSTOM
 72
65
 73
6
 40
0.194444
 49
0.083333
 49
-0.027778
 49
0.013889
 49
-0.027778
 49
0.013889
 49
-0.027778
  0
LTYPE
  2
LTYPE10
 70
64
  3
CUSTOM
 72
65
 73
6
 40
0.277778
 49
0.166667
 49
-0.027778
 49
0.013889
 49
-0.027778
 49
0.013889
 49
-0.027778
  0
LTYPE
  2
LTYPE11
 70
64
  3
CUSTOM
 72
65
 73
6
 40
0.500000
 49
0.333333
 49
-0.041667
 49
0.027778
 49
-0.027778
 49
0.027778
 49
-0.041667
  0
LTYPE
  2
LTYPE12
 70
64
  3
CUSTOM
 72
65
 73
6
 40
0.861111
 49
0.666667
 49
-0.055556
 49
0.027778
 49
-0.027778
 49
0.027778
 49
-0.055556
  0
LTYPE
  2
LTYPE13
 70
64
  3
CUSTOM
 72
65
 73
8
 40
0.319444
 49
0.166667
 49
-0.027778
 49
0.013889
 49
-0.027778
 49
0.013889
 49
-0.027778
 49
0.013889
 49
-0.027778
  0
LTYPE
  2
LTYPE14
 70
64
  3
CUSTOM
 72
65
 73
8
 40
0.555556
 49
0.333333
 49
-0.041667
 49
0.027778
 49
-0.027778
 49
0.027778
 49
-0.027778
 49
0.027778
 49
-0.041667
  0
LTYPE
  2
LTYPE15
 70
64
  3
CUSTOM
 72
65
 73
8
 40
0.944444
 49
0.666667
 49
-0.055556
 49
0.027778
 49
-0.041667
 49
0.027778
 49
-0.041667
 49
0.027778
 49
-0.055556
  0
ENDTAB
  0
TABLE
  2
LAYER
 70
1
  0
LAYER
  2
LAYER-1
 70
0
 62
7
  6
CONTINUOUS
  0
ENDTAB
  0
ENDSEC
  0
SECTION
  2
BLOCKS
  0
ENDSEC
  0
SECTION
  2
ENTITIES
  0
ARC
  8
LAYER-1
 62
  0
 10
4.750219
 20
6.541854
 30
0.000000
 40
0.254425
 50
270.000000
 51
90.000000
  0
POLYLINE
  8
LAYER-1
 66
  1
 70
  0
 62
  0
 10
4.750219
 20
6.796279
 30
0.000000
  0
VERTEX
  8
LAYER-1
 10
4.750219
 20
6.796279
 30
0.000000
  0
VERTEX
  8
LAYER-1
 10
1.085298
 20
6.796279
 30
0.000000
  0
SEQEND
  8
LAYER-1
  0
POLYLINE
  8
LAYER-1
 66
  1
 70
  0
 62
  0
 10
1.085298
 20
6.796279
 30
0.000000
  0
VERTEX
  8
LAYER-1
 10
1.085298
 20
6.796279
 30
0.000000
  0
VERTEX
  8
LAYER-1
 10
1.085298
 20
6.287429
 30
0.000000
  0
SEQEND
  8
LAYER-1
  0
POLYLINE
  8
LAYER-1
 66
  1
 70
  0
 62
  0
 10
4.750219
 20
6.287429
 30
0.000000
  0
VERTEX
  8
LAYER-1
 10
4.750219
 20
6.287429
 30
0.000000
  0
VERTEX
  8
LAYER-1
 10
1.085298
 20
6.287429
 30
0.000000
  0
SEQEND
  8
LAYER-1
  0
TEXT
  8
LAYER-1
 62
  0
 10
2.895830
 20
7.083335
 30
0.000000
 40
0.333333
  1
MobilFlex
 72
  5
 11
5.048607
 21
7.083335
 31
0.000000
  0
POLYLINE
  8
LAYER-1
 66
  1
 70
  1
 62
  0
  0
VERTEX
  8
LAYER-1
 10
1.086801
 20
7.602502
 30
0.000000
  0
VERTEX
  8
LAYER-1
 10
1.324648
 20
7.602502
 30
0.000000
  0
VERTEX
  8
LAYER-1
 10
1.324648
 20
7.085557
 30
0.000000
  0
VERTEX
  8
LAYER-1
 10
1.086801
 20
7.085557
 30
0.000000
  0
SEQEND
  8
LAYER-1
  0
POLYLINE
  8
LAYER-1
 66
  1
 70
  1
 62
  0
  0
VERTEX
  8
LAYER-1
 10
1.399301
 20
7.602502
 30
0.000000
  0
VERTEX
  8
LAYER-1
 10
1.637148
 20
7.602502
 30
0.000000
  0
VERTEX
  8
LAYER-1
 10
1.637148
 20
7.085557
 30
0.000000
  0
VERTEX
  8
LAYER-1
 10
1.399301
 20
7.085557
 30
0.000000
  0
SEQEND
  8
LAYER-1
  0
POLYLINE
  8
LAYER-1
 66
  1
 70
  1
 62
  0
  0
VERTEX
  8
LAYER-1
 10
1.699648
 20
7.602502
 30
0.000000
  0
VERTEX
  8
LAYER-1
 10
1.937496
 20
7.602502
 30
0.000000
  0
VERTEX
  8
LAYER-1
 10
1.937496
 20
7.085557
 30
0.000000
  0
VERTEX
  8
LAYER-1
 10
1.699648
 20
7.085557
 30
0.000000
  0
SEQEND
  8
LAYER-1
  0
POLYLINE
  8
LAYER-1
 66
  1
 70
  1
 62
  0
  0
VERTEX
  8
LAYER-1
 10
2.003468
 20
7.602502
 30
0.000000
  0
VERTEX
  8
LAYER-1
 10
2.241315
 20
7.602502
 30
0.000000
  0
VERTEX
  8
LAYER-1
 10
2.241315
 20
7.085557
 30
0.000000
  0
VERTEX
  8
LAYER-1
 10
2.003468
 20
7.085557
 30
0.000000
  0
SEQEND
  8
LAYER-1
  0
POLYLINE
  8
LAYER-1
 66
  1
 70
  1
 62
  0
  0
VERTEX
  8
LAYER-1
 10
2.320308
 20
7.598587
 30
0.000000
  0
VERTEX
  8
LAYER-1
 10
2.695742
 20
7.598587
 30
0.000000
  0
VERTEX
  8
LAYER-1
 10
2.695742
 20
7.460566
 30
0.000000
  0
VERTEX
  8
LAYER-1
 10
2.320308
 20
7.460566
 30
0.000000
  0
SEQEND
  8
LAYER-1
  0
POLYLINE
  8
LAYER-1
 66
  1
 70
  1
 62
  0
  0
VERTEX
  8
LAYER-1
 10
2.319874
 20
7.371156
 30
0.000000
  0
VERTEX
  8
LAYER-1
 10
2.628034
 20
7.371156
 30
0.000000
  0
VERTEX
  8
LAYER-1
 10
2.628034
 20
7.237041
 30
0.000000
  0
VERTEX
  8
LAYER-1
 10
2.319874
 20
7.237041
 30
0.000000
  0
SEQEND
  8
LAYER-1
  0
POLYLINE
  8
LAYER-1
 66
  1
 70
  1
 62
  0
  0
VERTEX
  8
LAYER-1
 10
1.086801
 20
7.000930
 30
0.000000
  0
VERTEX
  8
LAYER-1
 10
5.005204
 20
7.000930
 30
0.000000
  0
VERTEX
  8
LAYER-1
 10
5.005204
 20
6.957528
 30
0.000000
  0
VERTEX
  8
LAYER-1
 10
1.086801
 20
6.957528
 30
0.000000
  0
SEQEND
  8
LAYER-1
  0
TEXT
  8
LAYER-1
 62
  0
 10
0.187496
 20
5.013891
 30
0.000000
 40
0.125000
  1
ROYAL
 72
  5
 11
0.798607
 21
5.013891
 31
0.000000
  0
TEXT
  8
LAYER-1
 62
  0
 10
0.187496
 20
4.625002
 30
0.000000
 40
0.125000
  1
IMPACT
 72
  5
 11
0.854163
 21
4.625002
 31
0.000000
  0
TEXT
  8
LAYER-1
 62
  0
 10
0.187496
 20
4.236113
 30
0.000000
 40
0.125000
  1
GLOBAL
 72
  5
 11
0.909718
 21
4.236113
 31
0.000000
  0
TEXT
  8
LAYER-1
 62
  0
 10
0.187496
 20
3.847224
 30
0.000000
 40
0.125000
  1
AEROFLEX
 72
  5
 11
1.118052
 21
3.847224
 31
0.000000
  0
TEXT
  8
LAYER-1
 62
  0
 10
0.187496
 20
3.458335
 30
0.000000
 40
0.125000
  1
CONCEPT
 72
  5
 11
1.076385
 21
3.458335
 31
0.000000
  0
TEXT
  8
LAYER-1
 62
  0
 10
0.187496
 20
3.069446
 30
0.000000
 40
0.125000
  1
SYSTEM S-12, S-525
 72
  5
 11
1.854163
 21
3.069446
 31
0.000000
  0
TEXT
  8
LAYER-1
 62
  0
 10
0.187496
 20
2.680557
 30
0.000000
 40
0.125000
  1
SYSTEM S-126
 72
  5
 11
1.409718
 21
2.680557
 31
0.000000
  0
TEXT
  8
LAYER-1
 62
  0
 10
3.923607
 20
5.000002
 30
0.000000
 40
0.125000
  1
11,7 kg / m     =   2,40 lb / pi
 72
  5
 11
6.034718
 21
5.000002
 31
0.000000
  0
TEXT
  8
LAYER-1
 62
  0
 10
3.937496
 20
4.611113
 30
0.000000
 40
0.125000
  1
8,5 kg / m     =   1,75 lb / pi  
 72
  5
 11
6.034718
 21
4.611113
 31
0.000000
  0
TEXT
  8
LAYER-1
 62
  0
 10
3.923607
 20
4.222224
 30
0.000000
 40
0.125000
  1
10,5 kg / m     =   2,15 lb / pi
 72
  5
 11
6.034718
 21
4.222224
 31
0.000000
  0
TEXT
  8
LAYER-1
 62
  0
 10
3.895830
 20
3.833335
 30
0.000000
 40
0.125000
  1
9,3 kg / m     =   1,90 lb / pi   
 72
  5
 11
6.034718
 21
3.833335
 31
0.000000
  0
TEXT
  8
LAYER-1
 62
  0
 10
3.895830
 20
3.444446
 30
0.000000
 40
0.125000
  1
7,6 kg / m     =   1,55 lb / pi   
 72
  5
 11
6.034718
 21
3.444446
 31
0.000000
  0
TEXT
  8
LAYER-1
 62
  0
 10
3.937496
 20
3.055557
 30
0.000000
 40
0.125000
  1
6,1 kg / m     =   1,25 lb / pi  
 72
  5
 11
6.034718
 21
3.055557
 31
0.000000
  0
TEXT
  8
LAYER-1
 62
  0
 10
3.937496
 20
2.666668
 30
0.000000
 40
0.125000
  1
5,6 kg / m     =   1,15 lb / pi  
 72
  5
 11
6.034718
 21
2.666668
 31
0.000000
  0
TEXT
  8
LAYER-1
 62
  0
 10
0.048607
 20
1.638891
 30
0.000000
 40
0.125000
  1
La carga es m‡s grande cuando la raja est‡ en la posici—n apilada.
 72
  5
 11
5.256941
 21
1.638891
 31
0.000000
  0
TEXT
  8
LAYER-1
 62
  0
 10
0.048607
 20
1.347224
 30
0.000000
 40
0.125000
  1
La estructura de soporte debe ser capaz el peso de la reja completamente
 72
  5
 11
5.784718
 21
1.347224
 31
0.000000
  0
TEXT
  8
LAYER-1
 62
  0
 10
0.048607
 20
1.055557
 30
0.000000
 40
0.125000
  1
apiladas.
 72
  5
 11
0.826385
 21
1.055557
 31
0.000000
  0
TEXT
  8
LAYER-1
 62
  0
 10
0.048607
 20
0.180557
 30
0.000000
 40
0.125000
  1
Apilasa peso lineal
 72
  5
 11
1.590274
 21
0.180557
 31
0.000000
  0
TEXT
  8
LAYER-1
 62
  0
 10
1.590274
 20
0.180557
 30
0.000000
 40
0.125000
  1
  =  Peso por superficie de reja  x  Altura  x  8
 72
  5
 11
4.979163
 21
0.180557
 31
0.000000
  0
TEXT
  8
LAYER-1
 62
  7
 10
1.312496
 20
6.416668
 30
0.000000
 40
0.187500
  1
Peso
 72
  5
 11
1.979163
 21
6.416668
 31
0.000000
  0
TEXT
  8
LAYER-1
 62
  7
 10
1.979163
 20
6.416668
 30
0.000000
 40
0.187500
  1
  
 72
  5
 11
2.187496
 21
6.416668
 31
0.000000
  0
TEXT
  8
LAYER-1
 62
  7
 10
2.187496
 20
6.416668
 30
0.000000
 40
0.104167
  1
(CANCELAS REPLEGABLES)
 72
  5
 11
4.201385
 21
6.416668
 31
0.000000
  0
TEXT
  8
LAYER-1
 62
  0
 10
3.090274
 20
5.375002
 30
0.000000
 40
0.145833
  1
PESO POR SUPERFICIE DE REJA
 72
  5
 11
6.256941
 21
5.375002
 31
0.000000
  0
TEXT
  8
LAYER-1
 62
  0
 10
0.187496
 20
5.375002
 30
0.000000
 40
0.145833
  1
MODELO
 72
  5
 11
1.118052
 21
5.375002
 31
0.000000
  0
TEXT
  8
LAYER-1
 62
  0
 10
6.048607
 20
5.041668
 30
0.000000
 40
0.093750
  1
2
 72
  5
 11
6.187496
 21
5.041668
 31
0.000000
  0
TEXT
  8
LAYER-1
 62
  0
 10
6.048607
 20
4.652779
 30
0.000000
 40
0.093750
  1
2
 72
  5
 11
6.187496
 21
4.652779
 31
0.000000
  0
TEXT
  8
LAYER-1
 62
  0
 10
6.048607
 20
4.263891
 30
0.000000
 40
0.093750
  1
2
 72
  5
 11
6.187496
 21
4.263891
 31
0.000000
  0
TEXT
  8
LAYER-1
 62
  0
 10
6.048607
 20
3.875002
 30
0.000000
 40
0.093750
  1
2
 72
  5
 11
6.187496
 21
3.875002
 31
0.000000
  0
TEXT
  8
LAYER-1
 62
  0
 10
6.048607
 20
3.486113
 30
0.000000
 40
0.093750
  1
2
 72
  5
 11
6.187496
 21
3.486113
 31
0.000000
  0
TEXT
  8
LAYER-1
 62
  0
 10
6.048607
 20
3.097224
 30
0.000000
 40
0.093750
  1
2
 72
  5
 11
6.187496
 21
3.097224
 31
0.000000
  0
TEXT
  8
LAYER-1
 62
  0
 10
6.048607
 20
2.708335
 30
0.000000
 40
0.093750
  1
2
 72
  5
 11
6.187496
 21
2.708335
 31
0.000000
  0
TEXT
  8
LAYER-1
 62
  0
 10
4.812496
 20
5.041668
 30
0.000000
 40
0.093750
  1
2
 72
  5
 11
4.951385
 21
5.041668
 31
0.000000
  0
TEXT
  8
LAYER-1
 62
  0
 10
4.812496
 20
4.652779
 30
0.000000
 40
0.093750
  1
2
 72
  5
 11
4.951385
 21
4.652779
 31
0.000000
  0
TEXT
  8
LAYER-1
 62
  0
 10
4.812496
 20
4.263891
 30
0.000000
 40
0.093750
  1
2
 72
  5
 11
4.951385
 21
4.263891
 31
0.000000
  0
TEXT
  8
LAYER-1
 62
  0
 10
4.812496
 20
3.875002
 30
0.000000
 40
0.093750
  1
2
 72
  5
 11
4.951385
 21
3.875002
 31
0.000000
  0
TEXT
  8
LAYER-1
 62
  0
 10
4.812496
 20
3.486113
 30
0.000000
 40
0.093750
  1
2
 72
  5
 11
4.951385
 21
3.486113
 31
0.000000
  0
TEXT
  8
LAYER-1
 62
  0
 10
4.812496
 20
3.097224
 30
0.000000
 40
0.093750
  1
2
 72
  5
 11
4.951385
 21
3.097224
 31
0.000000
  0
TEXT
  8
LAYER-1
 62
  0
 10
4.812496
 20
2.708335
 30
0.000000
 40
0.093750
  1
2
 72
  5
 11
4.951385
 21
2.708335
 31
0.000000
  0
POLYLINE
  8
LAYER-1
 66
  1
 70
  0
 62
  0
 40
0.027778
 41
0.027778
 10
6.270833
 20
5.256946
 30
0.000000
  0
VERTEX
  8
LAYER-1
 10
6.270833
 20
5.256946
 30
0.000000
  0
VERTEX
  8
LAYER-1
 10
0.048607
 20
5.256946
 30
0.000000
  0
SEQEND
  8
LAYER-1
  0
POLYLINE
  8
LAYER-1
 66
  1
 70
  0
 62
  0
 40
0.027778
 41
0.027778
 10
6.270833
 20
5.256946
 30
0.000000
  0
VERTEX
  8
LAYER-1
 10
6.270833
 20
5.256946
 30
0.000000
  0
VERTEX
  8
LAYER-1
 10
6.270833
 20
2.517359
 30
0.000000
  0
SEQEND
  8
LAYER-1
  0
POLYLINE
  8
LAYER-1
 66
  1
 70
  0
 62
  0
 40
0.027778
 41
0.027778
 10
6.270833
 20
2.517359
 30
0.000000
  0
VERTEX
  8
LAYER-1
 10
6.270833
 20
2.517359
 30
0.000000
  0
VERTEX
  8
LAYER-1
 10
0.048607
 20
2.517359
 30
0.000000
  0
SEQEND
  8
LAYER-1
  0
POLYLINE
  8
LAYER-1
 66
  1
 70
  0
 62
  0
 40
0.027778
 41
0.027778
 10
0.048607
 20
2.517359
 30
0.000000
  0
VERTEX
  8
LAYER-1
 10
0.048607
 20
2.517359
 30
0.000000
  0
VERTEX
  8
LAYER-1
 10
0.048607
 20
5.256946
 30
0.000000
  0
SEQEND
  8
LAYER-1
  0
POLYLINE
  8
LAYER-1
 66
  1
 70
  0
 62
  0
 10
0.055552
 20
4.857535
 30
0.000000
  0
VERTEX
  8
LAYER-1
 10
0.055552
 20
4.857535
 30
0.000000
  0
VERTEX
  8
LAYER-1
 10
6.270834
 20
4.857535
 30
0.000000
  0
SEQEND
  8
LAYER-1
  0
POLYLINE
  8
LAYER-1
 66
  1
 70
  0
 62
  0
 10
0.055552
 20
4.467535
 30
0.000000
  0
VERTEX
  8
LAYER-1
 10
0.055552
 20
4.467535
 30
0.000000
  0
VERTEX
  8
LAYER-1
 10
6.270834
 20
4.467535
 30
0.000000
  0
SEQEND
  8
LAYER-1
  0
POLYLINE
  8
LAYER-1
 66
  1
 70
  0
 62
  0
 10
0.055552
 20
4.077535
 30
0.000000
  0
VERTEX
  8
LAYER-1
 10
0.055552
 20
4.077535
 30
0.000000
  0
VERTEX
  8
LAYER-1
 10
6.270834
 20
4.077535
 30
0.000000
  0
SEQEND
  8
LAYER-1
  0
POLYLINE
  8
LAYER-1
 66
  1
 70
  0
 62
  0
 10
0.055552
 20
3.687534
 30
0.000000
  0
VERTEX
  8
LAYER-1
 10
0.055552
 20
3.687534
 30
0.000000
  0
VERTEX
  8
LAYER-1
 10
6.270834
 20
3.687534
 30
0.000000
  0
SEQEND
  8
LAYER-1
  0
POLYLINE
  8
LAYER-1
 66
  1
 70
  0
 62
  0
 10
0.055552
 20
3.297534
 30
0.000000
  0
VERTEX
  8
LAYER-1
 10
0.055552
 20
3.297534
 30
0.000000
  0
VERTEX
  8
LAYER-1
 10
6.270834
 20
3.297534
 30
0.000000
  0
SEQEND
  8
LAYER-1
  0
POLYLINE
  8
LAYER-1
 66
  1
 70
  0
 62
  0
 10
0.055552
 20
2.907534
 30
0.000000
  0
VERTEX
  8
LAYER-1
 10
0.055552
 20
2.907534
 30
0.000000
  0
VERTEX
  8
LAYER-1
 10
6.270834
 20
2.907534
 30
0.000000
  0
SEQEND
  8
LAYER-1
  0
ENDSEC
  0
EOF
