  0
SECTION
  2
HEADER
999
MacDraft 5.0\0
  9
$ACADVER
  1
AC1006
  9
$CLAYER
  8
MERGEDLAYER-1
  9
$EXTMIN
 10
0.000000
 20
0.000000
  9
$EXTMAX
 10
10.642496
 20
8.103984
  9
$FASTZOOM
 70
0
  9
$FILLMODE
 70
1
  0
ENDSEC
  0
SECTION
  2
TABLES
  0
TABLE
  2
LTYPE
 70
16
  0
LTYPE
  2
CONTINUOUS
 70
64
  3
Solid Line
 72
65
 73
0
 40
0.000000
  0
LTYPE
  2
LTYPE01
 70
64
  3
CUSTOM
 72
65
 73
2
 40
0.076923
 49
0.057692
 49
-0.019231
  0
LTYPE
  2
LTYPE02
 70
64
  3
CUSTOM
 72
65
 73
2
 40
0.134615
 49
0.115385
 49
-0.019231
  0
LTYPE
  2
LTYPE03
 70
64
  3
CUSTOM
 72
65
 73
2
 40
0.259615
 49
0.230769
 49
-0.028846
  0
LTYPE
  2
LTYPE04
 70
64
  3
CUSTOM
 72
65
 73
2
 40
0.500000
 49
0.461538
 49
-0.038462
  0
LTYPE
  2
LTYPE05
 70
64
  3
CUSTOM
 72
65
 73
4
 40
0.105769
 49
0.057692
 49
-0.019231
 49
0.009615
 49
-0.019231
  0
LTYPE
  2
LTYPE06
 70
64
  3
CUSTOM
 72
65
 73
4
 40
0.163462
 49
0.115385
 49
-0.019231
 49
0.009615
 49
-0.019231
  0
LTYPE
  2
LTYPE07
 70
64
  3
CUSTOM
 72
65
 73
4
 40
0.307692
 49
0.230769
 49
-0.028846
 49
0.019231
 49
-0.028846
  0
LTYPE
  2
LTYPE08
 70
64
  3
CUSTOM
 72
65
 73
4
 40
0.557692
 49
0.461538
 49
-0.038462
 49
0.019231
 49
-0.038462
  0
LTYPE
  2
LTYPE09
 70
64
  3
CUSTOM
 72
65
 73
6
 40
0.134615
 49
0.057692
 49
-0.019231
 49
0.009615
 49
-0.019231
 49
0.009615
 49
-0.019231
  0
LTYPE
  2
LTYPE10
 70
64
  3
CUSTOM
 72
65
 73
6
 40
0.192308
 49
0.115385
 49
-0.019231
 49
0.009615
 49
-0.019231
 49
0.009615
 49
-0.019231
  0
LTYPE
  2
LTYPE11
 70
64
  3
CUSTOM
 72
65
 73
6
 40
0.346154
 49
0.230769
 49
-0.028846
 49
0.019231
 49
-0.019231
 49
0.019231
 49
-0.028846
  0
LTYPE
  2
LTYPE12
 70
64
  3
CUSTOM
 72
65
 73
6
 40
0.596154
 49
0.461538
 49
-0.038462
 49
0.019231
 49
-0.019231
 49
0.019231
 49
-0.038462
  0
LTYPE
  2
LTYPE13
 70
64
  3
CUSTOM
 72
65
 73
8
 40
0.221154
 49
0.115385
 49
-0.019231
 49
0.009615
 49
-0.019231
 49
0.009615
 49
-0.019231
 49
0.009615
 49
-0.019231
  0
LTYPE
  2
LTYPE14
 70
64
  3
CUSTOM
 72
65
 73
8
 40
0.384615
 49
0.230769
 49
-0.028846
 49
0.019231
 49
-0.019231
 49
0.019231
 49
-0.019231
 49
0.019231
 49
-0.028846
  0
LTYPE
  2
LTYPE15
 70
64
  3
CUSTOM
 72
65
 73
8
 40
0.653846
 49
0.461538
 49
-0.038462
 49
0.019231
 49
-0.028846
 49
0.019231
 49
-0.028846
 49
0.019231
 49
-0.038462
  0
ENDTAB
  0
TABLE
  2
LAYER
 70
1
  0
LAYER
  2
MERGEDLAYER-1
 70
0
 62
7
  6
CONTINUOUS
  0
ENDTAB
  0
ENDSEC
  0
SECTION
  2
BLOCKS
  0
ENDSEC
  0
SECTION
  2
ENTITIES
  0
POLYLINE
  8
MERGEDLAYER-1
 66
  1
 70
  0
 62
  7
 10
47.164016
 20
18.665645
 30
0.000000
  0
VERTEX
  8
MERGEDLAYER-1
 10
47.164016
 20
18.665645
 30
0.000000
  0
VERTEX
  8
MERGEDLAYER-1
 10
46.694200
 20
18.665645
 30
0.000000
  0
SEQEND
  8
MERGEDLAYER-1
  0
POLYLINE
  8
MERGEDLAYER-1
 66
  1
 70
  0
 62
  7
 10
47.164020
 20
18.665654
 30
0.000000
  0
VERTEX
  8
MERGEDLAYER-1
 10
47.164020
 20
18.665654
 30
0.000000
  0
VERTEX
  8
MERGEDLAYER-1
 10
47.177143
 20
18.652715
 30
0.000000
  0
VERTEX
  8
MERGEDLAYER-1
 10
47.194017
 20
18.665748
 30
0.000000
  0
SEQEND
  8
MERGEDLAYER-1
  0
POLYLINE
  8
MERGEDLAYER-1
 66
  1
 70
  0
 62
  7
 10
47.194021
 20
18.665748
 30
0.000000
  0
VERTEX
  8
MERGEDLAYER-1
 10
47.194021
 20
18.665748
 30
0.000000
  0
VERTEX
  8
MERGEDLAYER-1
 10
48.240187
 20
18.665748
 30
0.000000
  0
SEQEND
  8
MERGEDLAYER-1
  0
POLYLINE
  8
MERGEDLAYER-1
 66
  1
 70
  0
 62
  7
 10
48.240192
 20
18.665748
 30
0.000000
  0
VERTEX
  8
MERGEDLAYER-1
 10
48.240192
 20
18.665748
 30
0.000000
  0
VERTEX
  8
MERGEDLAYER-1
 10
48.253221
 20
18.652715
 30
0.000000
  0
VERTEX
  8
MERGEDLAYER-1
 10
48.270189
 20
18.665748
 30
0.000000
  0
SEQEND
  8
MERGEDLAYER-1
  0
POLYLINE
  8
MERGEDLAYER-1
 66
  1
 70
  0
 62
  7
 10
48.270184
 20
18.665748
 30
0.000000
  0
VERTEX
  8
MERGEDLAYER-1
 10
48.270184
 20
18.665748
 30
0.000000
  0
VERTEX
  8
MERGEDLAYER-1
 10
49.305072
 20
18.665748
 30
0.000000
  0
SEQEND
  8
MERGEDLAYER-1
  0
POLYLINE
  8
MERGEDLAYER-1
 66
  1
 70
  0
 62
  7
 10
49.320068
 20
18.650743
 30
0.000000
  0
VERTEX
  8
MERGEDLAYER-1
 10
49.320068
 20
18.650743
 30
0.000000
  0
VERTEX
  8
MERGEDLAYER-1
 10
49.305072
 20
18.665743
 30
0.000000
  0
SEQEND
  8
MERGEDLAYER-1
  0
POLYLINE
  8
MERGEDLAYER-1
 66
  1
 70
  0
 62
  7
 10
49.240295
 20
18.570604
 30
0.000000
  0
VERTEX
  8
MERGEDLAYER-1
 10
49.240295
 20
18.570604
 30
0.000000
  0
VERTEX
  8
MERGEDLAYER-1
 10
49.320073
 20
18.650743
 30
0.000000
  0
SEQEND
  8
MERGEDLAYER-1
  0
POLYLINE
  8
MERGEDLAYER-1
 66
  1
 70
  0
 62
  7
 10
49.240291
 20
18.570604
 30
0.000000
  0
VERTEX
  8
MERGEDLAYER-1
 10
49.240291
 20
18.570604
 30
0.000000
  0
VERTEX
  8
MERGEDLAYER-1
 10
49.225295
 20
18.585604
 30
0.000000
  0
SEQEND
  8
MERGEDLAYER-1
  0
POLYLINE
  8
MERGEDLAYER-1
 66
  1
 70
  0
 62
  7
 10
49.180580
 20
18.585609
 30
0.000000
  0
VERTEX
  8
MERGEDLAYER-1
 10
49.180580
 20
18.585609
 30
0.000000
  0
VERTEX
  8
MERGEDLAYER-1
 10
49.225295
 20
18.585609
 30
0.000000
  0
SEQEND
  8
MERGEDLAYER-1
  0
POLYLINE
  8
MERGEDLAYER-1
 66
  1
 70
  0
 62
  7
 10
49.180580
 20
18.585604
 30
0.000000
  0
VERTEX
  8
MERGEDLAYER-1
 10
49.180580
 20
18.585604
 30
0.000000
  0
VERTEX
  8
MERGEDLAYER-1
 10
49.165579
 20
18.570604
 30
0.000000
  0
SEQEND
  8
MERGEDLAYER-1
  0
POLYLINE
  8
MERGEDLAYER-1
 66
  1
 70
  0
 62
  7
 10
49.165584
 20
18.493333
 30
0.000000
  0
VERTEX
  8
MERGEDLAYER-1
 10
49.165584
 20
18.493333
 30
0.000000
  0
VERTEX
  8
MERGEDLAYER-1
 10
49.165584
 20
18.570604
 30
0.000000
  0
SEQEND
  8
MERGEDLAYER-1
  0
POLYLINE
  8
MERGEDLAYER-1
 66
  1
 70
  0
 62
  7
 10
49.150593
 20
18.478337
 30
0.000000
  0
VERTEX
  8
MERGEDLAYER-1
 10
49.150593
 20
18.478337
 30
0.000000
  0
VERTEX
  8
MERGEDLAYER-1
 10
49.165588
 20
18.493333
 30
0.000000
  0
SEQEND
  8
MERGEDLAYER-1
  0
POLYLINE
  8
MERGEDLAYER-1
 66
  1
 70
  0
 62
  7
 10
49.080585
 20
18.478333
 30
0.000000
  0
VERTEX
  8
MERGEDLAYER-1
 10
49.080585
 20
18.478333
 30
0.000000
  0
VERTEX
  8
MERGEDLAYER-1
 10
49.150593
 20
18.478333
 30
0.000000
  0
SEQEND
  8
MERGEDLAYER-1
  0
POLYLINE
  8
MERGEDLAYER-1
 66
  1
 70
  0
 62
  7
 10
49.065589
 20
18.493333
 30
0.000000
  0
VERTEX
  8
MERGEDLAYER-1
 10
49.065589
 20
18.493333
 30
0.000000
  0
VERTEX
  8
MERGEDLAYER-1
 10
49.080585
 20
18.478337
 30
0.000000
  0
SEQEND
  8
MERGEDLAYER-1
  0
POLYLINE
  8
MERGEDLAYER-1
 66
  1
 70
  0
 62
  7
 10
49.065589
 20
18.570749
 30
0.000000
  0
VERTEX
  8
MERGEDLAYER-1
 10
49.065589
 20
18.570749
 30
0.000000
  0
VERTEX
  8
MERGEDLAYER-1
 10
49.065589
 20
18.493333
 30
0.000000
  0
SEQEND
  8
MERGEDLAYER-1
  0
POLYLINE
  8
MERGEDLAYER-1
 66
  1
 70
  0
 62
  7
 10
49.065580
 20
18.570749
 30
0.000000
  0
VERTEX
  8
MERGEDLAYER-1
 10
49.065580
 20
18.570749
 30
0.000000
  0
VERTEX
  8
MERGEDLAYER-1
 10
49.050579
 20
18.585750
 30
0.000000
  0
SEQEND
  8
MERGEDLAYER-1
  0
POLYLINE
  8
MERGEDLAYER-1
 66
  1
 70
  0
 62
  7
 10
49.005315
 20
18.585750
 30
0.000000
  0
VERTEX
  8
MERGEDLAYER-1
 10
49.005315
 20
18.585750
 30
0.000000
  0
VERTEX
  8
MERGEDLAYER-1
 10
49.050579
 20
18.585750
 30
0.000000
  0
SEQEND
  8
MERGEDLAYER-1
  0
POLYLINE
  8
MERGEDLAYER-1
 66
  1
 70
  0
 62
  7
 10
49.005315
 20
18.585750
 30
0.000000
  0
VERTEX
  8
MERGEDLAYER-1
 10
49.005315
 20
18.585750
 30
0.000000
  0
VERTEX
  8
MERGEDLAYER-1
 10
48.990314
 20
18.570749
 30
0.000000
  0
SEQEND
  8
MERGEDLAYER-1
  0
POLYLINE
  8
MERGEDLAYER-1
 66
  1
 70
  0
 62
  7
 10
48.990309
 20
18.353300
 30
0.000000
  0
VERTEX
  8
MERGEDLAYER-1
 10
48.990309
 20
18.353300
 30
0.000000
  0
VERTEX
  8
MERGEDLAYER-1
 10
48.990309
 20
18.570749
 30
0.000000
  0
SEQEND
  8
MERGEDLAYER-1
  0
POLYLINE
  8
MERGEDLAYER-1
 66
  1
 70
  0
 62
  7
 10
48.975309
 20
18.338304
 30
0.000000
  0
VERTEX
  8
MERGEDLAYER-1
 10
48.975309
 20
18.338304
 30
0.000000
  0
VERTEX
  8
MERGEDLAYER-1
 10
48.990309
 20
18.353300
 30
0.000000
  0
SEQEND
  8
MERGEDLAYER-1
  0
POLYLINE
  8
MERGEDLAYER-1
 66
  1
 70
  0
 62
  7
 10
48.925312
 20
18.338299
 30
0.000000
  0
VERTEX
  8
MERGEDLAYER-1
 10
48.925312
 20
18.338299
 30
0.000000
  0
VERTEX
  8
MERGEDLAYER-1
 10
48.975309
 20
18.338299
 30
0.000000
  0
SEQEND
  8
MERGEDLAYER-1
  0
POLYLINE
  8
MERGEDLAYER-1
 66
  1
 70
  0
 62
  7
 10
48.910316
 20
18.353300
 30
0.000000
  0
VERTEX
  8
MERGEDLAYER-1
 10
48.910316
 20
18.353300
 30
0.000000
  0
VERTEX
  8
MERGEDLAYER-1
 10
48.925312
 20
18.338304
 30
0.000000
  0
SEQEND
  8
MERGEDLAYER-1
  0
POLYLINE
  8
MERGEDLAYER-1
 66
  1
 70
  0
 62
  7
 10
48.910311
 20
18.570599
 30
0.000000
  0
VERTEX
  8
MERGEDLAYER-1
 10
48.910311
 20
18.570599
 30
0.000000
  0
VERTEX
  8
MERGEDLAYER-1
 10
48.910311
 20
18.353300
 30
0.000000
  0
SEQEND
  8
MERGEDLAYER-1
  0
POLYLINE
  8
MERGEDLAYER-1
 66
  1
 70
  0
 62
  7
 10
48.910306
 20
18.570599
 30
0.000000
  0
VERTEX
  8
MERGEDLAYER-1
 10
48.910306
 20
18.570599
 30
0.000000
  0
VERTEX
  8
MERGEDLAYER-1
 10
48.895306
 20
18.585595
 30
0.000000
  0
SEQEND
  8
MERGEDLAYER-1
  0
POLYLINE
  8
MERGEDLAYER-1
 66
  1
 70
  0
 62
  7
 10
48.702519
 20
18.585590
 30
0.000000
  0
VERTEX
  8
MERGEDLAYER-1
 10
48.702519
 20
18.585590
 30
0.000000
  0
VERTEX
  8
MERGEDLAYER-1
 10
48.895306
 20
18.585590
 30
0.000000
  0
SEQEND
  8
MERGEDLAYER-1
  0
POLYLINE
  8
MERGEDLAYER-1
 66
  1
 70
  0
 62
  7
 10
48.702519
 20
18.585595
 30
0.000000
  0
VERTEX
  8
MERGEDLAYER-1
 10
48.702519
 20
18.585595
 30
0.000000
  0
VERTEX
  8
MERGEDLAYER-1
 10
48.687519
 20
18.570599
 30
0.000000
  0
SEQEND
  8
MERGEDLAYER-1
  0
POLYLINE
  8
MERGEDLAYER-1
 66
  1
 70
  0
 62
  7
 10
48.562200
 20
18.570604
 30
0.000000
  0
VERTEX
  8
MERGEDLAYER-1
 10
48.562200
 20
18.570604
 30
0.000000
  0
VERTEX
  8
MERGEDLAYER-1
 10
48.687514
 20
18.570599
 30
0.000000
  0
SEQEND
  8
MERGEDLAYER-1
  0
POLYLINE
  8
MERGEDLAYER-1
 66
  1
 70
  0
 62
  7
 10
48.562195
 20
18.570604
 30
0.000000
  0
VERTEX
  8
MERGEDLAYER-1
 10
48.562195
 20
18.570604
 30
0.000000
  0
VERTEX
  8
MERGEDLAYER-1
 10
48.547199
 20
18.585604
 30
0.000000
  0
SEQEND
  8
MERGEDLAYER-1
  0
POLYLINE
  8
MERGEDLAYER-1
 66
  1
 70
  0
 62
  7
 10
48.547199
 20
18.585609
 30
0.000000
  0
VERTEX
  8
MERGEDLAYER-1
 10
48.547199
 20
18.585609
 30
0.000000
  0
VERTEX
  8
MERGEDLAYER-1
 10
48.497493
 20
18.585609
 30
0.000000
  0
SEQEND
  8
MERGEDLAYER-1
  0
POLYLINE
  8
MERGEDLAYER-1
 66
  1
 70
  0
 62
  7
 10
48.497493
 20
18.585604
 30
0.000000
  0
VERTEX
  8
MERGEDLAYER-1
 10
48.497493
 20
18.585604
 30
0.000000
  0
VERTEX
  8
MERGEDLAYER-1
 10
48.482497
 20
18.570604
 30
0.000000
  0
SEQEND
  8
MERGEDLAYER-1
  0
POLYLINE
  8
MERGEDLAYER-1
 66
  1
 70
  0
 62
  7
 10
48.482492
 20
18.493333
 30
0.000000
  0
VERTEX
  8
MERGEDLAYER-1
 10
48.482492
 20
18.493333
 30
0.000000
  0
VERTEX
  8
MERGEDLAYER-1
 10
48.482492
 20
18.570604
 30
0.000000
  0
SEQEND
  8
MERGEDLAYER-1
  0
POLYLINE
  8
MERGEDLAYER-1
 66
  1
 70
  0
 62
  7
 10
48.467487
 20
18.478337
 30
0.000000
  0
VERTEX
  8
MERGEDLAYER-1
 10
48.467487
 20
18.478337
 30
0.000000
  0
VERTEX
  8
MERGEDLAYER-1
 10
48.482488
 20
18.493333
 30
0.000000
  0
SEQEND
  8
MERGEDLAYER-1
  0
POLYLINE
  8
MERGEDLAYER-1
 66
  1
 70
  0
 62
  7
 10
48.467487
 20
18.478333
 30
0.000000
  0
VERTEX
  8
MERGEDLAYER-1
 10
48.467487
 20
18.478333
 30
0.000000
  0
VERTEX
  8
MERGEDLAYER-1
 10
48.397494
 20
18.478333
 30
0.000000
  0
SEQEND
  8
MERGEDLAYER-1
  0
POLYLINE
  8
MERGEDLAYER-1
 66
  1
 70
  0
 62
  7
 10
48.382493
 20
18.493333
 30
0.000000
  0
VERTEX
  8
MERGEDLAYER-1
 10
48.382493
 20
18.493333
 30
0.000000
  0
VERTEX
  8
MERGEDLAYER-1
 10
48.397494
 20
18.478337
 30
0.000000
  0
SEQEND
  8
MERGEDLAYER-1
  0
POLYLINE
  8
MERGEDLAYER-1
 66
  1
 70
  0
 62
  7
 10
48.382489
 20
18.570749
 30
0.000000
  0
VERTEX
  8
MERGEDLAYER-1
 10
48.382489
 20
18.570749
 30
0.000000
  0
VERTEX
  8
MERGEDLAYER-1
 10
48.382489
 20
18.493333
 30
0.000000
  0
SEQEND
  8
MERGEDLAYER-1
  0
POLYLINE
  8
MERGEDLAYER-1
 66
  1
 70
  0
 62
  7
 10
48.382493
 20
18.570749
 30
0.000000
  0
VERTEX
  8
MERGEDLAYER-1
 10
48.382493
 20
18.570749
 30
0.000000
  0
VERTEX
  8
MERGEDLAYER-1
 10
48.367497
 20
18.585750
 30
0.000000
  0
SEQEND
  8
MERGEDLAYER-1
  0
POLYLINE
  8
MERGEDLAYER-1
 66
  1
 70
  0
 62
  7
 10
48.317214
 20
18.585750
 30
0.000000
  0
VERTEX
  8
MERGEDLAYER-1
 10
48.317214
 20
18.585750
 30
0.000000
  0
VERTEX
  8
MERGEDLAYER-1
 10
48.367497
 20
18.585750
 30
0.000000
  0
SEQEND
  8
MERGEDLAYER-1
  0
POLYLINE
  8
MERGEDLAYER-1
 66
  1
 70
  0
 62
  7
 10
48.317214
 20
18.585750
 30
0.000000
  0
VERTEX
  8
MERGEDLAYER-1
 10
48.317214
 20
18.585750
 30
0.000000
  0
VERTEX
  8
MERGEDLAYER-1
 10
48.302213
 20
18.570749
 30
0.000000
  0
SEQEND
  8
MERGEDLAYER-1
  0
POLYLINE
  8
MERGEDLAYER-1
 66
  1
 70
  0
 62
  7
 10
48.302218
 20
18.353300
 30
0.000000
  0
VERTEX
  8
MERGEDLAYER-1
 10
48.302218
 20
18.353300
 30
0.000000
  0
VERTEX
  8
MERGEDLAYER-1
 10
48.302218
 20
18.570749
 30
0.000000
  0
SEQEND
  8
MERGEDLAYER-1
  0
POLYLINE
  8
MERGEDLAYER-1
 66
  1
 70
  0
 62
  7
 10
48.287217
 20
18.338304
 30
0.000000
  0
VERTEX
  8
MERGEDLAYER-1
 10
48.287217
 20
18.338304
 30
0.000000
  0
VERTEX
  8
MERGEDLAYER-1
 10
48.302213
 20
18.353300
 30
0.000000
  0
SEQEND
  8
MERGEDLAYER-1
  0
POLYLINE
  8
MERGEDLAYER-1
 66
  1
 70
  0
 62
  7
 10
48.287217
 20
18.338299
 30
0.000000
  0
VERTEX
  8
MERGEDLAYER-1
 10
48.287217
 20
18.338299
 30
0.000000
  0
VERTEX
  8
MERGEDLAYER-1
 10
48.222220
 20
18.338299
 30
0.000000
  0
SEQEND
  8
MERGEDLAYER-1
  0
POLYLINE
  8
MERGEDLAYER-1
 66
  1
 70
  0
 62
  7
 10
48.207219
 20
18.353300
 30
0.000000
  0
VERTEX
  8
MERGEDLAYER-1
 10
48.207219
 20
18.353300
 30
0.000000
  0
VERTEX
  8
MERGEDLAYER-1
 10
48.222220
 20
18.338304
 30
0.000000
  0
SEQEND
  8
MERGEDLAYER-1
  0
POLYLINE
  8
MERGEDLAYER-1
 66
  1
 70
  0
 62
  7
 10
48.207214
 20
18.353300
 30
0.000000
  0
VERTEX
  8
MERGEDLAYER-1
 10
48.207214
 20
18.353300
 30
0.000000
  0
VERTEX
  8
MERGEDLAYER-1
 10
48.207214
 20
18.555594
 30
0.000000
  0
SEQEND
  8
MERGEDLAYER-1
  0
POLYLINE
  8
MERGEDLAYER-1
 66
  1
 70
  0
 62
  7
 10
48.207214
 20
18.555594
 30
0.000000
  0
VERTEX
  8
MERGEDLAYER-1
 10
48.207214
 20
18.555594
 30
0.000000
  0
VERTEX
  8
MERGEDLAYER-1
 10
48.192214
 20
18.570594
 30
0.000000
  0
SEQEND
  8
MERGEDLAYER-1
  0
POLYLINE
  8
MERGEDLAYER-1
 66
  1
 70
  0
 62
  7
 10
48.192214
 20
18.570599
 30
0.000000
  0
VERTEX
  8
MERGEDLAYER-1
 10
48.192214
 20
18.570599
 30
0.000000
  0
VERTEX
  8
MERGEDLAYER-1
 10
47.069219
 20
18.570599
 30
0.000000
  0
SEQEND
  8
MERGEDLAYER-1
  0
POLYLINE
  8
MERGEDLAYER-1
 66
  1
 70
  0
 62
  7
 10
47.069219
 20
18.570594
 30
0.000000
  0
VERTEX
  8
MERGEDLAYER-1
 10
47.069219
 20
18.570594
 30
0.000000
  0
VERTEX
  8
MERGEDLAYER-1
 10
47.054223
 20
18.555594
 30
0.000000
  0
SEQEND
  8
MERGEDLAYER-1
  0
POLYLINE
  8
MERGEDLAYER-1
 66
  1
 70
  0
 62
  7
 10
47.054227
 20
18.283705
 30
0.000000
  0
VERTEX
  8
MERGEDLAYER-1
 10
47.054227
 20
18.283705
 30
0.000000
  0
VERTEX
  8
MERGEDLAYER-1
 10
47.054227
 20
18.555594
 30
0.000000
  0
SEQEND
  8
MERGEDLAYER-1
  0
POLYLINE
  8
MERGEDLAYER-1
 66
  1
 70
  0
 62
  7
 10
46.999230
 20
18.228703
 30
0.000000
  0
VERTEX
  8
MERGEDLAYER-1
 10
46.999230
 20
18.228703
 30
0.000000
  0
VERTEX
  8
MERGEDLAYER-1
 10
47.054232
 20
18.283705
 30
0.000000
  0
SEQEND
  8
MERGEDLAYER-1
  0
POLYLINE
  8
MERGEDLAYER-1
 66
  1
 70
  0
 62
  7
 10
46.935537
 20
18.228699
 30
0.000000
  0
VERTEX
  8
MERGEDLAYER-1
 10
46.935537
 20
18.228699
 30
0.000000
  0
VERTEX
  8
MERGEDLAYER-1
 10
46.999230
 20
18.228699
 30
0.000000
  0
SEQEND
  8
MERGEDLAYER-1
  0
POLYLINE
  8
MERGEDLAYER-1
 66
  1
 70
  0
 62
  7
 10
46.920542
 20
18.243704
 30
0.000000
  0
VERTEX
  8
MERGEDLAYER-1
 10
46.920542
 20
18.243704
 30
0.000000
  0
VERTEX
  8
MERGEDLAYER-1
 10
46.935537
 20
18.228703
 30
0.000000
  0
SEQEND
  8
MERGEDLAYER-1
  0
POLYLINE
  8
MERGEDLAYER-1
 66
  1
 70
  0
 62
  7
 10
46.920546
 20
18.253066
 30
0.000000
  0
VERTEX
  8
MERGEDLAYER-1
 10
46.920546
 20
18.253066
 30
0.000000
  0
VERTEX
  8
MERGEDLAYER-1
 10
46.920546
 20
18.243704
 30
0.000000
  0
SEQEND
  8
MERGEDLAYER-1
  0
POLYLINE
  8
MERGEDLAYER-1
 66
  1
 70
  0
 62
  7
 10
46.935537
 20
18.268062
 30
0.000000
  0
VERTEX
  8
MERGEDLAYER-1
 10
46.935537
 20
18.268062
 30
0.000000
  0
VERTEX
  8
MERGEDLAYER-1
 10
46.920542
 20
18.253066
 30
0.000000
  0
SEQEND
  8
MERGEDLAYER-1
  0
POLYLINE
  8
MERGEDLAYER-1
 66
  1
 70
  0
 62
  7
 10
46.935537
 20
18.268066
 30
0.000000
  0
VERTEX
  8
MERGEDLAYER-1
 10
46.935537
 20
18.268066
 30
0.000000
  0
VERTEX
  8
MERGEDLAYER-1
 10
46.984229
 20
18.268066
 30
0.000000
  0
SEQEND
  8
MERGEDLAYER-1
  0
POLYLINE
  8
MERGEDLAYER-1
 66
  1
 70
  0
 62
  7
 10
46.984229
 20
18.268066
 30
0.000000
  0
VERTEX
  8
MERGEDLAYER-1
 10
46.984229
 20
18.268066
 30
0.000000
  0
VERTEX
  8
MERGEDLAYER-1
 10
46.999225
 20
18.283067
 30
0.000000
  0
SEQEND
  8
MERGEDLAYER-1
  0
POLYLINE
  8
MERGEDLAYER-1
 66
  1
 70
  0
 62
  7
 10
46.999225
 20
18.283067
 30
0.000000
  0
VERTEX
  8
MERGEDLAYER-1
 10
46.999225
 20
18.283067
 30
0.000000
  0
VERTEX
  8
MERGEDLAYER-1
 10
46.999225
 20
18.339614
 30
0.000000
  0
SEQEND
  8
MERGEDLAYER-1
  0
POLYLINE
  8
MERGEDLAYER-1
 66
  1
 70
  0
 62
  7
 10
46.999225
 20
18.339614
 30
0.000000
  0
VERTEX
  8
MERGEDLAYER-1
 10
46.999225
 20
18.339614
 30
0.000000
  0
VERTEX
  8
MERGEDLAYER-1
 10
46.984229
 20
18.354610
 30
0.000000
  0
SEQEND
  8
MERGEDLAYER-1
  0
POLYLINE
  8
MERGEDLAYER-1
 66
  1
 70
  0
 62
  7
 10
46.984229
 20
18.354614
 30
0.000000
  0
VERTEX
  8
MERGEDLAYER-1
 10
46.984229
 20
18.354614
 30
0.000000
  0
VERTEX
  8
MERGEDLAYER-1
 10
46.935448
 20
18.354614
 30
0.000000
  0
SEQEND
  8
MERGEDLAYER-1
  0
POLYLINE
  8
MERGEDLAYER-1
 66
  1
 70
  0
 62
  7
 10
46.920448
 20
18.369629
 30
0.000000
  0
VERTEX
  8
MERGEDLAYER-1
 10
46.920448
 20
18.369629
 30
0.000000
  0
VERTEX
  8
MERGEDLAYER-1
 10
46.933458
 20
18.356581
 30
0.000000
  0
VERTEX
  8
MERGEDLAYER-1
 10
46.935448
 20
18.354610
 30
0.000000
  0
SEQEND
  8
MERGEDLAYER-1
  0
POLYLINE
  8
MERGEDLAYER-1
 66
  1
 70
  0
 62
  7
 10
46.920443
 20
18.369634
 30
0.000000
  0
VERTEX
  8
MERGEDLAYER-1
 10
46.920443
 20
18.369634
 30
0.000000
  0
VERTEX
  8
MERGEDLAYER-1
 10
46.920546
 20
18.439932
 30
0.000000
  0
SEQEND
  8
MERGEDLAYER-1
  0
POLYLINE
  8
MERGEDLAYER-1
 66
  1
 70
  0
 62
  7
 10
46.935537
 20
18.454909
 30
0.000000
  0
VERTEX
  8
MERGEDLAYER-1
 10
46.935537
 20
18.454909
 30
0.000000
  0
VERTEX
  8
MERGEDLAYER-1
 10
46.928936
 20
18.456149
 30
0.000000
  0
VERTEX
  8
MERGEDLAYER-1
 10
46.924762
 20
18.454017
 30
0.000000
  0
VERTEX
  8
MERGEDLAYER-1
 10
46.921443
 20
18.450707
 30
0.000000
  0
VERTEX
  8
MERGEDLAYER-1
 10
46.919312
 20
18.446533
 30
0.000000
  0
VERTEX
  8
MERGEDLAYER-1
 10
46.920542
 20
18.439932
 30
0.000000
  0
SEQEND
  8
MERGEDLAYER-1
  0
POLYLINE
  8
MERGEDLAYER-1
 66
  1
 70
  0
 62
  7
 10
46.935537
 20
18.454909
 30
0.000000
  0
VERTEX
  8
MERGEDLAYER-1
 10
46.935537
 20
18.454909
 30
0.000000
  0
VERTEX
  8
MERGEDLAYER-1
 10
46.984229
 20
18.454909
 30
0.000000
  0
SEQEND
  8
MERGEDLAYER-1
  0
POLYLINE
  8
MERGEDLAYER-1
 66
  1
 70
  0
 62
  7
 10
46.984229
 20
18.454914
 30
0.000000
  0
VERTEX
  8
MERGEDLAYER-1
 10
46.984229
 20
18.454914
 30
0.000000
  0
VERTEX
  8
MERGEDLAYER-1
 10
46.999225
 20
18.469910
 30
0.000000
  0
SEQEND
  8
MERGEDLAYER-1
  0
POLYLINE
  8
MERGEDLAYER-1
 66
  1
 70
  0
 62
  7
 10
46.999225
 20
18.469910
 30
0.000000
  0
VERTEX
  8
MERGEDLAYER-1
 10
46.999225
 20
18.469910
 30
0.000000
  0
VERTEX
  8
MERGEDLAYER-1
 10
46.999225
 20
18.595957
 30
0.000000
  0
SEQEND
  8
MERGEDLAYER-1
  0
POLYLINE
  8
MERGEDLAYER-1
 66
  1
 70
  0
 62
  7
 10
46.999225
 20
18.595957
 30
0.000000
  0
VERTEX
  8
MERGEDLAYER-1
 10
46.999225
 20
18.595957
 30
0.000000
  0
VERTEX
  8
MERGEDLAYER-1
 10
46.984229
 20
18.610957
 30
0.000000
  0
SEQEND
  8
MERGEDLAYER-1
  0
POLYLINE
  8
MERGEDLAYER-1
 66
  1
 70
  0
 62
  7
 10
46.694242
 20
18.610957
 30
0.000000
  0
VERTEX
  8
MERGEDLAYER-1
 10
46.694242
 20
18.610957
 30
0.000000
  0
VERTEX
  8
MERGEDLAYER-1
 10
46.984229
 20
18.610957
 30
0.000000
  0
SEQEND
  8
MERGEDLAYER-1
  0
POLYLINE
  8
MERGEDLAYER-1
 66
  1
 70
  0
 62
  7
 10
46.694242
 20
18.610957
 30
0.000000
  0
VERTEX
  8
MERGEDLAYER-1
 10
46.694242
 20
18.610957
 30
0.000000
  0
VERTEX
  8
MERGEDLAYER-1
 10
46.625244
 20
18.541964
 30
0.000000
  0
SEQEND
  8
MERGEDLAYER-1
  0
POLYLINE
  8
MERGEDLAYER-1
 66
  1
 70
  0
 62
  7
 10
46.625239
 20
18.541964
 30
0.000000
  0
VERTEX
  8
MERGEDLAYER-1
 10
46.625239
 20
18.541964
 30
0.000000
  0
VERTEX
  8
MERGEDLAYER-1
 10
46.625239
 20
18.469910
 30
0.000000
  0
SEQEND
  8
MERGEDLAYER-1
  0
POLYLINE
  8
MERGEDLAYER-1
 66
  1
 70
  0
 62
  7
 10
46.625244
 20
18.469910
 30
0.000000
  0
VERTEX
  8
MERGEDLAYER-1
 10
46.625244
 20
18.469910
 30
0.000000
  0
VERTEX
  8
MERGEDLAYER-1
 10
46.640240
 20
18.454914
 30
0.000000
  0
SEQEND
  8
MERGEDLAYER-1
  0
POLYLINE
  8
MERGEDLAYER-1
 66
  1
 70
  0
 62
  7
 10
46.640240
 20
18.454909
 30
0.000000
  0
VERTEX
  8
MERGEDLAYER-1
 10
46.640240
 20
18.454909
 30
0.000000
  0
VERTEX
  8
MERGEDLAYER-1
 10
46.689078
 20
18.454909
 30
0.000000
  0
SEQEND
  8
MERGEDLAYER-1
  0
POLYLINE
  8
MERGEDLAYER-1
 66
  1
 70
  0
 62
  7
 10
46.704073
 20
18.439913
 30
0.000000
  0
VERTEX
  8
MERGEDLAYER-1
 10
46.704073
 20
18.439913
 30
0.000000
  0
VERTEX
  8
MERGEDLAYER-1
 10
46.689078
 20
18.454909
 30
0.000000
  0
SEQEND
  8
MERGEDLAYER-1
  0
POLYLINE
  8
MERGEDLAYER-1
 66
  1
 70
  0
 62
  7
 10
46.704078
 20
18.439913
 30
0.000000
  0
VERTEX
  8
MERGEDLAYER-1
 10
46.704078
 20
18.439913
 30
0.000000
  0
VERTEX
  8
MERGEDLAYER-1
 10
46.704078
 20
18.369610
 30
0.000000
  0
SEQEND
  8
MERGEDLAYER-1
  0
POLYLINE
  8
MERGEDLAYER-1
 66
  1
 70
  0
 62
  7
 10
46.689078
 20
18.354610
 30
0.000000
  0
VERTEX
  8
MERGEDLAYER-1
 10
46.689078
 20
18.354610
 30
0.000000
  0
VERTEX
  8
MERGEDLAYER-1
 10
46.704073
 20
18.369610
 30
0.000000
  0
SEQEND
  8
MERGEDLAYER-1
  0
POLYLINE
  8
MERGEDLAYER-1
 66
  1
 70
  0
 62
  7
 10
46.689078
 20
18.354614
 30
0.000000
  0
VERTEX
  8
MERGEDLAYER-1
 10
46.689078
 20
18.354614
 30
0.000000
  0
VERTEX
  8
MERGEDLAYER-1
 10
46.640240
 20
18.354614
 30
0.000000
  0
SEQEND
  8
MERGEDLAYER-1
  0
POLYLINE
  8
MERGEDLAYER-1
 66
  1
 70
  0
 62
  7
 10
46.640240
 20
18.354610
 30
0.000000
  0
VERTEX
  8
MERGEDLAYER-1
 10
46.640240
 20
18.354610
 30
0.000000
  0
VERTEX
  8
MERGEDLAYER-1
 10
46.625244
 20
18.339614
 30
0.000000
  0
SEQEND
  8
MERGEDLAYER-1
  0
POLYLINE
  8
MERGEDLAYER-1
 66
  1
 70
  0
 62
  7
 10
46.625239
 20
18.339614
 30
0.000000
  0
VERTEX
  8
MERGEDLAYER-1
 10
46.625239
 20
18.339614
 30
0.000000
  0
VERTEX
  8
MERGEDLAYER-1
 10
46.625239
 20
18.283067
 30
0.000000
  0
SEQEND
  8
MERGEDLAYER-1
  0
POLYLINE
  8
MERGEDLAYER-1
 66
  1
 70
  0
 62
  7
 10
46.625244
 20
18.283067
 30
0.000000
  0
VERTEX
  8
MERGEDLAYER-1
 10
46.625244
 20
18.283067
 30
0.000000
  0
VERTEX
  8
MERGEDLAYER-1
 10
46.640240
 20
18.268066
 30
0.000000
  0
SEQEND
  8
MERGEDLAYER-1
  0
POLYLINE
  8
MERGEDLAYER-1
 66
  1
 70
  0
 62
  7
 10
46.640240
 20
18.268066
 30
0.000000
  0
VERTEX
  8
MERGEDLAYER-1
 10
46.640240
 20
18.268066
 30
0.000000
  0
VERTEX
  8
MERGEDLAYER-1
 10
46.689078
 20
18.268066
 30
0.000000
  0
SEQEND
  8
MERGEDLAYER-1
  0
POLYLINE
  8
MERGEDLAYER-1
 66
  1
 70
  0
 62
  7
 10
46.704073
 20
18.253066
 30
0.000000
  0
VERTEX
  8
MERGEDLAYER-1
 10
46.704073
 20
18.253066
 30
0.000000
  0
VERTEX
  8
MERGEDLAYER-1
 10
46.689078
 20
18.268062
 30
0.000000
  0
SEQEND
  8
MERGEDLAYER-1
  0
POLYLINE
  8
MERGEDLAYER-1
 66
  1
 70
  0
 62
  7
 10
46.704078
 20
18.253066
 30
0.000000
  0
VERTEX
  8
MERGEDLAYER-1
 10
46.704078
 20
18.253066
 30
0.000000
  0
VERTEX
  8
MERGEDLAYER-1
 10
46.704078
 20
18.243704
 30
0.000000
  0
SEQEND
  8
MERGEDLAYER-1
  0
POLYLINE
  8
MERGEDLAYER-1
 66
  1
 70
  0
 62
  7
 10
46.689078
 20
18.228703
 30
0.000000
  0
VERTEX
  8
MERGEDLAYER-1
 10
46.689078
 20
18.228703
 30
0.000000
  0
VERTEX
  8
MERGEDLAYER-1
 10
46.704073
 20
18.243704
 30
0.000000
  0
SEQEND
  8
MERGEDLAYER-1
  0
POLYLINE
  8
MERGEDLAYER-1
 66
  1
 70
  0
 62
  7
 10
46.689078
 20
18.228699
 30
0.000000
  0
VERTEX
  8
MERGEDLAYER-1
 10
46.689078
 20
18.228699
 30
0.000000
  0
VERTEX
  8
MERGEDLAYER-1
 10
46.625192
 20
18.228699
 30
0.000000
  0
SEQEND
  8
MERGEDLAYER-1
  0
POLYLINE
  8
MERGEDLAYER-1
 66
  1
 70
  0
 62
  7
 10
46.570195
 20
18.283705
 30
0.000000
  0
VERTEX
  8
MERGEDLAYER-1
 10
46.570195
 20
18.283705
 30
0.000000
  0
VERTEX
  8
MERGEDLAYER-1
 10
46.625192
 20
18.228703
 30
0.000000
  0
SEQEND
  8
MERGEDLAYER-1
  0
POLYLINE
  8
MERGEDLAYER-1
 66
  1
 70
  0
 62
  7
 10
46.570195
 20
18.283705
 30
0.000000
  0
VERTEX
  8
MERGEDLAYER-1
 10
46.570195
 20
18.283705
 30
0.000000
  0
VERTEX
  8
MERGEDLAYER-1
 10
46.570195
 20
18.541654
 30
0.000000
  0
SEQEND
  8
MERGEDLAYER-1
  0
POLYLINE
  8
MERGEDLAYER-1
 66
  1
 70
  0
 62
  7
 10
46.694200
 20
18.665645
 30
0.000000
  0
VERTEX
  8
MERGEDLAYER-1
 10
46.694200
 20
18.665645
 30
0.000000
  0
VERTEX
  8
MERGEDLAYER-1
 10
46.604553
 20
18.631301
 30
0.000000
  0
VERTEX
  8
MERGEDLAYER-1
 10
46.570205
 20
18.541654
 30
0.000000
  0
SEQEND
  8
MERGEDLAYER-1
  0
POLYLINE
  8
MERGEDLAYER-1
 66
  1
 70
  0
 62
  7
 10
49.240295
 20
17.135949
 30
0.000000
  0
VERTEX
  8
MERGEDLAYER-1
 10
49.240295
 20
17.135949
 30
0.000000
  0
VERTEX
  8
MERGEDLAYER-1
 10
49.240295
 20
18.570604
 30
0.000000
  0
SEQEND
  8
MERGEDLAYER-1
  0
POLYLINE
  8
MERGEDLAYER-1
 66
  1
 70
  0
 62
  7
 10
49.320073
 20
18.650743
 30
0.000000
  0
VERTEX
  8
MERGEDLAYER-1
 10
49.320073
 20
18.650743
 30
0.000000
  0
VERTEX
  8
MERGEDLAYER-1
 10
49.240295
 20
18.570604
 30
0.000000
  0
SEQEND
  8
MERGEDLAYER-1
  0
POLYLINE
  8
MERGEDLAYER-1
 66
  1
 70
  0
 62
  7
 10
49.320073
 20
17.868357
 30
0.000000
  0
VERTEX
  8
MERGEDLAYER-1
 10
49.320073
 20
17.868357
 30
0.000000
  0
VERTEX
  8
MERGEDLAYER-1
 10
49.320073
 20
18.650743
 30
0.000000
  0
SEQEND
  8
MERGEDLAYER-1
  0
POLYLINE
  8
MERGEDLAYER-1
 66
  1
 70
  0
 62
  7
 10
49.320073
 20
17.868352
 30
0.000000
  0
VERTEX
  8
MERGEDLAYER-1
 10
49.320073
 20
17.868352
 30
0.000000
  0
VERTEX
  8
MERGEDLAYER-1
 10
49.303105
 20
17.855323
 30
0.000000
  0
VERTEX
  8
MERGEDLAYER-1
 10
49.320073
 20
17.838355
 30
0.000000
  0
SEQEND
  8
MERGEDLAYER-1
  0
POLYLINE
  8
MERGEDLAYER-1
 66
  1
 70
  0
 62
  7
 10
49.320073
 20
17.838355
 30
0.000000
  0
VERTEX
  8
MERGEDLAYER-1
 10
49.320073
 20
17.838355
 30
0.000000
  0
VERTEX
  8
MERGEDLAYER-1
 10
49.320073
 20
17.055810
 30
0.000000
  0
SEQEND
  8
MERGEDLAYER-1
  0
POLYLINE
  8
MERGEDLAYER-1
 66
  1
 70
  0
 62
  7
 10
49.305072
 20
17.040814
 30
0.000000
  0
VERTEX
  8
MERGEDLAYER-1
 10
49.305072
 20
17.040814
 30
0.000000
  0
VERTEX
  8
MERGEDLAYER-1
 10
48.270184
 20
17.040814
 30
0.000000
  0
SEQEND
  8
MERGEDLAYER-1
  0
POLYLINE
  8
MERGEDLAYER-1
 66
  1
 70
  0
 62
  7
 10
47.164016
 20
17.040349
 30
0.000000
  0
VERTEX
  8
MERGEDLAYER-1
 10
47.164016
 20
17.040349
 30
0.000000
  0
VERTEX
  8
MERGEDLAYER-1
 10
46.694200
 20
17.040349
 30
0.000000
  0
SEQEND
  8
MERGEDLAYER-1
  0
POLYLINE
  8
MERGEDLAYER-1
 66
  1
 70
  0
 62
  7
 10
47.194017
 20
17.040255
 30
0.000000
  0
VERTEX
  8
MERGEDLAYER-1
 10
47.194017
 20
17.040255
 30
0.000000
  0
VERTEX
  8
MERGEDLAYER-1
 10
47.177049
 20
17.057223
 30
0.000000
  0
VERTEX
  8
MERGEDLAYER-1
 10
47.164020
 20
17.040349
 30
0.000000
  0
SEQEND
  8
MERGEDLAYER-1
  0
POLYLINE
  8
MERGEDLAYER-1
 66
  1
 70
  0
 62
  7
 10
47.194021
 20
17.040255
 30
0.000000
  0
VERTEX
  8
MERGEDLAYER-1
 10
47.194021
 20
17.040255
 30
0.000000
  0
VERTEX
  8
MERGEDLAYER-1
 10
48.240187
 20
17.040255
 30
0.000000
  0
SEQEND
  8
MERGEDLAYER-1
  0
POLYLINE
  8
MERGEDLAYER-1
 66
  1
 70
  0
 62
  7
 10
48.270189
 20
17.040255
 30
0.000000
  0
VERTEX
  8
MERGEDLAYER-1
 10
48.270189
 20
17.040255
 30
0.000000
  0
VERTEX
  8
MERGEDLAYER-1
 10
48.253221
 20
17.057223
 30
0.000000
  0
VERTEX
  8
MERGEDLAYER-1
 10
48.240192
 20
17.040255
 30
0.000000
  0
SEQEND
  8
MERGEDLAYER-1
  0
POLYLINE
  8
MERGEDLAYER-1
 66
  1
 70
  0
 62
  7
 10
48.270184
 20
17.040255
 30
0.000000
  0
VERTEX
  8
MERGEDLAYER-1
 10
48.270184
 20
17.040255
 30
0.000000
  0
VERTEX
  8
MERGEDLAYER-1
 10
49.305072
 20
17.040255
 30
0.000000
  0
SEQEND
  8
MERGEDLAYER-1
  0
POLYLINE
  8
MERGEDLAYER-1
 66
  1
 70
  0
 62
  7
 10
49.305072
 20
17.040260
 30
0.000000
  0
VERTEX
  8
MERGEDLAYER-1
 10
49.305072
 20
17.040260
 30
0.000000
  0
VERTEX
  8
MERGEDLAYER-1
 10
49.320068
 20
17.055256
 30
0.000000
  0
SEQEND
  8
MERGEDLAYER-1
  0
POLYLINE
  8
MERGEDLAYER-1
 66
  1
 70
  0
 62
  7
 10
49.240295
 20
17.135395
 30
0.000000
  0
VERTEX
  8
MERGEDLAYER-1
 10
49.240295
 20
17.135395
 30
0.000000
  0
VERTEX
  8
MERGEDLAYER-1
 10
49.320073
 20
17.055256
 30
0.000000
  0
SEQEND
  8
MERGEDLAYER-1
  0
POLYLINE
  8
MERGEDLAYER-1
 66
  1
 70
  0
 62
  7
 10
49.225295
 20
17.120394
 30
0.000000
  0
VERTEX
  8
MERGEDLAYER-1
 10
49.225295
 20
17.120394
 30
0.000000
  0
VERTEX
  8
MERGEDLAYER-1
 10
49.240291
 20
17.135395
 30
0.000000
  0
SEQEND
  8
MERGEDLAYER-1
  0
POLYLINE
  8
MERGEDLAYER-1
 66
  1
 70
  0
 62
  7
 10
49.180580
 20
17.120389
 30
0.000000
  0
VERTEX
  8
MERGEDLAYER-1
 10
49.180580
 20
17.120389
 30
0.000000
  0
VERTEX
  8
MERGEDLAYER-1
 10
49.225295
 20
17.120389
 30
0.000000
  0
SEQEND
  8
MERGEDLAYER-1
  0
POLYLINE
  8
MERGEDLAYER-1
 66
  1
 70
  0
 62
  7
 10
49.165579
 20
17.135395
 30
0.000000
  0
VERTEX
  8
MERGEDLAYER-1
 10
49.165579
 20
17.135395
 30
0.000000
  0
VERTEX
  8
MERGEDLAYER-1
 10
49.180580
 20
17.120394
 30
0.000000
  0
SEQEND
  8
MERGEDLAYER-1
  0
POLYLINE
  8
MERGEDLAYER-1
 66
  1
 70
  0
 62
  7
 10
49.165584
 20
17.212670
 30
0.000000
  0
VERTEX
  8
MERGEDLAYER-1
 10
49.165584
 20
17.212670
 30
0.000000
  0
VERTEX
  8
MERGEDLAYER-1
 10
49.165584
 20
17.135395
 30
0.000000
  0
SEQEND
  8
MERGEDLAYER-1
  0
POLYLINE
  8
MERGEDLAYER-1
 66
  1
 70
  0
 62
  7
 10
49.165588
 20
17.212670
 30
0.000000
  0
VERTEX
  8
MERGEDLAYER-1
 10
49.165588
 20
17.212670
 30
0.000000
  0
VERTEX
  8
MERGEDLAYER-1
 10
49.150593
 20
17.227666
 30
0.000000
  0
SEQEND
  8
MERGEDLAYER-1
  0
POLYLINE
  8
MERGEDLAYER-1
 66
  1
 70
  0
 62
  7
 10
49.080585
 20
17.227671
 30
0.000000
  0
VERTEX
  8
MERGEDLAYER-1
 10
49.080585
 20
17.227671
 30
0.000000
  0
VERTEX
  8
MERGEDLAYER-1
 10
49.150593
 20
17.227671
 30
0.000000
  0
SEQEND
  8
MERGEDLAYER-1
  0
POLYLINE
  8
MERGEDLAYER-1
 66
  1
 70
  0
 62
  7
 10
49.080585
 20
17.227666
 30
0.000000
  0
VERTEX
  8
MERGEDLAYER-1
 10
49.080585
 20
17.227666
 30
0.000000
  0
VERTEX
  8
MERGEDLAYER-1
 10
49.065589
 20
17.212670
 30
0.000000
  0
SEQEND
  8
MERGEDLAYER-1
  0
POLYLINE
  8
MERGEDLAYER-1
 66
  1
 70
  0
 62
  7
 10
49.065589
 20
17.135245
 30
0.000000
  0
VERTEX
  8
MERGEDLAYER-1
 10
49.065589
 20
17.135245
 30
0.000000
  0
VERTEX
  8
MERGEDLAYER-1
 10
49.065589
 20
17.212670
 30
0.000000
  0
SEQEND
  8
MERGEDLAYER-1
  0
POLYLINE
  8
MERGEDLAYER-1
 66
  1
 70
  0
 62
  7
 10
49.050579
 20
17.120249
 30
0.000000
  0
VERTEX
  8
MERGEDLAYER-1
 10
49.050579
 20
17.120249
 30
0.000000
  0
VERTEX
  8
MERGEDLAYER-1
 10
49.065580
 20
17.135245
 30
0.000000
  0
SEQEND
  8
MERGEDLAYER-1
  0
POLYLINE
  8
MERGEDLAYER-1
 66
  1
 70
  0
 62
  7
 10
49.005315
 20
17.120249
 30
0.000000
  0
VERTEX
  8
MERGEDLAYER-1
 10
49.005315
 20
17.120249
 30
0.000000
  0
VERTEX
  8
MERGEDLAYER-1
 10
49.050579
 20
17.120249
 30
0.000000
  0
SEQEND
  8
MERGEDLAYER-1
  0
POLYLINE
  8
MERGEDLAYER-1
 66
  1
 70
  0
 62
  7
 10
48.990314
 20
17.135245
 30
0.000000
  0
VERTEX
  8
MERGEDLAYER-1
 10
48.990314
 20
17.135245
 30
0.000000
  0
VERTEX
  8
MERGEDLAYER-1
 10
49.005315
 20
17.120249
 30
0.000000
  0
SEQEND
  8
MERGEDLAYER-1
  0
POLYLINE
  8
MERGEDLAYER-1
 66
  1
 70
  0
 62
  7
 10
48.990309
 20
17.352699
 30
0.000000
  0
VERTEX
  8
MERGEDLAYER-1
 10
48.990309
 20
17.352699
 30
0.000000
  0
VERTEX
  8
MERGEDLAYER-1
 10
48.990309
 20
17.135245
 30
0.000000
  0
SEQEND
  8
MERGEDLAYER-1
  0
POLYLINE
  8
MERGEDLAYER-1
 66
  1
 70
  0
 62
  7
 10
48.990309
 20
17.352699
 30
0.000000
  0
VERTEX
  8
MERGEDLAYER-1
 10
48.990309
 20
17.352699
 30
0.000000
  0
VERTEX
  8
MERGEDLAYER-1
 10
48.975309
 20
17.367699
 30
0.000000
  0
SEQEND
  8
MERGEDLAYER-1
  0
POLYLINE
  8
MERGEDLAYER-1
 66
  1
 70
  0
 62
  7
 10
48.925312
 20
17.367699
 30
0.000000
  0
VERTEX
  8
MERGEDLAYER-1
 10
48.925312
 20
17.367699
 30
0.000000
  0
VERTEX
  8
MERGEDLAYER-1
 10
48.975309
 20
17.367699
 30
0.000000
  0
SEQEND
  8
MERGEDLAYER-1
  0
POLYLINE
  8
MERGEDLAYER-1
 66
  1
 70
  0
 62
  7
 10
48.925312
 20
17.367699
 30
0.000000
  0
VERTEX
  8
MERGEDLAYER-1
 10
48.925312
 20
17.367699
 30
0.000000
  0
VERTEX
  8
MERGEDLAYER-1
 10
48.910316
 20
17.352699
 30
0.000000
  0
SEQEND
  8
MERGEDLAYER-1
  0
POLYLINE
  8
MERGEDLAYER-1
 66
  1
 70
  0
 62
  7
 10
48.910311
 20
17.135404
 30
0.000000
  0
VERTEX
  8
MERGEDLAYER-1
 10
48.910311
 20
17.135404
 30
0.000000
  0
VERTEX
  8
MERGEDLAYER-1
 10
48.910311
 20
17.352699
 30
0.000000
  0
SEQEND
  8
MERGEDLAYER-1
  0
POLYLINE
  8
MERGEDLAYER-1
 66
  1
 70
  0
 62
  7
 10
48.895306
 20
17.120404
 30
0.000000
  0
VERTEX
  8
MERGEDLAYER-1
 10
48.895306
 20
17.120404
 30
0.000000
  0
VERTEX
  8
MERGEDLAYER-1
 10
48.910306
 20
17.135404
 30
0.000000
  0
SEQEND
  8
MERGEDLAYER-1
  0
POLYLINE
  8
MERGEDLAYER-1
 66
  1
 70
  0
 62
  7
 10
48.702519
 20
17.120404
 30
0.000000
  0
VERTEX
  8
MERGEDLAYER-1
 10
48.702519
 20
17.120404
 30
0.000000
  0
VERTEX
  8
MERGEDLAYER-1
 10
48.895306
 20
17.120404
 30
0.000000
  0
SEQEND
  8
MERGEDLAYER-1
  0
POLYLINE
  8
MERGEDLAYER-1
 66
  1
 70
  0
 62
  7
 10
48.687519
 20
17.135404
 30
0.000000
  0
VERTEX
  8
MERGEDLAYER-1
 10
48.687519
 20
17.135404
 30
0.000000
  0
VERTEX
  8
MERGEDLAYER-1
 10
48.702519
 20
17.120404
 30
0.000000
  0
SEQEND
  8
MERGEDLAYER-1
  0
POLYLINE
  8
MERGEDLAYER-1
 66
  1
 70
  0
 62
  7
 10
48.562200
 20
17.135395
 30
0.000000
  0
VERTEX
  8
MERGEDLAYER-1
 10
48.562200
 20
17.135395
 30
0.000000
  0
VERTEX
  8
MERGEDLAYER-1
 10
48.687514
 20
17.135404
 30
0.000000
  0
SEQEND
  8
MERGEDLAYER-1
  0
POLYLINE
  8
MERGEDLAYER-1
 66
  1
 70
  0
 62
  7
 10
48.547199
 20
17.120394
 30
0.000000
  0
VERTEX
  8
MERGEDLAYER-1
 10
48.547199
 20
17.120394
 30
0.000000
  0
VERTEX
  8
MERGEDLAYER-1
 10
48.562195
 20
17.135395
 30
0.000000
  0
SEQEND
  8
MERGEDLAYER-1
  0
POLYLINE
  8
MERGEDLAYER-1
 66
  1
 70
  0
 62
  7
 10
48.547199
 20
17.120389
 30
0.000000
  0
VERTEX
  8
MERGEDLAYER-1
 10
48.547199
 20
17.120389
 30
0.000000
  0
VERTEX
  8
MERGEDLAYER-1
 10
48.497493
 20
17.120389
 30
0.000000
  0
SEQEND
  8
MERGEDLAYER-1
  0
POLYLINE
  8
MERGEDLAYER-1
 66
  1
 70
  0
 62
  7
 10
48.482497
 20
17.135395
 30
0.000000
  0
VERTEX
  8
MERGEDLAYER-1
 10
48.482497
 20
17.135395
 30
0.000000
  0
VERTEX
  8
MERGEDLAYER-1
 10
48.497493
 20
17.120394
 30
0.000000
  0
SEQEND
  8
MERGEDLAYER-1
  0
POLYLINE
  8
MERGEDLAYER-1
 66
  1
 70
  0
 62
  7
 10
48.482492
 20
17.212670
 30
0.000000
  0
VERTEX
  8
MERGEDLAYER-1
 10
48.482492
 20
17.212670
 30
0.000000
  0
VERTEX
  8
MERGEDLAYER-1
 10
48.482492
 20
17.135395
 30
0.000000
  0
SEQEND
  8
MERGEDLAYER-1
  0
POLYLINE
  8
MERGEDLAYER-1
 66
  1
 70
  0
 62
  7
 10
48.482488
 20
17.212670
 30
0.000000
  0
VERTEX
  8
MERGEDLAYER-1
 10
48.482488
 20
17.212670
 30
0.000000
  0
VERTEX
  8
MERGEDLAYER-1
 10
48.467487
 20
17.227666
 30
0.000000
  0
SEQEND
  8
MERGEDLAYER-1
  0
POLYLINE
  8
MERGEDLAYER-1
 66
  1
 70
  0
 62
  7
 10
48.467487
 20
17.227671
 30
0.000000
  0
VERTEX
  8
MERGEDLAYER-1
 10
48.467487
 20
17.227671
 30
0.000000
  0
VERTEX
  8
MERGEDLAYER-1
 10
48.397494
 20
17.227671
 30
0.000000
  0
SEQEND
  8
MERGEDLAYER-1
  0
POLYLINE
  8
MERGEDLAYER-1
 66
  1
 70
  0
 62
  7
 10
48.397494
 20
17.227666
 30
0.000000
  0
VERTEX
  8
MERGEDLAYER-1
 10
48.397494
 20
17.227666
 30
0.000000
  0
VERTEX
  8
MERGEDLAYER-1
 10
48.382493
 20
17.212670
 30
0.000000
  0
SEQEND
  8
MERGEDLAYER-1
  0
POLYLINE
  8
MERGEDLAYER-1
 66
  1
 70
  0
 62
  7
 10
48.382489
 20
17.135245
 30
0.000000
  0
VERTEX
  8
MERGEDLAYER-1
 10
48.382489
 20
17.135245
 30
0.000000
  0
VERTEX
  8
MERGEDLAYER-1
 10
48.382489
 20
17.212670
 30
0.000000
  0
SEQEND
  8
MERGEDLAYER-1
  0
POLYLINE
  8
MERGEDLAYER-1
 66
  1
 70
  0
 62
  7
 10
48.367497
 20
17.120249
 30
0.000000
  0
VERTEX
  8
MERGEDLAYER-1
 10
48.367497
 20
17.120249
 30
0.000000
  0
VERTEX
  8
MERGEDLAYER-1
 10
48.382493
 20
17.135245
 30
0.000000
  0
SEQEND
  8
MERGEDLAYER-1
  0
POLYLINE
  8
MERGEDLAYER-1
 66
  1
 70
  0
 62
  7
 10
48.317214
 20
17.120249
 30
0.000000
  0
VERTEX
  8
MERGEDLAYER-1
 10
48.317214
 20
17.120249
 30
0.000000
  0
VERTEX
  8
MERGEDLAYER-1
 10
48.367497
 20
17.120249
 30
0.000000
  0
SEQEND
  8
MERGEDLAYER-1
  0
POLYLINE
  8
MERGEDLAYER-1
 66
  1
 70
  0
 62
  7
 10
48.302213
 20
17.135245
 30
0.000000
  0
VERTEX
  8
MERGEDLAYER-1
 10
48.302213
 20
17.135245
 30
0.000000
  0
VERTEX
  8
MERGEDLAYER-1
 10
48.317214
 20
17.120249
 30
0.000000
  0
SEQEND
  8
MERGEDLAYER-1
  0
POLYLINE
  8
MERGEDLAYER-1
 66
  1
 70
  0
 62
  7
 10
48.302218
 20
17.352699
 30
0.000000
  0
VERTEX
  8
MERGEDLAYER-1
 10
48.302218
 20
17.352699
 30
0.000000
  0
VERTEX
  8
MERGEDLAYER-1
 10
48.302218
 20
17.135245
 30
0.000000
  0
SEQEND
  8
MERGEDLAYER-1
  0
POLYLINE
  8
MERGEDLAYER-1
 66
  1
 70
  0
 62
  7
 10
48.302213
 20
17.352699
 30
0.000000
  0
VERTEX
  8
MERGEDLAYER-1
 10
48.302213
 20
17.352699
 30
0.000000
  0
VERTEX
  8
MERGEDLAYER-1
 10
48.287217
 20
17.367699
 30
0.000000
  0
SEQEND
  8
MERGEDLAYER-1
  0
POLYLINE
  8
MERGEDLAYER-1
 66
  1
 70
  0
 62
  7
 10
48.287217
 20
17.367699
 30
0.000000
  0
VERTEX
  8
MERGEDLAYER-1
 10
48.287217
 20
17.367699
 30
0.000000
  0
VERTEX
  8
MERGEDLAYER-1
 10
48.222220
 20
17.367699
 30
0.000000
  0
SEQEND
  8
MERGEDLAYER-1
  0
POLYLINE
  8
MERGEDLAYER-1
 66
  1
 70
  0
 62
  7
 10
48.222220
 20
17.367699
 30
0.000000
  0
VERTEX
  8
MERGEDLAYER-1
 10
48.222220
 20
17.367699
 30
0.000000
  0
VERTEX
  8
MERGEDLAYER-1
 10
48.207219
 20
17.352699
 30
0.000000
  0
SEQEND
  8
MERGEDLAYER-1
  0
POLYLINE
  8
MERGEDLAYER-1
 66
  1
 70
  0
 62
  7
 10
48.207214
 20
17.352699
 30
0.000000
  0
VERTEX
  8
MERGEDLAYER-1
 10
48.207214
 20
17.352699
 30
0.000000
  0
VERTEX
  8
MERGEDLAYER-1
 10
48.207214
 20
17.150400
 30
0.000000
  0
SEQEND
  8
MERGEDLAYER-1
  0
POLYLINE
  8
MERGEDLAYER-1
 66
  1
 70
  0
 62
  7
 10
48.192214
 20
17.135399
 30
0.000000
  0
VERTEX
  8
MERGEDLAYER-1
 10
48.192214
 20
17.135399
 30
0.000000
  0
VERTEX
  8
MERGEDLAYER-1
 10
48.207214
 20
17.150400
 30
0.000000
  0
SEQEND
  8
MERGEDLAYER-1
  0
POLYLINE
  8
MERGEDLAYER-1
 66
  1
 70
  0
 62
  7
 10
48.192214
 20
17.135404
 30
0.000000
  0
VERTEX
  8
MERGEDLAYER-1
 10
48.192214
 20
17.135404
 30
0.000000
  0
VERTEX
  8
MERGEDLAYER-1
 10
47.069219
 20
17.135404
 30
0.000000
  0
SEQEND
  8
MERGEDLAYER-1
  0
POLYLINE
  8
MERGEDLAYER-1
 66
  1
 70
  0
 62
  7
 10
47.054223
 20
17.150400
 30
0.000000
  0
VERTEX
  8
MERGEDLAYER-1
 10
47.054223
 20
17.150400
 30
0.000000
  0
VERTEX
  8
MERGEDLAYER-1
 10
47.069219
 20
17.135399
 30
0.000000
  0
SEQEND
  8
MERGEDLAYER-1
  0
POLYLINE
  8
MERGEDLAYER-1
 66
  1
 70
  0
 62
  7
 10
47.054227
 20
17.422298
 30
0.000000
  0
VERTEX
  8
MERGEDLAYER-1
 10
47.054227
 20
17.422298
 30
0.000000
  0
VERTEX
  8
MERGEDLAYER-1
 10
47.054227
 20
17.150400
 30
0.000000
  0
SEQEND
  8
MERGEDLAYER-1
  0
POLYLINE
  8
MERGEDLAYER-1
 66
  1
 70
  0
 62
  7
 10
47.054232
 20
17.422298
 30
0.000000
  0
VERTEX
  8
MERGEDLAYER-1
 10
47.054232
 20
17.422298
 30
0.000000
  0
VERTEX
  8
MERGEDLAYER-1
 10
46.999230
 20
17.477295
 30
0.000000
  0
SEQEND
  8
MERGEDLAYER-1
  0
POLYLINE
  8
MERGEDLAYER-1
 66
  1
 70
  0
 62
  7
 10
46.935537
 20
17.477295
 30
0.000000
  0
VERTEX
  8
MERGEDLAYER-1
 10
46.935537
 20
17.477295
 30
0.000000
  0
VERTEX
  8
MERGEDLAYER-1
 10
46.999230
 20
17.477295
 30
0.000000
  0
SEQEND
  8
MERGEDLAYER-1
  0
POLYLINE
  8
MERGEDLAYER-1
 66
  1
 70
  0
 62
  7
 10
46.935537
 20
17.477295
 30
0.000000
  0
VERTEX
  8
MERGEDLAYER-1
 10
46.935537
 20
17.477295
 30
0.000000
  0
VERTEX
  8
MERGEDLAYER-1
 10
46.920542
 20
17.462294
 30
0.000000
  0
SEQEND
  8
MERGEDLAYER-1
  0
POLYLINE
  8
MERGEDLAYER-1
 66
  1
 70
  0
 62
  7
 10
46.920546
 20
17.452933
 30
0.000000
  0
VERTEX
  8
MERGEDLAYER-1
 10
46.920546
 20
17.452933
 30
0.000000
  0
VERTEX
  8
MERGEDLAYER-1
 10
46.920546
 20
17.462294
 30
0.000000
  0
SEQEND
  8
MERGEDLAYER-1
  0
POLYLINE
  8
MERGEDLAYER-1
 66
  1
 70
  0
 62
  7
 10
46.920542
 20
17.452933
 30
0.000000
  0
VERTEX
  8
MERGEDLAYER-1
 10
46.920542
 20
17.452933
 30
0.000000
  0
VERTEX
  8
MERGEDLAYER-1
 10
46.935537
 20
17.437937
 30
0.000000
  0
SEQEND
  8
MERGEDLAYER-1
  0
POLYLINE
  8
MERGEDLAYER-1
 66
  1
 70
  0
 62
  7
 10
46.935537
 20
17.437932
 30
0.000000
  0
VERTEX
  8
MERGEDLAYER-1
 10
46.935537
 20
17.437932
 30
0.000000
  0
VERTEX
  8
MERGEDLAYER-1
 10
46.984229
 20
17.437932
 30
0.000000
  0
SEQEND
  8
MERGEDLAYER-1
  0
POLYLINE
  8
MERGEDLAYER-1
 66
  1
 70
  0
 62
  7
 10
46.999225
 20
17.422936
 30
0.000000
  0
VERTEX
  8
MERGEDLAYER-1
 10
46.999225
 20
17.422936
 30
0.000000
  0
VERTEX
  8
MERGEDLAYER-1
 10
46.984229
 20
17.437937
 30
0.000000
  0
SEQEND
  8
MERGEDLAYER-1
  0
POLYLINE
  8
MERGEDLAYER-1
 66
  1
 70
  0
 62
  7
 10
46.999225
 20
17.422936
 30
0.000000
  0
VERTEX
  8
MERGEDLAYER-1
 10
46.999225
 20
17.422936
 30
0.000000
  0
VERTEX
  8
MERGEDLAYER-1
 10
46.999225
 20
17.366380
 30
0.000000
  0
SEQEND
  8
MERGEDLAYER-1
  0
POLYLINE
  8
MERGEDLAYER-1
 66
  1
 70
  0
 62
  7
 10
46.984229
 20
17.351384
 30
0.000000
  0
VERTEX
  8
MERGEDLAYER-1
 10
46.984229
 20
17.351384
 30
0.000000
  0
VERTEX
  8
MERGEDLAYER-1
 10
46.999225
 20
17.366380
 30
0.000000
  0
SEQEND
  8
MERGEDLAYER-1
  0
POLYLINE
  8
MERGEDLAYER-1
 66
  1
 70
  0
 62
  7
 10
46.984229
 20
17.351384
 30
0.000000
  0
VERTEX
  8
MERGEDLAYER-1
 10
46.984229
 20
17.351384
 30
0.000000
  0
VERTEX
  8
MERGEDLAYER-1
 10
46.935448
 20
17.351384
 30
0.000000
  0
SEQEND
  8
MERGEDLAYER-1
  0
POLYLINE
  8
MERGEDLAYER-1
 66
  1
 70
  0
 62
  7
 10
46.935448
 20
17.351384
 30
0.000000
  0
VERTEX
  8
MERGEDLAYER-1
 10
46.935448
 20
17.351384
 30
0.000000
  0
VERTEX
  8
MERGEDLAYER-1
 10
46.918481
 20
17.338351
 30
0.000000
  0
VERTEX
  8
MERGEDLAYER-1
 10
46.920448
 20
17.336365
 30
0.000000
  0
SEQEND
  8
MERGEDLAYER-1
  0
POLYLINE
  8
MERGEDLAYER-1
 66
  1
 70
  0
 62
  7
 10
46.920443
 20
17.336360
 30
0.000000
  0
VERTEX
  8
MERGEDLAYER-1
 10
46.920443
 20
17.336360
 30
0.000000
  0
VERTEX
  8
MERGEDLAYER-1
 10
46.920546
 20
17.266062
 30
0.000000
  0
SEQEND
  8
MERGEDLAYER-1
  0
POLYLINE
  8
MERGEDLAYER-1
 66
  1
 70
  0
 62
  7
 10
46.920542
 20
17.266066
 30
0.000000
  0
VERTEX
  8
MERGEDLAYER-1
 10
46.920542
 20
17.266066
 30
0.000000
  0
VERTEX
  8
MERGEDLAYER-1
 10
46.919312
 20
17.263404
 30
0.000000
  0
VERTEX
  8
MERGEDLAYER-1
 10
46.921443
 20
17.259226
 30
0.000000
  0
VERTEX
  8
MERGEDLAYER-1
 10
46.924762
 20
17.255916
 30
0.000000
  0
VERTEX
  8
MERGEDLAYER-1
 10
46.928936
 20
17.253789
 30
0.000000
  0
VERTEX
  8
MERGEDLAYER-1
 10
46.935537
 20
17.251089
 30
0.000000
  0
SEQEND
  8
MERGEDLAYER-1
  0
POLYLINE
  8
MERGEDLAYER-1
 66
  1
 70
  0
 62
  7
 10
46.935537
 20
17.251085
 30
0.000000
  0
VERTEX
  8
MERGEDLAYER-1
 10
46.935537
 20
17.251085
 30
0.000000
  0
VERTEX
  8
MERGEDLAYER-1
 10
46.984229
 20
17.251085
 30
0.000000
  0
SEQEND
  8
MERGEDLAYER-1
  0
POLYLINE
  8
MERGEDLAYER-1
 66
  1
 70
  0
 62
  7
 10
46.999225
 20
17.236089
 30
0.000000
  0
VERTEX
  8
MERGEDLAYER-1
 10
46.999225
 20
17.236089
 30
0.000000
  0
VERTEX
  8
MERGEDLAYER-1
 10
46.984229
 20
17.251089
 30
0.000000
  0
SEQEND
  8
MERGEDLAYER-1
  0
POLYLINE
  8
MERGEDLAYER-1
 66
  1
 70
  0
 62
  7
 10
46.999225
 20
17.236089
 30
0.000000
  0
VERTEX
  8
MERGEDLAYER-1
 10
46.999225
 20
17.236089
 30
0.000000
  0
VERTEX
  8
MERGEDLAYER-1
 10
46.999225
 20
17.110042
 30
0.000000
  0
SEQEND
  8
MERGEDLAYER-1
  0
POLYLINE
  8
MERGEDLAYER-1
 66
  1
 70
  0
 62
  7
 10
46.984229
 20
17.095041
 30
0.000000
  0
VERTEX
  8
MERGEDLAYER-1
 10
46.984229
 20
17.095041
 30
0.000000
  0
VERTEX
  8
MERGEDLAYER-1
 10
46.999225
 20
17.110042
 30
0.000000
  0
SEQEND
  8
MERGEDLAYER-1
  0
POLYLINE
  8
MERGEDLAYER-1
 66
  1
 70
  0
 62
  7
 10
46.694242
 20
17.095041
 30
0.000000
  0
VERTEX
  8
MERGEDLAYER-1
 10
46.694242
 20
17.095041
 30
0.000000
  0
VERTEX
  8
MERGEDLAYER-1
 10
46.984229
 20
17.095041
 30
0.000000
  0
SEQEND
  8
MERGEDLAYER-1
  0
POLYLINE
  8
MERGEDLAYER-1
 66
  1
 70
  0
 62
  7
 10
46.625244
 20
17.164039
 30
0.000000
  0
VERTEX
  8
MERGEDLAYER-1
 10
46.625244
 20
17.164039
 30
0.000000
  0
VERTEX
  8
MERGEDLAYER-1
 10
46.694242
 20
17.095041
 30
0.000000
  0
SEQEND
  8
MERGEDLAYER-1
  0
POLYLINE
  8
MERGEDLAYER-1
 66
  1
 70
  0
 62
  7
 10
46.625239
 20
17.164039
 30
0.000000
  0
VERTEX
  8
MERGEDLAYER-1
 10
46.625239
 20
17.164039
 30
0.000000
  0
VERTEX
  8
MERGEDLAYER-1
 10
46.625239
 20
17.236089
 30
0.000000
  0
SEQEND
  8
MERGEDLAYER-1
  0
POLYLINE
  8
MERGEDLAYER-1
 66
  1
 70
  0
 62
  7
 10
46.640240
 20
17.251089
 30
0.000000
  0
VERTEX
  8
MERGEDLAYER-1
 10
46.640240
 20
17.251089
 30
0.000000
  0
VERTEX
  8
MERGEDLAYER-1
 10
46.625244
 20
17.236089
 30
0.000000
  0
SEQEND
  8
MERGEDLAYER-1
  0
POLYLINE
  8
MERGEDLAYER-1
 66
  1
 70
  0
 62
  7
 10
46.640240
 20
17.251085
 30
0.000000
  0
VERTEX
  8
MERGEDLAYER-1
 10
46.640240
 20
17.251085
 30
0.000000
  0
VERTEX
  8
MERGEDLAYER-1
 10
46.689078
 20
17.251085
 30
0.000000
  0
SEQEND
  8
MERGEDLAYER-1
  0
POLYLINE
  8
MERGEDLAYER-1
 66
  1
 70
  0
 62
  7
 10
46.689078
 20
17.251089
 30
0.000000
  0
VERTEX
  8
MERGEDLAYER-1
 10
46.689078
 20
17.251089
 30
0.000000
  0
VERTEX
  8
MERGEDLAYER-1
 10
46.704073
 20
17.266085
 30
0.000000
  0
SEQEND
  8
MERGEDLAYER-1
  0
POLYLINE
  8
MERGEDLAYER-1
 66
  1
 70
  0
 62
  7
 10
46.704078
 20
17.266085
 30
0.000000
  0
VERTEX
  8
MERGEDLAYER-1
 10
46.704078
 20
17.266085
 30
0.000000
  0
VERTEX
  8
MERGEDLAYER-1
 10
46.704078
 20
17.336384
 30
0.000000
  0
SEQEND
  8
MERGEDLAYER-1
  0
POLYLINE
  8
MERGEDLAYER-1
 66
  1
 70
  0
 62
  7
 10
46.704073
 20
17.336384
 30
0.000000
  0
VERTEX
  8
MERGEDLAYER-1
 10
46.704073
 20
17.336384
 30
0.000000
  0
VERTEX
  8
MERGEDLAYER-1
 10
46.689078
 20
17.351384
 30
0.000000
  0
SEQEND
  8
MERGEDLAYER-1
  0
POLYLINE
  8
MERGEDLAYER-1
 66
  1
 70
  0
 62
  7
 10
46.689078
 20
17.351384
 30
0.000000
  0
VERTEX
  8
MERGEDLAYER-1
 10
46.689078
 20
17.351384
 30
0.000000
  0
VERTEX
  8
MERGEDLAYER-1
 10
46.640240
 20
17.351384
 30
0.000000
  0
SEQEND
  8
MERGEDLAYER-1
  0
POLYLINE
  8
MERGEDLAYER-1
 66
  1
 70
  0
 62
  7
 10
46.625244
 20
17.366380
 30
0.000000
  0
VERTEX
  8
MERGEDLAYER-1
 10
46.625244
 20
17.366380
 30
0.000000
  0
VERTEX
  8
MERGEDLAYER-1
 10
46.640240
 20
17.351384
 30
0.000000
  0
SEQEND
  8
MERGEDLAYER-1
  0
POLYLINE
  8
MERGEDLAYER-1
 66
  1
 70
  0
 62
  7
 10
46.625239
 20
17.366380
 30
0.000000
  0
VERTEX
  8
MERGEDLAYER-1
 10
46.625239
 20
17.366380
 30
0.000000
  0
VERTEX
  8
MERGEDLAYER-1
 10
46.625239
 20
17.422936
 30
0.000000
  0
SEQEND
  8
MERGEDLAYER-1
  0
POLYLINE
  8
MERGEDLAYER-1
 66
  1
 70
  0
 62
  7
 10
46.640240
 20
17.437937
 30
0.000000
  0
VERTEX
  8
MERGEDLAYER-1
 10
46.640240
 20
17.437937
 30
0.000000
  0
VERTEX
  8
MERGEDLAYER-1
 10
46.625244
 20
17.422936
 30
0.000000
  0
SEQEND
  8
MERGEDLAYER-1
  0
POLYLINE
  8
MERGEDLAYER-1
 66
  1
 70
  0
 62
  7
 10
46.640240
 20
17.437932
 30
0.000000
  0
VERTEX
  8
MERGEDLAYER-1
 10
46.640240
 20
17.437932
 30
0.000000
  0
VERTEX
  8
MERGEDLAYER-1
 10
46.689078
 20
17.437932
 30
0.000000
  0
SEQEND
  8
MERGEDLAYER-1
  0
POLYLINE
  8
MERGEDLAYER-1
 66
  1
 70
  0
 62
  7
 10
46.689078
 20
17.437932
 30
0.000000
  0
VERTEX
  8
MERGEDLAYER-1
 10
46.689078
 20
17.437932
 30
0.000000
  0
VERTEX
  8
MERGEDLAYER-1
 10
46.704073
 20
17.452928
 30
0.000000
  0
SEQEND
  8
MERGEDLAYER-1
  0
POLYLINE
  8
MERGEDLAYER-1
 66
  1
 70
  0
 62
  7
 10
46.704078
 20
17.452928
 30
0.000000
  0
VERTEX
  8
MERGEDLAYER-1
 10
46.704078
 20
17.452928
 30
0.000000
  0
VERTEX
  8
MERGEDLAYER-1
 10
46.704078
 20
17.462294
 30
0.000000
  0
SEQEND
  8
MERGEDLAYER-1
  0
POLYLINE
  8
MERGEDLAYER-1
 66
  1
 70
  0
 62
  7
 10
46.704073
 20
17.462294
 30
0.000000
  0
VERTEX
  8
MERGEDLAYER-1
 10
46.704073
 20
17.462294
 30
0.000000
  0
VERTEX
  8
MERGEDLAYER-1
 10
46.689078
 20
17.477295
 30
0.000000
  0
SEQEND
  8
MERGEDLAYER-1
  0
POLYLINE
  8
MERGEDLAYER-1
 66
  1
 70
  0
 62
  7
 10
46.689078
 20
17.477295
 30
0.000000
  0
VERTEX
  8
MERGEDLAYER-1
 10
46.689078
 20
17.477295
 30
0.000000
  0
VERTEX
  8
MERGEDLAYER-1
 10
46.625192
 20
17.477295
 30
0.000000
  0
SEQEND
  8
MERGEDLAYER-1
  0
POLYLINE
  8
MERGEDLAYER-1
 66
  1
 70
  0
 62
  7
 10
46.625192
 20
17.477295
 30
0.000000
  0
VERTEX
  8
MERGEDLAYER-1
 10
46.625192
 20
17.477295
 30
0.000000
  0
VERTEX
  8
MERGEDLAYER-1
 10
46.570195
 20
17.422298
 30
0.000000
  0
SEQEND
  8
MERGEDLAYER-1
  0
POLYLINE
  8
MERGEDLAYER-1
 66
  1
 70
  0
 62
  7
 10
46.570195
 20
17.422298
 30
0.000000
  0
VERTEX
  8
MERGEDLAYER-1
 10
46.570195
 20
17.422298
 30
0.000000
  0
VERTEX
  8
MERGEDLAYER-1
 10
46.570195
 20
17.164349
 30
0.000000
  0
SEQEND
  8
MERGEDLAYER-1
  0
POLYLINE
  8
MERGEDLAYER-1
 66
  1
 70
  0
 62
  7
 10
46.570205
 20
17.164349
 30
0.000000
  0
VERTEX
  8
MERGEDLAYER-1
 10
46.570205
 20
17.164349
 30
0.000000
  0
VERTEX
  8
MERGEDLAYER-1
 10
46.604553
 20
17.078637
 30
0.000000
  0
VERTEX
  8
MERGEDLAYER-1
 10
46.694200
 20
17.040354
 30
0.000000
  0
SEQEND
  8
MERGEDLAYER-1
  0
POLYLINE
  8
MERGEDLAYER-1
 66
  1
 70
  1
 62
  7
  0
VERTEX
  8
MERGEDLAYER-1
 10
48.562200
 20
18.570604
 30
0.000000
  0
VERTEX
  8
MERGEDLAYER-1
 10
48.687514
 20
18.570604
 30
0.000000
  0
VERTEX
  8
MERGEDLAYER-1
 10
48.687514
 20
17.135404
 30
0.000000
  0
VERTEX
  8
MERGEDLAYER-1
 10
48.562200
 20
17.135404
 30
0.000000
  0
SEQEND
  8
MERGEDLAYER-1
  0
POLYLINE
  8
MERGEDLAYER-1
 66
  1
 70
  0
 62
  7
 10
49.240295
 20
17.135395
 30
0.000000
  0
VERTEX
  8
MERGEDLAYER-1
 10
49.240295
 20
17.135395
 30
0.000000
  0
VERTEX
  8
MERGEDLAYER-1
 10
49.320073
 20
17.055256
 30
0.000000
  0
SEQEND
  8
MERGEDLAYER-1
  0
POLYLINE
  8
MERGEDLAYER-1
 66
  1
 70
  1
 62
  7
 10
46.430425
 20
18.168711
 30
0.000000
  0
VERTEX
  8
MERGEDLAYER-1
 10
46.430425
 20
18.168711
 30
0.000000
  0
VERTEX
  8
MERGEDLAYER-1
 10
47.430378
 20
18.168711
 30
0.000000
  0
VERTEX
  8
MERGEDLAYER-1
 10
47.430378
 20
17.543739
 30
0.000000
  0
VERTEX
  8
MERGEDLAYER-1
 10
46.430425
 20
17.543739
 30
0.000000
  0
VERTEX
  8
MERGEDLAYER-1
 10
46.430425
 20
17.351445
 30
0.000000
  0
VERTEX
  8
MERGEDLAYER-1
 10
46.367934
 20
17.351445
 30
0.000000
  0
VERTEX
  8
MERGEDLAYER-1
 10
46.367934
 20
18.351403
 30
0.000000
  0
VERTEX
  8
MERGEDLAYER-1
 10
46.430425
 20
18.351403
 30
0.000000
  0
SEQEND
  8
MERGEDLAYER-1
  0
POLYLINE
  8
MERGEDLAYER-1
 66
  1
 70
  0
 62
  7
 10
13.797116
 20
18.660748
 30
0.000000
  0
VERTEX
  8
MERGEDLAYER-1
 10
13.797116
 20
18.660748
 30
0.000000
  0
VERTEX
  8
MERGEDLAYER-1
 10
14.266935
 20
18.660748
 30
0.000000
  0
SEQEND
  8
MERGEDLAYER-1
  0
POLYLINE
  8
MERGEDLAYER-1
 66
  1
 70
  0
 62
  7
 10
13.767113
 20
18.660842
 30
0.000000
  0
VERTEX
  8
MERGEDLAYER-1
 10
13.767113
 20
18.660842
 30
0.000000
  0
VERTEX
  8
MERGEDLAYER-1
 10
13.780144
 20
18.647813
 30
0.000000
  0
VERTEX
  8
MERGEDLAYER-1
 10
13.797112
 20
18.660748
 30
0.000000
  0
SEQEND
  8
MERGEDLAYER-1
  0
POLYLINE
  8
MERGEDLAYER-1
 66
  1
 70
  0
 62
  7
 10
13.767112
 20
18.660842
 30
0.000000
  0
VERTEX
  8
MERGEDLAYER-1
 10
13.767112
 20
18.660842
 30
0.000000
  0
VERTEX
  8
MERGEDLAYER-1
 10
12.720939
 20
18.660842
 30
0.000000
  0
SEQEND
  8
MERGEDLAYER-1
  0
POLYLINE
  8
MERGEDLAYER-1
 66
  1
 70
  0
 62
  7
 10
12.690939
 20
18.660842
 30
0.000000
  0
VERTEX
  8
MERGEDLAYER-1
 10
12.690939
 20
18.660842
 30
0.000000
  0
VERTEX
  8
MERGEDLAYER-1
 10
12.703970
 20
18.647813
 30
0.000000
  0
VERTEX
  8
MERGEDLAYER-1
 10
12.720938
 20
18.660842
 30
0.000000
  0
SEQEND
  8
MERGEDLAYER-1
  0
POLYLINE
  8
MERGEDLAYER-1
 66
  1
 70
  0
 62
  7
 10
12.690945
 20
18.660842
 30
0.000000
  0
VERTEX
  8
MERGEDLAYER-1
 10
12.690945
 20
18.660842
 30
0.000000
  0
VERTEX
  8
MERGEDLAYER-1
 10
11.656060
 20
18.660842
 30
0.000000
  0
SEQEND
  8
MERGEDLAYER-1
  0
POLYLINE
  8
MERGEDLAYER-1
 66
  1
 70
  0
 62
  7
 10
11.656060
 20
18.660837
 30
0.000000
  0
VERTEX
  8
MERGEDLAYER-1
 10
11.656060
 20
18.660837
 30
0.000000
  0
VERTEX
  8
MERGEDLAYER-1
 10
11.641060
 20
18.645836
 30
0.000000
  0
SEQEND
  8
MERGEDLAYER-1
  0
POLYLINE
  8
MERGEDLAYER-1
 66
  1
 70
  0
 62
  7
 10
11.720832
 20
18.565707
 30
0.000000
  0
VERTEX
  8
MERGEDLAYER-1
 10
11.720832
 20
18.565707
 30
0.000000
  0
VERTEX
  8
MERGEDLAYER-1
 10
11.641058
 20
18.645836
 30
0.000000
  0
SEQEND
  8
MERGEDLAYER-1
  0
POLYLINE
  8
MERGEDLAYER-1
 66
  1
 70
  0
 62
  7
 10
11.735834
 20
18.580707
 30
0.000000
  0
VERTEX
  8
MERGEDLAYER-1
 10
11.735834
 20
18.580707
 30
0.000000
  0
VERTEX
  8
MERGEDLAYER-1
 10
11.720835
 20
18.565707
 30
0.000000
  0
SEQEND
  8
MERGEDLAYER-1
  0
POLYLINE
  8
MERGEDLAYER-1
 66
  1
 70
  0
 62
  7
 10
11.780546
 20
18.580707
 30
0.000000
  0
VERTEX
  8
MERGEDLAYER-1
 10
11.780546
 20
18.580707
 30
0.000000
  0
VERTEX
  8
MERGEDLAYER-1
 10
11.735834
 20
18.580707
 30
0.000000
  0
SEQEND
  8
MERGEDLAYER-1
  0
POLYLINE
  8
MERGEDLAYER-1
 66
  1
 70
  0
 62
  7
 10
11.795545
 20
18.565707
 30
0.000000
  0
VERTEX
  8
MERGEDLAYER-1
 10
11.795545
 20
18.565707
 30
0.000000
  0
VERTEX
  8
MERGEDLAYER-1
 10
11.780546
 20
18.580707
 30
0.000000
  0
SEQEND
  8
MERGEDLAYER-1
  0
POLYLINE
  8
MERGEDLAYER-1
 66
  1
 70
  0
 62
  7
 10
11.795547
 20
18.488427
 30
0.000000
  0
VERTEX
  8
MERGEDLAYER-1
 10
11.795547
 20
18.488427
 30
0.000000
  0
VERTEX
  8
MERGEDLAYER-1
 10
11.795547
 20
18.565707
 30
0.000000
  0
SEQEND
  8
MERGEDLAYER-1
  0
POLYLINE
  8
MERGEDLAYER-1
 66
  1
 70
  0
 62
  7
 10
11.795543
 20
18.488427
 30
0.000000
  0
VERTEX
  8
MERGEDLAYER-1
 10
11.795543
 20
18.488427
 30
0.000000
  0
VERTEX
  8
MERGEDLAYER-1
 10
11.810542
 20
18.473431
 30
0.000000
  0
SEQEND
  8
MERGEDLAYER-1
  0
POLYLINE
  8
MERGEDLAYER-1
 66
  1
 70
  0
 62
  7
 10
11.880544
 20
18.473426
 30
0.000000
  0
VERTEX
  8
MERGEDLAYER-1
 10
11.880544
 20
18.473426
 30
0.000000
  0
VERTEX
  8
MERGEDLAYER-1
 10
11.810542
 20
18.473426
 30
0.000000
  0
SEQEND
  8
MERGEDLAYER-1
  0
POLYLINE
  8
MERGEDLAYER-1
 66
  1
 70
  0
 62
  7
 10
11.880544
 20
18.473431
 30
0.000000
  0
VERTEX
  8
MERGEDLAYER-1
 10
11.880544
 20
18.473431
 30
0.000000
  0
VERTEX
  8
MERGEDLAYER-1
 10
11.895542
 20
18.488427
 30
0.000000
  0
SEQEND
  8
MERGEDLAYER-1
  0
POLYLINE
  8
MERGEDLAYER-1
 66
  1
 70
  0
 62
  7
 10
11.895537
 20
18.565852
 30
0.000000
  0
VERTEX
  8
MERGEDLAYER-1
 10
11.895537
 20
18.565852
 30
0.000000
  0
VERTEX
  8
MERGEDLAYER-1
 10
11.895537
 20
18.488427
 30
0.000000
  0
SEQEND
  8
MERGEDLAYER-1
  0
POLYLINE
  8
MERGEDLAYER-1
 66
  1
 70
  0
 62
  7
 10
11.910546
 20
18.580853
 30
0.000000
  0
VERTEX
  8
MERGEDLAYER-1
 10
11.910546
 20
18.580853
 30
0.000000
  0
VERTEX
  8
MERGEDLAYER-1
 10
11.895547
 20
18.565852
 30
0.000000
  0
SEQEND
  8
MERGEDLAYER-1
  0
POLYLINE
  8
MERGEDLAYER-1
 66
  1
 70
  0
 62
  7
 10
11.955820
 20
18.580848
 30
0.000000
  0
VERTEX
  8
MERGEDLAYER-1
 10
11.955820
 20
18.580848
 30
0.000000
  0
VERTEX
  8
MERGEDLAYER-1
 10
11.910546
 20
18.580848
 30
0.000000
  0
SEQEND
  8
MERGEDLAYER-1
  0
POLYLINE
  8
MERGEDLAYER-1
 66
  1
 70
  0
 62
  7
 10
11.970819
 20
18.565852
 30
0.000000
  0
VERTEX
  8
MERGEDLAYER-1
 10
11.970819
 20
18.565852
 30
0.000000
  0
VERTEX
  8
MERGEDLAYER-1
 10
11.955820
 20
18.580853
 30
0.000000
  0
SEQEND
  8
MERGEDLAYER-1
  0
POLYLINE
  8
MERGEDLAYER-1
 66
  1
 70
  0
 62
  7
 10
11.970822
 20
18.348398
 30
0.000000
  0
VERTEX
  8
MERGEDLAYER-1
 10
11.970822
 20
18.348398
 30
0.000000
  0
VERTEX
  8
MERGEDLAYER-1
 10
11.970822
 20
18.565852
 30
0.000000
  0
SEQEND
  8
MERGEDLAYER-1
  0
POLYLINE
  8
MERGEDLAYER-1
 66
  1
 70
  0
 62
  7
 10
11.970823
 20
18.348398
 30
0.000000
  0
VERTEX
  8
MERGEDLAYER-1
 10
11.970823
 20
18.348398
 30
0.000000
  0
VERTEX
  8
MERGEDLAYER-1
 10
11.985822
 20
18.333402
 30
0.000000
  0
SEQEND
  8
MERGEDLAYER-1
  0
POLYLINE
  8
MERGEDLAYER-1
 66
  1
 70
  0
 62
  7
 10
12.035817
 20
18.333397
 30
0.000000
  0
VERTEX
  8
MERGEDLAYER-1
 10
12.035817
 20
18.333397
 30
0.000000
  0
VERTEX
  8
MERGEDLAYER-1
 10
11.985822
 20
18.333397
 30
0.000000
  0
SEQEND
  8
MERGEDLAYER-1
  0
POLYLINE
  8
MERGEDLAYER-1
 66
  1
 70
  0
 62
  7
 10
12.035817
 20
18.333402
 30
0.000000
  0
VERTEX
  8
MERGEDLAYER-1
 10
12.035817
 20
18.333402
 30
0.000000
  0
VERTEX
  8
MERGEDLAYER-1
 10
12.050816
 20
18.348398
 30
0.000000
  0
SEQEND
  8
MERGEDLAYER-1
  0
POLYLINE
  8
MERGEDLAYER-1
 66
  1
 70
  0
 62
  7
 10
12.050819
 20
18.565693
 30
0.000000
  0
VERTEX
  8
MERGEDLAYER-1
 10
12.050819
 20
18.565693
 30
0.000000
  0
VERTEX
  8
MERGEDLAYER-1
 10
12.050819
 20
18.348398
 30
0.000000
  0
SEQEND
  8
MERGEDLAYER-1
  0
POLYLINE
  8
MERGEDLAYER-1
 66
  1
 70
  0
 62
  7
 10
12.065819
 20
18.580688
 30
0.000000
  0
VERTEX
  8
MERGEDLAYER-1
 10
12.065819
 20
18.580688
 30
0.000000
  0
VERTEX
  8
MERGEDLAYER-1
 10
12.050820
 20
18.565693
 30
0.000000
  0
SEQEND
  8
MERGEDLAYER-1
  0
POLYLINE
  8
MERGEDLAYER-1
 66
  1
 70
  0
 62
  7
 10
12.258609
 20
18.580688
 30
0.000000
  0
VERTEX
  8
MERGEDLAYER-1
 10
12.258609
 20
18.580688
 30
0.000000
  0
VERTEX
  8
MERGEDLAYER-1
 10
12.065819
 20
18.580688
 30
0.000000
  0
SEQEND
  8
MERGEDLAYER-1
  0
POLYLINE
  8
MERGEDLAYER-1
 66
  1
 70
  0
 62
  7
 10
12.273609
 20
18.565693
 30
0.000000
  0
VERTEX
  8
MERGEDLAYER-1
 10
12.273609
 20
18.565693
 30
0.000000
  0
VERTEX
  8
MERGEDLAYER-1
 10
12.258609
 20
18.580688
 30
0.000000
  0
SEQEND
  8
MERGEDLAYER-1
  0
POLYLINE
  8
MERGEDLAYER-1
 66
  1
 70
  0
 62
  7
 10
12.398928
 20
18.565707
 30
0.000000
  0
VERTEX
  8
MERGEDLAYER-1
 10
12.398928
 20
18.565707
 30
0.000000
  0
VERTEX
  8
MERGEDLAYER-1
 10
12.273610
 20
18.565693
 30
0.000000
  0
SEQEND
  8
MERGEDLAYER-1
  0
POLYLINE
  8
MERGEDLAYER-1
 66
  1
 70
  0
 62
  7
 10
12.413929
 20
18.580707
 30
0.000000
  0
VERTEX
  8
MERGEDLAYER-1
 10
12.413929
 20
18.580707
 30
0.000000
  0
VERTEX
  8
MERGEDLAYER-1
 10
12.398929
 20
18.565707
 30
0.000000
  0
SEQEND
  8
MERGEDLAYER-1
  0
POLYLINE
  8
MERGEDLAYER-1
 66
  1
 70
  0
 62
  7
 10
12.413929
 20
18.580707
 30
0.000000
  0
VERTEX
  8
MERGEDLAYER-1
 10
12.413929
 20
18.580707
 30
0.000000
  0
VERTEX
  8
MERGEDLAYER-1
 10
12.463639
 20
18.580707
 30
0.000000
  0
SEQEND
  8
MERGEDLAYER-1
  0
POLYLINE
  8
MERGEDLAYER-1
 66
  1
 70
  0
 62
  7
 10
12.478639
 20
18.565707
 30
0.000000
  0
VERTEX
  8
MERGEDLAYER-1
 10
12.478639
 20
18.565707
 30
0.000000
  0
VERTEX
  8
MERGEDLAYER-1
 10
12.463639
 20
18.580707
 30
0.000000
  0
SEQEND
  8
MERGEDLAYER-1
  0
POLYLINE
  8
MERGEDLAYER-1
 66
  1
 70
  0
 62
  7
 10
12.478640
 20
18.488427
 30
0.000000
  0
VERTEX
  8
MERGEDLAYER-1
 10
12.478640
 20
18.488427
 30
0.000000
  0
VERTEX
  8
MERGEDLAYER-1
 10
12.478640
 20
18.565707
 30
0.000000
  0
SEQEND
  8
MERGEDLAYER-1
  0
POLYLINE
  8
MERGEDLAYER-1
 66
  1
 70
  0
 62
  7
 10
12.478642
 20
18.488427
 30
0.000000
  0
VERTEX
  8
MERGEDLAYER-1
 10
12.478642
 20
18.488427
 30
0.000000
  0
VERTEX
  8
MERGEDLAYER-1
 10
12.493642
 20
18.473431
 30
0.000000
  0
SEQEND
  8
MERGEDLAYER-1
  0
POLYLINE
  8
MERGEDLAYER-1
 66
  1
 70
  0
 62
  7
 10
12.493642
 20
18.473426
 30
0.000000
  0
VERTEX
  8
MERGEDLAYER-1
 10
12.493642
 20
18.473426
 30
0.000000
  0
VERTEX
  8
MERGEDLAYER-1
 10
12.563636
 20
18.473426
 30
0.000000
  0
SEQEND
  8
MERGEDLAYER-1
  0
POLYLINE
  8
MERGEDLAYER-1
 66
  1
 70
  0
 62
  7
 10
12.563636
 20
18.473431
 30
0.000000
  0
VERTEX
  8
MERGEDLAYER-1
 10
12.563636
 20
18.473431
 30
0.000000
  0
VERTEX
  8
MERGEDLAYER-1
 10
12.578636
 20
18.488427
 30
0.000000
  0
SEQEND
  8
MERGEDLAYER-1
  0
POLYLINE
  8
MERGEDLAYER-1
 66
  1
 70
  0
 62
  7
 10
12.578637
 20
18.565852
 30
0.000000
  0
VERTEX
  8
MERGEDLAYER-1
 10
12.578637
 20
18.565852
 30
0.000000
  0
VERTEX
  8
MERGEDLAYER-1
 10
12.578637
 20
18.488427
 30
0.000000
  0
SEQEND
  8
MERGEDLAYER-1
  0
POLYLINE
  8
MERGEDLAYER-1
 66
  1
 70
  0
 62
  7
 10
12.593630
 20
18.580853
 30
0.000000
  0
VERTEX
  8
MERGEDLAYER-1
 10
12.593630
 20
18.580853
 30
0.000000
  0
VERTEX
  8
MERGEDLAYER-1
 10
12.578631
 20
18.565852
 30
0.000000
  0
SEQEND
  8
MERGEDLAYER-1
  0
POLYLINE
  8
MERGEDLAYER-1
 66
  1
 70
  0
 62
  7
 10
12.643917
 20
18.580848
 30
0.000000
  0
VERTEX
  8
MERGEDLAYER-1
 10
12.643917
 20
18.580848
 30
0.000000
  0
VERTEX
  8
MERGEDLAYER-1
 10
12.593630
 20
18.580848
 30
0.000000
  0
SEQEND
  8
MERGEDLAYER-1
  0
POLYLINE
  8
MERGEDLAYER-1
 66
  1
 70
  0
 62
  7
 10
12.658917
 20
18.565852
 30
0.000000
  0
VERTEX
  8
MERGEDLAYER-1
 10
12.658917
 20
18.565852
 30
0.000000
  0
VERTEX
  8
MERGEDLAYER-1
 10
12.643917
 20
18.580853
 30
0.000000
  0
SEQEND
  8
MERGEDLAYER-1
  0
POLYLINE
  8
MERGEDLAYER-1
 66
  1
 70
  0
 62
  7
 10
12.658911
 20
18.348398
 30
0.000000
  0
VERTEX
  8
MERGEDLAYER-1
 10
12.658911
 20
18.348398
 30
0.000000
  0
VERTEX
  8
MERGEDLAYER-1
 10
12.658911
 20
18.565852
 30
0.000000
  0
SEQEND
  8
MERGEDLAYER-1
  0
POLYLINE
  8
MERGEDLAYER-1
 66
  1
 70
  0
 62
  7
 10
12.658914
 20
18.348398
 30
0.000000
  0
VERTEX
  8
MERGEDLAYER-1
 10
12.658914
 20
18.348398
 30
0.000000
  0
VERTEX
  8
MERGEDLAYER-1
 10
12.673914
 20
18.333402
 30
0.000000
  0
SEQEND
  8
MERGEDLAYER-1
  0
POLYLINE
  8
MERGEDLAYER-1
 66
  1
 70
  0
 62
  7
 10
12.673914
 20
18.333397
 30
0.000000
  0
VERTEX
  8
MERGEDLAYER-1
 10
12.673914
 20
18.333397
 30
0.000000
  0
VERTEX
  8
MERGEDLAYER-1
 10
12.738909
 20
18.333397
 30
0.000000
  0
SEQEND
  8
MERGEDLAYER-1
  0
POLYLINE
  8
MERGEDLAYER-1
 66
  1
 70
  0
 62
  7
 10
12.738909
 20
18.333402
 30
0.000000
  0
VERTEX
  8
MERGEDLAYER-1
 10
12.738909
 20
18.333402
 30
0.000000
  0
VERTEX
  8
MERGEDLAYER-1
 10
12.753909
 20
18.348398
 30
0.000000
  0
SEQEND
  8
MERGEDLAYER-1
  0
POLYLINE
  8
MERGEDLAYER-1
 66
  1
 70
  0
 62
  7
 10
12.753911
 20
18.348398
 30
0.000000
  0
VERTEX
  8
MERGEDLAYER-1
 10
12.753911
 20
18.348398
 30
0.000000
  0
VERTEX
  8
MERGEDLAYER-1
 10
12.753911
 20
18.550697
 30
0.000000
  0
SEQEND
  8
MERGEDLAYER-1
  0
POLYLINE
  8
MERGEDLAYER-1
 66
  1
 70
  0
 62
  7
 10
12.768913
 20
18.565697
 30
0.000000
  0
VERTEX
  8
MERGEDLAYER-1
 10
12.768913
 20
18.565697
 30
0.000000
  0
VERTEX
  8
MERGEDLAYER-1
 10
12.753913
 20
18.550697
 30
0.000000
  0
SEQEND
  8
MERGEDLAYER-1
  0
POLYLINE
  8
MERGEDLAYER-1
 66
  1
 70
  0
 62
  7
 10
12.768913
 20
18.565693
 30
0.000000
  0
VERTEX
  8
MERGEDLAYER-1
 10
12.768913
 20
18.565693
 30
0.000000
  0
VERTEX
  8
MERGEDLAYER-1
 10
13.891907
 20
18.565693
 30
0.000000
  0
SEQEND
  8
MERGEDLAYER-1
  0
POLYLINE
  8
MERGEDLAYER-1
 66
  1
 70
  0
 62
  7
 10
13.906905
 20
18.550697
 30
0.000000
  0
VERTEX
  8
MERGEDLAYER-1
 10
13.906905
 20
18.550697
 30
0.000000
  0
VERTEX
  8
MERGEDLAYER-1
 10
13.891907
 20
18.565697
 30
0.000000
  0
SEQEND
  8
MERGEDLAYER-1
  0
POLYLINE
  8
MERGEDLAYER-1
 66
  1
 70
  0
 62
  7
 10
13.906900
 20
18.278799
 30
0.000000
  0
VERTEX
  8
MERGEDLAYER-1
 10
13.906900
 20
18.278799
 30
0.000000
  0
VERTEX
  8
MERGEDLAYER-1
 10
13.906900
 20
18.550697
 30
0.000000
  0
SEQEND
  8
MERGEDLAYER-1
  0
POLYLINE
  8
MERGEDLAYER-1
 66
  1
 70
  0
 62
  7
 10
13.906903
 20
18.278799
 30
0.000000
  0
VERTEX
  8
MERGEDLAYER-1
 10
13.906903
 20
18.278799
 30
0.000000
  0
VERTEX
  8
MERGEDLAYER-1
 10
13.961900
 20
18.223797
 30
0.000000
  0
SEQEND
  8
MERGEDLAYER-1
  0
POLYLINE
  8
MERGEDLAYER-1
 66
  1
 70
  0
 62
  7
 10
14.025589
 20
18.223802
 30
0.000000
  0
VERTEX
  8
MERGEDLAYER-1
 10
14.025589
 20
18.223802
 30
0.000000
  0
VERTEX
  8
MERGEDLAYER-1
 10
13.961900
 20
18.223802
 30
0.000000
  0
SEQEND
  8
MERGEDLAYER-1
  0
POLYLINE
  8
MERGEDLAYER-1
 66
  1
 70
  0
 62
  7
 10
14.025589
 20
18.223802
 30
0.000000
  0
VERTEX
  8
MERGEDLAYER-1
 10
14.025589
 20
18.223802
 30
0.000000
  0
VERTEX
  8
MERGEDLAYER-1
 10
14.040588
 20
18.238802
 30
0.000000
  0
SEQEND
  8
MERGEDLAYER-1
  0
POLYLINE
  8
MERGEDLAYER-1
 66
  1
 70
  0
 62
  7
 10
14.040583
 20
18.248164
 30
0.000000
  0
VERTEX
  8
MERGEDLAYER-1
 10
14.040583
 20
18.248164
 30
0.000000
  0
VERTEX
  8
MERGEDLAYER-1
 10
14.040583
 20
18.238802
 30
0.000000
  0
SEQEND
  8
MERGEDLAYER-1
  0
POLYLINE
  8
MERGEDLAYER-1
 66
  1
 70
  0
 62
  7
 10
14.040588
 20
18.248164
 30
0.000000
  0
VERTEX
  8
MERGEDLAYER-1
 10
14.040588
 20
18.248164
 30
0.000000
  0
VERTEX
  8
MERGEDLAYER-1
 10
14.025589
 20
18.263160
 30
0.000000
  0
SEQEND
  8
MERGEDLAYER-1
  0
POLYLINE
  8
MERGEDLAYER-1
 66
  1
 70
  0
 62
  7
 10
14.025589
 20
18.263165
 30
0.000000
  0
VERTEX
  8
MERGEDLAYER-1
 10
14.025589
 20
18.263165
 30
0.000000
  0
VERTEX
  8
MERGEDLAYER-1
 10
13.976902
 20
18.263165
 30
0.000000
  0
SEQEND
  8
MERGEDLAYER-1
  0
POLYLINE
  8
MERGEDLAYER-1
 66
  1
 70
  0
 62
  7
 10
13.961902
 20
18.278161
 30
0.000000
  0
VERTEX
  8
MERGEDLAYER-1
 10
13.961902
 20
18.278161
 30
0.000000
  0
VERTEX
  8
MERGEDLAYER-1
 10
13.976902
 20
18.263160
 30
0.000000
  0
SEQEND
  8
MERGEDLAYER-1
  0
POLYLINE
  8
MERGEDLAYER-1
 66
  1
 70
  0
 62
  7
 10
13.961907
 20
18.278161
 30
0.000000
  0
VERTEX
  8
MERGEDLAYER-1
 10
13.961907
 20
18.278161
 30
0.000000
  0
VERTEX
  8
MERGEDLAYER-1
 10
13.961907
 20
18.334712
 30
0.000000
  0
SEQEND
  8
MERGEDLAYER-1
  0
POLYLINE
  8
MERGEDLAYER-1
 66
  1
 70
  0
 62
  7
 10
13.976902
 20
18.349708
 30
0.000000
  0
VERTEX
  8
MERGEDLAYER-1
 10
13.976902
 20
18.349708
 30
0.000000
  0
VERTEX
  8
MERGEDLAYER-1
 10
13.961902
 20
18.334712
 30
0.000000
  0
SEQEND
  8
MERGEDLAYER-1
  0
POLYLINE
  8
MERGEDLAYER-1
 66
  1
 70
  0
 62
  7
 10
13.976902
 20
18.349713
 30
0.000000
  0
VERTEX
  8
MERGEDLAYER-1
 10
13.976902
 20
18.349713
 30
0.000000
  0
VERTEX
  8
MERGEDLAYER-1
 10
14.025682
 20
18.349713
 30
0.000000
  0
SEQEND
  8
MERGEDLAYER-1
  0
POLYLINE
  8
MERGEDLAYER-1
 66
  1
 70
  0
 62
  7
 10
14.025682
 20
18.349713
 30
0.000000
  0
VERTEX
  8
MERGEDLAYER-1
 10
14.025682
 20
18.349713
 30
0.000000
  0
VERTEX
  8
MERGEDLAYER-1
 10
14.038713
 20
18.366680
 30
0.000000
  0
VERTEX
  8
MERGEDLAYER-1
 10
14.040681
 20
18.364732
 30
0.000000
  0
SEQEND
  8
MERGEDLAYER-1
  0
POLYLINE
  8
MERGEDLAYER-1
 66
  1
 70
  0
 62
  7
 10
14.040683
 20
18.364737
 30
0.000000
  0
VERTEX
  8
MERGEDLAYER-1
 10
14.040683
 20
18.364737
 30
0.000000
  0
VERTEX
  8
MERGEDLAYER-1
 10
14.040583
 20
18.435030
 30
0.000000
  0
SEQEND
  8
MERGEDLAYER-1
  0
POLYLINE
  8
MERGEDLAYER-1
 66
  1
 70
  0
 62
  7
 10
14.040588
 20
18.435030
 30
0.000000
  0
VERTEX
  8
MERGEDLAYER-1
 10
14.040588
 20
18.435030
 30
0.000000
  0
VERTEX
  8
MERGEDLAYER-1
 10
14.037882
 20
18.441632
 30
0.000000
  0
VERTEX
  8
MERGEDLAYER-1
 10
14.035748
 20
18.445805
 30
0.000000
  0
VERTEX
  8
MERGEDLAYER-1
 10
14.032431
 20
18.449115
 30
0.000000
  0
VERTEX
  8
MERGEDLAYER-1
 10
14.028252
 20
18.451247
 30
0.000000
  0
VERTEX
  8
MERGEDLAYER-1
 10
14.025589
 20
18.450008
 30
0.000000
  0
SEQEND
  8
MERGEDLAYER-1
  0
POLYLINE
  8
MERGEDLAYER-1
 66
  1
 70
  0
 62
  7
 10
14.025589
 20
18.450012
 30
0.000000
  0
VERTEX
  8
MERGEDLAYER-1
 10
14.025589
 20
18.450012
 30
0.000000
  0
VERTEX
  8
MERGEDLAYER-1
 10
13.976902
 20
18.450012
 30
0.000000
  0
SEQEND
  8
MERGEDLAYER-1
  0
POLYLINE
  8
MERGEDLAYER-1
 66
  1
 70
  0
 62
  7
 10
13.961902
 20
18.465003
 30
0.000000
  0
VERTEX
  8
MERGEDLAYER-1
 10
13.961902
 20
18.465003
 30
0.000000
  0
VERTEX
  8
MERGEDLAYER-1
 10
13.976902
 20
18.450008
 30
0.000000
  0
SEQEND
  8
MERGEDLAYER-1
  0
POLYLINE
  8
MERGEDLAYER-1
 66
  1
 70
  0
 62
  7
 10
13.961907
 20
18.465003
 30
0.000000
  0
VERTEX
  8
MERGEDLAYER-1
 10
13.961907
 20
18.465003
 30
0.000000
  0
VERTEX
  8
MERGEDLAYER-1
 10
13.961907
 20
18.591055
 30
0.000000
  0
SEQEND
  8
MERGEDLAYER-1
  0
POLYLINE
  8
MERGEDLAYER-1
 66
  1
 70
  0
 62
  7
 10
13.976902
 20
18.606056
 30
0.000000
  0
VERTEX
  8
MERGEDLAYER-1
 10
13.976902
 20
18.606056
 30
0.000000
  0
VERTEX
  8
MERGEDLAYER-1
 10
13.961902
 20
18.591055
 30
0.000000
  0
SEQEND
  8
MERGEDLAYER-1
  0
POLYLINE
  8
MERGEDLAYER-1
 66
  1
 70
  0
 62
  7
 10
14.266889
 20
18.606056
 30
0.000000
  0
VERTEX
  8
MERGEDLAYER-1
 10
14.266889
 20
18.606056
 30
0.000000
  0
VERTEX
  8
MERGEDLAYER-1
 10
13.976902
 20
18.606056
 30
0.000000
  0
SEQEND
  8
MERGEDLAYER-1
  0
POLYLINE
  8
MERGEDLAYER-1
 66
  1
 70
  0
 62
  7
 10
14.335886
 20
18.537058
 30
0.000000
  0
VERTEX
  8
MERGEDLAYER-1
 10
14.335886
 20
18.537058
 30
0.000000
  0
VERTEX
  8
MERGEDLAYER-1
 10
14.266889
 20
18.606056
 30
0.000000
  0
SEQEND
  8
MERGEDLAYER-1
  0
POLYLINE
  8
MERGEDLAYER-1
 66
  1
 70
  0
 62
  7
 10
14.335891
 20
18.537058
 30
0.000000
  0
VERTEX
  8
MERGEDLAYER-1
 10
14.335891
 20
18.537058
 30
0.000000
  0
VERTEX
  8
MERGEDLAYER-1
 10
14.335891
 20
18.465003
 30
0.000000
  0
SEQEND
  8
MERGEDLAYER-1
  0
POLYLINE
  8
MERGEDLAYER-1
 66
  1
 70
  0
 62
  7
 10
14.320889
 20
18.450008
 30
0.000000
  0
VERTEX
  8
MERGEDLAYER-1
 10
14.320889
 20
18.450008
 30
0.000000
  0
VERTEX
  8
MERGEDLAYER-1
 10
14.335888
 20
18.465003
 30
0.000000
  0
SEQEND
  8
MERGEDLAYER-1
  0
POLYLINE
  8
MERGEDLAYER-1
 66
  1
 70
  0
 62
  7
 10
14.320889
 20
18.450012
 30
0.000000
  0
VERTEX
  8
MERGEDLAYER-1
 10
14.320889
 20
18.450012
 30
0.000000
  0
VERTEX
  8
MERGEDLAYER-1
 10
14.272056
 20
18.450012
 30
0.000000
  0
SEQEND
  8
MERGEDLAYER-1
  0
POLYLINE
  8
MERGEDLAYER-1
 66
  1
 70
  0
 62
  7
 10
14.272056
 20
18.450008
 30
0.000000
  0
VERTEX
  8
MERGEDLAYER-1
 10
14.272056
 20
18.450008
 30
0.000000
  0
VERTEX
  8
MERGEDLAYER-1
 10
14.257057
 20
18.435007
 30
0.000000
  0
SEQEND
  8
MERGEDLAYER-1
  0
POLYLINE
  8
MERGEDLAYER-1
 66
  1
 70
  0
 62
  7
 10
14.257054
 20
18.435007
 30
0.000000
  0
VERTEX
  8
MERGEDLAYER-1
 10
14.257054
 20
18.435007
 30
0.000000
  0
VERTEX
  8
MERGEDLAYER-1
 10
14.257054
 20
18.364713
 30
0.000000
  0
SEQEND
  8
MERGEDLAYER-1
  0
POLYLINE
  8
MERGEDLAYER-1
 66
  1
 70
  0
 62
  7
 10
14.257057
 20
18.364713
 30
0.000000
  0
VERTEX
  8
MERGEDLAYER-1
 10
14.257057
 20
18.364713
 30
0.000000
  0
VERTEX
  8
MERGEDLAYER-1
 10
14.272056
 20
18.349713
 30
0.000000
  0
SEQEND
  8
MERGEDLAYER-1
  0
POLYLINE
  8
MERGEDLAYER-1
 66
  1
 70
  0
 62
  7
 10
14.272056
 20
18.349713
 30
0.000000
  0
VERTEX
  8
MERGEDLAYER-1
 10
14.272056
 20
18.349713
 30
0.000000
  0
VERTEX
  8
MERGEDLAYER-1
 10
14.320889
 20
18.349713
 30
0.000000
  0
SEQEND
  8
MERGEDLAYER-1
  0
POLYLINE
  8
MERGEDLAYER-1
 66
  1
 70
  0
 62
  7
 10
14.335888
 20
18.334712
 30
0.000000
  0
VERTEX
  8
MERGEDLAYER-1
 10
14.335888
 20
18.334712
 30
0.000000
  0
VERTEX
  8
MERGEDLAYER-1
 10
14.320889
 20
18.349708
 30
0.000000
  0
SEQEND
  8
MERGEDLAYER-1
  0
POLYLINE
  8
MERGEDLAYER-1
 66
  1
 70
  0
 62
  7
 10
14.335891
 20
18.334712
 30
0.000000
  0
VERTEX
  8
MERGEDLAYER-1
 10
14.335891
 20
18.334712
 30
0.000000
  0
VERTEX
  8
MERGEDLAYER-1
 10
14.335891
 20
18.278161
 30
0.000000
  0
SEQEND
  8
MERGEDLAYER-1
  0
POLYLINE
  8
MERGEDLAYER-1
 66
  1
 70
  0
 62
  7
 10
14.320889
 20
18.263160
 30
0.000000
  0
VERTEX
  8
MERGEDLAYER-1
 10
14.320889
 20
18.263160
 30
0.000000
  0
VERTEX
  8
MERGEDLAYER-1
 10
14.335888
 20
18.278161
 30
0.000000
  0
SEQEND
  8
MERGEDLAYER-1
  0
POLYLINE
  8
MERGEDLAYER-1
 66
  1
 70
  0
 62
  7
 10
14.320889
 20
18.263165
 30
0.000000
  0
VERTEX
  8
MERGEDLAYER-1
 10
14.320889
 20
18.263165
 30
0.000000
  0
VERTEX
  8
MERGEDLAYER-1
 10
14.272056
 20
18.263165
 30
0.000000
  0
SEQEND
  8
MERGEDLAYER-1
  0
POLYLINE
  8
MERGEDLAYER-1
 66
  1
 70
  0
 62
  7
 10
14.272056
 20
18.263160
 30
0.000000
  0
VERTEX
  8
MERGEDLAYER-1
 10
14.272056
 20
18.263160
 30
0.000000
  0
VERTEX
  8
MERGEDLAYER-1
 10
14.257057
 20
18.248164
 30
0.000000
  0
SEQEND
  8
MERGEDLAYER-1
  0
POLYLINE
  8
MERGEDLAYER-1
 66
  1
 70
  0
 62
  7
 10
14.257054
 20
18.248164
 30
0.000000
  0
VERTEX
  8
MERGEDLAYER-1
 10
14.257054
 20
18.248164
 30
0.000000
  0
VERTEX
  8
MERGEDLAYER-1
 10
14.257054
 20
18.238802
 30
0.000000
  0
SEQEND
  8
MERGEDLAYER-1
  0
POLYLINE
  8
MERGEDLAYER-1
 66
  1
 70
  0
 62
  7
 10
14.257057
 20
18.238802
 30
0.000000
  0
VERTEX
  8
MERGEDLAYER-1
 10
14.257057
 20
18.238802
 30
0.000000
  0
VERTEX
  8
MERGEDLAYER-1
 10
14.272056
 20
18.223802
 30
0.000000
  0
SEQEND
  8
MERGEDLAYER-1
  0
POLYLINE
  8
MERGEDLAYER-1
 66
  1
 70
  0
 62
  7
 10
14.272056
 20
18.223802
 30
0.000000
  0
VERTEX
  8
MERGEDLAYER-1
 10
14.272056
 20
18.223802
 30
0.000000
  0
VERTEX
  8
MERGEDLAYER-1
 10
14.335936
 20
18.223802
 30
0.000000
  0
SEQEND
  8
MERGEDLAYER-1
  0
POLYLINE
  8
MERGEDLAYER-1
 66
  1
 70
  0
 62
  7
 10
14.335936
 20
18.223797
 30
0.000000
  0
VERTEX
  8
MERGEDLAYER-1
 10
14.335936
 20
18.223797
 30
0.000000
  0
VERTEX
  8
MERGEDLAYER-1
 10
14.390934
 20
18.278799
 30
0.000000
  0
SEQEND
  8
MERGEDLAYER-1
  0
POLYLINE
  8
MERGEDLAYER-1
 66
  1
 70
  0
 62
  7
 10
14.390930
 20
18.278799
 30
0.000000
  0
VERTEX
  8
MERGEDLAYER-1
 10
14.390930
 20
18.278799
 30
0.000000
  0
VERTEX
  8
MERGEDLAYER-1
 10
14.390930
 20
18.536748
 30
0.000000
  0
SEQEND
  8
MERGEDLAYER-1
  0
POLYLINE
  8
MERGEDLAYER-1
 66
  1
 70
  0
 62
  7
 10
14.390930
 20
18.536748
 30
0.000000
  0
VERTEX
  8
MERGEDLAYER-1
 10
14.390930
 20
18.536748
 30
0.000000
  0
VERTEX
  8
MERGEDLAYER-1
 10
14.352644
 20
18.626394
 30
0.000000
  0
VERTEX
  8
MERGEDLAYER-1
 10
14.266935
 20
18.660743
 30
0.000000
  0
SEQEND
  8
MERGEDLAYER-1
  0
POLYLINE
  8
MERGEDLAYER-1
 66
  1
 70
  0
 62
  7
 10
11.720832
 20
17.131047
 30
0.000000
  0
VERTEX
  8
MERGEDLAYER-1
 10
11.720832
 20
17.131047
 30
0.000000
  0
VERTEX
  8
MERGEDLAYER-1
 10
11.720832
 20
18.565707
 30
0.000000
  0
SEQEND
  8
MERGEDLAYER-1
  0
POLYLINE
  8
MERGEDLAYER-1
 66
  1
 70
  0
 62
  7
 10
11.641058
 20
18.645836
 30
0.000000
  0
VERTEX
  8
MERGEDLAYER-1
 10
11.641058
 20
18.645836
 30
0.000000
  0
VERTEX
  8
MERGEDLAYER-1
 10
11.720832
 20
18.565707
 30
0.000000
  0
SEQEND
  8
MERGEDLAYER-1
  0
POLYLINE
  8
MERGEDLAYER-1
 66
  1
 70
  0
 62
  7
 10
11.641058
 20
17.863450
 30
0.000000
  0
VERTEX
  8
MERGEDLAYER-1
 10
11.641058
 20
17.863450
 30
0.000000
  0
VERTEX
  8
MERGEDLAYER-1
 10
11.641058
 20
18.645836
 30
0.000000
  0
SEQEND
  8
MERGEDLAYER-1
  0
POLYLINE
  8
MERGEDLAYER-1
 66
  1
 70
  0
 62
  7
 10
11.641058
 20
17.833449
 30
0.000000
  0
VERTEX
  8
MERGEDLAYER-1
 10
11.641058
 20
17.833449
 30
0.000000
  0
VERTEX
  8
MERGEDLAYER-1
 10
11.654089
 20
17.850417
 30
0.000000
  0
VERTEX
  8
MERGEDLAYER-1
 10
11.641058
 20
17.863446
 30
0.000000
  0
SEQEND
  8
MERGEDLAYER-1
  0
POLYLINE
  8
MERGEDLAYER-1
 66
  1
 70
  0
 62
  7
 10
11.641058
 20
17.833454
 30
0.000000
  0
VERTEX
  8
MERGEDLAYER-1
 10
11.641058
 20
17.833454
 30
0.000000
  0
VERTEX
  8
MERGEDLAYER-1
 10
11.641058
 20
17.050913
 30
0.000000
  0
SEQEND
  8
MERGEDLAYER-1
  0
POLYLINE
  8
MERGEDLAYER-1
 66
  1
 70
  0
 62
  7
 10
11.656060
 20
17.035912
 30
0.000000
  0
VERTEX
  8
MERGEDLAYER-1
 10
11.656060
 20
17.035912
 30
0.000000
  0
VERTEX
  8
MERGEDLAYER-1
 10
12.690945
 20
17.035912
 30
0.000000
  0
SEQEND
  8
MERGEDLAYER-1
  0
POLYLINE
  8
MERGEDLAYER-1
 66
  1
 70
  0
 62
  7
 10
13.797116
 20
17.035447
 30
0.000000
  0
VERTEX
  8
MERGEDLAYER-1
 10
13.797116
 20
17.035447
 30
0.000000
  0
VERTEX
  8
MERGEDLAYER-1
 10
14.266935
 20
17.035447
 30
0.000000
  0
SEQEND
  8
MERGEDLAYER-1
  0
POLYLINE
  8
MERGEDLAYER-1
 66
  1
 70
  0
 62
  7
 10
13.797112
 20
17.035443
 30
0.000000
  0
VERTEX
  8
MERGEDLAYER-1
 10
13.797112
 20
17.035443
 30
0.000000
  0
VERTEX
  8
MERGEDLAYER-1
 10
13.780050
 20
17.052321
 30
0.000000
  0
VERTEX
  8
MERGEDLAYER-1
 10
13.767113
 20
17.035353
 30
0.000000
  0
SEQEND
  8
MERGEDLAYER-1
  0
POLYLINE
  8
MERGEDLAYER-1
 66
  1
 70
  0
 62
  7
 10
13.767112
 20
17.035353
 30
0.000000
  0
VERTEX
  8
MERGEDLAYER-1
 10
13.767112
 20
17.035353
 30
0.000000
  0
VERTEX
  8
MERGEDLAYER-1
 10
12.720939
 20
17.035353
 30
0.000000
  0
SEQEND
  8
MERGEDLAYER-1
  0
POLYLINE
  8
MERGEDLAYER-1
 66
  1
 70
  0
 62
  7
 10
12.720938
 20
17.035353
 30
0.000000
  0
VERTEX
  8
MERGEDLAYER-1
 10
12.720938
 20
17.035353
 30
0.000000
  0
VERTEX
  8
MERGEDLAYER-1
 10
12.703970
 20
17.052321
 30
0.000000
  0
VERTEX
  8
MERGEDLAYER-1
 10
12.690939
 20
17.035353
 30
0.000000
  0
SEQEND
  8
MERGEDLAYER-1
  0
POLYLINE
  8
MERGEDLAYER-1
 66
  1
 70
  0
 62
  7
 10
12.690945
 20
17.035353
 30
0.000000
  0
VERTEX
  8
MERGEDLAYER-1
 10
12.690945
 20
17.035353
 30
0.000000
  0
VERTEX
  8
MERGEDLAYER-1
 10
11.656060
 20
17.035353
 30
0.000000
  0
SEQEND
  8
MERGEDLAYER-1
  0
POLYLINE
  8
MERGEDLAYER-1
 66
  1
 70
  0
 62
  7
 10
11.641060
 20
17.050349
 30
0.000000
  0
VERTEX
  8
MERGEDLAYER-1
 10
11.641060
 20
17.050349
 30
0.000000
  0
VERTEX
  8
MERGEDLAYER-1
 10
11.656060
 20
17.035353
 30
0.000000
  0
SEQEND
  8
MERGEDLAYER-1
  0
POLYLINE
  8
MERGEDLAYER-1
 66
  1
 70
  0
 62
  7
 10
11.720832
 20
17.130488
 30
0.000000
  0
VERTEX
  8
MERGEDLAYER-1
 10
11.720832
 20
17.130488
 30
0.000000
  0
VERTEX
  8
MERGEDLAYER-1
 10
11.641058
 20
17.050349
 30
0.000000
  0
SEQEND
  8
MERGEDLAYER-1
  0
POLYLINE
  8
MERGEDLAYER-1
 66
  1
 70
  0
 62
  7
 10
11.720835
 20
17.130488
 30
0.000000
  0
VERTEX
  8
MERGEDLAYER-1
 10
11.720835
 20
17.130488
 30
0.000000
  0
VERTEX
  8
MERGEDLAYER-1
 10
11.735834
 20
17.115493
 30
0.000000
  0
SEQEND
  8
MERGEDLAYER-1
  0
POLYLINE
  8
MERGEDLAYER-1
 66
  1
 70
  0
 62
  7
 10
11.780546
 20
17.115488
 30
0.000000
  0
VERTEX
  8
MERGEDLAYER-1
 10
11.780546
 20
17.115488
 30
0.000000
  0
VERTEX
  8
MERGEDLAYER-1
 10
11.735834
 20
17.115488
 30
0.000000
  0
SEQEND
  8
MERGEDLAYER-1
  0
POLYLINE
  8
MERGEDLAYER-1
 66
  1
 70
  0
 62
  7
 10
11.780546
 20
17.115493
 30
0.000000
  0
VERTEX
  8
MERGEDLAYER-1
 10
11.780546
 20
17.115493
 30
0.000000
  0
VERTEX
  8
MERGEDLAYER-1
 10
11.795545
 20
17.130488
 30
0.000000
  0
SEQEND
  8
MERGEDLAYER-1
  0
POLYLINE
  8
MERGEDLAYER-1
 66
  1
 70
  0
 62
  7
 10
11.795547
 20
17.207764
 30
0.000000
  0
VERTEX
  8
MERGEDLAYER-1
 10
11.795547
 20
17.207764
 30
0.000000
  0
VERTEX
  8
MERGEDLAYER-1
 10
11.795547
 20
17.130488
 30
0.000000
  0
SEQEND
  8
MERGEDLAYER-1
  0
POLYLINE
  8
MERGEDLAYER-1
 66
  1
 70
  0
 62
  7
 10
11.810542
 20
17.222764
 30
0.000000
  0
VERTEX
  8
MERGEDLAYER-1
 10
11.810542
 20
17.222764
 30
0.000000
  0
VERTEX
  8
MERGEDLAYER-1
 10
11.795543
 20
17.207764
 30
0.000000
  0
SEQEND
  8
MERGEDLAYER-1
  0
POLYLINE
  8
MERGEDLAYER-1
 66
  1
 70
  0
 62
  7
 10
11.880544
 20
17.222769
 30
0.000000
  0
VERTEX
  8
MERGEDLAYER-1
 10
11.880544
 20
17.222769
 30
0.000000
  0
VERTEX
  8
MERGEDLAYER-1
 10
11.810542
 20
17.222769
 30
0.000000
  0
SEQEND
  8
MERGEDLAYER-1
  0
POLYLINE
  8
MERGEDLAYER-1
 66
  1
 70
  0
 62
  7
 10
11.895542
 20
17.207764
 30
0.000000
  0
VERTEX
  8
MERGEDLAYER-1
 10
11.895542
 20
17.207764
 30
0.000000
  0
VERTEX
  8
MERGEDLAYER-1
 10
11.880544
 20
17.222764
 30
0.000000
  0
SEQEND
  8
MERGEDLAYER-1
  0
POLYLINE
  8
MERGEDLAYER-1
 66
  1
 70
  0
 62
  7
 10
11.895537
 20
17.130343
 30
0.000000
  0
VERTEX
  8
MERGEDLAYER-1
 10
11.895537
 20
17.130343
 30
0.000000
  0
VERTEX
  8
MERGEDLAYER-1
 10
11.895537
 20
17.207764
 30
0.000000
  0
SEQEND
  8
MERGEDLAYER-1
  0
POLYLINE
  8
MERGEDLAYER-1
 66
  1
 70
  0
 62
  7
 10
11.895547
 20
17.130343
 30
0.000000
  0
VERTEX
  8
MERGEDLAYER-1
 10
11.895547
 20
17.130343
 30
0.000000
  0
VERTEX
  8
MERGEDLAYER-1
 10
11.910546
 20
17.115347
 30
0.000000
  0
SEQEND
  8
MERGEDLAYER-1
  0
POLYLINE
  8
MERGEDLAYER-1
 66
  1
 70
  0
 62
  7
 10
11.955820
 20
17.115347
 30
0.000000
  0
VERTEX
  8
MERGEDLAYER-1
 10
11.955820
 20
17.115347
 30
0.000000
  0
VERTEX
  8
MERGEDLAYER-1
 10
11.910546
 20
17.115347
 30
0.000000
  0
SEQEND
  8
MERGEDLAYER-1
  0
POLYLINE
  8
MERGEDLAYER-1
 66
  1
 70
  0
 62
  7
 10
11.955820
 20
17.115347
 30
0.000000
  0
VERTEX
  8
MERGEDLAYER-1
 10
11.955820
 20
17.115347
 30
0.000000
  0
VERTEX
  8
MERGEDLAYER-1
 10
11.970819
 20
17.130343
 30
0.000000
  0
SEQEND
  8
MERGEDLAYER-1
  0
POLYLINE
  8
MERGEDLAYER-1
 66
  1
 70
  0
 62
  7
 10
11.970822
 20
17.347797
 30
0.000000
  0
VERTEX
  8
MERGEDLAYER-1
 10
11.970822
 20
17.347797
 30
0.000000
  0
VERTEX
  8
MERGEDLAYER-1
 10
11.970822
 20
17.130343
 30
0.000000
  0
SEQEND
  8
MERGEDLAYER-1
  0
POLYLINE
  8
MERGEDLAYER-1
 66
  1
 70
  0
 62
  7
 10
11.985822
 20
17.362793
 30
0.000000
  0
VERTEX
  8
MERGEDLAYER-1
 10
11.985822
 20
17.362793
 30
0.000000
  0
VERTEX
  8
MERGEDLAYER-1
 10
11.970823
 20
17.347797
 30
0.000000
  0
SEQEND
  8
MERGEDLAYER-1
  0
POLYLINE
  8
MERGEDLAYER-1
 66
  1
 70
  0
 62
  7
 10
12.035817
 20
17.362798
 30
0.000000
  0
VERTEX
  8
MERGEDLAYER-1
 10
12.035817
 20
17.362798
 30
0.000000
  0
VERTEX
  8
MERGEDLAYER-1
 10
11.985822
 20
17.362798
 30
0.000000
  0
SEQEND
  8
MERGEDLAYER-1
  0
POLYLINE
  8
MERGEDLAYER-1
 66
  1
 70
  0
 62
  7
 10
12.050816
 20
17.347797
 30
0.000000
  0
VERTEX
  8
MERGEDLAYER-1
 10
12.050816
 20
17.347797
 30
0.000000
  0
VERTEX
  8
MERGEDLAYER-1
 10
12.035817
 20
17.362793
 30
0.000000
  0
SEQEND
  8
MERGEDLAYER-1
  0
POLYLINE
  8
MERGEDLAYER-1
 66
  1
 70
  0
 62
  7
 10
12.050819
 20
17.130503
 30
0.000000
  0
VERTEX
  8
MERGEDLAYER-1
 10
12.050819
 20
17.130503
 30
0.000000
  0
VERTEX
  8
MERGEDLAYER-1
 10
12.050819
 20
17.347797
 30
0.000000
  0
SEQEND
  8
MERGEDLAYER-1
  0
POLYLINE
  8
MERGEDLAYER-1
 66
  1
 70
  0
 62
  7
 10
12.050820
 20
17.130503
 30
0.000000
  0
VERTEX
  8
MERGEDLAYER-1
 10
12.050820
 20
17.130503
 30
0.000000
  0
VERTEX
  8
MERGEDLAYER-1
 10
12.065819
 20
17.115502
 30
0.000000
  0
SEQEND
  8
MERGEDLAYER-1
  0
POLYLINE
  8
MERGEDLAYER-1
 66
  1
 70
  0
 62
  7
 10
12.258609
 20
17.115502
 30
0.000000
  0
VERTEX
  8
MERGEDLAYER-1
 10
12.258609
 20
17.115502
 30
0.000000
  0
VERTEX
  8
MERGEDLAYER-1
 10
12.065819
 20
17.115502
 30
0.000000
  0
SEQEND
  8
MERGEDLAYER-1
  0
POLYLINE
  8
MERGEDLAYER-1
 66
  1
 70
  0
 62
  7
 10
12.258609
 20
17.115502
 30
0.000000
  0
VERTEX
  8
MERGEDLAYER-1
 10
12.258609
 20
17.115502
 30
0.000000
  0
VERTEX
  8
MERGEDLAYER-1
 10
12.273609
 20
17.130503
 30
0.000000
  0
SEQEND
  8
MERGEDLAYER-1
  0
POLYLINE
  8
MERGEDLAYER-1
 66
  1
 70
  0
 62
  7
 10
12.398928
 20
17.130488
 30
0.000000
  0
VERTEX
  8
MERGEDLAYER-1
 10
12.398928
 20
17.130488
 30
0.000000
  0
VERTEX
  8
MERGEDLAYER-1
 10
12.273610
 20
17.130503
 30
0.000000
  0
SEQEND
  8
MERGEDLAYER-1
  0
POLYLINE
  8
MERGEDLAYER-1
 66
  1
 70
  0
 62
  7
 10
12.398929
 20
17.130488
 30
0.000000
  0
VERTEX
  8
MERGEDLAYER-1
 10
12.398929
 20
17.130488
 30
0.000000
  0
VERTEX
  8
MERGEDLAYER-1
 10
12.413929
 20
17.115493
 30
0.000000
  0
SEQEND
  8
MERGEDLAYER-1
  0
POLYLINE
  8
MERGEDLAYER-1
 66
  1
 70
  0
 62
  7
 10
12.413929
 20
17.115488
 30
0.000000
  0
VERTEX
  8
MERGEDLAYER-1
 10
12.413929
 20
17.115488
 30
0.000000
  0
VERTEX
  8
MERGEDLAYER-1
 10
12.463639
 20
17.115488
 30
0.000000
  0
SEQEND
  8
MERGEDLAYER-1
  0
POLYLINE
  8
MERGEDLAYER-1
 66
  1
 70
  0
 62
  7
 10
12.463639
 20
17.115493
 30
0.000000
  0
VERTEX
  8
MERGEDLAYER-1
 10
12.463639
 20
17.115493
 30
0.000000
  0
VERTEX
  8
MERGEDLAYER-1
 10
12.478639
 20
17.130488
 30
0.000000
  0
SEQEND
  8
MERGEDLAYER-1
  0
POLYLINE
  8
MERGEDLAYER-1
 66
  1
 70
  0
 62
  7
 10
12.478640
 20
17.207764
 30
0.000000
  0
VERTEX
  8
MERGEDLAYER-1
 10
12.478640
 20
17.207764
 30
0.000000
  0
VERTEX
  8
MERGEDLAYER-1
 10
12.478640
 20
17.130488
 30
0.000000
  0
SEQEND
  8
MERGEDLAYER-1
  0
POLYLINE
  8
MERGEDLAYER-1
 66
  1
 70
  0
 62
  7
 10
12.493642
 20
17.222764
 30
0.000000
  0
VERTEX
  8
MERGEDLAYER-1
 10
12.493642
 20
17.222764
 30
0.000000
  0
VERTEX
  8
MERGEDLAYER-1
 10
12.478642
 20
17.207764
 30
0.000000
  0
SEQEND
  8
MERGEDLAYER-1
  0
POLYLINE
  8
MERGEDLAYER-1
 66
  1
 70
  0
 62
  7
 10
12.493642
 20
17.222769
 30
0.000000
  0
VERTEX
  8
MERGEDLAYER-1
 10
12.493642
 20
17.222769
 30
0.000000
  0
VERTEX
  8
MERGEDLAYER-1
 10
12.563636
 20
17.222769
 30
0.000000
  0
SEQEND
  8
MERGEDLAYER-1
  0
POLYLINE
  8
MERGEDLAYER-1
 66
  1
 70
  0
 62
  7
 10
12.578636
 20
17.207764
 30
0.000000
  0
VERTEX
  8
MERGEDLAYER-1
 10
12.578636
 20
17.207764
 30
0.000000
  0
VERTEX
  8
MERGEDLAYER-1
 10
12.563636
 20
17.222764
 30
0.000000
  0
SEQEND
  8
MERGEDLAYER-1
  0
POLYLINE
  8
MERGEDLAYER-1
 66
  1
 70
  0
 62
  7
 10
12.578637
 20
17.130343
 30
0.000000
  0
VERTEX
  8
MERGEDLAYER-1
 10
12.578637
 20
17.130343
 30
0.000000
  0
VERTEX
  8
MERGEDLAYER-1
 10
12.578637
 20
17.207764
 30
0.000000
  0
SEQEND
  8
MERGEDLAYER-1
  0
POLYLINE
  8
MERGEDLAYER-1
 66
  1
 70
  0
 62
  7
 10
12.578631
 20
17.130343
 30
0.000000
  0
VERTEX
  8
MERGEDLAYER-1
 10
12.578631
 20
17.130343
 30
0.000000
  0
VERTEX
  8
MERGEDLAYER-1
 10
12.593630
 20
17.115347
 30
0.000000
  0
SEQEND
  8
MERGEDLAYER-1
  0
POLYLINE
  8
MERGEDLAYER-1
 66
  1
 70
  0
 62
  7
 10
12.643917
 20
17.115347
 30
0.000000
  0
VERTEX
  8
MERGEDLAYER-1
 10
12.643917
 20
17.115347
 30
0.000000
  0
VERTEX
  8
MERGEDLAYER-1
 10
12.593630
 20
17.115347
 30
0.000000
  0
SEQEND
  8
MERGEDLAYER-1
  0
POLYLINE
  8
MERGEDLAYER-1
 66
  1
 70
  0
 62
  7
 10
12.643917
 20
17.115347
 30
0.000000
  0
VERTEX
  8
MERGEDLAYER-1
 10
12.643917
 20
17.115347
 30
0.000000
  0
VERTEX
  8
MERGEDLAYER-1
 10
12.658917
 20
17.130343
 30
0.000000
  0
SEQEND
  8
MERGEDLAYER-1
  0
POLYLINE
  8
MERGEDLAYER-1
 66
  1
 70
  0
 62
  7
 10
12.658911
 20
17.347797
 30
0.000000
  0
VERTEX
  8
MERGEDLAYER-1
 10
12.658911
 20
17.347797
 30
0.000000
  0
VERTEX
  8
MERGEDLAYER-1
 10
12.658911
 20
17.130343
 30
0.000000
  0
SEQEND
  8
MERGEDLAYER-1
  0
POLYLINE
  8
MERGEDLAYER-1
 66
  1
 70
  0
 62
  7
 10
12.673914
 20
17.362793
 30
0.000000
  0
VERTEX
  8
MERGEDLAYER-1
 10
12.673914
 20
17.362793
 30
0.000000
  0
VERTEX
  8
MERGEDLAYER-1
 10
12.658914
 20
17.347797
 30
0.000000
  0
SEQEND
  8
MERGEDLAYER-1
  0
POLYLINE
  8
MERGEDLAYER-1
 66
  1
 70
  0
 62
  7
 10
12.673914
 20
17.362798
 30
0.000000
  0
VERTEX
  8
MERGEDLAYER-1
 10
12.673914
 20
17.362798
 30
0.000000
  0
VERTEX
  8
MERGEDLAYER-1
 10
12.738909
 20
17.362798
 30
0.000000
  0
SEQEND
  8
MERGEDLAYER-1
  0
POLYLINE
  8
MERGEDLAYER-1
 66
  1
 70
  0
 62
  7
 10
12.753909
 20
17.347797
 30
0.000000
  0
VERTEX
  8
MERGEDLAYER-1
 10
12.753909
 20
17.347797
 30
0.000000
  0
VERTEX
  8
MERGEDLAYER-1
 10
12.738909
 20
17.362793
 30
0.000000
  0
SEQEND
  8
MERGEDLAYER-1
  0
POLYLINE
  8
MERGEDLAYER-1
 66
  1
 70
  0
 62
  7
 10
12.753911
 20
17.347797
 30
0.000000
  0
VERTEX
  8
MERGEDLAYER-1
 10
12.753911
 20
17.347797
 30
0.000000
  0
VERTEX
  8
MERGEDLAYER-1
 10
12.753911
 20
17.145498
 30
0.000000
  0
SEQEND
  8
MERGEDLAYER-1
  0
POLYLINE
  8
MERGEDLAYER-1
 66
  1
 70
  0
 62
  7
 10
12.753913
 20
17.145498
 30
0.000000
  0
VERTEX
  8
MERGEDLAYER-1
 10
12.753913
 20
17.145498
 30
0.000000
  0
VERTEX
  8
MERGEDLAYER-1
 10
12.768913
 20
17.130503
 30
0.000000
  0
SEQEND
  8
MERGEDLAYER-1
  0
POLYLINE
  8
MERGEDLAYER-1
 66
  1
 70
  0
 62
  7
 10
12.768913
 20
17.130503
 30
0.000000
  0
VERTEX
  8
MERGEDLAYER-1
 10
12.768913
 20
17.130503
 30
0.000000
  0
VERTEX
  8
MERGEDLAYER-1
 10
13.891907
 20
17.130503
 30
0.000000
  0
SEQEND
  8
MERGEDLAYER-1
  0
POLYLINE
  8
MERGEDLAYER-1
 66
  1
 70
  0
 62
  7
 10
13.891907
 20
17.130503
 30
0.000000
  0
VERTEX
  8
MERGEDLAYER-1
 10
13.891907
 20
17.130503
 30
0.000000
  0
VERTEX
  8
MERGEDLAYER-1
 10
13.906905
 20
17.145498
 30
0.000000
  0
SEQEND
  8
MERGEDLAYER-1
  0
POLYLINE
  8
MERGEDLAYER-1
 66
  1
 70
  0
 62
  7
 10
13.906900
 20
17.417391
 30
0.000000
  0
VERTEX
  8
MERGEDLAYER-1
 10
13.906900
 20
17.417391
 30
0.000000
  0
VERTEX
  8
MERGEDLAYER-1
 10
13.906900
 20
17.145498
 30
0.000000
  0
SEQEND
  8
MERGEDLAYER-1
  0
POLYLINE
  8
MERGEDLAYER-1
 66
  1
 70
  0
 62
  7
 10
13.961900
 20
17.472393
 30
0.000000
  0
VERTEX
  8
MERGEDLAYER-1
 10
13.961900
 20
17.472393
 30
0.000000
  0
VERTEX
  8
MERGEDLAYER-1
 10
13.906903
 20
17.417391
 30
0.000000
  0
SEQEND
  8
MERGEDLAYER-1
  0
POLYLINE
  8
MERGEDLAYER-1
 66
  1
 70
  0
 62
  7
 10
14.025589
 20
17.472393
 30
0.000000
  0
VERTEX
  8
MERGEDLAYER-1
 10
14.025589
 20
17.472393
 30
0.000000
  0
VERTEX
  8
MERGEDLAYER-1
 10
13.961900
 20
17.472393
 30
0.000000
  0
SEQEND
  8
MERGEDLAYER-1
  0
POLYLINE
  8
MERGEDLAYER-1
 66
  1
 70
  0
 62
  7
 10
14.040588
 20
17.457393
 30
0.000000
  0
VERTEX
  8
MERGEDLAYER-1
 10
14.040588
 20
17.457393
 30
0.000000
  0
VERTEX
  8
MERGEDLAYER-1
 10
14.025589
 20
17.472393
 30
0.000000
  0
SEQEND
  8
MERGEDLAYER-1
  0
POLYLINE
  8
MERGEDLAYER-1
 66
  1
 70
  0
 62
  7
 10
14.040583
 20
17.448031
 30
0.000000
  0
VERTEX
  8
MERGEDLAYER-1
 10
14.040583
 20
17.448031
 30
0.000000
  0
VERTEX
  8
MERGEDLAYER-1
 10
14.040583
 20
17.457393
 30
0.000000
  0
SEQEND
  8
MERGEDLAYER-1
  0
POLYLINE
  8
MERGEDLAYER-1
 66
  1
 70
  0
 62
  7
 10
14.025589
 20
17.433030
 30
0.000000
  0
VERTEX
  8
MERGEDLAYER-1
 10
14.025589
 20
17.433030
 30
0.000000
  0
VERTEX
  8
MERGEDLAYER-1
 10
14.040588
 20
17.448031
 30
0.000000
  0
SEQEND
  8
MERGEDLAYER-1
  0
POLYLINE
  8
MERGEDLAYER-1
 66
  1
 70
  0
 62
  7
 10
14.025589
 20
17.433030
 30
0.000000
  0
VERTEX
  8
MERGEDLAYER-1
 10
14.025589
 20
17.433030
 30
0.000000
  0
VERTEX
  8
MERGEDLAYER-1
 10
13.976902
 20
17.433030
 30
0.000000
  0
SEQEND
  8
MERGEDLAYER-1
  0
POLYLINE
  8
MERGEDLAYER-1
 66
  1
 70
  0
 62
  7
 10
13.976902
 20
17.433030
 30
0.000000
  0
VERTEX
  8
MERGEDLAYER-1
 10
13.976902
 20
17.433030
 30
0.000000
  0
VERTEX
  8
MERGEDLAYER-1
 10
13.961902
 20
17.418030
 30
0.000000
  0
SEQEND
  8
MERGEDLAYER-1
  0
POLYLINE
  8
MERGEDLAYER-1
 66
  1
 70
  0
 62
  7
 10
13.961907
 20
17.418030
 30
0.000000
  0
VERTEX
  8
MERGEDLAYER-1
 10
13.961907
 20
17.418030
 30
0.000000
  0
VERTEX
  8
MERGEDLAYER-1
 10
13.961907
 20
17.361478
 30
0.000000
  0
SEQEND
  8
MERGEDLAYER-1
  0
POLYLINE
  8
MERGEDLAYER-1
 66
  1
 70
  0
 62
  7
 10
13.961902
 20
17.361478
 30
0.000000
  0
VERTEX
  8
MERGEDLAYER-1
 10
13.961902
 20
17.361478
 30
0.000000
  0
VERTEX
  8
MERGEDLAYER-1
 10
13.976902
 20
17.346478
 30
0.000000
  0
SEQEND
  8
MERGEDLAYER-1
  0
POLYLINE
  8
MERGEDLAYER-1
 66
  1
 70
  0
 62
  7
 10
13.976902
 20
17.346478
 30
0.000000
  0
VERTEX
  8
MERGEDLAYER-1
 10
13.976902
 20
17.346478
 30
0.000000
  0
VERTEX
  8
MERGEDLAYER-1
 10
14.025682
 20
17.346478
 30
0.000000
  0
SEQEND
  8
MERGEDLAYER-1
  0
POLYLINE
  8
MERGEDLAYER-1
 66
  1
 70
  0
 62
  7
 10
14.040681
 20
17.331468
 30
0.000000
  0
VERTEX
  8
MERGEDLAYER-1
 10
14.040681
 20
17.331468
 30
0.000000
  0
VERTEX
  8
MERGEDLAYER-1
 10
14.023733
 20
17.348454
 30
0.000000
  0
VERTEX
  8
MERGEDLAYER-1
 10
14.025682
 20
17.346482
 30
0.000000
  0
SEQEND
  8
MERGEDLAYER-1
  0
POLYLINE
  8
MERGEDLAYER-1
 66
  1
 70
  0
 62
  7
 10
14.040683
 20
17.331463
 30
0.000000
  0
VERTEX
  8
MERGEDLAYER-1
 10
14.040683
 20
17.331463
 30
0.000000
  0
VERTEX
  8
MERGEDLAYER-1
 10
14.040583
 20
17.261165
 30
0.000000
  0
SEQEND
  8
MERGEDLAYER-1
  0
POLYLINE
  8
MERGEDLAYER-1
 66
  1
 70
  0
 62
  7
 10
14.025589
 20
17.246192
 30
0.000000
  0
VERTEX
  8
MERGEDLAYER-1
 10
14.025589
 20
17.246192
 30
0.000000
  0
VERTEX
  8
MERGEDLAYER-1
 10
14.028252
 20
17.248887
 30
0.000000
  0
VERTEX
  8
MERGEDLAYER-1
 10
14.032431
 20
17.251019
 30
0.000000
  0
VERTEX
  8
MERGEDLAYER-1
 10
14.035748
 20
17.254329
 30
0.000000
  0
VERTEX
  8
MERGEDLAYER-1
 10
14.037882
 20
17.258503
 30
0.000000
  0
VERTEX
  8
MERGEDLAYER-1
 10
14.040588
 20
17.261169
 30
0.000000
  0
SEQEND
  8
MERGEDLAYER-1
  0
POLYLINE
  8
MERGEDLAYER-1
 66
  1
 70
  0
 62
  7
 10
14.025589
 20
17.246188
 30
0.000000
  0
VERTEX
  8
MERGEDLAYER-1
 10
14.025589
 20
17.246188
 30
0.000000
  0
VERTEX
  8
MERGEDLAYER-1
 10
13.976902
 20
17.246188
 30
0.000000
  0
SEQEND
  8
MERGEDLAYER-1
  0
POLYLINE
  8
MERGEDLAYER-1
 66
  1
 70
  0
 62
  7
 10
13.976902
 20
17.246183
 30
0.000000
  0
VERTEX
  8
MERGEDLAYER-1
 10
13.976902
 20
17.246183
 30
0.000000
  0
VERTEX
  8
MERGEDLAYER-1
 10
13.961902
 20
17.231182
 30
0.000000
  0
SEQEND
  8
MERGEDLAYER-1
  0
POLYLINE
  8
MERGEDLAYER-1
 66
  1
 70
  0
 62
  7
 10
13.961907
 20
17.231182
 30
0.000000
  0
VERTEX
  8
MERGEDLAYER-1
 10
13.961907
 20
17.231182
 30
0.000000
  0
VERTEX
  8
MERGEDLAYER-1
 10
13.961907
 20
17.105140
 30
0.000000
  0
SEQEND
  8
MERGEDLAYER-1
  0
POLYLINE
  8
MERGEDLAYER-1
 66
  1
 70
  0
 62
  7
 10
13.961902
 20
17.105140
 30
0.000000
  0
VERTEX
  8
MERGEDLAYER-1
 10
13.961902
 20
17.105140
 30
0.000000
  0
VERTEX
  8
MERGEDLAYER-1
 10
13.976902
 20
17.090140
 30
0.000000
  0
SEQEND
  8
MERGEDLAYER-1
  0
POLYLINE
  8
MERGEDLAYER-1
 66
  1
 70
  0
 62
  7
 10
14.266889
 20
17.090135
 30
0.000000
  0
VERTEX
  8
MERGEDLAYER-1
 10
14.266889
 20
17.090135
 30
0.000000
  0
VERTEX
  8
MERGEDLAYER-1
 10
13.976902
 20
17.090135
 30
0.000000
  0
SEQEND
  8
MERGEDLAYER-1
  0
POLYLINE
  8
MERGEDLAYER-1
 66
  1
 70
  0
 62
  7
 10
14.266889
 20
17.090135
 30
0.000000
  0
VERTEX
  8
MERGEDLAYER-1
 10
14.266889
 20
17.090135
 30
0.000000
  0
VERTEX
  8
MERGEDLAYER-1
 10
14.335886
 20
17.159133
 30
0.000000
  0
SEQEND
  8
MERGEDLAYER-1
  0
POLYLINE
  8
MERGEDLAYER-1
 66
  1
 70
  0
 62
  7
 10
14.335891
 20
17.159133
 30
0.000000
  0
VERTEX
  8
MERGEDLAYER-1
 10
14.335891
 20
17.159133
 30
0.000000
  0
VERTEX
  8
MERGEDLAYER-1
 10
14.335891
 20
17.231182
 30
0.000000
  0
SEQEND
  8
MERGEDLAYER-1
  0
POLYLINE
  8
MERGEDLAYER-1
 66
  1
 70
  0
 62
  7
 10
14.335888
 20
17.231182
 30
0.000000
  0
VERTEX
  8
MERGEDLAYER-1
 10
14.335888
 20
17.231182
 30
0.000000
  0
VERTEX
  8
MERGEDLAYER-1
 10
14.320889
 20
17.246183
 30
0.000000
  0
SEQEND
  8
MERGEDLAYER-1
  0
POLYLINE
  8
MERGEDLAYER-1
 66
  1
 70
  0
 62
  7
 10
14.320889
 20
17.246188
 30
0.000000
  0
VERTEX
  8
MERGEDLAYER-1
 10
14.320889
 20
17.246188
 30
0.000000
  0
VERTEX
  8
MERGEDLAYER-1
 10
14.272056
 20
17.246188
 30
0.000000
  0
SEQEND
  8
MERGEDLAYER-1
  0
POLYLINE
  8
MERGEDLAYER-1
 66
  1
 70
  0
 62
  7
 10
14.257057
 20
17.261188
 30
0.000000
  0
VERTEX
  8
MERGEDLAYER-1
 10
14.257057
 20
17.261188
 30
0.000000
  0
VERTEX
  8
MERGEDLAYER-1
 10
14.272056
 20
17.246192
 30
0.000000
  0
SEQEND
  8
MERGEDLAYER-1
  0
POLYLINE
  8
MERGEDLAYER-1
 66
  1
 70
  0
 62
  7
 10
14.257054
 20
17.261188
 30
0.000000
  0
VERTEX
  8
MERGEDLAYER-1
 10
14.257054
 20
17.261188
 30
0.000000
  0
VERTEX
  8
MERGEDLAYER-1
 10
14.257054
 20
17.331487
 30
0.000000
  0
SEQEND
  8
MERGEDLAYER-1
  0
POLYLINE
  8
MERGEDLAYER-1
 66
  1
 70
  0
 62
  7
 10
14.272056
 20
17.346482
 30
0.000000
  0
VERTEX
  8
MERGEDLAYER-1
 10
14.272056
 20
17.346482
 30
0.000000
  0
VERTEX
  8
MERGEDLAYER-1
 10
14.257057
 20
17.331487
 30
0.000000
  0
SEQEND
  8
MERGEDLAYER-1
  0
POLYLINE
  8
MERGEDLAYER-1
 66
  1
 70
  0
 62
  7
 10
14.272056
 20
17.346478
 30
0.000000
  0
VERTEX
  8
MERGEDLAYER-1
 10
14.272056
 20
17.346478
 30
0.000000
  0
VERTEX
  8
MERGEDLAYER-1
 10
14.320889
 20
17.346478
 30
0.000000
  0
SEQEND
  8
MERGEDLAYER-1
  0
POLYLINE
  8
MERGEDLAYER-1
 66
  1
 70
  0
 62
  7
 10
14.320889
 20
17.346478
 30
0.000000
  0
VERTEX
  8
MERGEDLAYER-1
 10
14.320889
 20
17.346478
 30
0.000000
  0
VERTEX
  8
MERGEDLAYER-1
 10
14.335888
 20
17.361478
 30
0.000000
  0
SEQEND
  8
MERGEDLAYER-1
  0
POLYLINE
  8
MERGEDLAYER-1
 66
  1
 70
  0
 62
  7
 10
14.335891
 20
17.361478
 30
0.000000
  0
VERTEX
  8
MERGEDLAYER-1
 10
14.335891
 20
17.361478
 30
0.000000
  0
VERTEX
  8
MERGEDLAYER-1
 10
14.335891
 20
17.418030
 30
0.000000
  0
SEQEND
  8
MERGEDLAYER-1
  0
POLYLINE
  8
MERGEDLAYER-1
 66
  1
 70
  0
 62
  7
 10
14.335888
 20
17.418030
 30
0.000000
  0
VERTEX
  8
MERGEDLAYER-1
 10
14.335888
 20
17.418030
 30
0.000000
  0
VERTEX
  8
MERGEDLAYER-1
 10
14.320889
 20
17.433030
 30
0.000000
  0
SEQEND
  8
MERGEDLAYER-1
  0
POLYLINE
  8
MERGEDLAYER-1
 66
  1
 70
  0
 62
  7
 10
14.320889
 20
17.433030
 30
0.000000
  0
VERTEX
  8
MERGEDLAYER-1
 10
14.320889
 20
17.433030
 30
0.000000
  0
VERTEX
  8
MERGEDLAYER-1
 10
14.272056
 20
17.433030
 30
0.000000
  0
SEQEND
  8
MERGEDLAYER-1
  0
POLYLINE
  8
MERGEDLAYER-1
 66
  1
 70
  0
 62
  7
 10
14.257057
 20
17.448026
 30
0.000000
  0
VERTEX
  8
MERGEDLAYER-1
 10
14.257057
 20
17.448026
 30
0.000000
  0
VERTEX
  8
MERGEDLAYER-1
 10
14.272056
 20
17.433030
 30
0.000000
  0
SEQEND
  8
MERGEDLAYER-1
  0
POLYLINE
  8
MERGEDLAYER-1
 66
  1
 70
  0
 62
  7
 10
14.257054
 20
17.448026
 30
0.000000
  0
VERTEX
  8
MERGEDLAYER-1
 10
14.257054
 20
17.448026
 30
0.000000
  0
VERTEX
  8
MERGEDLAYER-1
 10
14.257054
 20
17.457393
 30
0.000000
  0
SEQEND
  8
MERGEDLAYER-1
  0
POLYLINE
  8
MERGEDLAYER-1
 66
  1
 70
  0
 62
  7
 10
14.272056
 20
17.472393
 30
0.000000
  0
VERTEX
  8
MERGEDLAYER-1
 10
14.272056
 20
17.472393
 30
0.000000
  0
VERTEX
  8
MERGEDLAYER-1
 10
14.257057
 20
17.457393
 30
0.000000
  0
SEQEND
  8
MERGEDLAYER-1
  0
POLYLINE
  8
MERGEDLAYER-1
 66
  1
 70
  0
 62
  7
 10
14.272056
 20
17.472393
 30
0.000000
  0
VERTEX
  8
MERGEDLAYER-1
 10
14.272056
 20
17.472393
 30
0.000000
  0
VERTEX
  8
MERGEDLAYER-1
 10
14.335936
 20
17.472393
 30
0.000000
  0
SEQEND
  8
MERGEDLAYER-1
  0
POLYLINE
  8
MERGEDLAYER-1
 66
  1
 70
  0
 62
  7
 10
14.390934
 20
17.417391
 30
0.000000
  0
VERTEX
  8
MERGEDLAYER-1
 10
14.390934
 20
17.417391
 30
0.000000
  0
VERTEX
  8
MERGEDLAYER-1
 10
14.335936
 20
17.472393
 30
0.000000
  0
SEQEND
  8
MERGEDLAYER-1
  0
POLYLINE
  8
MERGEDLAYER-1
 66
  1
 70
  0
 62
  7
 10
14.390930
 20
17.417391
 30
0.000000
  0
VERTEX
  8
MERGEDLAYER-1
 10
14.390930
 20
17.417391
 30
0.000000
  0
VERTEX
  8
MERGEDLAYER-1
 10
14.390930
 20
17.159443
 30
0.000000
  0
SEQEND
  8
MERGEDLAYER-1
  0
POLYLINE
  8
MERGEDLAYER-1
 66
  1
 70
  0
 62
  7
 10
14.266935
 20
17.035447
 30
0.000000
  0
VERTEX
  8
MERGEDLAYER-1
 10
14.266935
 20
17.035447
 30
0.000000
  0
VERTEX
  8
MERGEDLAYER-1
 10
14.352644
 20
17.073730
 30
0.000000
  0
VERTEX
  8
MERGEDLAYER-1
 10
14.390930
 20
17.159443
 30
0.000000
  0
SEQEND
  8
MERGEDLAYER-1
  0
POLYLINE
  8
MERGEDLAYER-1
 66
  1
 70
  1
 62
  7
  0
VERTEX
  8
MERGEDLAYER-1
 10
12.273610
 20
18.565707
 30
0.000000
  0
VERTEX
  8
MERGEDLAYER-1
 10
12.398928
 20
18.565707
 30
0.000000
  0
VERTEX
  8
MERGEDLAYER-1
 10
12.398928
 20
17.130503
 30
0.000000
  0
VERTEX
  8
MERGEDLAYER-1
 10
12.273610
 20
17.130503
 30
0.000000
  0
SEQEND
  8
MERGEDLAYER-1
  0
POLYLINE
  8
MERGEDLAYER-1
 66
  1
 70
  0
 62
  7
 10
11.720832
 20
17.130488
 30
0.000000
  0
VERTEX
  8
MERGEDLAYER-1
 10
11.720832
 20
17.130488
 30
0.000000
  0
VERTEX
  8
MERGEDLAYER-1
 10
11.641058
 20
17.050349
 30
0.000000
  0
SEQEND
  8
MERGEDLAYER-1
  0
POLYLINE
  8
MERGEDLAYER-1
 66
  1
 70
  1
 62
  7
 10
14.530700
 20
18.164147
 30
0.000000
  0
VERTEX
  8
MERGEDLAYER-1
 10
14.530700
 20
18.164147
 30
0.000000
  0
VERTEX
  8
MERGEDLAYER-1
 10
13.530745
 20
18.164147
 30
0.000000
  0
VERTEX
  8
MERGEDLAYER-1
 10
13.530745
 20
17.539175
 30
0.000000
  0
VERTEX
  8
MERGEDLAYER-1
 10
14.530700
 20
17.539175
 30
0.000000
  0
VERTEX
  8
MERGEDLAYER-1
 10
14.530700
 20
17.346882
 30
0.000000
  0
VERTEX
  8
MERGEDLAYER-1
 10
14.593195
 20
17.346882
 30
0.000000
  0
VERTEX
  8
MERGEDLAYER-1
 10
14.593195
 20
18.346839
 30
0.000000
  0
VERTEX
  8
MERGEDLAYER-1
 10
14.530700
 20
18.346839
 30
0.000000
  0
SEQEND
  8
MERGEDLAYER-1
  0
POLYLINE
  8
MERGEDLAYER-1
 66
  1
 70
  0
 62
  7
 10
47.528954
 20
11.497507
 30
0.000000
  0
VERTEX
  8
MERGEDLAYER-1
 10
47.528954
 20
11.497507
 30
0.000000
  0
VERTEX
  8
MERGEDLAYER-1
 10
31.356356
 20
11.497507
 30
0.000000
  0
SEQEND
  8
MERGEDLAYER-1
  0
POLYLINE
  8
MERGEDLAYER-1
 66
  1
 70
  0
 62
  7
 10
0.076923
 20
64.754949
 30
0.000000
  0
VERTEX
  8
MERGEDLAYER-1
 10
0.076923
 20
64.754949
 30
0.000000
  0
VERTEX
  8
MERGEDLAYER-1
 10
0.076923
 20
0.076923
 30
0.000000
  0
SEQEND
  8
MERGEDLAYER-1
  0
TEXT
  8
MERGEDLAYER-1
 62
  7
 10
61.692308
 20
26.081872
 30
0.000000
 40
0.807692
  1
CUSTOMER:
 72
  5
 11
68.615385
 21
26.081872
 31
0.000000
  0
POLYLINE
  8
MERGEDLAYER-1
 66
  1
 70
  0
 62
  7
 10
68.323331
 20
25.696388
 30
0.000000
  0
VERTEX
  8
MERGEDLAYER-1
 10
68.323331
 20
25.696388
 30
0.000000
  0
VERTEX
  8
MERGEDLAYER-1
 10
85.057692
 20
25.694369
 30
0.000000
  0
SEQEND
  8
MERGEDLAYER-1
  0
TEXT
  8
MERGEDLAYER-1
 62
  7
 10
61.692308
 20
23.928025
 30
0.000000
 40
0.807692
  1
PROJECT:
 72
  5
 11
67.538462
 21
23.928025
 31
0.000000
  0
TEXT
  8
MERGEDLAYER-1
 62
  7
 10
61.692308
 20
21.697256
 30
0.000000
 40
0.807692
  1
LOCATION:
 72
  5
 11
68.153846
 21
21.697256
 31
0.000000
  0
TEXT
  8
MERGEDLAYER-1
 62
  7
 10
61.692308
 20
19.466487
 30
0.000000
 40
0.807692
  1
CITY:
 72
  5
 11
64.923077
 21
19.466487
 31
0.000000
  0
TEXT
  8
MERGEDLAYER-1
 62
  7
 10
61.692308
 20
17.312641
 30
0.000000
 40
0.807692
  1
MODEL:
 72
  5
 11
66.384615
 21
17.312641
 31
0.000000
  0
TEXT
  8
MERGEDLAYER-1
 62
  7
 10
61.692308
 20
15.081872
 30
0.000000
 40
0.807692
  1
FINISH:
 72
  5
 11
66.000000
 21
15.081872
 31
0.000000
  0
TEXT
  8
MERGEDLAYER-1
 62
  7
 10
61.692308
 20
12.851102
 30
0.000000
 40
0.807692
  1
DATE:
 72
  5
 11
65.384615
 21
12.851102
 31
0.000000
  0
TEXT
  8
MERGEDLAYER-1
 62
  7
 10
75.923077
 20
12.851102
 30
0.000000
 40
0.807692
  1
NO:
 72
  5
 11
78.307692
 21
12.851102
 31
0.000000
  0
POLYLINE
  8
MERGEDLAYER-1
 66
  1
 70
  0
 62
  7
 10
0.076923
 20
64.754949
 30
0.000000
  0
VERTEX
  8
MERGEDLAYER-1
 10
0.076923
 20
64.754949
 30
0.000000
  0
VERTEX
  8
MERGEDLAYER-1
 10
85.060077
 20
64.754949
 30
0.000000
  0
SEQEND
  8
MERGEDLAYER-1
  0
POLYLINE
  8
MERGEDLAYER-1
 66
  1
 70
  0
 62
  7
 10
85.060077
 20
64.754949
 30
0.000000
  0
VERTEX
  8
MERGEDLAYER-1
 10
85.060077
 20
64.754949
 30
0.000000
  0
VERTEX
  8
MERGEDLAYER-1
 10
85.060077
 20
0.076923
 30
0.000000
  0
SEQEND
  8
MERGEDLAYER-1
  0
POLYLINE
  8
MERGEDLAYER-1
 66
  1
 70
  0
 62
  7
 10
0.076923
 20
0.076923
 30
0.000000
  0
VERTEX
  8
MERGEDLAYER-1
 10
0.076923
 20
0.076923
 30
0.000000
  0
VERTEX
  8
MERGEDLAYER-1
 10
85.060077
 20
0.076923
 30
0.000000
  0
SEQEND
  8
MERGEDLAYER-1
  0
POLYLINE
  8
MERGEDLAYER-1
 66
  1
 70
  0
 62
  7
 10
60.875582
 20
27.903417
 30
0.000000
  0
VERTEX
  8
MERGEDLAYER-1
 10
60.875582
 20
27.903417
 30
0.000000
  0
VERTEX
  8
MERGEDLAYER-1
 10
85.060077
 20
27.903417
 30
0.000000
  0
SEQEND
  8
MERGEDLAYER-1
  0
POLYLINE
  8
MERGEDLAYER-1
 66
  1
 70
  0
 62
  7
 10
60.875582
 20
64.754949
 30
0.000000
  0
VERTEX
  8
MERGEDLAYER-1
 10
60.875582
 20
64.754949
 30
0.000000
  0
VERTEX
  8
MERGEDLAYER-1
 10
60.875582
 20
0.076923
 30
0.000000
  0
SEQEND
  8
MERGEDLAYER-1
  0
TEXT
  8
MERGEDLAYER-1
 62
  7
 10
56.384615
 20
63.158795
 30
0.000000
 40
0.634615
  1
NOT TO
 72
  5
 11
59.692308
 21
63.158795
 31
0.000000
  0
TEXT
  8
MERGEDLAYER-1
 62
  7
 10
56.384615
 20
62.235718
 30
0.000000
 40
0.634615
  1
SCALE
 72
  5
 11
59.384615
 21
62.235718
 31
0.000000
  0
POLYLINE
  8
MERGEDLAYER-1
 66
  1
 70
  1
 62
  7
  0
VERTEX
  8
MERGEDLAYER-1
 10
57.613230
 20
1.967971
 30
0.000000
  0
VERTEX
  8
MERGEDLAYER-1
 10
60.875582
 20
1.967971
 30
0.000000
  0
VERTEX
  8
MERGEDLAYER-1
 10
60.875582
 20
0.076923
 30
0.000000
  0
VERTEX
  8
MERGEDLAYER-1
 10
57.613230
 20
0.076923
 30
0.000000
  0
SEQEND
  8
MERGEDLAYER-1
  0
TEXT
  8
MERGEDLAYER-1
 62
  7
 10
57.615385
 20
2.158795
 30
0.000000
 40
0.750000
  1
BY:
 72
  5
 11
59.692308
 21
2.158795
 31
0.000000
  0
TEXT
  8
MERGEDLAYER-1
 62
  7
 10
61.923077
 20
44.620333
 30
0.000000
 40
0.807692
  1
NOTES
 72
  5
 11
66.000000
 21
44.620333
 31
0.000000
  0
TEXT
  8
MERGEDLAYER-1
 62
  7
 10
61.923077
 20
49.697256
 30
0.000000
 40
0.807692
  1
HOOD
 72
  5
 11
65.538462
 21
49.697256
 31
0.000000
  0
POLYLINE
  8
MERGEDLAYER-1
 66
  1
 70
  0
 62
  7
 10
60.875582
 20
51.848877
 30
0.000000
  0
VERTEX
  8
MERGEDLAYER-1
 10
60.875582
 20
51.848877
 30
0.000000
  0
VERTEX
  8
MERGEDLAYER-1
 10
85.060077
 20
51.848877
 30
0.000000
  0
SEQEND
  8
MERGEDLAYER-1
  0
POLYLINE
  8
MERGEDLAYER-1
 66
  1
 70
  0
 62
  7
 10
60.877127
 20
46.666936
 30
0.000000
  0
VERTEX
  8
MERGEDLAYER-1
 10
60.877127
 20
46.666936
 30
0.000000
  0
VERTEX
  8
MERGEDLAYER-1
 10
85.063045
 20
46.666382
 30
0.000000
  0
SEQEND
  8
MERGEDLAYER-1
  0
POLYLINE
  8
MERGEDLAYER-1
 66
  1
 70
  0
 62
  7
 10
60.875582
 20
10.239666
 30
0.000000
  0
VERTEX
  8
MERGEDLAYER-1
 10
60.875582
 20
10.239666
 30
0.000000
  0
VERTEX
  8
MERGEDLAYER-1
 10
85.060077
 20
10.239666
 30
0.000000
  0
SEQEND
  8
MERGEDLAYER-1
  0
TEXT
  8
MERGEDLAYER-1
 62
  7
 10
61.615385
 20
48.466487
 30
0.000000
 40
0.807692
  1
SIDES:
 72
  5
 11
65.461538
 21
48.466487
 31
0.000000
  0
POLYLINE
  8
MERGEDLAYER-1
 66
  1
 70
  1
 62
  7
  0
VERTEX
  8
MERGEDLAYER-1
 10
65.949233
 20
49.205294
 30
0.000000
  0
VERTEX
  8
MERGEDLAYER-1
 10
66.761700
 20
49.205294
 30
0.000000
  0
VERTEX
  8
MERGEDLAYER-1
 10
66.761700
 20
48.392794
 30
0.000000
  0
VERTEX
  8
MERGEDLAYER-1
 10
65.949233
 20
48.392794
 30
0.000000
  0
SEQEND
  8
MERGEDLAYER-1
  0
TEXT
  8
MERGEDLAYER-1
 62
  7
 10
67.230769
 20
48.466487
 30
0.000000
 40
0.807692
  1
2 ,
 72
  5
 11
68.846154
 21
48.466487
 31
0.000000
  0
POLYLINE
  8
MERGEDLAYER-1
 66
  1
 70
  1
 62
  7
  0
VERTEX
  8
MERGEDLAYER-1
 10
69.451693
 20
49.205294
 30
0.000000
  0
VERTEX
  8
MERGEDLAYER-1
 10
70.264160
 20
49.205294
 30
0.000000
  0
VERTEX
  8
MERGEDLAYER-1
 10
70.264160
 20
48.392794
 30
0.000000
  0
VERTEX
  8
MERGEDLAYER-1
 10
69.451693
 20
48.392794
 30
0.000000
  0
SEQEND
  8
MERGEDLAYER-1
  0
TEXT
  8
MERGEDLAYER-1
 62
  7
 10
70.769231
 20
48.466487
 30
0.000000
 40
0.807692
  1
3 ,
 72
  5
 11
72.384615
 21
48.466487
 31
0.000000
  0
POLYLINE
  8
MERGEDLAYER-1
 66
  1
 70
  1
 62
  7
  0
VERTEX
  8
MERGEDLAYER-1
 10
72.965233
 20
49.205294
 30
0.000000
  0
VERTEX
  8
MERGEDLAYER-1
 10
73.777701
 20
49.205294
 30
0.000000
  0
VERTEX
  8
MERGEDLAYER-1
 10
73.777701
 20
48.392794
 30
0.000000
  0
VERTEX
  8
MERGEDLAYER-1
 10
72.965233
 20
48.392794
 30
0.000000
  0
SEQEND
  8
MERGEDLAYER-1
  0
TEXT
  8
MERGEDLAYER-1
 62
  7
 10
74.307692
 20
48.466487
 30
0.000000
 40
0.807692
  1
4 ,
 72
  5
 11
75.923077
 21
48.466487
 31
0.000000
  0
POLYLINE
  8
MERGEDLAYER-1
 66
  1
 70
  1
 62
  7
  0
VERTEX
  8
MERGEDLAYER-1
 10
76.460449
 20
49.211717
 30
0.000000
  0
VERTEX
  8
MERGEDLAYER-1
 10
77.272949
 20
49.211717
 30
0.000000
  0
VERTEX
  8
MERGEDLAYER-1
 10
77.272949
 20
48.399217
 30
0.000000
  0
VERTEX
  8
MERGEDLAYER-1
 10
76.460449
 20
48.399217
 30
0.000000
  0
SEQEND
  8
MERGEDLAYER-1
  0
TEXT
  8
MERGEDLAYER-1
 62
  7
 10
77.769231
 20
48.466487
 30
0.000000
 40
0.807692
  1
FACIA
 72
  5
 11
81.307692
 21
48.466487
 31
0.000000
  0
TEXT
  8
MERGEDLAYER-1
 62
  7
 10
81.307692
 20
48.466487
 30
0.000000
 40
0.634615
  1
 (1 SIDE)
 72
  5
 11
84.923077
 21
48.466487
 31
0.000000
  0
POLYLINE
  8
MERGEDLAYER-1
 66
  1
 70
  1
 62
  7
  0
VERTEX
  8
MERGEDLAYER-1
 10
65.949233
 20
47.990756
 30
0.000000
  0
VERTEX
  8
MERGEDLAYER-1
 10
66.761733
 20
47.990756
 30
0.000000
  0
VERTEX
  8
MERGEDLAYER-1
 10
66.761733
 20
47.178256
 30
0.000000
  0
VERTEX
  8
MERGEDLAYER-1
 10
65.949233
 20
47.178256
 30
0.000000
  0
SEQEND
  8
MERGEDLAYER-1
  0
TEXT
  8
MERGEDLAYER-1
 62
  7
 10
67.153846
 20
47.235718
 30
0.000000
 40
0.807692
  1
END CAPS
 72
  5
 11
72.923077
 21
47.235718
 31
0.000000
  0
TEXT
  8
MERGEDLAYER-1
 62
  7
 10
77.769231
 20
47.235718
 30
0.000000
 40
0.807692
  1
NO HOOD
 72
  5
 11
83.307692
 21
47.235718
 31
0.000000
  0
POLYLINE
  8
MERGEDLAYER-1
 66
  1
 70
  1
 62
  7
  0
VERTEX
  8
MERGEDLAYER-1
 10
76.460449
 20
47.990788
 30
0.000000
  0
VERTEX
  8
MERGEDLAYER-1
 10
77.272949
 20
47.990788
 30
0.000000
  0
VERTEX
  8
MERGEDLAYER-1
 10
77.272949
 20
47.178288
 30
0.000000
  0
VERTEX
  8
MERGEDLAYER-1
 10
76.460449
 20
47.178288
 30
0.000000
  0
SEQEND
  8
MERGEDLAYER-1
  0
TEXT
  8
MERGEDLAYER-1
 62
  7
 10
61.692308
 20
10.697256
 30
0.000000
 40
0.807692
  1
SHIP DATE:
 72
  5
 11
68.153846
 21
10.697256
 31
0.000000
  0
POLYLINE
  8
MERGEDLAYER-1
 66
  1
 70
  0
 62
  7
 10
68.323331
 20
23.489356
 30
0.000000
  0
VERTEX
  8
MERGEDLAYER-1
 10
68.323331
 20
23.489356
 30
0.000000
  0
VERTEX
  8
MERGEDLAYER-1
 10
85.057692
 20
23.487338
 30
0.000000
  0
SEQEND
  8
MERGEDLAYER-1
  0
POLYLINE
  8
MERGEDLAYER-1
 66
  1
 70
  0
 62
  7
 10
68.323331
 20
21.282325
 30
0.000000
  0
VERTEX
  8
MERGEDLAYER-1
 10
68.323331
 20
21.282325
 30
0.000000
  0
VERTEX
  8
MERGEDLAYER-1
 10
85.057692
 20
21.280306
 30
0.000000
  0
SEQEND
  8
MERGEDLAYER-1
  0
POLYLINE
  8
MERGEDLAYER-1
 66
  1
 70
  0
 62
  7
 10
68.323331
 20
19.075294
 30
0.000000
  0
VERTEX
  8
MERGEDLAYER-1
 10
68.323331
 20
19.075294
 30
0.000000
  0
VERTEX
  8
MERGEDLAYER-1
 10
85.057692
 20
19.073275
 30
0.000000
  0
SEQEND
  8
MERGEDLAYER-1
  0
POLYLINE
  8
MERGEDLAYER-1
 66
  1
 70
  0
 62
  7
 10
68.323331
 20
16.868263
 30
0.000000
  0
VERTEX
  8
MERGEDLAYER-1
 10
68.323331
 20
16.868263
 30
0.000000
  0
VERTEX
  8
MERGEDLAYER-1
 10
85.057692
 20
16.866244
 30
0.000000
  0
SEQEND
  8
MERGEDLAYER-1
  0
POLYLINE
  8
MERGEDLAYER-1
 66
  1
 70
  0
 62
  7
 10
68.323331
 20
14.661231
 30
0.000000
  0
VERTEX
  8
MERGEDLAYER-1
 10
68.323331
 20
14.661231
 30
0.000000
  0
VERTEX
  8
MERGEDLAYER-1
 10
85.057692
 20
14.659213
 30
0.000000
  0
SEQEND
  8
MERGEDLAYER-1
  0
POLYLINE
  8
MERGEDLAYER-1
 66
  1
 70
  0
 62
  7
 10
65.376897
 20
12.454195
 30
0.000000
  0
VERTEX
  8
MERGEDLAYER-1
 10
65.376897
 20
12.454195
 30
0.000000
  0
VERTEX
  8
MERGEDLAYER-1
 10
74.940941
 20
12.439007
 30
0.000000
  0
SEQEND
  8
MERGEDLAYER-1
  0
POLYLINE
  8
MERGEDLAYER-1
 66
  1
 70
  0
 62
  7
 10
78.173086
 20
12.456867
 30
0.000000
  0
VERTEX
  8
MERGEDLAYER-1
 10
78.173086
 20
12.456867
 30
0.000000
  0
VERTEX
  8
MERGEDLAYER-1
 10
85.057692
 20
12.452181
 30
0.000000
  0
SEQEND
  8
MERGEDLAYER-1
  0
TEXT
  8
MERGEDLAYER-1
 62
  7
 10
61.692308
 20
28.312641
 30
0.000000
 40
0.807692
  1
CUSTOMER'S SIGNATURE
 72
  5
 11
75.769231
 21
28.312641
 31
0.000000
  0
POLYLINE
  8
MERGEDLAYER-1
 66
  1
 70
  0
 62
  7
 10
61.704327
 20
29.506033
 30
0.000000
  0
VERTEX
  8
MERGEDLAYER-1
 10
61.704327
 20
29.506033
 30
0.000000
  0
VERTEX
  8
MERGEDLAYER-1
 10
75.728628
 20
29.506033
 30
0.000000
  0
SEQEND
  8
MERGEDLAYER-1
  0
TEXT
  8
MERGEDLAYER-1
 62
  7
 10
61.692308
 20
29.928025
 30
0.000000
 40
0.750000
  1
x
 72
  5
 11
62.692308
 21
29.928025
 31
0.000000
  0
POLYLINE
  8
MERGEDLAYER-1
 66
  1
 70
  0
 62
  7
 10
60.875582
 20
31.831872
 30
0.000000
  0
VERTEX
  8
MERGEDLAYER-1
 10
60.875582
 20
31.831872
 30
0.000000
  0
VERTEX
  8
MERGEDLAYER-1
 10
85.060077
 20
31.831872
 30
0.000000
  0
SEQEND
  8
MERGEDLAYER-1
  0
TEXT
  8
MERGEDLAYER-1
 62
  7
 10
76.384615
 20
28.312641
 30
0.000000
 40
0.807692
  1
DATE JOB SITE
 72
  5
 11
84.923077
 21
28.312641
 31
0.000000
  0
POLYLINE
  8
MERGEDLAYER-1
 66
  1
 70
  0
 62
  7
 10
76.436965
 20
29.512428
 30
0.000000
  0
VERTEX
  8
MERGEDLAYER-1
 10
76.436965
 20
29.512428
 30
0.000000
  0
VERTEX
  8
MERGEDLAYER-1
 10
85.061965
 20
29.512428
 30
0.000000
  0
SEQEND
  8
MERGEDLAYER-1
  0
POLYLINE
  8
MERGEDLAYER-1
 66
  1
 70
  1
 62
  7
  0
VERTEX
  8
MERGEDLAYER-1
 10
14.593619
 20
18.534997
 30
0.000000
  0
VERTEX
  8
MERGEDLAYER-1
 10
46.367511
 20
18.534997
 30
0.000000
  0
VERTEX
  8
MERGEDLAYER-1
 10
46.367511
 20
17.159997
 30
0.000000
  0
VERTEX
  8
MERGEDLAYER-1
 10
14.593619
 20
17.159997
 30
0.000000
  0
SEQEND
  8
MERGEDLAYER-1
  0
POLYLINE
  8
MERGEDLAYER-1
  6
LTYPE06
 66
  1
 70
  0
 62
  7
 40
0.153846
 41
0.153846
  6
LTYPE06
 10
13.137828
 20
17.850365
 30
0.000000
  0
VERTEX
  8
MERGEDLAYER-1
  6
LTYPE06
 10
13.137828
 20
17.850365
 30
0.000000
  0
VERTEX
  8
MERGEDLAYER-1
  6
LTYPE06
 10
47.823303
 20
17.850365
 30
0.000000
  0
SEQEND
  8
MERGEDLAYER-1
  0
POLYLINE
  8
MERGEDLAYER-1
 66
  1
 70
  1
 62
  7
  0
VERTEX
  8
MERGEDLAYER-1
 10
36.731307
 20
63.934866
 30
0.000000
  0
VERTEX
  8
MERGEDLAYER-1
 10
55.315317
 20
63.934866
 30
0.000000
  0
VERTEX
  8
MERGEDLAYER-1
 10
55.315317
 20
63.458628
 30
0.000000
  0
VERTEX
  8
MERGEDLAYER-1
 10
36.731307
 20
63.458628
 30
0.000000
  0
SEQEND
  8
MERGEDLAYER-1
  0
TEXT
  8
MERGEDLAYER-1
 62
  7
 10
26.769231
 20
1.851102
 30
0.000000
 40
0.980769
  1
PLAN VIEW
 72
  5
 11
34.230769
 21
1.851102
 31
0.000000
  0
TEXT
  8
MERGEDLAYER-1
 62
  7
 10
22.923077
 20
21.774179
 30
0.000000
 40
0.750000
  1
DISTANCE BACK OF GUIDES "W"
 72
  5
 11
39.153846
 21
21.774179
 31
0.000000
  0
LINE
  8
MERGEDLAYER-1
 62
  7
 10
11.660743
 20
24.824961
 30
0.000000
 11
49.300392
 21
24.824961
 31
0.000000
  0
LINE
  8
MERGEDLAYER-1
 62
  7
 10
11.641058
 20
19.172622
 30
0.000000
 11
11.641058
 21
25.824961
 31
0.000000
  0
LINE
  8
MERGEDLAYER-1
 62
  7
 10
49.320073
 20
19.145940
 30
0.000000
 11
49.320073
 21
25.824961
 31
0.000000
  0
POLYLINE
  8
MERGEDLAYER-1
 66
  1
 70
  1
 62
  7
  0
VERTEX
  8
MERGEDLAYER-1
 10
11.641058
 20
24.824961
 30
0.000000
  0
VERTEX
  8
MERGEDLAYER-1
 10
12.025675
 20
24.594196
 30
0.000000
  0
VERTEX
  8
MERGEDLAYER-1
 10
12.025673
 20
24.824965
 30
0.000000
  0
VERTEX
  8
MERGEDLAYER-1
 10
12.025672
 20
25.055734
 30
0.000000
  0
VERTEX
  8
MERGEDLAYER-1
 10
11.641058
 20
24.824961
 30
0.000000
  0
SEQEND
  8
MERGEDLAYER-1
  0
POLYLINE
  8
MERGEDLAYER-1
 66
  1
 70
  1
 62
  7
  0
VERTEX
  8
MERGEDLAYER-1
 10
49.320073
 20
24.824961
 30
0.000000
  0
VERTEX
  8
MERGEDLAYER-1
 10
48.935458
 20
24.594187
 30
0.000000
  0
VERTEX
  8
MERGEDLAYER-1
 10
48.935458
 20
24.824956
 30
0.000000
  0
VERTEX
  8
MERGEDLAYER-1
 10
48.935458
 20
25.055725
 30
0.000000
  0
VERTEX
  8
MERGEDLAYER-1
 10
49.320073
 20
24.824961
 30
0.000000
  0
SEQEND
  8
MERGEDLAYER-1
  0
TEXT
  8
MERGEDLAYER-1
 62
  7
 10
30.403393
 20
25.648799
 30
0.000000
 40
0.576923
  1
 
  0
POLYLINE
  8
MERGEDLAYER-1
 66
  1
 70
  1
 62
  7
  0
VERTEX
  8
MERGEDLAYER-1
 10
21.841189
 20
26.451637
 30
0.000000
  0
VERTEX
  8
MERGEDLAYER-1
 10
27.364396
 20
26.451637
 30
0.000000
  0
VERTEX
  8
MERGEDLAYER-1
 10
27.364396
 20
23.219036
 30
0.000000
  0
VERTEX
  8
MERGEDLAYER-1
 10
21.841189
 20
23.219036
 30
0.000000
  0
SEQEND
  8
MERGEDLAYER-1
  0
POLYLINE
  8
MERGEDLAYER-1
 66
  1
 70
  0
 62
  7
 40
0.230769
 41
0.230769
 10
27.328531
 20
23.421072
 30
0.000000
  0
VERTEX
  8
MERGEDLAYER-1
 10
27.328531
 20
23.421072
 30
0.000000
  0
VERTEX
  8
MERGEDLAYER-1
 10
21.841189
 20
23.421072
 30
0.000000
  0
SEQEND
  8
MERGEDLAYER-1
  0
POLYLINE
  8
MERGEDLAYER-1
 66
  1
 70
  1
 62
  7
  0
VERTEX
  8
MERGEDLAYER-1
 10
27.641282
 20
26.451637
 30
0.000000
  0
VERTEX
  8
MERGEDLAYER-1
 10
33.164417
 20
26.451637
 30
0.000000
  0
VERTEX
  8
MERGEDLAYER-1
 10
33.164417
 20
23.219036
 30
0.000000
  0
VERTEX
  8
MERGEDLAYER-1
 10
27.641282
 20
23.219036
 30
0.000000
  0
SEQEND
  8
MERGEDLAYER-1
  0
POLYLINE
  8
MERGEDLAYER-1
 66
  1
 70
  0
 62
  7
 40
0.230769
 41
0.230769
 10
33.128552
 20
23.421072
 30
0.000000
  0
VERTEX
  8
MERGEDLAYER-1
 10
33.128552
 20
23.421072
 30
0.000000
  0
VERTEX
  8
MERGEDLAYER-1
 10
27.641282
 20
23.421072
 30
0.000000
  0
SEQEND
  8
MERGEDLAYER-1
  0
POLYLINE
  8
MERGEDLAYER-1
 66
  1
 70
  1
 62
  7
  0
VERTEX
  8
MERGEDLAYER-1
 10
33.441364
 20
26.451637
 30
0.000000
  0
VERTEX
  8
MERGEDLAYER-1
 10
38.964510
 20
26.451637
 30
0.000000
  0
VERTEX
  8
MERGEDLAYER-1
 10
38.964510
 20
23.219036
 30
0.000000
  0
VERTEX
  8
MERGEDLAYER-1
 10
33.441364
 20
23.219036
 30
0.000000
  0
SEQEND
  8
MERGEDLAYER-1
  0
POLYLINE
  8
MERGEDLAYER-1
 66
  1
 70
  0
 62
  7
 40
0.230769
 41
0.230769
 10
38.928645
 20
23.421072
 30
0.000000
  0
VERTEX
  8
MERGEDLAYER-1
 10
38.928645
 20
23.421072
 30
0.000000
  0
VERTEX
  8
MERGEDLAYER-1
 10
33.441364
 20
23.421072
 30
0.000000
  0
SEQEND
  8
MERGEDLAYER-1
  0
TEXT
  8
MERGEDLAYER-1
 62
  7
 10
27.846154
 20
26.620333
 30
0.000000
 40
0.461538
  1
"W" AT MIDDLE:
 72
  5
 11
32.846154
 21
26.620333
 31
0.000000
  0
TEXT
  8
MERGEDLAYER-1
 62
  7
 10
21.923077
 20
26.620333
 30
0.000000
 40
0.461538
  1
"W" AT TOP:
 72
  5
 11
25.846154
 21
26.620333
 31
0.000000
  0
TEXT
  8
MERGEDLAYER-1
 62
  7
 10
33.615385
 20
26.620333
 30
0.000000
 40
0.461538
  1
"W" COUNTER:
 72
  5
 11
38.461538
 21
26.620333
 31
0.000000
  0
LINE
  8
MERGEDLAYER-1
 62
  7
 10
56.699069
 20
43.058096
 30
0.000000
 11
56.699069
 21
52.792955
 31
0.000000
  0
LINE
  8
MERGEDLAYER-1
 62
  7
 10
50.698026
 20
43.038405
 30
0.000000
 11
57.699069
 21
43.038405
 31
0.000000
  0
LINE
  8
MERGEDLAYER-1
 62
  7
 10
50.000000
 20
52.812641
 30
0.000000
 11
57.699069
 21
52.812641
 31
0.000000
  0
POLYLINE
  8
MERGEDLAYER-1
 66
  1
 70
  1
 62
  7
  0
VERTEX
  8
MERGEDLAYER-1
 10
56.699069
 20
43.038405
 30
0.000000
  0
VERTEX
  8
MERGEDLAYER-1
 10
56.929838
 20
43.423021
 30
0.000000
  0
VERTEX
  8
MERGEDLAYER-1
 10
56.699069
 20
43.423021
 30
0.000000
  0
VERTEX
  8
MERGEDLAYER-1
 10
56.468299
 20
43.423021
 30
0.000000
  0
VERTEX
  8
MERGEDLAYER-1
 10
56.699069
 20
43.038405
 30
0.000000
  0
SEQEND
  8
MERGEDLAYER-1
  0
POLYLINE
  8
MERGEDLAYER-1
 66
  1
 70
  1
 62
  7
  0
VERTEX
  8
MERGEDLAYER-1
 10
56.699069
 20
52.812641
 30
0.000000
  0
VERTEX
  8
MERGEDLAYER-1
 10
56.929838
 20
52.428025
 30
0.000000
  0
VERTEX
  8
MERGEDLAYER-1
 10
56.699069
 20
52.428025
 30
0.000000
  0
VERTEX
  8
MERGEDLAYER-1
 10
56.468299
 20
52.428025
 30
0.000000
  0
VERTEX
  8
MERGEDLAYER-1
 10
56.699069
 20
52.812641
 30
0.000000
  0
SEQEND
  8
MERGEDLAYER-1
  0
TEXT
  8
MERGEDLAYER-1
 62
  7
 10
56.173185
 20
51.673854
 30
0.000000
 40
0.346154
  1
 
 50
90.000000
  0
POLYLINE
  8
MERGEDLAYER-1
 66
  1
 70
  1
 62
  7
  0
VERTEX
  8
MERGEDLAYER-1
 10
1.153894
 20
63.934866
 30
0.000000
  0
VERTEX
  8
MERGEDLAYER-1
 10
33.997711
 20
63.934866
 30
0.000000
  0
VERTEX
  8
MERGEDLAYER-1
 10
33.997711
 20
63.458628
 30
0.000000
  0
VERTEX
  8
MERGEDLAYER-1
 10
1.153894
 20
63.458628
 30
0.000000
  0
SEQEND
  8
MERGEDLAYER-1
  0
POLYLINE
  8
MERGEDLAYER-1
 66
  1
 70
  1
 62
  7
  0
VERTEX
  8
MERGEDLAYER-1
 10
47.560650
 20
54.230572
 30
0.000000
  0
VERTEX
  8
MERGEDLAYER-1
 10
47.695266
 20
54.230572
 30
0.000000
  0
VERTEX
  8
MERGEDLAYER-1
 10
47.695266
 20
53.817073
 30
0.000000
  0
VERTEX
  8
MERGEDLAYER-1
 10
47.560650
 20
53.817073
 30
0.000000
  0
SEQEND
  8
MERGEDLAYER-1
  0
TEXT
  8
MERGEDLAYER-1
 62
  7
 10
16.692308
 20
22.235718
 30
0.000000
 40
0.576923
  1
ALUMINUM
 72
  5
 11
21.153846
 21
22.235718
 31
0.000000
  0
TEXT
  8
MERGEDLAYER-1
 62
  7
 10
16.692308
 20
21.389564
 30
0.000000
 40
0.576923
  1
GUIDE
 72
  5
 11
19.538462
 21
21.389564
 31
0.000000
  0
POLYLINE
  8
MERGEDLAYER-1
 66
  1
 70
  0
 62
  7
 10
49.296255
 20
20.532832
 30
0.000000
  0
VERTEX
  8
MERGEDLAYER-1
 10
49.296255
 20
20.532832
 30
0.000000
  0
VERTEX
  8
MERGEDLAYER-1
 10
46.589891
 20
20.532832
 30
0.000000
  0
SEQEND
  8
MERGEDLAYER-1
  0
POLYLINE
  8
MERGEDLAYER-1
 66
  1
 70
  1
 62
  7
  0
VERTEX
  8
MERGEDLAYER-1
 10
49.315941
 20
20.532832
 30
0.000000
  0
VERTEX
  8
MERGEDLAYER-1
 10
48.931326
 20
20.763601
 30
0.000000
  0
VERTEX
  8
MERGEDLAYER-1
 10
48.931326
 20
20.532832
 30
0.000000
  0
VERTEX
  8
MERGEDLAYER-1
 10
48.931326
 20
20.302063
 30
0.000000
  0
VERTEX
  8
MERGEDLAYER-1
 10
49.315941
 20
20.532832
 30
0.000000
  0
SEQEND
  8
MERGEDLAYER-1
  0
POLYLINE
  8
MERGEDLAYER-1
 66
  1
 70
  1
 62
  7
  0
VERTEX
  8
MERGEDLAYER-1
 10
46.570205
 20
20.532832
 30
0.000000
  0
VERTEX
  8
MERGEDLAYER-1
 10
46.954820
 20
20.763601
 30
0.000000
  0
VERTEX
  8
MERGEDLAYER-1
 10
46.954820
 20
20.532832
 30
0.000000
  0
VERTEX
  8
MERGEDLAYER-1
 10
46.954820
 20
20.302063
 30
0.000000
  0
VERTEX
  8
MERGEDLAYER-1
 10
46.570205
 20
20.532832
 30
0.000000
  0
SEQEND
  8
MERGEDLAYER-1
  0
POLYLINE
  8
MERGEDLAYER-1
 66
  1
 70
  0
 62
  7
 10
51.066721
 20
20.532832
 30
0.000000
  0
VERTEX
  8
MERGEDLAYER-1
 10
51.066721
 20
20.532832
 30
0.000000
  0
VERTEX
  8
MERGEDLAYER-1
 10
49.315941
 20
20.532832
 30
0.000000
  0
SEQEND
  8
MERGEDLAYER-1
  0
POLYLINE
  8
MERGEDLAYER-1
 66
  1
 70
  0
 62
  7
 10
46.570205
 20
21.828947
 30
0.000000
  0
VERTEX
  8
MERGEDLAYER-1
 10
46.570205
 20
21.828947
 30
0.000000
  0
VERTEX
  8
MERGEDLAYER-1
 10
46.570205
 20
18.790645
 30
0.000000
  0
SEQEND
  8
MERGEDLAYER-1
  0
POLYLINE
  8
MERGEDLAYER-1
 66
  1
 70
  1
 62
  7
  0
VERTEX
  8
MERGEDLAYER-1
 10
11.720452
 20
18.477825
 30
0.000000
  0
VERTEX
  8
MERGEDLAYER-1
 10
11.970452
 20
18.477825
 30
0.000000
  0
VERTEX
  8
MERGEDLAYER-1
 10
11.970452
 20
17.227825
 30
0.000000
  0
VERTEX
  8
MERGEDLAYER-1
 10
11.720452
 20
17.227825
 30
0.000000
  0
SEQEND
  8
MERGEDLAYER-1
  0
POLYLINE
  8
MERGEDLAYER-1
 66
  1
 70
  1
 62
  7
  0
VERTEX
  8
MERGEDLAYER-1
 10
11.970465
 20
18.654663
 30
0.000000
  0
VERTEX
  8
MERGEDLAYER-1
 10
12.157974
 20
18.654663
 30
0.000000
  0
VERTEX
  8
MERGEDLAYER-1
 10
12.157974
 20
8.496563
 30
0.000000
  0
VERTEX
  8
MERGEDLAYER-1
 10
11.970465
 20
8.496563
 30
0.000000
  0
SEQEND
  8
MERGEDLAYER-1
  0
POLYLINE
  8
MERGEDLAYER-1
 66
  1
 70
  1
 62
  7
  0
VERTEX
  8
MERGEDLAYER-1
 10
48.987699
 20
18.482633
 30
0.000000
  0
VERTEX
  8
MERGEDLAYER-1
 10
49.237699
 20
18.482633
 30
0.000000
  0
VERTEX
  8
MERGEDLAYER-1
 10
49.237699
 20
17.232633
 30
0.000000
  0
VERTEX
  8
MERGEDLAYER-1
 10
48.987699
 20
17.232633
 30
0.000000
  0
SEQEND
  8
MERGEDLAYER-1
  0
POLYLINE
  8
MERGEDLAYER-1
 66
  1
 70
  1
 62
  7
  0
VERTEX
  8
MERGEDLAYER-1
 10
48.800190
 20
18.658785
 30
0.000000
  0
VERTEX
  8
MERGEDLAYER-1
 10
48.987699
 20
18.658785
 30
0.000000
  0
VERTEX
  8
MERGEDLAYER-1
 10
48.987699
 20
8.496563
 30
0.000000
  0
VERTEX
  8
MERGEDLAYER-1
 10
48.800190
 20
8.496563
 30
0.000000
  0
SEQEND
  8
MERGEDLAYER-1
  0
TEXT
  8
MERGEDLAYER-1
 62
  7
 10
48.000000
 20
58.774179
 30
0.000000
 40
0.807692
  1
"X"
 72
  5
 11
49.846154
 21
58.774179
 31
0.000000
  0
TEXT
  8
MERGEDLAYER-1
 62
  7
 10
41.692308
 20
55.081872
 30
0.000000
 40
0.807692
  1
"Y"
 50
90.000000
 72
  5
 11
41.692308
 21
56.928025
 31
0.000000
  0
POLYLINE
  8
MERGEDLAYER-1
 66
  1
 70
  1
 62
  7
  0
VERTEX
  8
MERGEDLAYER-1
 10
27.911635
 20
54.649949
 30
0.000000
  0
VERTEX
  8
MERGEDLAYER-1
 10
28.552117
 20
54.649949
 30
0.000000
  0
VERTEX
  8
MERGEDLAYER-1
 10
28.552117
 20
43.045612
 30
0.000000
  0
VERTEX
  8
MERGEDLAYER-1
 10
27.911635
 20
43.045612
 30
0.000000
  0
SEQEND
  8
MERGEDLAYER-1
  0
POLYLINE
  8
MERGEDLAYER-1
 66
  1
 70
  1
 62
  7
  0
VERTEX
  8
MERGEDLAYER-1
 10
6.661491
 20
54.645719
 30
0.000000
  0
VERTEX
  8
MERGEDLAYER-1
 10
7.301967
 20
54.645719
 30
0.000000
  0
VERTEX
  8
MERGEDLAYER-1
 10
7.301967
 20
43.047720
 30
0.000000
  0
VERTEX
  8
MERGEDLAYER-1
 10
6.661491
 20
43.047720
 30
0.000000
  0
SEQEND
  8
MERGEDLAYER-1
  0
POLYLINE
  8
MERGEDLAYER-1
 66
  1
 70
  1
 62
  7
  0
VERTEX
  8
MERGEDLAYER-1
 10
47.690444
 20
54.628742
 30
0.000000
  0
VERTEX
  8
MERGEDLAYER-1
 10
48.091703
 20
54.628742
 30
0.000000
  0
VERTEX
  8
MERGEDLAYER-1
 10
48.091703
 20
43.044250
 30
0.000000
  0
VERTEX
  8
MERGEDLAYER-1
 10
47.690444
 20
43.044250
 30
0.000000
  0
SEQEND
  8
MERGEDLAYER-1
  0
POLYLINE
  8
MERGEDLAYER-1
  6
LTYPE02
 66
  1
 70
  0
 62
  7
  6
LTYPE02
 10
47.893926
 20
54.622483
 30
0.000000
  0
VERTEX
  8
MERGEDLAYER-1
  6
LTYPE02
 10
47.893926
 20
54.622483
 30
0.000000
  0
VERTEX
  8
MERGEDLAYER-1
  6
LTYPE02
 10
47.895710
 20
43.376254
 30
0.000000
  0
SEQEND
  8
MERGEDLAYER-1
  0
TEXT
  8
MERGEDLAYER-1
 62
  7
 10
59.538462
 20
44.004949
 30
0.000000
 40
0.750000
  1
CLEAR OPENING
 50
90.000000
 72
  5
 11
59.538462
 21
52.543410
 31
0.000000
  0
TEXT
  8
MERGEDLAYER-1
 62
  7
 10
44.923077
 20
45.004949
 30
0.000000
 40
0.750000
  1
BOTTOM OF
 50
90.000000
 72
  5
 11
44.923077
 21
51.235718
 31
0.000000
  0
TEXT
  8
MERGEDLAYER-1
 62
  7
 10
46.076923
 20
44.235718
 30
0.000000
 40
0.750000
  1
END PLATE "H"
 50
90.000000
 72
  5
 11
46.076923
 21
51.928025
 31
0.000000
  0
LINE
  8
MERGEDLAYER-1
 62
  7
 10
42.501202
 20
43.058096
 30
0.000000
 11
42.501202
 21
54.609056
 31
0.000000
  0
LINE
  8
MERGEDLAYER-1
 62
  7
 10
44.436979
 20
43.038405
 30
0.000000
 11
41.501202
 21
43.038405
 31
0.000000
  0
LINE
  8
MERGEDLAYER-1
 62
  7
 10
47.190444
 20
54.628742
 30
0.000000
 11
41.501202
 21
54.628742
 31
0.000000
  0
POLYLINE
  8
MERGEDLAYER-1
 66
  1
 70
  1
 62
  7
  0
VERTEX
  8
MERGEDLAYER-1
 10
42.501202
 20
43.038405
 30
0.000000
  0
VERTEX
  8
MERGEDLAYER-1
 10
42.731971
 20
43.423021
 30
0.000000
  0
VERTEX
  8
MERGEDLAYER-1
 10
42.501202
 20
43.423021
 30
0.000000
  0
VERTEX
  8
MERGEDLAYER-1
 10
42.270433
 20
43.423021
 30
0.000000
  0
VERTEX
  8
MERGEDLAYER-1
 10
42.501202
 20
43.038405
 30
0.000000
  0
SEQEND
  8
MERGEDLAYER-1
  0
POLYLINE
  8
MERGEDLAYER-1
 66
  1
 70
  1
 62
  7
  0
VERTEX
  8
MERGEDLAYER-1
 10
42.501202
 20
54.628742
 30
0.000000
  0
VERTEX
  8
MERGEDLAYER-1
 10
42.731971
 20
54.244127
 30
0.000000
  0
VERTEX
  8
MERGEDLAYER-1
 10
42.501202
 20
54.244127
 30
0.000000
  0
VERTEX
  8
MERGEDLAYER-1
 10
42.270433
 20
54.244127
 30
0.000000
  0
VERTEX
  8
MERGEDLAYER-1
 10
42.501202
 20
54.628742
 30
0.000000
  0
SEQEND
  8
MERGEDLAYER-1
  0
TEXT
  8
MERGEDLAYER-1
 62
  7
 10
42.486070
 20
48.802344
 30
0.000000
 40
0.692308
  1
 
  0
POLYLINE
  8
MERGEDLAYER-1
 66
  1
 70
  1
 62
  7
  0
VERTEX
  8
MERGEDLAYER-1
 10
40.477976
 20
44.593910
 30
0.000000
  0
VERTEX
  8
MERGEDLAYER-1
 10
40.477976
 20
51.378995
 30
0.000000
  0
VERTEX
  8
MERGEDLAYER-1
 10
43.710064
 20
51.378995
 30
0.000000
  0
VERTEX
  8
MERGEDLAYER-1
 10
43.710064
 20
44.593910
 30
0.000000
  0
SEQEND
  8
MERGEDLAYER-1
  0
POLYLINE
  8
MERGEDLAYER-1
 66
  1
 70
  0
 62
  7
 40
0.230769
 41
0.230769
 10
43.508033
 20
51.334942
 30
0.000000
  0
VERTEX
  8
MERGEDLAYER-1
 10
43.508033
 20
51.334942
 30
0.000000
  0
VERTEX
  8
MERGEDLAYER-1
 10
43.508033
 20
44.593910
 30
0.000000
  0
SEQEND
  8
MERGEDLAYER-1
  0
POLYLINE
  8
MERGEDLAYER-1
 66
  1
 70
  1
 62
255
  0
VERTEX
  8
MERGEDLAYER-1
 10
0.860584
 20
40.894907
 30
0.000000
  0
VERTEX
  8
MERGEDLAYER-1
 10
5.178047
 20
40.894907
 30
0.000000
  0
VERTEX
  8
MERGEDLAYER-1
 10
5.178047
 20
38.337646
 30
0.000000
  0
VERTEX
  8
MERGEDLAYER-1
 10
0.860584
 20
38.337646
 30
0.000000
  0
SEQEND
  8
MERGEDLAYER-1
  0
POLYLINE
  8
MERGEDLAYER-1
 66
  1
 70
  0
 62
  7
 10
52.180209
 20
28.424654
 30
0.000000
  0
VERTEX
  8
MERGEDLAYER-1
 10
52.180209
 20
28.424654
 30
0.000000
  0
VERTEX
  8
MERGEDLAYER-1
 10
8.846426
 20
28.424654
 30
0.000000
  0
SEQEND
  8
MERGEDLAYER-1
  0
POLYLINE
  8
MERGEDLAYER-1
 66
  1
 70
  0
 62
  7
 10
8.738004
 20
6.645569
 30
0.000000
  0
VERTEX
  8
MERGEDLAYER-1
 10
8.738004
 20
6.645569
 30
0.000000
  0
VERTEX
  8
MERGEDLAYER-1
 10
52.239568
 20
6.645569
 30
0.000000
  0
SEQEND
  8
MERGEDLAYER-1
  0
TEXT
  8
MERGEDLAYER-1
 62
  7
 10
16.692308
 20
8.312641
 30
0.000000
 40
0.576923
  1
COUNTER
 72
  5
 11
20.846154
 21
8.312641
 31
0.000000
  0
POLYLINE
  8
MERGEDLAYER-1
 66
  1
 70
  0
 62
  7
 10
16.536895
 20
8.279179
 30
0.000000
  0
VERTEX
  8
MERGEDLAYER-1
 10
16.536895
 20
8.279179
 30
0.000000
  0
VERTEX
  8
MERGEDLAYER-1
 10
15.402566
 20
6.712064
 30
0.000000
  0
SEQEND
  8
MERGEDLAYER-1
  0
POLYLINE
  8
MERGEDLAYER-1
 66
  1
 70
  1
 62
  7
  0
VERTEX
  8
MERGEDLAYER-1
 10
15.391024
 20
6.696115
 30
0.000000
  0
VERTEX
  8
MERGEDLAYER-1
 10
15.429603
 20
7.142987
 30
0.000000
  0
VERTEX
  8
MERGEDLAYER-1
 10
15.616541
 20
7.007676
 30
0.000000
  0
VERTEX
  8
MERGEDLAYER-1
 10
15.803479
 20
6.872366
 30
0.000000
  0
VERTEX
  8
MERGEDLAYER-1
 10
15.391024
 20
6.696115
 30
0.000000
  0
SEQEND
  8
MERGEDLAYER-1
  0
TEXT
  8
MERGEDLAYER-1
 62
  7
 10
14.538462
 20
36.851102
 30
0.000000
 40
0.750000
  1
( INTERIOR )
 72
  5
 11
20.692308
 21
36.851102
 31
0.000000
  0
POLYLINE
  8
MERGEDLAYER-1
 66
  1
 70
  0
 62
  7
 40
0.153846
 41
0.153846
 10
1.063306
 20
38.082240
 30
0.000000
  0
VERTEX
  8
MERGEDLAYER-1
 10
1.063306
 20
38.082240
 30
0.000000
  0
VERTEX
  8
MERGEDLAYER-1
 10
33.906285
 20
38.071935
 30
0.000000
  0
SEQEND
  8
MERGEDLAYER-1
  0
TEXT
  8
MERGEDLAYER-1
 62
  7
 10
0.923077
 20
40.158795
 30
0.000000
 40
0.576923
  1
*COUNTER
 72
  5
 11
5.384615
 21
40.158795
 31
0.000000
  0
TEXT
  8
MERGEDLAYER-1
 62
  7
 10
0.923077
 20
39.312641
 30
0.000000
 40
0.576923
  1
 MUST BE
 72
  5
 11
5.000000
 21
39.312641
 31
0.000000
  0
TEXT
  8
MERGEDLAYER-1
 62
  7
 10
0.923077
 20
38.466487
 30
0.000000
 40
0.576923
  1
 LEVELED
 72
  5
 11
5.153846
 21
38.466487
 31
0.000000
  0
POLYLINE
  8
MERGEDLAYER-1
 66
  1
 70
  0
 62
  7
 40
0.153846
 41
0.153846
 10
53.969501
 20
38.055272
 30
0.000000
  0
VERTEX
  8
MERGEDLAYER-1
 10
53.969501
 20
38.055272
 30
0.000000
  0
VERTEX
  8
MERGEDLAYER-1
 10
40.927359
 20
38.071937
 30
0.000000
  0
SEQEND
  8
MERGEDLAYER-1
  0
TEXT
  8
MERGEDLAYER-1
 62
  7
 10
11.461538
 20
35.235718
 30
0.000000
 40
0.807692
  1
ELEVATION COIL SIDE
 72
  5
 11
23.692308
 21
35.235718
 31
0.000000
  0
TEXT
  8
MERGEDLAYER-1
 62
  7
 10
41.307692
 20
35.235718
 30
0.000000
 40
0.807692
  1
SECTION ( COUNTER )
 72
  5
 11
53.461538
 21
35.235718
 31
0.000000
  0
POLYLINE
  8
MERGEDLAYER-1
 66
  1
 70
  1
 62
  7
 10
48.690143
 20
38.067026
 30
0.000000
  0
VERTEX
  8
MERGEDLAYER-1
 10
48.690143
 20
38.067026
 30
0.000000
  0
VERTEX
  8
MERGEDLAYER-1
 10
48.690143
 20
42.455172
 30
0.000000
  0
VERTEX
  8
MERGEDLAYER-1
 10
50.198026
 20
42.455172
 30
0.000000
  0
VERTEX
  8
MERGEDLAYER-1
 10
50.198026
 20
43.038405
 30
0.000000
  0
VERTEX
  8
MERGEDLAYER-1
 10
44.936979
 20
43.038405
 30
0.000000
  0
VERTEX
  8
MERGEDLAYER-1
 10
44.936979
 20
42.469060
 30
0.000000
  0
VERTEX
  8
MERGEDLAYER-1
 10
46.340520
 20
42.469060
 30
0.000000
  0
VERTEX
  8
MERGEDLAYER-1
 10
46.340520
 20
38.067026
 30
0.000000
  0
SEQEND
  8
MERGEDLAYER-1
  0
TEXT
  8
MERGEDLAYER-1
 62
  7
 10
49.000000
 20
39.697256
 30
0.000000
 40
0.576923
  1
COIL SIDE
 72
  5
 11
53.307692
 21
39.697256
 31
0.000000
  0
TEXT
  8
MERGEDLAYER-1
 62
  7
 10
49.000000
 20
38.466487
 30
0.000000
 40
0.576923
  1
STORE OR
 72
  5
 11
53.461538
 21
38.466487
 31
0.000000
  0
TEXT
  8
MERGEDLAYER-1
 62
  7
 10
49.000000
 20
37.235718
 30
0.000000
 40
0.576923
  1
INTERIOR
 72
  5
 11
53.076923
 21
37.235718
 31
0.000000
  0
TEXT
  8
MERGEDLAYER-1
 62
  7
 10
41.846154
 20
38.389564
 30
0.000000
 40
0.576923
  1
MALL OR
 72
  5
 11
45.692308
 21
38.389564
 31
0.000000
  0
TEXT
  8
MERGEDLAYER-1
 62
  7
 10
41.846154
 20
37.158795
 30
0.000000
 40
0.576923
  1
EXTERIOR
 72
  5
 11
46.230769
 21
37.158795
 31
0.000000
  0
TEXT
  8
MERGEDLAYER-1
 62
  7
 10
59.384615
 20
38.543410
 30
0.000000
 40
0.634615
  1
COUNTER
 50
90.000000
 72
  5
 11
59.384615
 21
42.620333
 31
0.000000
  0
TEXT
  8
MERGEDLAYER-1
 62
  7
 10
60.307692
 20
39.004949
 30
0.000000
 40
0.634615
  1
HEIGHT
 50
90.000000
 72
  5
 11
60.307692
 21
42.158795
 31
0.000000
  0
LINE
  8
MERGEDLAYER-1
 62
  7
 10
56.720299
 20
38.077479
 30
0.000000
 11
56.720299
 21
43.018724
 31
0.000000
  0
LINE
  8
MERGEDLAYER-1
 62
  7
 10
54.460914
 20
38.057796
 30
0.000000
 11
57.720299
 21
38.057796
 31
0.000000
  0
LINE
  8
MERGEDLAYER-1
 62
  7
 10
50.698026
 20
43.038405
 30
0.000000
 11
57.720299
 21
43.038405
 31
0.000000
  0
POLYLINE
  8
MERGEDLAYER-1
 66
  1
 70
  1
 62
  7
  0
VERTEX
  8
MERGEDLAYER-1
 10
56.720299
 20
38.057796
 30
0.000000
  0
VERTEX
  8
MERGEDLAYER-1
 10
56.951069
 20
38.442411
 30
0.000000
  0
VERTEX
  8
MERGEDLAYER-1
 10
56.720299
 20
38.442411
 30
0.000000
  0
VERTEX
  8
MERGEDLAYER-1
 10
56.489530
 20
38.442411
 30
0.000000
  0
VERTEX
  8
MERGEDLAYER-1
 10
56.720299
 20
38.057796
 30
0.000000
  0
SEQEND
  8
MERGEDLAYER-1
  0
POLYLINE
  8
MERGEDLAYER-1
 66
  1
 70
  1
 62
  7
  0
VERTEX
  8
MERGEDLAYER-1
 10
56.720299
 20
43.038405
 30
0.000000
  0
VERTEX
  8
MERGEDLAYER-1
 10
56.951069
 20
42.653790
 30
0.000000
  0
VERTEX
  8
MERGEDLAYER-1
 10
56.720299
 20
42.653790
 30
0.000000
  0
VERTEX
  8
MERGEDLAYER-1
 10
56.489530
 20
42.653790
 30
0.000000
  0
VERTEX
  8
MERGEDLAYER-1
 10
56.720299
 20
43.038405
 30
0.000000
  0
SEQEND
  8
MERGEDLAYER-1
  0
TEXT
  8
MERGEDLAYER-1
 62
  7
 10
56.739192
 20
40.149999
 30
0.000000
 40
0.403846
  1
 
 50
90.000000
  0
POLYLINE
  8
MERGEDLAYER-1
 66
  1
 70
  1
 62
  7
  0
VERTEX
  8
MERGEDLAYER-1
 10
55.082186
 20
38.915161
 30
0.000000
  0
VERTEX
  8
MERGEDLAYER-1
 10
55.082186
 20
42.230797
 30
0.000000
  0
VERTEX
  8
MERGEDLAYER-1
 10
57.625709
 20
42.230797
 30
0.000000
  0
VERTEX
  8
MERGEDLAYER-1
 10
57.625709
 20
38.915161
 30
0.000000
  0
SEQEND
  8
MERGEDLAYER-1
  0
POLYLINE
  8
MERGEDLAYER-1
 66
  1
 70
  0
 62
  7
 40
0.230769
 41
0.230769
 10
57.466726
 20
42.209266
 30
0.000000
  0
VERTEX
  8
MERGEDLAYER-1
 10
57.466726
 20
42.209266
 30
0.000000
  0
VERTEX
  8
MERGEDLAYER-1
 10
57.466726
 20
38.915161
 30
0.000000
  0
SEQEND
  8
MERGEDLAYER-1
  0
POLYLINE
  8
MERGEDLAYER-1
 66
  1
 70
  1
 62
  7
 10
28.557544
 20
38.076540
 30
0.000000
  0
VERTEX
  8
MERGEDLAYER-1
 10
28.557544
 20
38.076540
 30
0.000000
  0
VERTEX
  8
MERGEDLAYER-1
 10
6.660936
 20
38.076540
 30
0.000000
  0
VERTEX
  8
MERGEDLAYER-1
 10
6.656815
 20
43.046852
 30
0.000000
  0
VERTEX
  8
MERGEDLAYER-1
 10
28.549964
 20
43.044748
 30
0.000000
  0
SEQEND
  8
MERGEDLAYER-1
  0
POLYLINE
  8
MERGEDLAYER-1
 66
  1
 70
  0
 62
  7
 10
28.550610
 20
42.464684
 30
0.000000
  0
VERTEX
  8
MERGEDLAYER-1
 10
28.550610
 20
42.464684
 30
0.000000
  0
VERTEX
  8
MERGEDLAYER-1
 10
6.660936
 20
42.464684
 30
0.000000
  0
SEQEND
  8
MERGEDLAYER-1
  0
POLYLINE
  8
MERGEDLAYER-1
 66
  1
 70
  0
 62
  7
 10
13.573723
 20
42.463600
 30
0.000000
  0
VERTEX
  8
MERGEDLAYER-1
 10
13.573723
 20
42.463600
 30
0.000000
  0
VERTEX
  8
MERGEDLAYER-1
 10
13.573723
 20
38.089337
 30
0.000000
  0
SEQEND
  8
MERGEDLAYER-1
  0
POLYLINE
  8
MERGEDLAYER-1
 66
  1
 70
  0
 62
  7
 10
13.670945
 20
42.463600
 30
0.000000
  0
VERTEX
  8
MERGEDLAYER-1
 10
13.670945
 20
42.463600
 30
0.000000
  0
VERTEX
  8
MERGEDLAYER-1
 10
13.670945
 20
38.089337
 30
0.000000
  0
SEQEND
  8
MERGEDLAYER-1
  0
POLYLINE
  8
MERGEDLAYER-1
 66
  1
 70
  0
 62
  7
 10
21.435103
 20
42.463604
 30
0.000000
  0
VERTEX
  8
MERGEDLAYER-1
 10
21.435103
 20
42.463604
 30
0.000000
  0
VERTEX
  8
MERGEDLAYER-1
 10
21.435103
 20
38.089341
 30
0.000000
  0
SEQEND
  8
MERGEDLAYER-1
  0
POLYLINE
  8
MERGEDLAYER-1
 66
  1
 70
  0
 62
  7
 10
21.532335
 20
42.463604
 30
0.000000
  0
VERTEX
  8
MERGEDLAYER-1
 10
21.532335
 20
42.463604
 30
0.000000
  0
VERTEX
  8
MERGEDLAYER-1
 10
21.532335
 20
38.089341
 30
0.000000
  0
SEQEND
  8
MERGEDLAYER-1
  0
POLYLINE
  8
MERGEDLAYER-1
 66
  1
 70
  0
 62
  7
 10
8.846426
 20
25.754953
 30
0.000000
  0
VERTEX
  8
MERGEDLAYER-1
 10
8.846426
 20
25.754953
 30
0.000000
  0
VERTEX
  8
MERGEDLAYER-1
 10
8.846426
 20
28.424654
 30
0.000000
  0
SEQEND
  8
MERGEDLAYER-1
  0
POLYLINE
  8
MERGEDLAYER-1
 66
  1
 70
  0
 62
  7
 10
52.180209
 20
25.775729
 30
0.000000
  0
VERTEX
  8
MERGEDLAYER-1
 10
52.180209
 20
25.775729
 30
0.000000
  0
VERTEX
  8
MERGEDLAYER-1
 10
52.180209
 20
28.424654
 30
0.000000
  0
SEQEND
  8
MERGEDLAYER-1
  0
TEXT
  8
MERGEDLAYER-1
 62
  7
 10
1.769231
 20
9.851102
 30
0.000000
 40
0.576923
  1
3/16" (5mm)
 72
  5
 11
6.461538
 21
9.851102
 31
0.000000
  0
TEXT
  8
MERGEDLAYER-1
 62
  7
 10
1.769231
 20
9.004949
 30
0.000000
 40
0.576923
  1
END PLATE
 72
  5
 11
6.538462
 21
9.004949
 31
0.000000
  0
TEXT
  8
MERGEDLAYER-1
 62
  7
 10
1.769231
 20
8.158795
 30
0.000000
 40
0.576923
  1
8"x8" (203x203mm) or
 72
  5
 11
10.076923
 21
8.158795
 31
0.000000
  0
TEXT
  8
MERGEDLAYER-1
 62
  7
 10
1.769231
 20
7.312641
 30
0.000000
 40
0.576923
  1
10"x10" (254x254mm)
 72
  5
 11
10.076923
 21
7.312641
 31
0.000000
  0
TEXT
  8
MERGEDLAYER-1
 62
  7
 10
29.538462
 20
17.389564
 30
0.000000
 40
0.461538
  1
CURTAIN
 72
  5
 11
32.692308
 21
17.389564
 31
0.000000
  0
POLYLINE
  8
MERGEDLAYER-1
  6
LTYPE01
 66
  1
 70
  0
 62
  7
  6
LTYPE01
 10
48.272414
 20
56.197923
 30
0.000000
  0
VERTEX
  8
MERGEDLAYER-1
  6
LTYPE01
 10
48.272414
 20
56.197923
 30
0.000000
  0
VERTEX
  8
MERGEDLAYER-1
  6
LTYPE01
 10
48.048884
 20
55.452778
 30
0.000000
  0
VERTEX
  8
MERGEDLAYER-1
  6
LTYPE01
 10
47.901616
 20
54.687547
 30
0.000000
  0
VERTEX
  8
MERGEDLAYER-1
  6
LTYPE01
 10
47.899339
 20
54.655208
 30
0.000000
  0
SEQEND
  8
MERGEDLAYER-1
  0
POLYLINE
  8
MERGEDLAYER-1
 66
  1
 70
  0
 62
  7
 10
7.018633
 20
41.303932
 30
0.000000
  0
VERTEX
  8
MERGEDLAYER-1
 10
7.018633
 20
41.303932
 30
0.000000
  0
VERTEX
  8
MERGEDLAYER-1
 10
7.019120
 20
43.048330
 30
0.000000
  0
SEQEND
  8
MERGEDLAYER-1
  0
POLYLINE
  8
MERGEDLAYER-1
 66
  1
 70
  1
 62
  7
  0
VERTEX
  8
MERGEDLAYER-1
 10
7.019125
 20
43.068012
 30
0.000000
  0
VERTEX
  8
MERGEDLAYER-1
 10
7.249787
 20
42.683336
 30
0.000000
  0
VERTEX
  8
MERGEDLAYER-1
 10
7.019018
 20
42.683397
 30
0.000000
  0
VERTEX
  8
MERGEDLAYER-1
 10
6.788249
 20
42.683462
 30
0.000000
  0
VERTEX
  8
MERGEDLAYER-1
 10
7.019125
 20
43.068012
 30
0.000000
  0
SEQEND
  8
MERGEDLAYER-1
  0
POLYLINE
  8
MERGEDLAYER-1
 66
  1
 70
  0
 62
  7
 10
7.584719
 20
41.303932
 30
0.000000
  0
VERTEX
  8
MERGEDLAYER-1
 10
7.584719
 20
41.303932
 30
0.000000
  0
VERTEX
  8
MERGEDLAYER-1
 10
7.018633
 20
41.303932
 30
0.000000
  0
SEQEND
  8
MERGEDLAYER-1
  0
TEXT
  8
MERGEDLAYER-1
 62
  7
 10
7.615385
 20
41.543410
 30
0.000000
 40
0.576923
  1
ALUMINUM
 72
  5
 11
12.076923
 21
41.543410
 31
0.000000
  0
TEXT
  8
MERGEDLAYER-1
 62
  7
 10
7.615385
 20
40.697256
 30
0.000000
 40
0.576923
  1
GUIDE
 72
  5
 11
10.461538
 21
40.697256
 31
0.000000
  0
LINE
  8
MERGEDLAYER-1
 62
  7
 10
42.506038
 20
54.662696
 30
0.000000
 11
42.506038
 21
57.222069
 31
0.000000
  0
LINE
  8
MERGEDLAYER-1
 62
  7
 10
47.046819
 20
54.643010
 30
0.000000
 11
41.506038
 21
54.643010
 31
0.000000
  0
LINE
  8
MERGEDLAYER-1
 62
  7
 10
47.046819
 20
57.241756
 30
0.000000
 11
41.506038
 21
57.241756
 31
0.000000
  0
POLYLINE
  8
MERGEDLAYER-1
 66
  1
 70
  1
 62
  7
  0
VERTEX
  8
MERGEDLAYER-1
 10
42.506038
 20
54.643010
 30
0.000000
  0
VERTEX
  8
MERGEDLAYER-1
 10
42.736807
 20
55.027625
 30
0.000000
  0
VERTEX
  8
MERGEDLAYER-1
 10
42.506038
 20
55.027625
 30
0.000000
  0
VERTEX
  8
MERGEDLAYER-1
 10
42.275269
 20
55.027625
 30
0.000000
  0
VERTEX
  8
MERGEDLAYER-1
 10
42.506038
 20
54.643010
 30
0.000000
  0
SEQEND
  8
MERGEDLAYER-1
  0
POLYLINE
  8
MERGEDLAYER-1
 66
  1
 70
  1
 62
  7
  0
VERTEX
  8
MERGEDLAYER-1
 10
42.506038
 20
57.241756
 30
0.000000
  0
VERTEX
  8
MERGEDLAYER-1
 10
42.736807
 20
56.857140
 30
0.000000
  0
VERTEX
  8
MERGEDLAYER-1
 10
42.506038
 20
56.857140
 30
0.000000
  0
VERTEX
  8
MERGEDLAYER-1
 10
42.275269
 20
56.857140
 30
0.000000
  0
VERTEX
  8
MERGEDLAYER-1
 10
42.506038
 20
57.241756
 30
0.000000
  0
SEQEND
  8
MERGEDLAYER-1
  0
TEXT
  8
MERGEDLAYER-1
 62
  7
 10
41.719736
 20
55.392956
 30
0.000000
 40
0.519231
  1
 
 50
90.000000
  0
LINE
  8
MERGEDLAYER-1
 62
  7
 10
47.713816
 20
58.427171
 30
0.000000
 11
50.196500
 21
58.427171
 31
0.000000
  0
LINE
  8
MERGEDLAYER-1
 62
  7
 10
47.694134
 20
57.741995
 30
0.000000
 11
47.694134
 21
59.427171
 31
0.000000
  0
LINE
  8
MERGEDLAYER-1
 62
  7
 10
50.216187
 20
57.741995
 30
0.000000
 11
50.216187
 21
59.427171
 31
0.000000
  0
POLYLINE
  8
MERGEDLAYER-1
 66
  1
 70
  1
 62
  7
  0
VERTEX
  8
MERGEDLAYER-1
 10
47.694134
 20
58.427171
 30
0.000000
  0
VERTEX
  8
MERGEDLAYER-1
 10
48.078749
 20
58.196406
 30
0.000000
  0
VERTEX
  8
MERGEDLAYER-1
 10
48.078749
 20
58.427176
 30
0.000000
  0
VERTEX
  8
MERGEDLAYER-1
 10
48.078749
 20
58.657945
 30
0.000000
  0
VERTEX
  8
MERGEDLAYER-1
 10
47.694134
 20
58.427171
 30
0.000000
  0
SEQEND
  8
MERGEDLAYER-1
  0
POLYLINE
  8
MERGEDLAYER-1
 66
  1
 70
  1
 62
  7
  0
VERTEX
  8
MERGEDLAYER-1
 10
50.216187
 20
58.427171
 30
0.000000
  0
VERTEX
  8
MERGEDLAYER-1
 10
49.831571
 20
58.196402
 30
0.000000
  0
VERTEX
  8
MERGEDLAYER-1
 10
49.831571
 20
58.427171
 30
0.000000
  0
VERTEX
  8
MERGEDLAYER-1
 10
49.831571
 20
58.657940
 30
0.000000
  0
VERTEX
  8
MERGEDLAYER-1
 10
50.216187
 20
58.427171
 30
0.000000
  0
SEQEND
  8
MERGEDLAYER-1
  0
TEXT
  8
MERGEDLAYER-1
 62
  7
 10
49.104182
 20
59.251163
 30
0.000000
 40
0.576923
  1
 
  0
POLYLINE
  8
MERGEDLAYER-1
 66
  1
 70
  1
 62
  7
  0
VERTEX
  8
MERGEDLAYER-1
 10
6.734438
 20
57.241756
 30
0.000000
  0
VERTEX
  8
MERGEDLAYER-1
 10
6.785823
 20
57.241756
 30
0.000000
  0
VERTEX
  8
MERGEDLAYER-1
 10
6.785823
 20
54.661588
 30
0.000000
  0
VERTEX
  8
MERGEDLAYER-1
 10
6.734438
 20
54.661588
 30
0.000000
  0
SEQEND
  8
MERGEDLAYER-1
  0
POLYLINE
  8
MERGEDLAYER-1
 66
  1
 70
  1
 62
  7
  0
VERTEX
  8
MERGEDLAYER-1
 10
28.450484
 20
57.241756
 30
0.000000
  0
VERTEX
  8
MERGEDLAYER-1
 10
28.501883
 20
57.241756
 30
0.000000
  0
VERTEX
  8
MERGEDLAYER-1
 10
28.501883
 20
54.661588
 30
0.000000
  0
VERTEX
  8
MERGEDLAYER-1
 10
28.450484
 20
54.661588
 30
0.000000
  0
SEQEND
  8
MERGEDLAYER-1
  0
POLYLINE
  8
MERGEDLAYER-1
 66
  1
 70
  1
 62
  7
  0
VERTEX
  8
MERGEDLAYER-1
 10
47.692204
 20
57.241995
 30
0.000000
  0
VERTEX
  8
MERGEDLAYER-1
 10
50.214257
 20
57.241995
 30
0.000000
  0
VERTEX
  8
MERGEDLAYER-1
 10
50.214257
 20
54.643254
 30
0.000000
  0
VERTEX
  8
MERGEDLAYER-1
 10
47.692204
 20
54.643254
 30
0.000000
  0
SEQEND
  8
MERGEDLAYER-1
  0
POLYLINE
  8
MERGEDLAYER-1
 66
  1
 70
  0
 62
  7
 10
48.045452
 20
56.921950
 30
0.000000
  0
VERTEX
  8
MERGEDLAYER-1
 10
48.045452
 20
56.921950
 30
0.000000
  0
VERTEX
  8
MERGEDLAYER-1
 10
47.988530
 20
56.978877
 30
0.000000
  0
VERTEX
  8
MERGEDLAYER-1
 10
47.931608
 20
56.921950
 30
0.000000
  0
VERTEX
  8
MERGEDLAYER-1
 10
47.988530
 20
56.865028
 30
0.000000
  0
VERTEX
  8
MERGEDLAYER-1
 10
48.045452
 20
56.921950
 30
0.000000
  0
SEQEND
  8
MERGEDLAYER-1
  0
POLYLINE
  8
MERGEDLAYER-1
 66
  1
 70
  0
 62
  7
 10
48.045452
 20
54.930997
 30
0.000000
  0
VERTEX
  8
MERGEDLAYER-1
 10
48.045452
 20
54.930997
 30
0.000000
  0
VERTEX
  8
MERGEDLAYER-1
 10
47.988530
 20
54.987920
 30
0.000000
  0
VERTEX
  8
MERGEDLAYER-1
 10
47.931608
 20
54.930997
 30
0.000000
  0
VERTEX
  8
MERGEDLAYER-1
 10
47.988530
 20
54.874070
 30
0.000000
  0
VERTEX
  8
MERGEDLAYER-1
 10
48.045452
 20
54.930997
 30
0.000000
  0
SEQEND
  8
MERGEDLAYER-1
  0
POLYLINE
  8
MERGEDLAYER-1
 66
  1
 70
  0
 62
  7
 10
49.194219
 20
55.941740
 30
0.000000
  0
VERTEX
  8
MERGEDLAYER-1
 10
49.194219
 20
55.941740
 30
0.000000
  0
VERTEX
  8
MERGEDLAYER-1
 10
48.701139
 20
55.941740
 30
0.000000
  0
SEQEND
  8
MERGEDLAYER-1
  0
POLYLINE
  8
MERGEDLAYER-1
 66
  1
 70
  0
 62
  7
 10
48.947679
 20
56.188312
 30
0.000000
  0
VERTEX
  8
MERGEDLAYER-1
 10
48.947679
 20
56.188312
 30
0.000000
  0
VERTEX
  8
MERGEDLAYER-1
 10
48.947679
 20
55.695153
 30
0.000000
  0
SEQEND
  8
MERGEDLAYER-1
  0
POLYLINE
  8
MERGEDLAYER-1
 66
  1
 70
  0
 62
  7
 10
48.045452
 20
55.948233
 30
0.000000
  0
VERTEX
  8
MERGEDLAYER-1
 10
48.045452
 20
55.948233
 30
0.000000
  0
VERTEX
  8
MERGEDLAYER-1
 10
47.988530
 20
56.005155
 30
0.000000
  0
VERTEX
  8
MERGEDLAYER-1
 10
47.931608
 20
55.948233
 30
0.000000
  0
VERTEX
  8
MERGEDLAYER-1
 10
47.988530
 20
55.891310
 30
0.000000
  0
VERTEX
  8
MERGEDLAYER-1
 10
48.045452
 20
55.948233
 30
0.000000
  0
SEQEND
  8
MERGEDLAYER-1
  0
POLYLINE
  8
MERGEDLAYER-1
 66
  1
 70
  0
 62
  7
 10
49.635883
 20
55.943819
 30
0.000000
  0
VERTEX
  8
MERGEDLAYER-1
 10
49.635883
 20
55.943819
 30
0.000000
  0
VERTEX
  8
MERGEDLAYER-1
 10
49.583543
 20
56.206942
 30
0.000000
  0
VERTEX
  8
MERGEDLAYER-1
 10
49.434505
 20
56.430007
 30
0.000000
  0
VERTEX
  8
MERGEDLAYER-1
 10
49.211449
 20
56.579055
 30
0.000000
  0
VERTEX
  8
MERGEDLAYER-1
 10
48.948341
 20
56.631395
 30
0.000000
  0
VERTEX
  8
MERGEDLAYER-1
 10
48.685228
 20
56.579055
 30
0.000000
  0
VERTEX
  8
MERGEDLAYER-1
 10
48.462172
 20
56.430007
 30
0.000000
  0
VERTEX
  8
MERGEDLAYER-1
 10
48.313134
 20
56.206942
 30
0.000000
  0
VERTEX
  8
MERGEDLAYER-1
 10
48.260794
 20
55.943819
 30
0.000000
  0
VERTEX
  8
MERGEDLAYER-1
 10
48.313134
 20
55.680692
 30
0.000000
  0
VERTEX
  8
MERGEDLAYER-1
 10
48.462172
 20
55.457628
 30
0.000000
  0
VERTEX
  8
MERGEDLAYER-1
 10
48.685228
 20
55.308580
 30
0.000000
  0
VERTEX
  8
MERGEDLAYER-1
 10
48.948341
 20
55.256244
 30
0.000000
  0
VERTEX
  8
MERGEDLAYER-1
 10
49.211449
 20
55.308580
 30
0.000000
  0
VERTEX
  8
MERGEDLAYER-1
 10
49.434505
 20
55.457628
 30
0.000000
  0
VERTEX
  8
MERGEDLAYER-1
 10
49.583543
 20
55.680692
 30
0.000000
  0
VERTEX
  8
MERGEDLAYER-1
 10
49.635883
 20
55.943819
 30
0.000000
  0
SEQEND
  8
MERGEDLAYER-1
  0
POLYLINE
  8
MERGEDLAYER-1
 66
  1
 70
  0
 62
  7
 10
49.464177
 20
56.448899
 30
0.000000
  0
VERTEX
  8
MERGEDLAYER-1
 10
49.464177
 20
56.448899
 30
0.000000
  0
VERTEX
  8
MERGEDLAYER-1
 10
49.229065
 20
56.608929
 30
0.000000
  0
VERTEX
  8
MERGEDLAYER-1
 10
49.123761
 20
56.642634
 30
0.000000
  0
SEQEND
  8
MERGEDLAYER-1
  0
POLYLINE
  8
MERGEDLAYER-1
  6
LTYPE01
 66
  1
 70
  0
 62
  7
  6
LTYPE01
 10
48.950308
 20
56.664152
 30
0.000000
  0
VERTEX
  8
MERGEDLAYER-1
  6
LTYPE01
 10
48.950308
 20
56.664152
 30
0.000000
  0
VERTEX
  8
MERGEDLAYER-1
  6
LTYPE01
 10
48.671941
 20
56.611140
 30
0.000000
  0
VERTEX
  8
MERGEDLAYER-1
  6
LTYPE01
 10
48.437617
 20
56.454562
 30
0.000000
  0
VERTEX
  8
MERGEDLAYER-1
  6
LTYPE01
 10
48.328543
 20
56.309397
 30
0.000000
  0
SEQEND
  8
MERGEDLAYER-1
  0
POLYLINE
  8
MERGEDLAYER-1
 66
  1
 70
  1
 62
  7
  0
VERTEX
  8
MERGEDLAYER-1
 10
27.952822
 20
18.082670
 30
0.000000
  0
VERTEX
  8
MERGEDLAYER-1
 10
29.542654
 20
18.082670
 30
0.000000
  0
VERTEX
  8
MERGEDLAYER-1
 10
29.542654
 20
17.721520
 30
0.000000
  0
VERTEX
  8
MERGEDLAYER-1
 10
27.952822
 20
17.721520
 30
0.000000
  0
SEQEND
  8
MERGEDLAYER-1
  0
TEXT
  8
MERGEDLAYER-1
 62
  7
 10
28.307692
 20
17.697256
 30
0.000000
 40
0.634615
  1
C
 72
  5
 11
29.307692
 21
17.697256
 31
0.000000
  0
TEXT
  8
MERGEDLAYER-1
 62
  7
 10
28.538462
 20
17.389564
 30
0.000000
 40
0.634615
  1
L
 72
  5
 11
29.384615
 21
17.389564
 31
0.000000
  0
TEXT
  8
MERGEDLAYER-1
 62
  7
 10
16.692308
 20
20.004949
 30
0.000000
 40
0.576923
  1
BOTTOM BAR
 72
  5
 11
22.230769
 21
20.004949
 31
0.000000
  0
POLYLINE
  8
MERGEDLAYER-1
 66
  1
 70
  0
 62
  7
 10
15.353005
 20
18.581228
 30
0.000000
  0
VERTEX
  8
MERGEDLAYER-1
 10
15.353005
 20
18.581228
 30
0.000000
  0
VERTEX
  8
MERGEDLAYER-1
 10
16.485577
 20
20.206872
 30
0.000000
  0
SEQEND
  8
MERGEDLAYER-1
  0
POLYLINE
  8
MERGEDLAYER-1
 66
  1
 70
  1
 62
  7
  0
VERTEX
  8
MERGEDLAYER-1
 10
15.341752
 20
18.565078
 30
0.000000
  0
VERTEX
  8
MERGEDLAYER-1
 10
15.750962
 20
18.748732
 30
0.000000
  0
VERTEX
  8
MERGEDLAYER-1
 10
15.561616
 20
18.880653
 30
0.000000
  0
VERTEX
  8
MERGEDLAYER-1
 10
15.372270
 20
19.012573
 30
0.000000
  0
VERTEX
  8
MERGEDLAYER-1
 10
15.341752
 20
18.565078
 30
0.000000
  0
SEQEND
  8
MERGEDLAYER-1
  0
POLYLINE
  8
MERGEDLAYER-1
 66
  1
 70
  1
 62
  7
  0
VERTEX
  8
MERGEDLAYER-1
 10
47.694134
 20
53.823848
 30
0.000000
  0
VERTEX
  8
MERGEDLAYER-1
 10
48.084783
 20
53.823848
 30
0.000000
  0
VERTEX
  8
MERGEDLAYER-1
 10
48.084783
 20
52.854990
 30
0.000000
  0
VERTEX
  8
MERGEDLAYER-1
 10
47.694134
 20
52.854990
 30
0.000000
  0
SEQEND
  8
MERGEDLAYER-1
  0
POLYLINE
  8
MERGEDLAYER-1
 66
  1
 70
  0
 62
  7
 10
52.201106
 20
54.633723
 30
0.000000
  0
VERTEX
  8
MERGEDLAYER-1
 10
52.201106
 20
54.633723
 30
0.000000
  0
VERTEX
  8
MERGEDLAYER-1
 10
52.201106
 20
57.697256
 30
0.000000
  0
SEQEND
  8
MERGEDLAYER-1
  0
POLYLINE
  8
MERGEDLAYER-1
 66
  1
 70
  0
 62
  7
 10
48.250160
 20
54.639799
 30
0.000000
  0
VERTEX
  8
MERGEDLAYER-1
 10
48.250160
 20
54.639799
 30
0.000000
  0
VERTEX
  8
MERGEDLAYER-1
 10
48.091163
 20
54.639799
 30
0.000000
  0
SEQEND
  8
MERGEDLAYER-1
  0
POLYLINE
  8
MERGEDLAYER-1
 66
  1
 70
  0
 62
  7
 10
48.250160
 20
54.639799
 30
0.000000
  0
VERTEX
  8
MERGEDLAYER-1
 10
48.250160
 20
54.639799
 30
0.000000
  0
VERTEX
  8
MERGEDLAYER-1
 10
48.130521
 20
54.465656
 30
0.000000
  0
VERTEX
  8
MERGEDLAYER-1
 10
48.091172
 20
54.255949
 30
0.000000
  0
SEQEND
  8
MERGEDLAYER-1
  0
POLYLINE
  8
MERGEDLAYER-1
 66
  1
 70
  0
 62
  7
 10
48.091163
 20
54.255949
 30
0.000000
  0
VERTEX
  8
MERGEDLAYER-1
 10
48.091163
 20
54.255949
 30
0.000000
  0
VERTEX
  8
MERGEDLAYER-1
 10
48.091163
 20
54.639799
 30
0.000000
  0
SEQEND
  8
MERGEDLAYER-1
  0
POLYLINE
  8
MERGEDLAYER-1
 66
  1
 70
  1
 62
  7
  0
VERTEX
  8
MERGEDLAYER-1
 10
47.990037
 20
54.231154
 30
0.000000
  0
VERTEX
  8
MERGEDLAYER-1
 10
48.153503
 20
54.231154
 30
0.000000
  0
VERTEX
  8
MERGEDLAYER-1
 10
48.153503
 20
53.817336
 30
0.000000
  0
VERTEX
  8
MERGEDLAYER-1
 10
47.990037
 20
53.817336
 30
0.000000
  0
SEQEND
  8
MERGEDLAYER-1
  0
POLYLINE
  8
MERGEDLAYER-1
 66
  1
 70
  1
 62
  7
  0
VERTEX
  8
MERGEDLAYER-1
 10
6.724716
 20
54.199876
 30
0.000000
  0
VERTEX
  8
MERGEDLAYER-1
 10
7.635837
 20
54.199876
 30
0.000000
  0
VERTEX
  8
MERGEDLAYER-1
 10
7.635837
 20
53.881019
 30
0.000000
  0
VERTEX
  8
MERGEDLAYER-1
 10
6.724716
 20
53.881019
 30
0.000000
  0
SEQEND
  8
MERGEDLAYER-1
  0
POLYLINE
  8
MERGEDLAYER-1
 66
  1
 70
  1
 62
  7
  0
VERTEX
  8
MERGEDLAYER-1
 10
27.606502
 20
54.200731
 30
0.000000
  0
VERTEX
  8
MERGEDLAYER-1
 10
28.517620
 20
54.200731
 30
0.000000
  0
VERTEX
  8
MERGEDLAYER-1
 10
28.517620
 20
53.881873
 30
0.000000
  0
VERTEX
  8
MERGEDLAYER-1
 10
27.606502
 20
53.881873
 30
0.000000
  0
SEQEND
  8
MERGEDLAYER-1
  0
TEXT
  8
MERGEDLAYER-1
 62
  7
 10
1.307692
 20
55.620333
 30
0.000000
 40
0.576923
  1
STOPPERS
 72
  5
 11
6.000000
 21
55.620333
 31
0.000000
  0
POLYLINE
  8
MERGEDLAYER-1
 66
  1
 70
  0
 62
  7
 10
5.230769
 20
55.504949
 30
0.000000
  0
VERTEX
  8
MERGEDLAYER-1
 10
5.230769
 20
55.504949
 30
0.000000
  0
VERTEX
  8
MERGEDLAYER-1
 10
6.694596
 20
54.120859
 30
0.000000
  0
SEQEND
  8
MERGEDLAYER-1
  0
POLYLINE
  8
MERGEDLAYER-1
 66
  1
 70
  1
 62
  7
  0
VERTEX
  8
MERGEDLAYER-1
 10
6.708899
 20
54.107333
 30
0.000000
  0
VERTEX
  8
MERGEDLAYER-1
 10
6.270882
 20
54.203900
 30
0.000000
  0
VERTEX
  8
MERGEDLAYER-1
 10
6.429430
 20
54.371582
 30
0.000000
  0
VERTEX
  8
MERGEDLAYER-1
 10
6.587977
 20
54.539260
 30
0.000000
  0
VERTEX
  8
MERGEDLAYER-1
 10
6.708899
 20
54.107333
 30
0.000000
  0
SEQEND
  8
MERGEDLAYER-1
  0
POLYLINE
  8
MERGEDLAYER-1
 66
  1
 70
  1
 62
  7
  0
VERTEX
  8
MERGEDLAYER-1
 10
1.520865
 20
53.005817
 30
0.000000
  0
VERTEX
  8
MERGEDLAYER-1
 10
32.697449
 20
53.005817
 30
0.000000
  0
VERTEX
  8
MERGEDLAYER-1
 10
32.697449
 20
52.818538
 30
0.000000
  0
VERTEX
  8
MERGEDLAYER-1
 10
1.520865
 20
52.818538
 30
0.000000
  0
SEQEND
  8
MERGEDLAYER-1
  0
POLYLINE
  8
MERGEDLAYER-1
 66
  1
 70
  1
 62
  7
  0
VERTEX
  8
MERGEDLAYER-1
 10
22.928603
 20
53.028283
 30
0.000000
  0
VERTEX
  8
MERGEDLAYER-1
 10
29.651959
 20
53.028283
 30
0.000000
  0
VERTEX
  8
MERGEDLAYER-1
 10
29.651959
 20
52.801072
 30
0.000000
  0
VERTEX
  8
MERGEDLAYER-1
 10
22.928603
 20
52.801072
 30
0.000000
  0
SEQEND
  8
MERGEDLAYER-1
  0
POLYLINE
  8
MERGEDLAYER-1
 66
  1
 70
  0
 62
  7
 10
22.922636
 20
53.294030
 30
0.000000
  0
VERTEX
  8
MERGEDLAYER-1
 10
22.922636
 20
53.294030
 30
0.000000
  0
VERTEX
  8
MERGEDLAYER-1
 10
22.922636
 20
52.710477
 30
0.000000
  0
SEQEND
  8
MERGEDLAYER-1
  0
POLYLINE
  8
MERGEDLAYER-1
 66
  1
 70
  0
 62
  7
 10
23.439972
 20
52.710477
 30
0.000000
  0
VERTEX
  8
MERGEDLAYER-1
 10
23.439972
 20
52.710477
 30
0.000000
  0
VERTEX
  8
MERGEDLAYER-1
 10
22.922636
 20
52.710477
 30
0.000000
  0
SEQEND
  8
MERGEDLAYER-1
  0
POLYLINE
  8
MERGEDLAYER-1
 66
  1
 70
  0
 62
  7
 10
29.658633
 20
53.285180
 30
0.000000
  0
VERTEX
  8
MERGEDLAYER-1
 10
29.658633
 20
53.285180
 30
0.000000
  0
VERTEX
  8
MERGEDLAYER-1
 10
29.658633
 20
52.710477
 30
0.000000
  0
SEQEND
  8
MERGEDLAYER-1
  0
POLYLINE
  8
MERGEDLAYER-1
 66
  1
 70
  0
 62
  7
 10
29.141301
 20
52.710477
 30
0.000000
  0
VERTEX
  8
MERGEDLAYER-1
 10
29.141301
 20
52.710477
 30
0.000000
  0
VERTEX
  8
MERGEDLAYER-1
 10
29.658633
 20
52.710477
 30
0.000000
  0
SEQEND
  8
MERGEDLAYER-1
  0
POLYLINE
  8
MERGEDLAYER-1
 66
  1
 70
  1
 62
  7
  0
VERTEX
  8
MERGEDLAYER-1
 10
23.154743
 20
52.967295
 30
0.000000
  0
VERTEX
  8
MERGEDLAYER-1
 10
29.404658
 20
52.967295
 30
0.000000
  0
VERTEX
  8
MERGEDLAYER-1
 10
29.404658
 20
52.856060
 30
0.000000
  0
VERTEX
  8
MERGEDLAYER-1
 10
23.154743
 20
52.856060
 30
0.000000
  0
SEQEND
  8
MERGEDLAYER-1
  0
POLYLINE
  8
MERGEDLAYER-1
 66
  1
 70
  1
 62
  7
  0
VERTEX
  8
MERGEDLAYER-1
 10
49.076923
 20
53.035457
 30
0.000000
  0
VERTEX
  8
MERGEDLAYER-1
 10
59.802115
 20
53.035457
 30
0.000000
  0
VERTEX
  8
MERGEDLAYER-1
 10
59.802115
 20
52.829862
 30
0.000000
  0
VERTEX
  8
MERGEDLAYER-1
 10
49.076923
 20
52.829862
 30
0.000000
  0
SEQEND
  8
MERGEDLAYER-1
  0
POLYLINE
  8
MERGEDLAYER-1
 66
  1
 70
  1
 62
  7
  0
VERTEX
  8
MERGEDLAYER-1
 10
43.190491
 20
53.018545
 30
0.000000
  0
VERTEX
  8
MERGEDLAYER-1
 10
47.094558
 20
53.018545
 30
0.000000
  0
VERTEX
  8
MERGEDLAYER-1
 10
47.094558
 20
52.815228
 30
0.000000
  0
VERTEX
  8
MERGEDLAYER-1
 10
43.190491
 20
52.815228
 30
0.000000
  0
SEQEND
  8
MERGEDLAYER-1
  0
POLYLINE
  8
MERGEDLAYER-1
 66
  1
 70
  0
 62
  7
 10
29.677002
 20
53.292260
 30
0.000000
  0
VERTEX
  8
MERGEDLAYER-1
 10
29.677002
 20
53.292260
 30
0.000000
  0
VERTEX
  8
MERGEDLAYER-1
 10
31.199768
 20
53.879164
 30
0.000000
  0
SEQEND
  8
MERGEDLAYER-1
  0
POLYLINE
  8
MERGEDLAYER-1
 66
  1
 70
  1
 62
  7
  0
VERTEX
  8
MERGEDLAYER-1
 10
29.658633
 20
53.285180
 30
0.000000
  0
VERTEX
  8
MERGEDLAYER-1
 10
30.100508
 20
53.208177
 30
0.000000
  0
VERTEX
  8
MERGEDLAYER-1
 10
30.017515
 20
53.423504
 30
0.000000
  0
VERTEX
  8
MERGEDLAYER-1
 10
29.934521
 20
53.638832
 30
0.000000
  0
VERTEX
  8
MERGEDLAYER-1
 10
29.658633
 20
53.285180
 30
0.000000
  0
SEQEND
  8
MERGEDLAYER-1
  0
POLYLINE
  8
MERGEDLAYER-1
 66
  1
 70
  0
 62
  7
 10
31.199768
 20
53.879164
 30
0.000000
  0
VERTEX
  8
MERGEDLAYER-1
 10
31.199768
 20
53.879164
 30
0.000000
  0
VERTEX
  8
MERGEDLAYER-1
 10
31.199768
 20
55.592515
 30
0.000000
  0
SEQEND
  8
MERGEDLAYER-1
  0
TEXT
  8
MERGEDLAYER-1
 62
  7
 10
27.538462
 20
19.928025
 30
0.000000
 40
0.807692
  1
EXTERIOR
 72
  5
 11
33.384615
 21
19.928025
 31
0.000000
  0
TEXT
  8
MERGEDLAYER-1
 62
  7
 10
23.230769
 20
5.081872
 30
0.000000
 40
0.807692
  1
INTERIOR ( SECURE SIDE )
 72
  5
 11
37.615385
 21
5.081872
 31
0.000000
  0
POLYLINE
  8
MERGEDLAYER-1
 66
  1
 70
  1
 62
  7
  0
VERTEX
  8
MERGEDLAYER-1
 10
18.910290
 20
19.128897
 30
0.000000
  0
VERTEX
  8
MERGEDLAYER-1
 10
19.156910
 20
19.309326
 30
0.000000
  0
VERTEX
  8
MERGEDLAYER-1
 10
21.174227
 20
16.551096
 30
0.000000
  0
VERTEX
  8
MERGEDLAYER-1
 10
20.927669
 20
16.370638
 30
0.000000
  0
SEQEND
  8
MERGEDLAYER-1
  0
POLYLINE
  8
MERGEDLAYER-1
 66
  1
 70
  0
 62
  7
 10
20.016667
 20
17.916476
 30
0.000000
  0
VERTEX
  8
MERGEDLAYER-1
 10
20.016667
 20
17.916476
 30
0.000000
  0
VERTEX
  8
MERGEDLAYER-1
 10
19.083151
 20
19.185073
 30
0.000000
  0
SEQEND
  8
MERGEDLAYER-1
  0
POLYLINE
  8
MERGEDLAYER-1
 66
  1
 70
  0
 62
  7
 10
20.223177
 20
17.634282
 30
0.000000
  0
VERTEX
  8
MERGEDLAYER-1
 10
20.223177
 20
17.634282
 30
0.000000
  0
VERTEX
  8
MERGEDLAYER-1
 10
21.034583
 20
16.521376
 30
0.000000
  0
SEQEND
  8
MERGEDLAYER-1
  0
POLYLINE
  8
MERGEDLAYER-1
 66
  1
 70
  0
 62
  7
 10
20.016667
 20
17.916476
 30
0.000000
  0
VERTEX
  8
MERGEDLAYER-1
 10
20.016667
 20
17.916476
 30
0.000000
  0
VERTEX
  8
MERGEDLAYER-1
 10
20.403978
 20
17.983323
 30
0.000000
  0
SEQEND
  8
MERGEDLAYER-1
  0
POLYLINE
  8
MERGEDLAYER-1
 66
  1
 70
  0
 62
  7
 10
20.223177
 20
17.634282
 30
0.000000
  0
VERTEX
  8
MERGEDLAYER-1
 10
20.223177
 20
17.634282
 30
0.000000
  0
VERTEX
  8
MERGEDLAYER-1
 10
19.835869
 20
17.567434
 30
0.000000
  0
SEQEND
  8
MERGEDLAYER-1
  0
POLYLINE
  8
MERGEDLAYER-1
 66
  1
 70
  0
 62
  7
 10
20.403978
 20
17.983323
 30
0.000000
  0
VERTEX
  8
MERGEDLAYER-1
 10
20.403978
 20
17.983323
 30
0.000000
  0
VERTEX
  8
MERGEDLAYER-1
 10
19.835869
 20
17.567434
 30
0.000000
  0
SEQEND
  8
MERGEDLAYER-1
  0
POLYLINE
  8
MERGEDLAYER-1
 66
  1
 70
  1
 62
  7
  0
VERTEX
  8
MERGEDLAYER-1
 10
39.630277
 20
19.132404
 30
0.000000
  0
VERTEX
  8
MERGEDLAYER-1
 10
39.876897
 20
19.312833
 30
0.000000
  0
VERTEX
  8
MERGEDLAYER-1
 10
41.894212
 20
16.554603
 30
0.000000
  0
VERTEX
  8
MERGEDLAYER-1
 10
41.647597
 20
16.374174
 30
0.000000
  0
SEQEND
  8
MERGEDLAYER-1
  0
POLYLINE
  8
MERGEDLAYER-1
 66
  1
 70
  0
 62
  7
 10
40.736657
 20
17.919983
 30
0.000000
  0
VERTEX
  8
MERGEDLAYER-1
 10
40.736657
 20
17.919983
 30
0.000000
  0
VERTEX
  8
MERGEDLAYER-1
 10
39.803138
 20
19.188580
 30
0.000000
  0
SEQEND
  8
MERGEDLAYER-1
  0
POLYLINE
  8
MERGEDLAYER-1
 66
  1
 70
  0
 62
  7
 10
40.943167
 20
17.637817
 30
0.000000
  0
VERTEX
  8
MERGEDLAYER-1
 10
40.943167
 20
17.637817
 30
0.000000
  0
VERTEX
  8
MERGEDLAYER-1
 10
41.754573
 20
16.524916
 30
0.000000
  0
SEQEND
  8
MERGEDLAYER-1
  0
POLYLINE
  8
MERGEDLAYER-1
 66
  1
 70
  0
 62
  7
 10
40.736657
 20
17.919983
 30
0.000000
  0
VERTEX
  8
MERGEDLAYER-1
 10
40.736657
 20
17.919983
 30
0.000000
  0
VERTEX
  8
MERGEDLAYER-1
 10
41.123967
 20
17.986830
 30
0.000000
  0
SEQEND
  8
MERGEDLAYER-1
  0
POLYLINE
  8
MERGEDLAYER-1
 66
  1
 70
  0
 62
  7
 10
40.943167
 20
17.637817
 30
0.000000
  0
VERTEX
  8
MERGEDLAYER-1
 10
40.943167
 20
17.637817
 30
0.000000
  0
VERTEX
  8
MERGEDLAYER-1
 10
40.555857
 20
17.570942
 30
0.000000
  0
SEQEND
  8
MERGEDLAYER-1
  0
POLYLINE
  8
MERGEDLAYER-1
 66
  1
 70
  0
 62
  7
 10
41.123967
 20
17.986830
 30
0.000000
  0
VERTEX
  8
MERGEDLAYER-1
 10
41.123967
 20
17.986830
 30
0.000000
  0
VERTEX
  8
MERGEDLAYER-1
 10
40.555857
 20
17.570942
 30
0.000000
  0
SEQEND
  8
MERGEDLAYER-1
  0
TEXT
  8
MERGEDLAYER-1
 62
 65
 10
71.615385
 20
6.851102
 30
0.000000
 40
1.961538
  1
Mobil
 72
  5
 11
79.230769
 21
6.851102
 31
0.000000
  0
TEXT
  8
MERGEDLAYER-1
 62
  7
 10
79.230769
 20
6.851102
 30
0.000000
 40
1.961538
  1
Flex
 72
  5
 11
84.846154
 21
6.851102
 31
0.000000
  0
POLYLINE
  8
MERGEDLAYER-1
 66
  1
 70
  1
 62
 65
  0
VERTEX
  8
MERGEDLAYER-1
 10
61.472478
 20
6.403142
 30
0.000000
  0
VERTEX
  8
MERGEDLAYER-1
 10
84.285842
 20
6.403142
 30
0.000000
  0
VERTEX
  8
MERGEDLAYER-1
 10
84.285842
 20
6.155452
 30
0.000000
  0
VERTEX
  8
MERGEDLAYER-1
 10
61.472478
 20
6.155452
 30
0.000000
  0
SEQEND
  8
MERGEDLAYER-1
  0
POLYLINE
  8
MERGEDLAYER-1
 66
  1
 70
  1
 62
 65
  0
VERTEX
  8
MERGEDLAYER-1
 10
61.472478
 20
9.787372
 30
0.000000
  0
VERTEX
  8
MERGEDLAYER-1
 10
62.802974
 20
9.787372
 30
0.000000
  0
VERTEX
  8
MERGEDLAYER-1
 10
62.802974
 20
6.857286
 30
0.000000
  0
VERTEX
  8
MERGEDLAYER-1
 10
61.472478
 20
6.857286
 30
0.000000
  0
SEQEND
  8
MERGEDLAYER-1
  0
POLYLINE
  8
MERGEDLAYER-1
 66
  1
 70
  1
 62
 65
  0
VERTEX
  8
MERGEDLAYER-1
 10
63.240812
 20
9.787372
 30
0.000000
  0
VERTEX
  8
MERGEDLAYER-1
 10
64.571303
 20
9.787372
 30
0.000000
  0
VERTEX
  8
MERGEDLAYER-1
 10
64.571303
 20
6.857286
 30
0.000000
  0
VERTEX
  8
MERGEDLAYER-1
 10
63.240812
 20
6.857286
 30
0.000000
  0
SEQEND
  8
MERGEDLAYER-1
  0
POLYLINE
  8
MERGEDLAYER-1
 66
  1
 70
  1
 62
 65
  0
VERTEX
  8
MERGEDLAYER-1
 10
64.943378
 20
9.787372
 30
0.000000
  0
VERTEX
  8
MERGEDLAYER-1
 10
66.273841
 20
9.787372
 30
0.000000
  0
VERTEX
  8
MERGEDLAYER-1
 10
66.273841
 20
6.857286
 30
0.000000
  0
VERTEX
  8
MERGEDLAYER-1
 10
64.943378
 20
6.857286
 30
0.000000
  0
SEQEND
  8
MERGEDLAYER-1
  0
POLYLINE
  8
MERGEDLAYER-1
 66
  1
 70
  1
 62
 65
  0
VERTEX
  8
MERGEDLAYER-1
 10
66.662100
 20
9.787372
 30
0.000000
  0
VERTEX
  8
MERGEDLAYER-1
 10
68.007296
 20
9.787372
 30
0.000000
  0
VERTEX
  8
MERGEDLAYER-1
 10
68.007296
 20
6.857286
 30
0.000000
  0
VERTEX
  8
MERGEDLAYER-1
 10
66.662100
 20
6.857286
 30
0.000000
  0
SEQEND
  8
MERGEDLAYER-1
  0
POLYLINE
  8
MERGEDLAYER-1
 66
  1
 70
  1
 62
 65
  0
VERTEX
  8
MERGEDLAYER-1
 10
68.460083
 20
9.787372
 30
0.000000
  0
VERTEX
  8
MERGEDLAYER-1
 10
70.595323
 20
9.787372
 30
0.000000
  0
VERTEX
  8
MERGEDLAYER-1
 10
70.595323
 20
9.026973
 30
0.000000
  0
VERTEX
  8
MERGEDLAYER-1
 10
68.460083
 20
9.026973
 30
0.000000
  0
SEQEND
  8
MERGEDLAYER-1
  0
POLYLINE
  8
MERGEDLAYER-1
 66
  1
 70
  1
 62
 65
  0
VERTEX
  8
MERGEDLAYER-1
 10
68.458543
 20
8.501751
 30
0.000000
  0
VERTEX
  8
MERGEDLAYER-1
 10
70.226412
 20
8.501751
 30
0.000000
  0
VERTEX
  8
MERGEDLAYER-1
 10
70.226412
 20
7.739140
 30
0.000000
  0
VERTEX
  8
MERGEDLAYER-1
 10
68.458543
 20
7.739140
 30
0.000000
  0
SEQEND
  8
MERGEDLAYER-1
  0
TEXT
  8
MERGEDLAYER-1
 62
  7
 10
61.461538
 20
4.774179
 30
0.000000
 40
0.750000
  1
NEW YORK.TORONTO.QUEBEC.LONDON.PARIS
 72
  5
 11
84.769231
 21
4.774179
 31
0.000000
  0
TEXT
  8
MERGEDLAYER-1
 62
  7
 10
30.076923
 20
59.851102
 30
0.000000
 40
0.576923
  1
GC TO PROVIDE
 72
  5
 11
36.692308
 21
59.851102
 31
0.000000
  0
TEXT
  8
MERGEDLAYER-1
 62
  7
 10
30.076923
 20
59.004949
 30
0.000000
 40
0.576923
  1
ACCESS PANEL
 72
  5
 11
36.538462
 21
59.004949
 31
0.000000
  0
TEXT
  8
MERGEDLAYER-1
 62
  7
 10
30.076923
 20
58.158795
 30
0.000000
 40
0.576923
  1
24" x 24"
 72
  5
 11
33.769231
 21
58.158795
 31
0.000000
  0
TEXT
  8
MERGEDLAYER-1
 62
  7
 10
30.076923
 20
57.312641
 30
0.000000
 40
0.576923
  1
(610x610mm)
 72
  5
 11
35.307692
 21
57.312641
 31
0.000000
  0
TEXT
  8
MERGEDLAYER-1
 62
  7
 10
30.076923
 20
56.466487
 30
0.000000
 40
0.576923
  1
IN CEILING UNDER
 72
  5
 11
37.538462
 21
56.466487
 31
0.000000
  0
TEXT
  8
MERGEDLAYER-1
 62
  7
 10
30.076923
 20
55.620333
 30
0.000000
 40
0.576923
  1
MOTOR HEAD
 72
  5
 11
35.692308
 21
55.620333
 31
0.000000
  0
POLYLINE
  8
MERGEDLAYER-1
 66
  1
 70
  0
 62
  7
 10
18.082473
 20
63.445341
 30
0.000000
  0
VERTEX
  8
MERGEDLAYER-1
 10
18.082473
 20
63.445341
 30
0.000000
  0
VERTEX
  8
MERGEDLAYER-1
 10
18.096183
 20
61.367558
 30
0.000000
  0
SEQEND
  8
MERGEDLAYER-1
  0
POLYLINE
  8
MERGEDLAYER-1
 66
  1
 70
  1
 62
  7
  0
VERTEX
  8
MERGEDLAYER-1
 10
18.082342
 20
63.465027
 30
0.000000
  0
VERTEX
  8
MERGEDLAYER-1
 10
17.854114
 20
63.078895
 30
0.000000
  0
VERTEX
  8
MERGEDLAYER-1
 10
18.084879
 20
63.080416
 30
0.000000
  0
VERTEX
  8
MERGEDLAYER-1
 10
18.315643
 20
63.081942
 30
0.000000
  0
VERTEX
  8
MERGEDLAYER-1
 10
18.082342
 20
63.465027
 30
0.000000
  0
SEQEND
  8
MERGEDLAYER-1
  0
TEXT
  8
MERGEDLAYER-1
 62
  7
 10
18.307692
 20
61.697256
 30
0.000000
 40
0.576923
  1
STRUCTURE
 72
  5
 11
23.384615
 21
61.697256
 31
0.000000
  0
TEXT
  8
MERGEDLAYER-1
 62
  7
 10
51.769231
 20
54.928025
 30
0.000000
 40
0.576923
  1
6" MIN
 50
90.000000
 72
  5
 11
51.769231
 21
57.697256
 31
0.000000
  0
TEXT
  8
MERGEDLAYER-1
 62
  7
 10
53.000000
 20
54.466487
 30
0.000000
 40
0.576923
  1
152 mm
 50
90.000000
 72
  5
 11
53.000000
 21
57.697256
 31
0.000000
  0
LINE
  8
MERGEDLAYER-1
 62
  7
 10
52.192308
 20
52.812641
 30
0.000000
 11
52.192308
 21
54.643254
 31
0.000000
  0
LINE
  8
MERGEDLAYER-1
 62
  7
 10
50.000000
 20
52.812641
 30
0.000000
 11
53.192308
 21
52.812641
 31
0.000000
  0
LINE
  8
MERGEDLAYER-1
 62
  7
 10
50.714257
 20
54.643254
 30
0.000000
 11
53.192308
 21
54.643254
 31
0.000000
  0
LINE
  8
MERGEDLAYER-1
 62
  7
 10
52.192308
 20
55.984680
 30
0.000000
 11
52.192308
 21
52.812641
 31
0.000000
  0
LINE
  8
MERGEDLAYER-1
 62
  7
 10
52.029137
 20
52.975821
 30
0.000000
 11
52.355483
 21
52.649461
 31
0.000000
  0
LINE
  8
MERGEDLAYER-1
 62
  7
 10
52.029137
 20
54.806434
 30
0.000000
 11
52.355483
 21
54.480070
 31
0.000000
  0
TEXT
  8
MERGEDLAYER-1
 62
  7
 10
51.664692
 20
55.359988
 30
0.000000
 40
0.346154
  1
 
 50
90.000000
  0
TEXT
  8
MERGEDLAYER-1
 62
  7
 10
53.846154
 20
53.389564
 30
0.000000
 40
0.461538
  1
FINISHED CEILING
 72
  5
 11
59.615385
 21
53.389564
 31
0.000000
  0
TEXT
  8
MERGEDLAYER-1
 62
  7
 10
49.153846
 20
51.389564
 30
0.000000
 40
0.576923
  1
6" MIN
 72
  5
 11
51.923077
 21
51.389564
 31
0.000000
  0
TEXT
  8
MERGEDLAYER-1
 62
  7
 10
48.692308
 20
50.158795
 30
0.000000
 40
0.576923
  1
152 mm
 72
  5
 11
51.923077
 21
50.158795
 31
0.000000
  0
POLYLINE
  8
MERGEDLAYER-1
 66
  1
 70
  0
 62
  7
 10
51.853431
 20
51.051072
 30
0.000000
  0
VERTEX
  8
MERGEDLAYER-1
 10
51.853431
 20
51.051072
 30
0.000000
  0
VERTEX
  8
MERGEDLAYER-1
 10
47.135733
 20
51.051072
 30
0.000000
  0
SEQEND
  8
MERGEDLAYER-1
  0
LINE
  8
MERGEDLAYER-1
 62
  7
 10
46.972558
 20
50.887893
 30
0.000000
 11
47.298913
 21
51.214252
 31
0.000000
  0
POLYLINE
  8
MERGEDLAYER-1
 66
  1
 70
  0
 62
  7
 10
49.065542
 20
50.109244
 30
0.000000
  0
VERTEX
  8
MERGEDLAYER-1
 10
49.065542
 20
50.109244
 30
0.000000
  0
VERTEX
  8
MERGEDLAYER-1
 10
49.065542
 20
52.658419
 30
0.000000
  0
SEQEND
  8
MERGEDLAYER-1
  0
POLYLINE
  8
MERGEDLAYER-1
 66
  1
 70
  0
 62
  7
 10
47.135733
 20
50.094069
 30
0.000000
  0
VERTEX
  8
MERGEDLAYER-1
 10
47.135733
 20
50.094069
 30
0.000000
  0
VERTEX
  8
MERGEDLAYER-1
 10
47.135733
 20
52.661682
 30
0.000000
  0
SEQEND
  8
MERGEDLAYER-1
  0
POLYLINE
  8
MERGEDLAYER-1
 66
  1
 70
  1
 62
  7
  0
VERTEX
  8
MERGEDLAYER-1
 10
55.036912
 20
44.593910
 30
0.000000
  0
VERTEX
  8
MERGEDLAYER-1
 10
55.036912
 20
51.378995
 30
0.000000
  0
VERTEX
  8
MERGEDLAYER-1
 10
58.269005
 20
51.378995
 30
0.000000
  0
VERTEX
  8
MERGEDLAYER-1
 10
58.269005
 20
44.593910
 30
0.000000
  0
SEQEND
  8
MERGEDLAYER-1
  0
POLYLINE
  8
MERGEDLAYER-1
 66
  1
 70
  0
 62
  7
 40
0.230769
 41
0.230769
 10
58.066970
 20
51.334942
 30
0.000000
  0
VERTEX
  8
MERGEDLAYER-1
 10
58.066970
 20
51.334942
 30
0.000000
  0
VERTEX
  8
MERGEDLAYER-1
 10
58.066970
 20
44.593910
 30
0.000000
  0
SEQEND
  8
MERGEDLAYER-1
  0
POLYLINE
  8
MERGEDLAYER-1
 66
  1
 70
  0
 62
  7
 10
8.548550
 20
8.926373
 30
0.000000
  0
VERTEX
  8
MERGEDLAYER-1
 10
8.548550
 20
8.926373
 30
0.000000
  0
VERTEX
  8
MERGEDLAYER-1
 10
11.924522
 20
11.937106
 30
0.000000
  0
SEQEND
  8
MERGEDLAYER-1
  0
POLYLINE
  8
MERGEDLAYER-1
 66
  1
 70
  1
 62
  7
  0
VERTEX
  8
MERGEDLAYER-1
 10
11.939214
 20
11.950205
 30
0.000000
  0
VERTEX
  8
MERGEDLAYER-1
 10
11.805763
 20
11.521982
 30
0.000000
  0
VERTEX
  8
MERGEDLAYER-1
 10
11.652167
 20
11.694209
 30
0.000000
  0
VERTEX
  8
MERGEDLAYER-1
 10
11.498570
 20
11.866436
 30
0.000000
  0
VERTEX
  8
MERGEDLAYER-1
 10
11.939214
 20
11.950205
 30
0.000000
  0
SEQEND
  8
MERGEDLAYER-1
  0
LINE
  8
MERGEDLAYER-1
 62
  7
 10
50.204327
 20
17.059941
 30
0.000000
 11
50.204327
 21
18.646057
 31
0.000000
  0
LINE
  8
MERGEDLAYER-1
 62
  7
 10
49.805072
 20
17.040260
 30
0.000000
 11
51.204327
 21
17.040260
 31
0.000000
  0
LINE
  8
MERGEDLAYER-1
 62
  7
 10
49.805072
 20
18.665743
 30
0.000000
 11
51.204327
 21
18.665743
 31
0.000000
  0
POLYLINE
  8
MERGEDLAYER-1
 66
  1
 70
  1
 62
  7
  0
VERTEX
  8
MERGEDLAYER-1
 10
50.204327
 20
17.040260
 30
0.000000
  0
VERTEX
  8
MERGEDLAYER-1
 10
50.435096
 20
17.424875
 30
0.000000
  0
VERTEX
  8
MERGEDLAYER-1
 10
50.204327
 20
17.424875
 30
0.000000
  0
VERTEX
  8
MERGEDLAYER-1
 10
49.973558
 20
17.424875
 30
0.000000
  0
VERTEX
  8
MERGEDLAYER-1
 10
50.204327
 20
17.040260
 30
0.000000
  0
SEQEND
  8
MERGEDLAYER-1
  0
POLYLINE
  8
MERGEDLAYER-1
 66
  1
 70
  1
 62
  7
  0
VERTEX
  8
MERGEDLAYER-1
 10
50.204327
 20
18.665743
 30
0.000000
  0
VERTEX
  8
MERGEDLAYER-1
 10
50.435096
 20
18.281128
 30
0.000000
  0
VERTEX
  8
MERGEDLAYER-1
 10
50.204327
 20
18.281128
 30
0.000000
  0
VERTEX
  8
MERGEDLAYER-1
 10
49.973558
 20
18.281128
 30
0.000000
  0
VERTEX
  8
MERGEDLAYER-1
 10
50.204327
 20
18.665743
 30
0.000000
  0
SEQEND
  8
MERGEDLAYER-1
  0
TEXT
  8
MERGEDLAYER-1
 62
  7
 10
51.197364
 20
17.821364
 30
0.000000
 40
0.692308
  1
 
 50
90.000000
  0
TEXT
  8
MERGEDLAYER-1
 62
  7
 10
51.153846
 20
20.235718
 30
0.000000
 40
0.750000
  1
2 3/4" - 70mm
 72
  5
 11
57.846154
 21
20.235718
 31
0.000000
  0
TEXT
  8
MERGEDLAYER-1
 62
  7
 10
51.076923
 20
17.543410
 30
0.000000
 40
0.750000
  1
1 5/8" - 41mm
 72
  5
 11
57.769231
 21
17.543410
 31
0.000000
  0
POLYLINE
  8
MERGEDLAYER-1
 66
  1
 70
  0
 62
  7
 10
13.655392
 20
18.703857
 30
0.000000
  0
VERTEX
  8
MERGEDLAYER-1
 10
13.655392
 20
18.703857
 30
0.000000
  0
VERTEX
  8
MERGEDLAYER-1
 10
16.088078
 20
22.238122
 30
0.000000
  0
SEQEND
  8
MERGEDLAYER-1
  0
POLYLINE
  8
MERGEDLAYER-1
 66
  1
 70
  1
 62
  7
  0
VERTEX
  8
MERGEDLAYER-1
 10
13.644231
 20
18.687641
 30
0.000000
  0
VERTEX
  8
MERGEDLAYER-1
 10
14.052392
 20
18.873620
 30
0.000000
  0
VERTEX
  8
MERGEDLAYER-1
 10
13.862300
 20
19.004460
 30
0.000000
  0
VERTEX
  8
MERGEDLAYER-1
 10
13.672208
 20
19.135301
 30
0.000000
  0
VERTEX
  8
MERGEDLAYER-1
 10
13.644231
 20
18.687641
 30
0.000000
  0
SEQEND
  8
MERGEDLAYER-1
  0
TEXT
  8
MERGEDLAYER-1
 62
  7
 10
53.692308
 20
33.851102
 30
0.000000
 40
0.576923
  1
BOTTOM BAR
 72
  5
 11
59.230769
 21
33.851102
 31
0.000000
  0
POLYLINE
  8
MERGEDLAYER-1
 66
  1
 70
  0
 62
  7
 10
56.550401
 20
32.190193
 30
0.000000
  0
VERTEX
  8
MERGEDLAYER-1
 10
56.550401
 20
32.190193
 30
0.000000
  0
VERTEX
  8
MERGEDLAYER-1
 10
58.083642
 20
32.190193
 30
0.000000
  0
SEQEND
  8
MERGEDLAYER-1
  0
POLYLINE
  8
MERGEDLAYER-1
 66
  1
 70
  0
 62
  7
 10
58.127728
 20
32.146109
 30
0.000000
  0
VERTEX
  8
MERGEDLAYER-1
 10
58.127728
 20
32.146109
 30
0.000000
  0
VERTEX
  8
MERGEDLAYER-1
 10
58.127728
 20
28.636681
 30
0.000000
  0
SEQEND
  8
MERGEDLAYER-1
  0
POLYLINE
  8
MERGEDLAYER-1
 66
  1
 70
  0
 62
  7
 10
58.083642
 20
28.592597
 30
0.000000
  0
VERTEX
  8
MERGEDLAYER-1
 10
58.083642
 20
28.592597
 30
0.000000
  0
VERTEX
  8
MERGEDLAYER-1
 10
56.550401
 20
28.592597
 30
0.000000
  0
SEQEND
  8
MERGEDLAYER-1
  0
POLYLINE
  8
MERGEDLAYER-1
 66
  1
 70
  0
 62
  7
 10
56.506319
 20
28.636681
 30
0.000000
  0
VERTEX
  8
MERGEDLAYER-1
 10
56.506319
 20
28.636681
 30
0.000000
  0
VERTEX
  8
MERGEDLAYER-1
 10
56.506319
 20
32.146109
 30
0.000000
  0
SEQEND
  8
MERGEDLAYER-1
  0
ARC
  8
MERGEDLAYER-1
 62
  7
 10
56.550401
 20
32.146109
 30
0.000000
 40
0.044083
 50
90.000000
 51
180.000000
  0
ARC
  8
MERGEDLAYER-1
 62
  7
 10
56.550401
 20
28.636681
 30
0.000000
 40
0.044083
 50
180.000000
 51
270.000000
  0
ARC
  8
MERGEDLAYER-1
 62
  7
 10
58.083642
 20
28.636681
 30
0.000000
 40
0.044083
 50
270.000000
 51
0.000000
  0
ARC
  8
MERGEDLAYER-1
 62
  7
 10
58.083642
 20
32.146109
 30
0.000000
 40
0.044083
 50
0.000000
 51
90.000000
  0
POLYLINE
  8
MERGEDLAYER-1
 66
  1
 70
  0
 62
  7
 10
56.903410
 20
28.502791
 30
0.000000
  0
VERTEX
  8
MERGEDLAYER-1
 10
56.903410
 20
28.502791
 30
0.000000
  0
VERTEX
  8
MERGEDLAYER-1
 10
57.036931
 20
28.502791
 30
0.000000
  0
SEQEND
  8
MERGEDLAYER-1
  0
POLYLINE
  8
MERGEDLAYER-1
 66
  1
 70
  0
 62
  7
 10
56.903410
 20
28.587963
 30
0.000000
  0
VERTEX
  8
MERGEDLAYER-1
 10
56.903410
 20
28.587963
 30
0.000000
  0
VERTEX
  8
MERGEDLAYER-1
 10
56.903410
 20
28.502791
 30
0.000000
  0
SEQEND
  8
MERGEDLAYER-1
  0
POLYLINE
  8
MERGEDLAYER-1
 66
  1
 70
  0
 62
  7
 10
56.512667
 20
28.587963
 30
0.000000
  0
VERTEX
  8
MERGEDLAYER-1
 10
56.512667
 20
28.587963
 30
0.000000
  0
VERTEX
  8
MERGEDLAYER-1
 10
56.903410
 20
28.587963
 30
0.000000
  0
SEQEND
  8
MERGEDLAYER-1
  0
POLYLINE
  8
MERGEDLAYER-1
 66
  1
 70
  0
 62
  7
 10
56.512667
 20
28.587963
 30
0.000000
  0
VERTEX
  8
MERGEDLAYER-1
 10
56.512667
 20
28.587963
 30
0.000000
  0
VERTEX
  8
MERGEDLAYER-1
 10
56.512667
 20
28.558157
 30
0.000000
  0
SEQEND
  8
MERGEDLAYER-1
  0
POLYLINE
  8
MERGEDLAYER-1
 66
  1
 70
  0
 62
  7
 10
56.512644
 20
28.558157
 30
0.000000
  0
VERTEX
  8
MERGEDLAYER-1
 10
56.512644
 20
28.558157
 30
0.000000
  0
VERTEX
  8
MERGEDLAYER-1
 10
56.547448
 20
28.471177
 30
0.000000
  0
VERTEX
  8
MERGEDLAYER-1
 10
56.638202
 20
28.432364
 30
0.000000
  0
SEQEND
  8
MERGEDLAYER-1
  0
POLYLINE
  8
MERGEDLAYER-1
 66
  1
 70
  0
 62
  7
 10
57.995840
 20
28.432357
 30
0.000000
  0
VERTEX
  8
MERGEDLAYER-1
 10
57.995840
 20
28.432357
 30
0.000000
  0
VERTEX
  8
MERGEDLAYER-1
 10
56.638202
 20
28.432357
 30
0.000000
  0
SEQEND
  8
MERGEDLAYER-1
  0
POLYLINE
  8
MERGEDLAYER-1
 66
  1
 70
  0
 62
  7
 10
57.995840
 20
28.432364
 30
0.000000
  0
VERTEX
  8
MERGEDLAYER-1
 10
57.995840
 20
28.432364
 30
0.000000
  0
VERTEX
  8
MERGEDLAYER-1
 10
58.082660
 20
28.471177
 30
0.000000
  0
VERTEX
  8
MERGEDLAYER-1
 10
58.121404
 20
28.558157
 30
0.000000
  0
SEQEND
  8
MERGEDLAYER-1
  0
POLYLINE
  8
MERGEDLAYER-1
 66
  1
 70
  0
 62
  7
 10
58.121418
 20
28.587963
 30
0.000000
  0
VERTEX
  8
MERGEDLAYER-1
 10
58.121418
 20
28.587963
 30
0.000000
  0
VERTEX
  8
MERGEDLAYER-1
 10
58.121418
 20
28.558157
 30
0.000000
  0
SEQEND
  8
MERGEDLAYER-1
  0
POLYLINE
  8
MERGEDLAYER-1
 66
  1
 70
  0
 62
  7
 10
58.121418
 20
28.587963
 30
0.000000
  0
VERTEX
  8
MERGEDLAYER-1
 10
58.121418
 20
28.587963
 30
0.000000
  0
VERTEX
  8
MERGEDLAYER-1
 10
57.730671
 20
28.587963
 30
0.000000
  0
SEQEND
  8
MERGEDLAYER-1
  0
POLYLINE
  8
MERGEDLAYER-1
 66
  1
 70
  0
 62
  7
 10
57.730671
 20
28.587963
 30
0.000000
  0
VERTEX
  8
MERGEDLAYER-1
 10
57.730671
 20
28.587963
 30
0.000000
  0
VERTEX
  8
MERGEDLAYER-1
 10
57.730671
 20
28.502791
 30
0.000000
  0
SEQEND
  8
MERGEDLAYER-1
  0
POLYLINE
  8
MERGEDLAYER-1
 66
  1
 70
  0
 62
  7
 10
57.730671
 20
28.502791
 30
0.000000
  0
VERTEX
  8
MERGEDLAYER-1
 10
57.730671
 20
28.502791
 30
0.000000
  0
VERTEX
  8
MERGEDLAYER-1
 10
57.597144
 20
28.502791
 30
0.000000
  0
SEQEND
  8
MERGEDLAYER-1
  0
POLYLINE
  8
MERGEDLAYER-1
 66
  1
 70
  0
 62
  7
 10
57.597144
 20
28.502791
 30
0.000000
  0
VERTEX
  8
MERGEDLAYER-1
 10
57.597144
 20
28.502791
 30
0.000000
  0
VERTEX
  8
MERGEDLAYER-1
 10
57.597144
 20
28.755815
 30
0.000000
  0
SEQEND
  8
MERGEDLAYER-1
  0
POLYLINE
  8
MERGEDLAYER-1
 66
  1
 70
  0
 62
  7
 10
57.628535
 20
28.787260
 30
0.000000
  0
VERTEX
  8
MERGEDLAYER-1
 10
57.628535
 20
28.787260
 30
0.000000
  0
VERTEX
  8
MERGEDLAYER-1
 10
57.597140
 20
28.755815
 30
0.000000
  0
SEQEND
  8
MERGEDLAYER-1
  0
POLYLINE
  8
MERGEDLAYER-1
 66
  1
 70
  0
 62
  7
 10
57.628535
 20
28.787241
 30
0.000000
  0
VERTEX
  8
MERGEDLAYER-1
 10
57.628535
 20
28.787241
 30
0.000000
  0
VERTEX
  8
MERGEDLAYER-1
 10
57.662654
 20
28.787241
 30
0.000000
  0
SEQEND
  8
MERGEDLAYER-1
  0
POLYLINE
  8
MERGEDLAYER-1
 66
  1
 70
  0
 62
  7
 10
57.662654
 20
28.787241
 30
0.000000
  0
VERTEX
  8
MERGEDLAYER-1
 10
57.662654
 20
28.787241
 30
0.000000
  0
VERTEX
  8
MERGEDLAYER-1
 10
57.686509
 20
28.811138
 30
0.000000
  0
SEQEND
  8
MERGEDLAYER-1
  0
POLYLINE
  8
MERGEDLAYER-1
 66
  1
 70
  0
 62
  7
 10
57.686509
 20
28.811005
 30
0.000000
  0
VERTEX
  8
MERGEDLAYER-1
 10
57.686509
 20
28.811005
 30
0.000000
  0
VERTEX
  8
MERGEDLAYER-1
 10
57.662654
 20
28.834905
 30
0.000000
  0
SEQEND
  8
MERGEDLAYER-1
  0
POLYLINE
  8
MERGEDLAYER-1
 66
  1
 70
  0
 62
  7
 10
57.594628
 20
28.834888
 30
0.000000
  0
VERTEX
  8
MERGEDLAYER-1
 10
57.594628
 20
28.834888
 30
0.000000
  0
VERTEX
  8
MERGEDLAYER-1
 10
57.662654
 20
28.834888
 30
0.000000
  0
SEQEND
  8
MERGEDLAYER-1
  0
POLYLINE
  8
MERGEDLAYER-1
 66
  1
 70
  0
 62
  7
 10
57.594628
 20
28.834895
 30
0.000000
  0
VERTEX
  8
MERGEDLAYER-1
 10
57.594628
 20
28.834895
 30
0.000000
  0
VERTEX
  8
MERGEDLAYER-1
 10
57.531846
 20
28.772001
 30
0.000000
  0
SEQEND
  8
MERGEDLAYER-1
  0
POLYLINE
  8
MERGEDLAYER-1
 66
  1
 70
  0
 62
  7
 10
57.531851
 20
28.502791
 30
0.000000
  0
VERTEX
  8
MERGEDLAYER-1
 10
57.531851
 20
28.502791
 30
0.000000
  0
VERTEX
  8
MERGEDLAYER-1
 10
57.531851
 20
28.772001
 30
0.000000
  0
SEQEND
  8
MERGEDLAYER-1
  0
POLYLINE
  8
MERGEDLAYER-1
 66
  1
 70
  0
 62
  7
 10
57.102210
 20
28.502791
 30
0.000000
  0
VERTEX
  8
MERGEDLAYER-1
 10
57.102210
 20
28.502791
 30
0.000000
  0
VERTEX
  8
MERGEDLAYER-1
 10
57.531851
 20
28.502791
 30
0.000000
  0
SEQEND
  8
MERGEDLAYER-1
  0
POLYLINE
  8
MERGEDLAYER-1
 66
  1
 70
  0
 62
  7
 10
57.102210
 20
28.502791
 30
0.000000
  0
VERTEX
  8
MERGEDLAYER-1
 10
57.102210
 20
28.502791
 30
0.000000
  0
VERTEX
  8
MERGEDLAYER-1
 10
57.102210
 20
28.772001
 30
0.000000
  0
SEQEND
  8
MERGEDLAYER-1
  0
POLYLINE
  8
MERGEDLAYER-1
 66
  1
 70
  0
 62
  7
 10
57.102210
 20
28.772001
 30
0.000000
  0
VERTEX
  8
MERGEDLAYER-1
 10
57.102210
 20
28.772001
 30
0.000000
  0
VERTEX
  8
MERGEDLAYER-1
 10
57.039433
 20
28.834895
 30
0.000000
  0
SEQEND
  8
MERGEDLAYER-1
  0
POLYLINE
  8
MERGEDLAYER-1
 66
  1
 70
  0
 62
  7
 10
57.039433
 20
28.834888
 30
0.000000
  0
VERTEX
  8
MERGEDLAYER-1
 10
57.039433
 20
28.834888
 30
0.000000
  0
VERTEX
  8
MERGEDLAYER-1
 10
56.971393
 20
28.834888
 30
0.000000
  0
SEQEND
  8
MERGEDLAYER-1
  0
POLYLINE
  8
MERGEDLAYER-1
 66
  1
 70
  0
 62
  7
 10
56.971393
 20
28.834905
 30
0.000000
  0
VERTEX
  8
MERGEDLAYER-1
 10
56.971393
 20
28.834905
 30
0.000000
  0
VERTEX
  8
MERGEDLAYER-1
 10
56.947533
 20
28.811005
 30
0.000000
  0
SEQEND
  8
MERGEDLAYER-1
  0
POLYLINE
  8
MERGEDLAYER-1
 66
  1
 70
  0
 62
  7
 10
56.947557
 20
28.811005
 30
0.000000
  0
VERTEX
  8
MERGEDLAYER-1
 10
56.947557
 20
28.811005
 30
0.000000
  0
VERTEX
  8
MERGEDLAYER-1
 10
56.947557
 20
28.811138
 30
0.000000
  0
SEQEND
  8
MERGEDLAYER-1
  0
POLYLINE
  8
MERGEDLAYER-1
 66
  1
 70
  0
 62
  7
 10
56.947533
 20
28.811138
 30
0.000000
  0
VERTEX
  8
MERGEDLAYER-1
 10
56.947533
 20
28.811138
 30
0.000000
  0
VERTEX
  8
MERGEDLAYER-1
 10
56.971393
 20
28.787241
 30
0.000000
  0
SEQEND
  8
MERGEDLAYER-1
  0
POLYLINE
  8
MERGEDLAYER-1
 66
  1
 70
  0
 62
  7
 10
57.005531
 20
28.787241
 30
0.000000
  0
VERTEX
  8
MERGEDLAYER-1
 10
57.005531
 20
28.787241
 30
0.000000
  0
VERTEX
  8
MERGEDLAYER-1
 10
56.971393
 20
28.787241
 30
0.000000
  0
SEQEND
  8
MERGEDLAYER-1
  0
POLYLINE
  8
MERGEDLAYER-1
 66
  1
 70
  0
 62
  7
 10
57.036922
 20
28.755815
 30
0.000000
  0
VERTEX
  8
MERGEDLAYER-1
 10
57.036922
 20
28.755815
 30
0.000000
  0
VERTEX
  8
MERGEDLAYER-1
 10
57.005531
 20
28.787260
 30
0.000000
  0
SEQEND
  8
MERGEDLAYER-1
  0
POLYLINE
  8
MERGEDLAYER-1
 66
  1
 70
  0
 62
  7
 10
57.036931
 20
28.502791
 30
0.000000
  0
VERTEX
  8
MERGEDLAYER-1
 10
57.036931
 20
28.502791
 30
0.000000
  0
VERTEX
  8
MERGEDLAYER-1
 10
57.036931
 20
28.755815
 30
0.000000
  0
SEQEND
  8
MERGEDLAYER-1
  0
POLYLINE
  8
MERGEDLAYER-1
 66
  1
 70
  1
 62
  7
 10
57.017869
 20
29.483945
 30
0.000000
  0
VERTEX
  8
MERGEDLAYER-1
 10
57.017869
 20
29.483945
 30
0.000000
  0
VERTEX
  8
MERGEDLAYER-1
 10
57.017869
 20
29.640364
 30
0.000000
  0
VERTEX
  8
MERGEDLAYER-1
 10
56.706853
 20
29.640364
 30
0.000000
  0
VERTEX
  8
MERGEDLAYER-1
 10
56.706853
 20
31.907992
 30
0.000000
  0
VERTEX
  8
MERGEDLAYER-1
 10
57.955937
 20
31.907992
 30
0.000000
  0
VERTEX
  8
MERGEDLAYER-1
 10
57.955937
 20
29.640364
 30
0.000000
  0
VERTEX
  8
MERGEDLAYER-1
 10
57.644893
 20
29.640364
 30
0.000000
  0
VERTEX
  8
MERGEDLAYER-1
 10
57.644893
 20
29.483945
 30
0.000000
  0
VERTEX
  8
MERGEDLAYER-1
 10
57.955937
 20
29.483945
 30
0.000000
  0
VERTEX
  8
MERGEDLAYER-1
 10
57.955937
 20
28.863866
 30
0.000000
  0
VERTEX
  8
MERGEDLAYER-1
 10
56.706853
 20
28.863866
 30
0.000000
  0
VERTEX
  8
MERGEDLAYER-1
 10
56.706853
 20
29.483945
 30
0.000000
  0
SEQEND
  8
MERGEDLAYER-1
  0
POLYLINE
  8
MERGEDLAYER-1
 66
  1
 70
  0
 62
  7
 10
57.553871
 20
30.706320
 30
0.000000
  0
VERTEX
  8
MERGEDLAYER-1
 10
57.553871
 20
30.706320
 30
0.000000
  0
VERTEX
  8
MERGEDLAYER-1
 10
57.488131
 20
30.865312
 30
0.000000
  0
VERTEX
  8
MERGEDLAYER-1
 10
57.329426
 20
30.931171
 30
0.000000
  0
VERTEX
  8
MERGEDLAYER-1
 10
57.170720
 20
30.865312
 30
0.000000
  0
VERTEX
  8
MERGEDLAYER-1
 10
57.104980
 20
30.706320
 30
0.000000
  0
VERTEX
  8
MERGEDLAYER-1
 10
57.170720
 20
30.547330
 30
0.000000
  0
VERTEX
  8
MERGEDLAYER-1
 10
57.329426
 20
30.481469
 30
0.000000
  0
VERTEX
  8
MERGEDLAYER-1
 10
57.488131
 20
30.547330
 30
0.000000
  0
VERTEX
  8
MERGEDLAYER-1
 10
57.553871
 20
30.706320
 30
0.000000
  0
SEQEND
  8
MERGEDLAYER-1
  0
POLYLINE
  8
MERGEDLAYER-1
 66
  1
 70
  0
 62
  7
 10
57.721736
 20
31.907992
 30
0.000000
  0
VERTEX
  8
MERGEDLAYER-1
 10
57.721736
 20
31.907992
 30
0.000000
  0
VERTEX
  8
MERGEDLAYER-1
 10
57.721736
 20
29.642374
 30
0.000000
  0
SEQEND
  8
MERGEDLAYER-1
  0
POLYLINE
  8
MERGEDLAYER-1
 66
  1
 70
  0
 62
  7
 10
56.941054
 20
31.907992
 30
0.000000
  0
VERTEX
  8
MERGEDLAYER-1
 10
56.941054
 20
31.907992
 30
0.000000
  0
VERTEX
  8
MERGEDLAYER-1
 10
56.941054
 20
29.642374
 30
0.000000
  0
SEQEND
  8
MERGEDLAYER-1
  0
POLYLINE
  8
MERGEDLAYER-1
 66
  1
 70
  0
 62
  7
 10
57.719595
 20
29.486507
 30
0.000000
  0
VERTEX
  8
MERGEDLAYER-1
 10
57.719595
 20
29.486507
 30
0.000000
  0
VERTEX
  8
MERGEDLAYER-1
 10
57.719595
 20
28.863270
 30
0.000000
  0
SEQEND
  8
MERGEDLAYER-1
  0
POLYLINE
  8
MERGEDLAYER-1
 66
  1
 70
  0
 62
  7
 10
56.938918
 20
29.486507
 30
0.000000
  0
VERTEX
  8
MERGEDLAYER-1
 10
56.938918
 20
29.486507
 30
0.000000
  0
VERTEX
  8
MERGEDLAYER-1
 10
56.938918
 20
28.863270
 30
0.000000
  0
SEQEND
  8
MERGEDLAYER-1
  0
TEXT
  8
MERGEDLAYER-1
 62
  7
 10
55.230769
 20
32.851102
 30
0.000000
 40
0.461538
  1
EXT.
 72
  5
 11
56.923077
 21
32.851102
 31
0.000000
  0
TEXT
  8
MERGEDLAYER-1
 62
  7
 10
58.076923
 20
32.851102
 30
0.000000
 40
0.461538
  1
INT.
 72
  5
 11
59.615385
 21
32.851102
 31
0.000000
  0
POLYLINE
  8
MERGEDLAYER-1
 66
  1
 70
  0
 62
  7
 10
57.332515
 20
32.347274
 30
0.000000
  0
VERTEX
  8
MERGEDLAYER-1
 10
57.332515
 20
32.347274
 30
0.000000
  0
VERTEX
  8
MERGEDLAYER-1
 10
57.332515
 20
33.281870
 30
0.000000
  0
SEQEND
  8
MERGEDLAYER-1
  0
POLYLINE
  8
MERGEDLAYER-1
 66
  1
 70
  1
 62
  7
 10
57.269221
 20
32.554953
 30
0.000000
  0
VERTEX
  8
MERGEDLAYER-1
 10
57.269221
 20
32.554953
 30
0.000000
  0
VERTEX
  8
MERGEDLAYER-1
 10
57.235272
 20
32.554953
 30
0.000000
  0
VERTEX
  8
MERGEDLAYER-1
 10
57.213388
 20
32.543605
 30
0.000000
  0
VERTEX
  8
MERGEDLAYER-1
 10
57.191510
 20
32.522773
 30
0.000000
  0
VERTEX
  8
MERGEDLAYER-1
 10
57.174842
 20
32.502981
 30
0.000000
  0
VERTEX
  8
MERGEDLAYER-1
 10
57.158175
 20
32.477978
 30
0.000000
  0
VERTEX
  8
MERGEDLAYER-1
 10
57.145677
 20
32.450895
 30
0.000000
  0
VERTEX
  8
MERGEDLAYER-1
 10
57.138385
 20
32.425896
 30
0.000000
  0
VERTEX
  8
MERGEDLAYER-1
 10
57.134221
 20
32.391522
 30
0.000000
  0
VERTEX
  8
MERGEDLAYER-1
 10
57.134221
 20
32.366523
 30
0.000000
  0
VERTEX
  8
MERGEDLAYER-1
 10
57.137836
 20
32.343346
 30
0.000000
  0
VERTEX
  8
MERGEDLAYER-1
 10
57.137348
 20
32.321728
 30
0.000000
  0
VERTEX
  8
MERGEDLAYER-1
 10
57.127615
 20
32.302361
 30
0.000000
  0
VERTEX
  8
MERGEDLAYER-1
 10
57.113385
 20
32.290478
 30
0.000000
  0
VERTEX
  8
MERGEDLAYER-1
 10
57.089496
 20
32.284274
 30
0.000000
  0
VERTEX
  8
MERGEDLAYER-1
 10
56.814171
 20
32.284046
 30
0.000000
  0
VERTEX
  8
MERGEDLAYER-1
 10
56.792556
 20
32.279020
 30
0.000000
  0
VERTEX
  8
MERGEDLAYER-1
 10
56.779372
 20
32.269627
 30
0.000000
  0
VERTEX
  8
MERGEDLAYER-1
 10
56.770677
 20
32.259228
 30
0.000000
  0
VERTEX
  8
MERGEDLAYER-1
 10
56.764799
 20
32.238093
 30
0.000000
  0
VERTEX
  8
MERGEDLAYER-1
 10
56.764949
 20
32.198899
 30
0.000000
  0
VERTEX
  8
MERGEDLAYER-1
 10
56.768555
 20
32.190200
 30
0.000000
  0
VERTEX
  8
MERGEDLAYER-1
 10
56.777255
 20
32.186596
 30
0.000000
  0
VERTEX
  8
MERGEDLAYER-1
 10
56.969741
 20
32.186763
 30
0.000000
  0
VERTEX
  8
MERGEDLAYER-1
 10
56.992554
 20
32.181103
 30
0.000000
  0
VERTEX
  8
MERGEDLAYER-1
 10
57.004526
 20
32.172180
 30
0.000000
  0
VERTEX
  8
MERGEDLAYER-1
 10
57.014428
 20
32.159231
 30
0.000000
  0
VERTEX
  8
MERGEDLAYER-1
 10
57.018757
 20
32.140646
 30
0.000000
  0
VERTEX
  8
MERGEDLAYER-1
 10
57.018940
 20
32.035980
 30
0.000000
  0
VERTEX
  8
MERGEDLAYER-1
 10
57.014428
 20
32.017564
 30
0.000000
  0
VERTEX
  8
MERGEDLAYER-1
 10
57.004526
 20
32.001176
 30
0.000000
  0
VERTEX
  8
MERGEDLAYER-1
 10
56.990469
 20
31.991523
 30
0.000000
  0
VERTEX
  8
MERGEDLAYER-1
 10
56.969741
 20
31.986931
 30
0.000000
  0
VERTEX
  8
MERGEDLAYER-1
 10
56.880127
 20
31.986762
 30
0.000000
  0
VERTEX
  8
MERGEDLAYER-1
 10
56.861300
 20
31.982145
 30
0.000000
  0
VERTEX
  8
MERGEDLAYER-1
 10
56.852976
 20
31.975520
 30
0.000000
  0
VERTEX
  8
MERGEDLAYER-1
 10
56.845675
 20
31.965480
 30
0.000000
  0
VERTEX
  8
MERGEDLAYER-1
 10
56.841576
 20
31.951141
 30
0.000000
  0
VERTEX
  8
MERGEDLAYER-1
 10
56.841731
 20
31.947874
 30
0.000000
  0
VERTEX
  8
MERGEDLAYER-1
 10
56.844633
 20
31.933188
 30
0.000000
  0
VERTEX
  8
MERGEDLAYER-1
 10
56.852976
 20
31.920727
 30
0.000000
  0
VERTEX
  8
MERGEDLAYER-1
 10
56.863385
 20
31.913398
 30
0.000000
  0
VERTEX
  8
MERGEDLAYER-1
 10
56.880127
 20
31.909485
 30
0.000000
  0
VERTEX
  8
MERGEDLAYER-1
 10
57.067157
 20
31.909492
 30
0.000000
  0
VERTEX
  8
MERGEDLAYER-1
 10
57.087346
 20
31.913398
 30
0.000000
  0
VERTEX
  8
MERGEDLAYER-1
 10
57.101957
 20
31.923910
 30
0.000000
  0
VERTEX
  8
MERGEDLAYER-1
 10
57.112342
 20
31.938397
 30
0.000000
  0
VERTEX
  8
MERGEDLAYER-1
 10
57.116371
 20
31.958712
 30
0.000000
  0
VERTEX
  8
MERGEDLAYER-1
 10
57.116375
 20
32.137376
 30
0.000000
  0
VERTEX
  8
MERGEDLAYER-1
 10
57.120681
 20
32.158189
 30
0.000000
  0
VERTEX
  8
MERGEDLAYER-1
 10
57.130794
 20
32.172180
 30
0.000000
  0
VERTEX
  8
MERGEDLAYER-1
 10
57.144635
 20
32.184230
 30
0.000000
  0
VERTEX
  8
MERGEDLAYER-1
 10
57.165598
 20
32.186596
 30
0.000000
  0
VERTEX
  8
MERGEDLAYER-1
 10
57.728666
 20
32.186594
 30
0.000000
  0
VERTEX
  8
MERGEDLAYER-1
 10
57.737366
 20
32.182990
 30
0.000000
  0
VERTEX
  8
MERGEDLAYER-1
 10
57.740971
 20
32.174291
 30
0.000000
  0
VERTEX
  8
MERGEDLAYER-1
 10
57.740967
 20
32.140327
 30
0.000000
  0
VERTEX
  8
MERGEDLAYER-1
 10
57.744573
 20
32.131625
 30
0.000000
  0
VERTEX
  8
MERGEDLAYER-1
 10
57.753272
 20
32.128019
 30
0.000000
  0
VERTEX
  8
MERGEDLAYER-1
 10
57.767545
 20
32.128024
 30
0.000000
  0
VERTEX
  8
MERGEDLAYER-1
 10
57.776245
 20
32.131625
 30
0.000000
  0
VERTEX
  8
MERGEDLAYER-1
 10
57.779846
 20
32.140327
 30
0.000000
  0
VERTEX
  8
MERGEDLAYER-1
 10
57.779851
 20
32.174291
 30
0.000000
  0
VERTEX
  8
MERGEDLAYER-1
 10
57.783457
 20
32.182990
 30
0.000000
  0
VERTEX
  8
MERGEDLAYER-1
 10
57.792157
 20
32.186594
 30
0.000000
  0
VERTEX
  8
MERGEDLAYER-1
 10
58.115953
 20
32.186594
 30
0.000000
  0
VERTEX
  8
MERGEDLAYER-1
 10
58.129179
 20
32.181115
 30
0.000000
  0
VERTEX
  8
MERGEDLAYER-1
 10
58.134686
 20
32.168063
 30
0.000000
  0
VERTEX
  8
MERGEDLAYER-1
 10
58.134672
 20
31.671272
 30
0.000000
  0
VERTEX
  8
MERGEDLAYER-1
 10
58.138282
 20
31.662572
 30
0.000000
  0
VERTEX
  8
MERGEDLAYER-1
 10
58.146982
 20
31.658968
 30
0.000000
  0
VERTEX
  8
MERGEDLAYER-1
 10
58.219825
 20
31.658968
 30
0.000000
  0
VERTEX
  8
MERGEDLAYER-1
 10
58.228525
 20
31.662572
 30
0.000000
  0
VERTEX
  8
MERGEDLAYER-1
 10
58.232126
 20
31.671272
 30
0.000000
  0
VERTEX
  8
MERGEDLAYER-1
 10
58.232126
 20
31.874584
 30
0.000000
  0
VERTEX
  8
MERGEDLAYER-1
 10
58.222760
 20
31.877981
 30
0.000000
  0
VERTEX
  8
MERGEDLAYER-1
 10
58.215473
 20
31.885270
 30
0.000000
  0
VERTEX
  8
MERGEDLAYER-1
 10
58.213435
 20
31.893480
 30
0.000000
  0
VERTEX
  8
MERGEDLAYER-1
 10
58.217553
 20
31.907147
 30
0.000000
  0
VERTEX
  8
MERGEDLAYER-1
 10
58.232173
 20
31.912168
 30
0.000000
  0
VERTEX
  8
MERGEDLAYER-1
 10
58.232121
 20
32.234826
 30
0.000000
  0
VERTEX
  8
MERGEDLAYER-1
 10
58.227971
 20
32.256101
 30
0.000000
  0
VERTEX
  8
MERGEDLAYER-1
 10
58.217708
 20
32.269627
 30
0.000000
  0
VERTEX
  8
MERGEDLAYER-1
 10
58.200885
 20
32.281104
 30
0.000000
  0
VERTEX
  8
MERGEDLAYER-1
 10
58.182908
 20
32.284046
 30
0.000000
  0
VERTEX
  8
MERGEDLAYER-1
 10
57.571960
 20
32.284274
 30
0.000000
  0
VERTEX
  8
MERGEDLAYER-1
 10
57.551927
 20
32.287351
 30
0.000000
  0
VERTEX
  8
MERGEDLAYER-1
 10
57.533837
 20
32.302361
 30
0.000000
  0
VERTEX
  8
MERGEDLAYER-1
 10
57.522761
 20
32.321728
 30
0.000000
  0
VERTEX
  8
MERGEDLAYER-1
 10
57.523644
 20
32.343346
 30
0.000000
  0
VERTEX
  8
MERGEDLAYER-1
 10
57.527973
 20
32.372770
 30
0.000000
  0
VERTEX
  8
MERGEDLAYER-1
 10
57.526931
 20
32.402980
 30
0.000000
  0
VERTEX
  8
MERGEDLAYER-1
 10
57.521719
 20
32.435270
 30
0.000000
  0
VERTEX
  8
MERGEDLAYER-1
 10
57.509512
 20
32.465156
 30
0.000000
  0
VERTEX
  8
MERGEDLAYER-1
 10
57.494638
 20
32.494645
 30
0.000000
  0
VERTEX
  8
MERGEDLAYER-1
 10
57.475886
 20
32.516522
 30
0.000000
  0
VERTEX
  8
MERGEDLAYER-1
 10
57.454008
 20
32.537354
 30
0.000000
  0
VERTEX
  8
MERGEDLAYER-1
 10
57.426007
 20
32.554953
 30
0.000000
  0
VERTEX
  8
MERGEDLAYER-1
 10
57.392268
 20
32.554953
 30
0.000000
  0
VERTEX
  8
MERGEDLAYER-1
 10
57.384902
 20
32.477870
 30
0.000000
  0
VERTEX
  8
MERGEDLAYER-1
 10
57.410260
 20
32.459229
 30
0.000000
  0
VERTEX
  8
MERGEDLAYER-1
 10
57.426927
 20
32.437354
 30
0.000000
  0
VERTEX
  8
MERGEDLAYER-1
 10
57.435260
 20
32.416520
 30
0.000000
  0
VERTEX
  8
MERGEDLAYER-1
 10
57.439425
 20
32.397773
 30
0.000000
  0
VERTEX
  8
MERGEDLAYER-1
 10
57.440467
 20
32.372770
 30
0.000000
  0
VERTEX
  8
MERGEDLAYER-1
 10
57.436303
 20
32.352978
 30
0.000000
  0
VERTEX
  8
MERGEDLAYER-1
 10
57.424842
 20
32.326937
 30
0.000000
  0
VERTEX
  8
MERGEDLAYER-1
 10
57.412344
 20
32.310270
 30
0.000000
  0
VERTEX
  8
MERGEDLAYER-1
 10
57.395677
 20
32.294645
 30
0.000000
  0
VERTEX
  8
MERGEDLAYER-1
 10
57.374845
 20
32.283189
 30
0.000000
  0
VERTEX
  8
MERGEDLAYER-1
 10
57.352971
 20
32.274853
 30
0.000000
  0
VERTEX
  8
MERGEDLAYER-1
 10
57.330717
 20
32.273182
 30
0.000000
  0
VERTEX
  8
MERGEDLAYER-1
 10
57.314425
 20
32.274853
 30
0.000000
  0
VERTEX
  8
MERGEDLAYER-1
 10
57.294635
 20
32.279020
 30
0.000000
  0
VERTEX
  8
MERGEDLAYER-1
 10
57.276931
 20
32.288398
 30
0.000000
  0
VERTEX
  8
MERGEDLAYER-1
 10
57.259221
 20
32.300896
 30
0.000000
  0
VERTEX
  8
MERGEDLAYER-1
 10
57.239427
 20
32.323813
 30
0.000000
  0
VERTEX
  8
MERGEDLAYER-1
 10
57.224844
 20
32.354020
 30
0.000000
  0
VERTEX
  8
MERGEDLAYER-1
 10
57.221717
 20
32.389437
 30
0.000000
  0
VERTEX
  8
MERGEDLAYER-1
 10
57.227971
 20
32.420687
 30
0.000000
  0
VERTEX
  8
MERGEDLAYER-1
 10
57.238385
 20
32.442564
 30
0.000000
  0
VERTEX
  8
MERGEDLAYER-1
 10
57.252967
 20
32.461311
 30
0.000000
  0
VERTEX
  8
MERGEDLAYER-1
 10
57.264428
 20
32.470689
 30
0.000000
  0
VERTEX
  8
MERGEDLAYER-1
 10
57.276616
 20
32.477889
 30
0.000000
  0
SEQEND
  8
MERGEDLAYER-1
  0
LINE
  8
MERGEDLAYER-1
 62
  7
 10
54.975952
 20
32.170504
 30
0.000000
 11
54.975952
 21
28.452040
 31
0.000000
  0
LINE
  8
MERGEDLAYER-1
 62
  7
 10
56.006319
 20
32.190188
 30
0.000000
 11
53.975952
 21
32.190188
 31
0.000000
  0
LINE
  8
MERGEDLAYER-1
 62
  7
 10
56.138202
 20
28.432357
 30
0.000000
 11
53.975952
 21
28.432357
 31
0.000000
  0
POLYLINE
  8
MERGEDLAYER-1
 66
  1
 70
  1
 62
  7
  0
VERTEX
  8
MERGEDLAYER-1
 10
54.975952
 20
32.190188
 30
0.000000
  0
VERTEX
  8
MERGEDLAYER-1
 10
54.745183
 20
31.805573
 30
0.000000
  0
VERTEX
  8
MERGEDLAYER-1
 10
54.975952
 20
31.805573
 30
0.000000
  0
VERTEX
  8
MERGEDLAYER-1
 10
55.206721
 20
31.805573
 30
0.000000
  0
VERTEX
  8
MERGEDLAYER-1
 10
54.975952
 20
32.190188
 30
0.000000
  0
SEQEND
  8
MERGEDLAYER-1
  0
POLYLINE
  8
MERGEDLAYER-1
 66
  1
 70
  1
 62
  7
  0
VERTEX
  8
MERGEDLAYER-1
 10
54.975952
 20
28.432357
 30
0.000000
  0
VERTEX
  8
MERGEDLAYER-1
 10
54.745183
 20
28.816972
 30
0.000000
  0
VERTEX
  8
MERGEDLAYER-1
 10
54.975952
 20
28.816972
 30
0.000000
  0
VERTEX
  8
MERGEDLAYER-1
 10
55.206721
 20
28.816972
 30
0.000000
  0
VERTEX
  8
MERGEDLAYER-1
 10
54.975952
 20
28.432357
 30
0.000000
  0
SEQEND
  8
MERGEDLAYER-1
  0
TEXT
  8
MERGEDLAYER-1
 62
  7
 10
53.967215
 20
30.394428
 30
0.000000
 40
0.692308
  1
 
 50
90.000000
  0
TEXT
  8
MERGEDLAYER-1
 62
  7
 10
52.076923
 20
30.620333
 30
0.000000
 40
0.634615
  1
3"
 72
  5
 11
53.230769
 21
30.620333
 31
0.000000
  0
TEXT
  8
MERGEDLAYER-1
 62
  7
 10
52.076923
 20
29.697256
 30
0.000000
 40
0.634615
  1
76mm
 72
  5
 11
54.615385
 21
29.697256
 31
0.000000
  0
CIRCLE
  8
MERGEDLAYER-1
 62
  7
 10
78.198712
 20
50.037039
 30
0.000000
 40
0.197531
  0
POLYLINE
  8
MERGEDLAYER-1
 66
  1
 70
  0
 62
  7
 10
78.342116
 20
50.183364
 30
0.000000
  0
VERTEX
  8
MERGEDLAYER-1
 10
78.342116
 20
50.183364
 30
0.000000
  0
VERTEX
  8
MERGEDLAYER-1
 10
78.194683
 20
50.243873
 30
0.000000
  0
VERTEX
  8
MERGEDLAYER-1
 10
78.050424
 20
50.182411
 30
0.000000
  0
VERTEX
  8
MERGEDLAYER-1
 10
77.998723
 20
50.081482
 30
0.000000
  0
SEQEND
  8
MERGEDLAYER-1
  0
POLYLINE
  8
MERGEDLAYER-1
 66
  1
 70
  0
 62
  7
 10
77.939979
 20
50.470004
 30
0.000000
  0
VERTEX
  8
MERGEDLAYER-1
 10
77.939979
 20
50.470004
 30
0.000000
  0
VERTEX
  8
MERGEDLAYER-1
 10
77.779917
 20
50.470004
 30
0.000000
  0
SEQEND
  8
MERGEDLAYER-1
  0
POLYLINE
  8
MERGEDLAYER-1
 66
  1
 70
  0
 62
  7
 10
77.779917
 20
50.470004
 30
0.000000
  0
VERTEX
  8
MERGEDLAYER-1
 10
77.779917
 20
50.470004
 30
0.000000
  0
VERTEX
  8
MERGEDLAYER-1
 10
77.779917
 20
49.637418
 30
0.000000
  0
SEQEND
  8
MERGEDLAYER-1
  0
POLYLINE
  8
MERGEDLAYER-1
 66
  1
 70
  0
 62
  7
 10
77.779917
 20
49.637418
 30
0.000000
  0
VERTEX
  8
MERGEDLAYER-1
 10
77.779917
 20
49.637418
 30
0.000000
  0
VERTEX
  8
MERGEDLAYER-1
 10
77.839158
 20
49.696674
 30
0.000000
  0
SEQEND
  8
MERGEDLAYER-1
  0
POLYLINE
  8
MERGEDLAYER-1
 66
  1
 70
  0
 62
  7
 10
77.998732
 20
50.081487
 30
0.000000
  0
VERTEX
  8
MERGEDLAYER-1
 10
77.998732
 20
50.081487
 30
0.000000
  0
VERTEX
  8
MERGEDLAYER-1
 10
77.947482
 20
49.635005
 30
0.000000
  0
SEQEND
  8
MERGEDLAYER-1
  0
POLYLINE
  8
MERGEDLAYER-1
 66
  1
 70
  0
 62
  7
 10
75.087233
 20
50.455482
 30
0.000000
  0
VERTEX
  8
MERGEDLAYER-1
 10
75.087233
 20
50.455482
 30
0.000000
  0
VERTEX
  8
MERGEDLAYER-1
 10
75.087233
 20
49.625854
 30
0.000000
  0
SEQEND
  8
MERGEDLAYER-1
  0
POLYLINE
  8
MERGEDLAYER-1
 66
  1
 70
  0
 62
  7
 10
75.087233
 20
49.625854
 30
0.000000
  0
VERTEX
  8
MERGEDLAYER-1
 10
75.087233
 20
49.625854
 30
0.000000
  0
VERTEX
  8
MERGEDLAYER-1
 10
74.494652
 20
49.625854
 30
0.000000
  0
SEQEND
  8
MERGEDLAYER-1
  0
POLYLINE
  8
MERGEDLAYER-1
 66
  1
 70
  0
 62
  7
 10
74.494652
 20
49.625854
 30
0.000000
  0
VERTEX
  8
MERGEDLAYER-1
 10
74.494652
 20
49.625854
 30
0.000000
  0
VERTEX
  8
MERGEDLAYER-1
 10
74.553894
 20
49.685124
 30
0.000000
  0
SEQEND
  8
MERGEDLAYER-1
  0
CIRCLE
  8
MERGEDLAYER-1
 62
  7
 10
74.677354
 20
50.033269
 30
0.000000
 40
0.197531
  0
POLYLINE
  8
MERGEDLAYER-1
 66
  1
 70
  0
 62
  7
 10
74.477337
 20
50.077707
 30
0.000000
  0
VERTEX
  8
MERGEDLAYER-1
 10
74.477337
 20
50.077707
 30
0.000000
  0
VERTEX
  8
MERGEDLAYER-1
 10
74.458858
 20
49.992197
 30
0.000000
  0
VERTEX
  8
MERGEDLAYER-1
 10
74.444012
 20
49.904419
 30
0.000000
  0
VERTEX
  8
MERGEDLAYER-1
 10
74.430824
 20
49.816373
 30
0.000000
  0
VERTEX
  8
MERGEDLAYER-1
 10
74.419302
 20
49.728102
 30
0.000000
  0
VERTEX
  8
MERGEDLAYER-1
 10
74.411424
 20
49.637658
 30
0.000000
  0
SEQEND
  8
MERGEDLAYER-1
  0
POLYLINE
  8
MERGEDLAYER-1
 66
  1
 70
  0
 62
  7
 10
74.820754
 20
50.179594
 30
0.000000
  0
VERTEX
  8
MERGEDLAYER-1
 10
74.820754
 20
50.179594
 30
0.000000
  0
VERTEX
  8
MERGEDLAYER-1
 10
74.673316
 20
50.240108
 30
0.000000
  0
VERTEX
  8
MERGEDLAYER-1
 10
74.529062
 20
50.178641
 30
0.000000
  0
VERTEX
  8
MERGEDLAYER-1
 10
74.477351
 20
50.077712
 30
0.000000
  0
SEQEND
  8
MERGEDLAYER-1
  0
POLYLINE
  8
MERGEDLAYER-1
 66
  1
 70
  0
 62
  7
 10
75.088219
 20
50.466233
 30
0.000000
  0
VERTEX
  8
MERGEDLAYER-1
 10
75.088219
 20
50.466233
 30
0.000000
  0
VERTEX
  8
MERGEDLAYER-1
 10
74.258554
 20
50.466233
 30
0.000000
  0
SEQEND
  8
MERGEDLAYER-1
  0
POLYLINE
  8
MERGEDLAYER-1
 66
  1
 70
  0
 62
  7
 10
74.258554
 20
50.466233
 30
0.000000
  0
VERTEX
  8
MERGEDLAYER-1
 10
74.258554
 20
50.466233
 30
0.000000
  0
VERTEX
  8
MERGEDLAYER-1
 10
74.258554
 20
49.633634
 30
0.000000
  0
SEQEND
  8
MERGEDLAYER-1
  0
POLYLINE
  8
MERGEDLAYER-1
 66
  1
 70
  0
 62
  7
 10
74.258554
 20
49.633634
 30
0.000000
  0
VERTEX
  8
MERGEDLAYER-1
 10
74.258554
 20
49.633634
 30
0.000000
  0
VERTEX
  8
MERGEDLAYER-1
 10
74.317857
 20
49.692904
 30
0.000000
  0
SEQEND
  8
MERGEDLAYER-1
  0
POLYLINE
  8
MERGEDLAYER-1
 66
  1
 70
  0
 62
  7
 10
67.841572
 20
50.453308
 30
0.000000
  0
VERTEX
  8
MERGEDLAYER-1
 10
67.841572
 20
50.453308
 30
0.000000
  0
VERTEX
  8
MERGEDLAYER-1
 10
67.960111
 20
50.453308
 30
0.000000
  0
SEQEND
  8
MERGEDLAYER-1
  0
POLYLINE
  8
MERGEDLAYER-1
 66
  1
 70
  0
 62
  7
 10
67.960111
 20
50.453308
 30
0.000000
  0
VERTEX
  8
MERGEDLAYER-1
 10
67.960111
 20
50.453308
 30
0.000000
  0
VERTEX
  8
MERGEDLAYER-1
 10
67.960111
 20
49.623676
 30
0.000000
  0
SEQEND
  8
MERGEDLAYER-1
  0
POLYLINE
  8
MERGEDLAYER-1
 66
  1
 70
  0
 62
  7
 10
67.960111
 20
49.623676
 30
0.000000
  0
VERTEX
  8
MERGEDLAYER-1
 10
67.960111
 20
49.623676
 30
0.000000
  0
VERTEX
  8
MERGEDLAYER-1
 10
67.367521
 20
49.623676
 30
0.000000
  0
SEQEND
  8
MERGEDLAYER-1
  0
POLYLINE
  8
MERGEDLAYER-1
 66
  1
 70
  0
 62
  7
 10
67.367521
 20
49.623676
 30
0.000000
  0
VERTEX
  8
MERGEDLAYER-1
 10
67.367521
 20
49.623676
 30
0.000000
  0
VERTEX
  8
MERGEDLAYER-1
 10
67.426763
 20
49.682946
 30
0.000000
  0
SEQEND
  8
MERGEDLAYER-1
  0
CIRCLE
  8
MERGEDLAYER-1
 62
  7
 10
67.550223
 20
50.031095
 30
0.000000
 40
0.197531
  0
POLYLINE
  8
MERGEDLAYER-1
 66
  1
 70
  0
 62
  7
 10
67.350206
 20
50.075533
 30
0.000000
  0
VERTEX
  8
MERGEDLAYER-1
 10
67.350206
 20
50.075533
 30
0.000000
  0
VERTEX
  8
MERGEDLAYER-1
 10
67.331350
 20
49.987863
 30
0.000000
  0
VERTEX
  8
MERGEDLAYER-1
 10
67.316195
 20
49.897916
 30
0.000000
  0
VERTEX
  8
MERGEDLAYER-1
 10
67.302791
 20
49.807692
 30
0.000000
  0
VERTEX
  8
MERGEDLAYER-1
 10
67.291138
 20
49.717229
 30
0.000000
  0
VERTEX
  8
MERGEDLAYER-1
 10
67.283198
 20
49.624587
 30
0.000000
  0
SEQEND
  8
MERGEDLAYER-1
  0
POLYLINE
  8
MERGEDLAYER-1
 66
  1
 70
  0
 62
  7
 10
67.693632
 20
50.177420
 30
0.000000
  0
VERTEX
  8
MERGEDLAYER-1
 10
67.693632
 20
50.177420
 30
0.000000
  0
VERTEX
  8
MERGEDLAYER-1
 10
67.546190
 20
50.237929
 30
0.000000
  0
VERTEX
  8
MERGEDLAYER-1
 10
67.401935
 20
50.176467
 30
0.000000
  0
VERTEX
  8
MERGEDLAYER-1
 10
67.350220
 20
50.075538
 30
0.000000
  0
SEQEND
  8
MERGEDLAYER-1
  0
TEXT
  8
MERGEDLAYER-1
 62
  7
 10
61.153846
 20
0.620333
 30
0.000000
 40
0.807692
  1
FAX: 1 418.831.7817
 72
  5
 11
72.076923
 21
0.620333
 31
0.000000
  0
TEXT
  8
MERGEDLAYER-1
 62
  7
 10
74.000000
 20
0.620333
 30
0.000000
 40
0.807692
  1
FAX: 1 800.470.3359
 72
  5
 11
84.923077
 21
0.620333
 31
0.000000
  0
TEXT
  8
MERGEDLAYER-1
 62
  7
 10
61.153846
 20
2.466487
 30
0.000000
 40
0.807692
  1
TEL.:1 418.831.6652
 72
  5
 11
72.000000
 21
2.466487
 31
0.000000
  0
TEXT
  8
MERGEDLAYER-1
 62
  7
 10
74.000000
 20
2.466487
 30
0.000000
 40
0.807692
  1
TEL.:1 800.501.3359
 72
  5
 11
84.846154
 21
2.466487
 31
0.000000
  0
TEXT
  8
MERGEDLAYER-1
 62
  7
 10
61.923077
 20
62.543410
 30
0.000000
 40
0.807692
  1
TUBULAR MOTOR
 72
  5
 11
71.923077
 21
62.543410
 31
0.000000
  0
TEXT
  8
MERGEDLAYER-1
 62
  7
 10
61.769231
 20
61.466487
 30
0.000000
 40
0.634615
  1
VIEWED FROM COIL SIDE
 72
  5
 11
71.538462
 21
61.466487
 31
0.000000
  0
POLYLINE
  8
MERGEDLAYER-1
 66
  1
 70
  1
 62
  7
  0
VERTEX
  8
MERGEDLAYER-1
 10
61.766855
 20
60.960153
 30
0.000000
  0
VERTEX
  8
MERGEDLAYER-1
 10
62.579355
 20
60.960153
 30
0.000000
  0
VERTEX
  8
MERGEDLAYER-1
 10
62.579355
 20
60.147658
 30
0.000000
  0
VERTEX
  8
MERGEDLAYER-1
 10
61.766855
 20
60.147658
 30
0.000000
  0
SEQEND
  8
MERGEDLAYER-1
  0
TEXT
  8
MERGEDLAYER-1
 62
  7
 10
63.307692
 20
60.004949
 30
0.000000
 40
0.807692
  1
RIGHT SIDE
 72
  5
 11
69.846154
 21
60.004949
 31
0.000000
  0
POLYLINE
  8
MERGEDLAYER-1
 66
  1
 70
  0
 62
  7
 10
61.769987
 20
60.961041
 30
0.000000
  0
VERTEX
  8
MERGEDLAYER-1
 10
61.769987
 20
60.961041
 30
0.000000
  0
VERTEX
  8
MERGEDLAYER-1
 10
62.579355
 20
60.147658
 30
0.000000
  0
SEQEND
  8
MERGEDLAYER-1
  0
POLYLINE
  8
MERGEDLAYER-1
 66
  1
 70
  0
 62
  7
 10
62.579355
 20
60.960153
 30
0.000000
  0
VERTEX
  8
MERGEDLAYER-1
 10
62.579355
 20
60.960153
 30
0.000000
  0
VERTEX
  8
MERGEDLAYER-1
 10
61.769987
 20
60.145517
 30
0.000000
  0
SEQEND
  8
MERGEDLAYER-1
  0
TEXT
  8
MERGEDLAYER-1
 62
  7
 10
62.000000
 20
58.466487
 30
0.000000
 40
0.807692
  1
MANUAL OVERRIDE  100 NM
 72
  5
 11
77.153846
 21
58.466487
 31
0.000000
  0
TEXT
  8
MERGEDLAYER-1
 62
  7
 10
61.923077
 20
55.851102
 30
0.000000
 40
0.807692
  1
120 V Ac  60Hz  2.94A, SPEED 11 RPM
 72
  5
 11
81.692308
 21
55.851102
 31
0.000000
  0
TEXT
  8
MERGEDLAYER-1
 62
  7
 10
62.076923
 20
52.158795
 30
0.000000
 40
0.634615
  1
ELECTRICAL WIRING BY OTHERS
 72
  5
 11
74.923077
 21
52.158795
 31
0.000000
  0
TEXT
  8
MERGEDLAYER-1
 62
  7
 10
61.923077
 20
57.158795
 30
0.000000
 40
0.807692
  1
MECHANIC LIMIT ADJUSTMENT
 72
  5
 11
78.692308
 21
57.158795
 31
0.000000
  0
TEXT
  8
MERGEDLAYER-1
 62
  7
 10
78.000000
 20
60.004949
 30
0.000000
 40
0.807692
  1
LEFT SIDE
 72
  5
 11
83.846154
 21
60.004949
 31
0.000000
  0
POLYLINE
  8
MERGEDLAYER-1
 66
  1
 70
  1
 62
  7
  0
VERTEX
  8
MERGEDLAYER-1
 10
76.472675
 20
60.959909
 30
0.000000
  0
VERTEX
  8
MERGEDLAYER-1
 10
77.285175
 20
60.959909
 30
0.000000
  0
VERTEX
  8
MERGEDLAYER-1
 10
77.285175
 20
60.147409
 30
0.000000
  0
VERTEX
  8
MERGEDLAYER-1
 10
76.472675
 20
60.147409
 30
0.000000
  0
SEQEND
  8
MERGEDLAYER-1
  0
TEXT
  8
MERGEDLAYER-1
 62
  7
 10
61.692308
 20
54.774179
 30
0.000000
 40
0.807692
  1
CONTROL:
 72
  5
 11
67.692308
 21
54.774179
 31
0.000000
  0
TEXT
  8
MERGEDLAYER-1
 62
  7
 10
61.692308
 20
53.774179
 30
0.000000
 40
0.634615
  1
(QTY: 1 or 2)
 72
  5
 11
67.000000
 21
53.774179
 31
0.000000
  0
TEXT
  8
MERGEDLAYER-1
 62
  7
 10
16.692308
 20
12.312641
 30
0.000000
 40
0.634615
  1
BARREL: 4" - 102mm dia          
 72
  5
 11
28.461538
 21
12.312641
 31
0.000000
  0
POLYLINE
  8
MERGEDLAYER-1
 66
  1
 70
  0
 62
  7
 10
13.412478
 20
15.507949
 30
0.000000
  0
VERTEX
  8
MERGEDLAYER-1
 10
13.412478
 20
15.507949
 30
0.000000
  0
VERTEX
  8
MERGEDLAYER-1
 10
27.225370
 20
15.507949
 30
0.000000
  0
SEQEND
  8
MERGEDLAYER-1
  0
POLYLINE
  8
MERGEDLAYER-1
 66
  1
 70
  0
 62
  7
 10
13.412478
 20
11.497507
 30
0.000000
  0
VERTEX
  8
MERGEDLAYER-1
 10
13.412478
 20
11.497507
 30
0.000000
  0
VERTEX
  8
MERGEDLAYER-1
 10
30.041661
 20
11.497507
 30
0.000000
  0
SEQEND
  8
MERGEDLAYER-1
  0
POLYLINE
  8
MERGEDLAYER-1
 66
  1
 70
  0
 62
  7
 10
13.412478
 20
11.497507
 30
0.000000
  0
VERTEX
  8
MERGEDLAYER-1
 10
13.412478
 20
11.497507
 30
0.000000
  0
VERTEX
  8
MERGEDLAYER-1
 10
13.412478
 20
15.507949
 30
0.000000
  0
SEQEND
  8
MERGEDLAYER-1
  0
POLYLINE
  8
MERGEDLAYER-1
 66
  1
 70
  0
 62
  7
 10
11.973794
 20
13.995300
 30
0.000000
  0
VERTEX
  8
MERGEDLAYER-1
 10
11.973794
 20
13.995300
 30
0.000000
  0
VERTEX
  8
MERGEDLAYER-1
 10
13.417968
 20
13.995300
 30
0.000000
  0
SEQEND
  8
MERGEDLAYER-1
  0
POLYLINE
  8
MERGEDLAYER-1
 66
  1
 70
  0
 62
  7
 10
13.417968
 20
12.995300
 30
0.000000
  0
VERTEX
  8
MERGEDLAYER-1
 10
13.417968
 20
12.995300
 30
0.000000
  0
VERTEX
  8
MERGEDLAYER-1
 10
11.973794
 20
12.995300
 30
0.000000
  0
SEQEND
  8
MERGEDLAYER-1
  0
POLYLINE
  8
MERGEDLAYER-1
 66
  1
 70
  0
 62
  7
 10
11.973794
 20
12.995300
 30
0.000000
  0
VERTEX
  8
MERGEDLAYER-1
 10
11.973794
 20
12.995300
 30
0.000000
  0
VERTEX
  8
MERGEDLAYER-1
 10
11.973794
 20
13.995300
 30
0.000000
  0
SEQEND
  8
MERGEDLAYER-1
  0
POLYLINE
  8
MERGEDLAYER-1
 66
  1
 70
  0
 62
  7
 10
12.344272
 20
14.636240
 30
0.000000
  0
VERTEX
  8
MERGEDLAYER-1
 10
12.344272
 20
14.636240
 30
0.000000
  0
VERTEX
  8
MERGEDLAYER-1
 10
12.344272
 20
12.389475
 30
0.000000
  0
SEQEND
  8
MERGEDLAYER-1
  0
POLYLINE
  8
MERGEDLAYER-1
 66
  1
 70
  1
 62
  7
 10
12.811184
 20
14.171607
 30
0.000000
  0
VERTEX
  8
MERGEDLAYER-1
 10
12.811184
 20
14.171607
 30
0.000000
  0
VERTEX
  8
MERGEDLAYER-1
 10
12.811184
 20
14.171607
 30
0.000000
  0
VERTEX
  8
MERGEDLAYER-1
 10
12.811184
 20
14.539166
 30
0.000000
  0
VERTEX
  8
MERGEDLAYER-1
 10
12.575402
 20
14.636240
 30
0.000000
  0
VERTEX
  8
MERGEDLAYER-1
 10
12.575402
 20
15.392099
 30
0.000000
  0
VERTEX
  8
MERGEDLAYER-1
 10
12.341696
 20
15.392099
 30
0.000000
  0
VERTEX
  8
MERGEDLAYER-1
 10
12.344272
 20
14.636240
 30
0.000000
  0
VERTEX
  8
MERGEDLAYER-1
 10
12.344272
 20
14.636240
 30
0.000000
  0
VERTEX
  8
MERGEDLAYER-1
 10
12.344272
 20
12.389475
 30
0.000000
  0
VERTEX
  8
MERGEDLAYER-1
 10
12.344272
 20
12.389475
 30
0.000000
  0
VERTEX
  8
MERGEDLAYER-1
 10
12.341696
 20
11.647348
 30
0.000000
  0
VERTEX
  8
MERGEDLAYER-1
 10
12.572826
 20
11.647348
 30
0.000000
  0
VERTEX
  8
MERGEDLAYER-1
 10
12.575402
 20
12.389475
 30
0.000000
  0
VERTEX
  8
MERGEDLAYER-1
 10
12.811184
 20
12.486596
 30
0.000000
  0
VERTEX
  8
MERGEDLAYER-1
 10
12.811184
 20
12.843675
 30
0.000000
  0
VERTEX
  8
MERGEDLAYER-1
 10
12.811184
 20
12.843675
 30
0.000000
  0
SEQEND
  8
MERGEDLAYER-1
  0
POLYLINE
  8
MERGEDLAYER-1
 66
  1
 70
  0
 62
  7
 10
12.575402
 20
14.636240
 30
0.000000
  0
VERTEX
  8
MERGEDLAYER-1
 10
12.575402
 20
14.636240
 30
0.000000
  0
VERTEX
  8
MERGEDLAYER-1
 10
12.575402
 20
12.389475
 30
0.000000
  0
SEQEND
  8
MERGEDLAYER-1
  0
POLYLINE
  8
MERGEDLAYER-1
 66
  1
 70
  0
 62
  7
 10
12.811184
 20
14.171607
 30
0.000000
  0
VERTEX
  8
MERGEDLAYER-1
 10
12.811184
 20
14.171607
 30
0.000000
  0
VERTEX
  8
MERGEDLAYER-1
 10
12.811184
 20
12.843675
 30
0.000000
  0
SEQEND
  8
MERGEDLAYER-1
  0
POLYLINE
  8
MERGEDLAYER-1
 66
  1
 70
  0
 62
  7
 10
12.457530
 20
15.391944
 30
0.000000
  0
VERTEX
  8
MERGEDLAYER-1
 10
12.457530
 20
15.391944
 30
0.000000
  0
VERTEX
  8
MERGEDLAYER-1
 10
12.457530
 20
11.646644
 30
0.000000
  0
SEQEND
  8
MERGEDLAYER-1
  0
POLYLINE
  8
MERGEDLAYER-1
 66
  1
 70
  1
 62
  7
  0
VERTEX
  8
MERGEDLAYER-1
 10
12.811184
 20
14.171607
 30
0.000000
  0
VERTEX
  8
MERGEDLAYER-1
 10
13.230684
 20
14.171607
 30
0.000000
  0
VERTEX
  8
MERGEDLAYER-1
 10
13.230684
 20
12.843675
 30
0.000000
  0
VERTEX
  8
MERGEDLAYER-1
 10
12.811184
 20
12.843675
 30
0.000000
  0
SEQEND
  8
MERGEDLAYER-1
  0
POLYLINE
  8
MERGEDLAYER-1
 66
  1
 70
  0
 62
  7
 10
13.156305
 20
13.350741
 30
0.000000
  0
VERTEX
  8
MERGEDLAYER-1
 10
13.156305
 20
13.350741
 30
0.000000
  0
VERTEX
  8
MERGEDLAYER-1
 10
13.121226
 20
13.435429
 30
0.000000
  0
VERTEX
  8
MERGEDLAYER-1
 10
13.036539
 20
13.470511
 30
0.000000
  0
VERTEX
  8
MERGEDLAYER-1
 10
12.951853
 20
13.435429
 30
0.000000
  0
VERTEX
  8
MERGEDLAYER-1
 10
12.916774
 20
13.350741
 30
0.000000
  0
VERTEX
  8
MERGEDLAYER-1
 10
12.951853
 20
13.266048
 30
0.000000
  0
VERTEX
  8
MERGEDLAYER-1
 10
13.036539
 20
13.230966
 30
0.000000
  0
VERTEX
  8
MERGEDLAYER-1
 10
13.121226
 20
13.266048
 30
0.000000
  0
VERTEX
  8
MERGEDLAYER-1
 10
13.156305
 20
13.350741
 30
0.000000
  0
SEQEND
  8
MERGEDLAYER-1
  0
POLYLINE
  8
MERGEDLAYER-1
 66
  1
 70
  1
 62
  7
  0
VERTEX
  8
MERGEDLAYER-1
 10
12.161571
 20
15.392099
 30
0.000000
  0
VERTEX
  8
MERGEDLAYER-1
 10
12.341696
 20
15.392099
 30
0.000000
  0
VERTEX
  8
MERGEDLAYER-1
 10
12.341696
 20
11.647348
 30
0.000000
  0
VERTEX
  8
MERGEDLAYER-1
 10
12.161571
 20
11.647348
 30
0.000000
  0
SEQEND
  8
MERGEDLAYER-1
  0
POLYLINE
  8
MERGEDLAYER-1
 66
  1
 70
  1
 62
255
 10
46.313481
 20
14.667133
 30
0.000000
  0
VERTEX
  8
MERGEDLAYER-1
 10
46.313481
 20
14.667133
 30
0.000000
  0
VERTEX
  8
MERGEDLAYER-1
 10
28.494758
 20
14.666682
 30
0.000000
  0
VERTEX
  8
MERGEDLAYER-1
 10
29.263961
 20
13.580130
 30
0.000000
  0
VERTEX
  8
MERGEDLAYER-1
 10
30.129310
 20
13.724370
 30
0.000000
  0
VERTEX
  8
MERGEDLAYER-1
 10
28.869737
 20
12.887831
 30
0.000000
  0
VERTEX
  8
MERGEDLAYER-1
 10
29.638944
 20
13.032058
 30
0.000000
  0
VERTEX
  8
MERGEDLAYER-1
 10
30.129310
 20
12.339750
 30
0.000000
  0
VERTEX
  8
MERGEDLAYER-1
 10
46.313481
 20
12.334050
 30
0.000000
  0
SEQEND
  8
MERGEDLAYER-1
  0
POLYLINE
  8
MERGEDLAYER-1
 66
  1
 70
  0
 62
  7
 10
29.263961
 20
13.580130
 30
0.000000
  0
VERTEX
  8
MERGEDLAYER-1
 10
29.263961
 20
13.580130
 30
0.000000
  0
VERTEX
  8
MERGEDLAYER-1
 10
27.115000
 20
16.649283
 30
0.000000
  0
SEQEND
  8
MERGEDLAYER-1
  0
POLYLINE
  8
MERGEDLAYER-1
 66
  1
 70
  0
 62
  7
 10
29.638944
 20
13.032058
 30
0.000000
  0
VERTEX
  8
MERGEDLAYER-1
 10
29.638944
 20
13.032058
 30
0.000000
  0
VERTEX
  8
MERGEDLAYER-1
 10
31.427270
 20
10.477868
 30
0.000000
  0
SEQEND
  8
MERGEDLAYER-1
  0
POLYLINE
  8
MERGEDLAYER-1
 66
  1
 70
  0
 62
  7
 10
29.263961
 20
13.580130
 30
0.000000
  0
VERTEX
  8
MERGEDLAYER-1
 10
29.263961
 20
13.580130
 30
0.000000
  0
VERTEX
  8
MERGEDLAYER-1
 10
30.129310
 20
13.724370
 30
0.000000
  0
SEQEND
  8
MERGEDLAYER-1
  0
POLYLINE
  8
MERGEDLAYER-1
 66
  1
 70
  0
 62
  7
 10
30.129310
 20
13.724370
 30
0.000000
  0
VERTEX
  8
MERGEDLAYER-1
 10
30.129310
 20
13.724370
 30
0.000000
  0
VERTEX
  8
MERGEDLAYER-1
 10
28.869737
 20
12.887831
 30
0.000000
  0
SEQEND
  8
MERGEDLAYER-1
  0
POLYLINE
  8
MERGEDLAYER-1
 66
  1
 70
  0
 62
  7
 10
28.869737
 20
12.887831
 30
0.000000
  0
VERTEX
  8
MERGEDLAYER-1
 10
28.869737
 20
12.887831
 30
0.000000
  0
VERTEX
  8
MERGEDLAYER-1
 10
29.638944
 20
13.032058
 30
0.000000
  0
SEQEND
  8
MERGEDLAYER-1
  0
TEXT
  8
MERGEDLAYER-1
 62
  7
 10
34.615385
 20
13.235718
 30
0.000000
 40
0.576923
  1
TUBULAR MOTOR
 72
  5
 11
41.692308
 21
13.235718
 31
0.000000
  0
POLYLINE
  8
MERGEDLAYER-1
  6
LTYPE01
 66
  1
 70
  0
 62
  7
  6
LTYPE01
 10
46.313481
 20
14.667133
 30
0.000000
  0
VERTEX
  8
MERGEDLAYER-1
  6
LTYPE01
 10
46.313481
 20
14.667133
 30
0.000000
  0
VERTEX
  8
MERGEDLAYER-1
  6
LTYPE01
 10
46.313481
 20
12.334050
 30
0.000000
  0
SEQEND
  8
MERGEDLAYER-1
  0
POLYLINE
  8
MERGEDLAYER-1
  6
LTYPE01
 66
  1
 70
  1
 62
  7
  0
VERTEX
  8
MERGEDLAYER-1
  6
LTYPE01
 10
46.314143
 20
15.320153
 30
0.000000
  0
VERTEX
  8
MERGEDLAYER-1
  6
LTYPE01
 10
47.528954
 20
15.320153
 30
0.000000
  0
VERTEX
  8
MERGEDLAYER-1
  6
LTYPE01
 10
47.528954
 20
11.697378
 30
0.000000
  0
VERTEX
  8
MERGEDLAYER-1
  6
LTYPE01
 10
46.314143
 20
11.697378
 30
0.000000
  0
SEQEND
  8
MERGEDLAYER-1
  0
POLYLINE
  8
MERGEDLAYER-1
 66
  1
 70
  0
 62
  7
 10
47.528954
 20
11.497507
 30
0.000000
  0
VERTEX
  8
MERGEDLAYER-1
 10
47.528954
 20
11.497507
 30
0.000000
  0
VERTEX
  8
MERGEDLAYER-1
 10
47.528954
 20
15.507949
 30
0.000000
  0
SEQEND
  8
MERGEDLAYER-1
  0
POLYLINE
  8
MERGEDLAYER-1
 66
  1
 70
  1
 62
  7
  0
VERTEX
  8
MERGEDLAYER-1
 10
48.791180
 20
15.388944
 30
0.000000
  0
VERTEX
  8
MERGEDLAYER-1
 10
48.791180
 20
11.102624
 30
0.000000
  0
VERTEX
  8
MERGEDLAYER-1
 10
47.659598
 20
11.102624
 30
0.000000
  0
VERTEX
  8
MERGEDLAYER-1
 10
47.659598
 20
15.388944
 30
0.000000
  0
SEQEND
  8
MERGEDLAYER-1
  0
POLYLINE
  8
MERGEDLAYER-1
 66
  1
 70
  0
 62
  7
 10
48.463604
 20
11.657860
 30
0.000000
  0
VERTEX
  8
MERGEDLAYER-1
 10
48.463604
 20
11.657860
 30
0.000000
  0
VERTEX
  8
MERGEDLAYER-1
 10
48.445505
 20
11.748845
 30
0.000000
  0
VERTEX
  8
MERGEDLAYER-1
 10
48.393968
 20
11.825984
 30
0.000000
  0
VERTEX
  8
MERGEDLAYER-1
 10
48.316833
 20
11.877521
 30
0.000000
  0
VERTEX
  8
MERGEDLAYER-1
 10
48.225854
 20
11.895620
 30
0.000000
  0
VERTEX
  8
MERGEDLAYER-1
 10
48.134869
 20
11.877521
 30
0.000000
  0
VERTEX
  8
MERGEDLAYER-1
 10
48.057735
 20
11.825984
 30
0.000000
  0
VERTEX
  8
MERGEDLAYER-1
 10
48.006197
 20
11.748845
 30
0.000000
  0
VERTEX
  8
MERGEDLAYER-1
 10
47.988103
 20
11.657860
 30
0.000000
  0
VERTEX
  8
MERGEDLAYER-1
 10
48.006197
 20
11.566876
 30
0.000000
  0
VERTEX
  8
MERGEDLAYER-1
 10
48.057735
 20
11.489737
 30
0.000000
  0
VERTEX
  8
MERGEDLAYER-1
 10
48.134869
 20
11.438200
 30
0.000000
  0
VERTEX
  8
MERGEDLAYER-1
 10
48.225854
 20
11.420105
 30
0.000000
  0
VERTEX
  8
MERGEDLAYER-1
 10
48.316833
 20
11.438200
 30
0.000000
  0
VERTEX
  8
MERGEDLAYER-1
 10
48.393968
 20
11.489737
 30
0.000000
  0
VERTEX
  8
MERGEDLAYER-1
 10
48.445505
 20
11.566876
 30
0.000000
  0
VERTEX
  8
MERGEDLAYER-1
 10
48.463604
 20
11.657860
 30
0.000000
  0
SEQEND
  8
MERGEDLAYER-1
  0
POLYLINE
  8
MERGEDLAYER-1
 66
  1
 70
  1
 62
  7
  0
VERTEX
  8
MERGEDLAYER-1
 10
47.659598
 20
15.507949
 30
0.000000
  0
VERTEX
  8
MERGEDLAYER-1
 10
47.659598
 20
11.495704
 30
0.000000
  0
VERTEX
  8
MERGEDLAYER-1
 10
47.528954
 20
11.495704
 30
0.000000
  0
VERTEX
  8
MERGEDLAYER-1
 10
47.528954
 20
15.507949
 30
0.000000
  0
SEQEND
  8
MERGEDLAYER-1
  0
POLYLINE
  8
MERGEDLAYER-1
 66
  1
 70
  0
 62
253
 10
48.788673
 20
11.901902
 30
0.000000
  0
VERTEX
  8
MERGEDLAYER-1
 10
48.788673
 20
11.901902
 30
0.000000
  0
VERTEX
  8
MERGEDLAYER-1
 10
47.662105
 20
11.901902
 30
0.000000
  0
SEQEND
  8
MERGEDLAYER-1
  0
POLYLINE
  8
MERGEDLAYER-1
 66
  1
 70
  0
 62
253
 10
48.788673
 20
14.979896
 30
0.000000
  0
VERTEX
  8
MERGEDLAYER-1
 10
48.788673
 20
14.979896
 30
0.000000
  0
VERTEX
  8
MERGEDLAYER-1
 10
47.672161
 20
14.979896
 30
0.000000
  0
SEQEND
  8
MERGEDLAYER-1
  0
POLYLINE
  8
MERGEDLAYER-1
 66
  1
 70
  0
 62
  7
 10
47.873333
 20
14.273198
 30
0.000000
  0
VERTEX
  8
MERGEDLAYER-1
 10
47.873333
 20
14.273198
 30
0.000000
  0
VERTEX
  8
MERGEDLAYER-1
 10
47.873333
 20
12.808091
 30
0.000000
  0
SEQEND
  8
MERGEDLAYER-1
  0
POLYLINE
  8
MERGEDLAYER-1
 66
  1
 70
  0
 62
  7
 10
48.407705
 20
12.767738
 30
0.000000
  0
VERTEX
  8
MERGEDLAYER-1
 10
48.407705
 20
12.767738
 30
0.000000
  0
VERTEX
  8
MERGEDLAYER-1
 10
48.375038
 20
12.861140
 30
0.000000
  0
VERTEX
  8
MERGEDLAYER-1
 10
48.311692
 20
12.933871
 30
0.000000
  0
VERTEX
  8
MERGEDLAYER-1
 10
48.225337
 20
12.976825
 30
0.000000
  0
VERTEX
  8
MERGEDLAYER-1
 10
48.162523
 20
12.983492
 30
0.000000
  0
SEQEND
  8
MERGEDLAYER-1
  0
POLYLINE
  8
MERGEDLAYER-1
 66
  1
 70
  1
 62
  7
 10
48.407691
 20
12.767738
 30
0.000000
  0
VERTEX
  8
MERGEDLAYER-1
 10
48.407691
 20
12.767738
 30
0.000000
  0
VERTEX
  8
MERGEDLAYER-1
 10
48.356140
 20
12.811749
 30
0.000000
  0
VERTEX
  8
MERGEDLAYER-1
 10
48.426561
 20
12.826839
 30
0.000000
  0
SEQEND
  8
MERGEDLAYER-1
  0
POLYLINE
  8
MERGEDLAYER-1
 66
  1
 70
  1
 62
  7
 10
48.162523
 20
12.983506
 30
0.000000
  0
VERTEX
  8
MERGEDLAYER-1
 10
48.162523
 20
12.983506
 30
0.000000
  0
VERTEX
  8
MERGEDLAYER-1
 10
48.210304
 20
12.942524
 30
0.000000
  0
VERTEX
  8
MERGEDLAYER-1
 10
48.210304
 20
13.012935
 30
0.000000
  0
SEQEND
  8
MERGEDLAYER-1
  0
POLYLINE
  8
MERGEDLAYER-1
 66
  1
 70
  0
 62
  7
 10
48.162523
 20
14.037677
 30
0.000000
  0
VERTEX
  8
MERGEDLAYER-1
 10
48.162523
 20
14.037677
 30
0.000000
  0
VERTEX
  8
MERGEDLAYER-1
 10
48.255146
 20
14.058462
 30
0.000000
  0
VERTEX
  8
MERGEDLAYER-1
 10
48.335337
 20
14.112046
 30
0.000000
  0
VERTEX
  8
MERGEDLAYER-1
 10
48.388921
 20
14.192247
 30
0.000000
  0
VERTEX
  8
MERGEDLAYER-1
 10
48.407705
 20
14.253437
 30
0.000000
  0
SEQEND
  8
MERGEDLAYER-1
  0
POLYLINE
  8
MERGEDLAYER-1
 66
  1
 70
  1
 62
  7
 10
48.407691
 20
14.253437
 30
0.000000
  0
VERTEX
  8
MERGEDLAYER-1
 10
48.407691
 20
14.253437
 30
0.000000
  0
VERTEX
  8
MERGEDLAYER-1
 10
48.356140
 20
14.209421
 30
0.000000
  0
VERTEX
  8
MERGEDLAYER-1
 10
48.426561
 20
14.194336
 30
0.000000
  0
SEQEND
  8
MERGEDLAYER-1
  0
POLYLINE
  8
MERGEDLAYER-1
 66
  1
 70
  1
 62
  7
 10
48.162523
 20
14.037677
 30
0.000000
  0
VERTEX
  8
MERGEDLAYER-1
 10
48.162523
 20
14.037677
 30
0.000000
  0
VERTEX
  8
MERGEDLAYER-1
 10
48.210304
 20
14.078665
 30
0.000000
  0
VERTEX
  8
MERGEDLAYER-1
 10
48.210304
 20
14.008249
 30
0.000000
  0
SEQEND
  8
MERGEDLAYER-1
  0
POLYLINE
  8
MERGEDLAYER-1
 66
  1
 70
  0
 62
253
 10
48.234187
 20
11.107220
 30
0.000000
  0
VERTEX
  8
MERGEDLAYER-1
 10
48.234187
 20
11.107220
 30
0.000000
  0
VERTEX
  8
MERGEDLAYER-1
 10
48.234187
 20
15.386484
 30
0.000000
  0
SEQEND
  8
MERGEDLAYER-1
  0
POLYLINE
  8
MERGEDLAYER-1
 66
  1
 70
  1
 62
  7
 10
48.296518
 20
11.773104
 30
0.000000
  0
VERTEX
  8
MERGEDLAYER-1
 10
48.296518
 20
11.773104
 30
0.000000
  0
VERTEX
  8
MERGEDLAYER-1
 10
48.154264
 20
11.773104
 30
0.000000
  0
VERTEX
  8
MERGEDLAYER-1
 10
48.083120
 20
11.649888
 30
0.000000
  0
VERTEX
  8
MERGEDLAYER-1
 10
48.154245
 20
11.526654
 30
0.000000
  0
VERTEX
  8
MERGEDLAYER-1
 10
48.296518
 20
11.526654
 30
0.000000
  0
VERTEX
  8
MERGEDLAYER-1
 10
48.367676
 20
11.649888
 30
0.000000
  0
SEQEND
  8
MERGEDLAYER-1
  0
POLYLINE
  8
MERGEDLAYER-1
 66
  1
 70
  0
 62
  7
 10
48.581660
 20
13.562631
 30
0.000000
  0
VERTEX
  8
MERGEDLAYER-1
 10
48.581660
 20
13.562631
 30
0.000000
  0
VERTEX
  8
MERGEDLAYER-1
 10
48.581660
 20
14.111845
 30
0.000000
  0
SEQEND
  8
MERGEDLAYER-1
  0
POLYLINE
  8
MERGEDLAYER-1
 66
  1
 70
  1
 62
  7
 10
48.655893
 20
13.872286
 30
0.000000
  0
VERTEX
  8
MERGEDLAYER-1
 10
48.655893
 20
13.872286
 30
0.000000
  0
VERTEX
  8
MERGEDLAYER-1
 10
48.489309
 20
13.872286
 30
0.000000
  0
VERTEX
  8
MERGEDLAYER-1
 10
48.583459
 20
14.140249
 30
0.000000
  0
SEQEND
  8
MERGEDLAYER-1
  0
POLYLINE
  8
MERGEDLAYER-1
 66
  1
 70
  0
 62
  7
 10
48.581660
 20
13.429303
 30
0.000000
  0
VERTEX
  8
MERGEDLAYER-1
 10
48.581660
 20
13.429303
 30
0.000000
  0
VERTEX
  8
MERGEDLAYER-1
 10
48.581660
 20
12.880085
 30
0.000000
  0
SEQEND
  8
MERGEDLAYER-1
  0
POLYLINE
  8
MERGEDLAYER-1
 66
  1
 70
  1
 62
  7
 10
48.655893
 20
13.125737
 30
0.000000
  0
VERTEX
  8
MERGEDLAYER-1
 10
48.655893
 20
13.125737
 30
0.000000
  0
VERTEX
  8
MERGEDLAYER-1
 10
48.489324
 20
13.125737
 30
0.000000
  0
VERTEX
  8
MERGEDLAYER-1
 10
48.583459
 20
12.857755
 30
0.000000
  0
SEQEND
  8
MERGEDLAYER-1
  0
POLYLINE
  8
MERGEDLAYER-1
 66
  1
 70
  0
 62
253
 10
48.788673
 20
12.039959
 30
0.000000
  0
VERTEX
  8
MERGEDLAYER-1
 10
48.788673
 20
12.039959
 30
0.000000
  0
VERTEX
  8
MERGEDLAYER-1
 10
47.662105
 20
12.039959
 30
0.000000
  0
SEQEND
  8
MERGEDLAYER-1
  0
TEXT
  8
MERGEDLAYER-1
 62
  7
 10
47.923077
 20
14.235718
 30
0.000000
 40
0.288462
  1
+
 50
270.000000
 72
  5
 11
47.923077
 21
13.620333
 31
0.000000
  0
TEXT
  8
MERGEDLAYER-1
 62
  7
 10
48.307692
 20
12.697256
 30
0.000000
 40
0.288462
  1
+
 50
270.000000
 72
  5
 11
48.307692
 21
12.081872
 31
0.000000
  0
TEXT
  8
MERGEDLAYER-1
 62
  7
 10
48.692308
 20
14.697256
 30
0.000000
 40
0.288462
  1
_
 50
270.000000
 72
  5
 11
48.692308
 21
14.081872
 31
0.000000
  0
TEXT
  8
MERGEDLAYER-1
 62
  7
 10
48.076923
 20
13.312641
 30
0.000000
 40
0.288462
  1
_
 50
270.000000
 72
  5
 11
48.076923
 21
12.697256
 31
0.000000
  0
POLYLINE
  8
MERGEDLAYER-1
 66
  1
 70
  0
 62
  7
 10
48.049424
 20
13.489413
 30
0.000000
  0
VERTEX
  8
MERGEDLAYER-1
 10
48.049424
 20
13.489413
 30
0.000000
  0
VERTEX
  8
MERGEDLAYER-1
 10
47.994920
 20
13.621000
 30
0.000000
  0
VERTEX
  8
MERGEDLAYER-1
 10
47.863338
 20
13.675504
 30
0.000000
  0
VERTEX
  8
MERGEDLAYER-1
 10
47.731755
 20
13.621000
 30
0.000000
  0
VERTEX
  8
MERGEDLAYER-1
 10
47.677255
 20
13.489413
 30
0.000000
  0
VERTEX
  8
MERGEDLAYER-1
 10
47.731755
 20
13.357826
 30
0.000000
  0
VERTEX
  8
MERGEDLAYER-1
 10
47.863338
 20
13.303317
 30
0.000000
  0
VERTEX
  8
MERGEDLAYER-1
 10
47.994920
 20
13.357826
 30
0.000000
  0
VERTEX
  8
MERGEDLAYER-1
 10
48.049424
 20
13.489413
 30
0.000000
  0
SEQEND
  8
MERGEDLAYER-1
  0
POLYLINE
  8
MERGEDLAYER-1
 66
  1
 70
  0
 62
  7
 10
46.529034
 20
11.093975
 30
0.000000
  0
VERTEX
  8
MERGEDLAYER-1
 10
46.529034
 20
11.093975
 30
0.000000
  0
VERTEX
  8
MERGEDLAYER-1
 10
46.867554
 20
11.743239
 30
0.000000
  0
VERTEX
  8
MERGEDLAYER-1
 10
47.060660
 20
12.361323
 30
0.000000
  0
SEQEND
  8
MERGEDLAYER-1
  0
POLYLINE
  8
MERGEDLAYER-1
 66
  1
 70
  0
 62
  7
 10
47.910020
 20
13.378380
 30
0.000000
  0
VERTEX
  8
MERGEDLAYER-1
 10
47.910020
 20
13.378380
 30
0.000000
  0
VERTEX
  8
MERGEDLAYER-1
 10
47.636057
 20
13.211562
 30
0.000000
  0
VERTEX
  8
MERGEDLAYER-1
 10
47.402222
 20
12.992957
 30
0.000000
  0
VERTEX
  8
MERGEDLAYER-1
 10
47.215525
 20
12.732929
 30
0.000000
  0
VERTEX
  8
MERGEDLAYER-1
 10
47.083144
 20
12.441472
 30
0.000000
  0
VERTEX
  8
MERGEDLAYER-1
 10
47.060664
 20
12.361328
 30
0.000000
  0
SEQEND
  8
MERGEDLAYER-1
  0
POLYLINE
  8
MERGEDLAYER-1
 66
  1
 70
  0
 62
  7
 10
47.910015
 20
13.378376
 30
0.000000
  0
VERTEX
  8
MERGEDLAYER-1
 10
47.910015
 20
13.378376
 30
0.000000
  0
VERTEX
  8
MERGEDLAYER-1
 10
47.804946
 20
13.593060
 30
0.000000
  0
SEQEND
  8
MERGEDLAYER-1
  0
POLYLINE
  8
MERGEDLAYER-1
 66
  1
 70
  0
 62
  7
 10
47.804946
 20
13.593060
 30
0.000000
  0
VERTEX
  8
MERGEDLAYER-1
 10
47.804946
 20
13.593060
 30
0.000000
  0
VERTEX
  8
MERGEDLAYER-1
 10
47.493385
 20
13.403795
 30
0.000000
  0
VERTEX
  8
MERGEDLAYER-1
 10
47.227041
 20
13.155827
 30
0.000000
  0
VERTEX
  8
MERGEDLAYER-1
 10
47.014193
 20
12.860661
 30
0.000000
  0
VERTEX
  8
MERGEDLAYER-1
 10
46.863018
 20
12.529644
 30
0.000000
  0
VERTEX
  8
MERGEDLAYER-1
 10
46.829266
 20
12.411128
 30
0.000000
  0
SEQEND
  8
MERGEDLAYER-1
  0
POLYLINE
  8
MERGEDLAYER-1
 66
  1
 70
  0
 62
  7
 10
46.331383
 20
11.224173
 30
0.000000
  0
VERTEX
  8
MERGEDLAYER-1
 10
46.331383
 20
11.224173
 30
0.000000
  0
VERTEX
  8
MERGEDLAYER-1
 10
46.648301
 20
11.832365
 30
0.000000
  0
VERTEX
  8
MERGEDLAYER-1
 10
46.829280
 20
12.411123
 30
0.000000
  0
SEQEND
  8
MERGEDLAYER-1
  0
POLYLINE
  8
MERGEDLAYER-1
 66
  1
 70
  0
 62
  7
 10
46.529034
 20
11.093980
 30
0.000000
  0
VERTEX
  8
MERGEDLAYER-1
 10
46.529034
 20
11.093980
 30
0.000000
  0
VERTEX
  8
MERGEDLAYER-1
 10
46.331383
 20
11.224173
 30
0.000000
  0
SEQEND
  8
MERGEDLAYER-1
  0
POLYLINE
  8
MERGEDLAYER-1
 66
  1
 70
  0
 62
255
 10
47.985807
 20
13.489413
 30
0.000000
  0
VERTEX
  8
MERGEDLAYER-1
 10
47.985807
 20
13.489413
 30
0.000000
  0
VERTEX
  8
MERGEDLAYER-1
 10
47.949937
 20
13.576012
 30
0.000000
  0
VERTEX
  8
MERGEDLAYER-1
 10
47.863338
 20
13.611892
 30
0.000000
  0
VERTEX
  8
MERGEDLAYER-1
 10
47.776738
 20
13.576012
 30
0.000000
  0
VERTEX
  8
MERGEDLAYER-1
 10
47.740868
 20
13.489413
 30
0.000000
  0
VERTEX
  8
MERGEDLAYER-1
 10
47.776738
 20
13.402809
 30
0.000000
  0
VERTEX
  8
MERGEDLAYER-1
 10
47.863338
 20
13.366934
 30
0.000000
  0
VERTEX
  8
MERGEDLAYER-1
 10
47.949937
 20
13.402809
 30
0.000000
  0
VERTEX
  8
MERGEDLAYER-1
 10
47.985807
 20
13.489413
 30
0.000000
  0
SEQEND
  8
MERGEDLAYER-1
  0
POLYLINE
  8
MERGEDLAYER-1
 66
  1
 70
  0
 62
  7
 10
47.911443
 20
13.374887
 30
0.000000
  0
VERTEX
  8
MERGEDLAYER-1
 10
47.911443
 20
13.374887
 30
0.000000
  0
VERTEX
  8
MERGEDLAYER-1
 10
47.975553
 20
13.442453
 30
0.000000
  0
VERTEX
  8
MERGEDLAYER-1
 10
47.975891
 20
13.535555
 30
0.000000
  0
VERTEX
  8
MERGEDLAYER-1
 10
47.910297
 20
13.601628
 30
0.000000
  0
VERTEX
  8
MERGEDLAYER-1
 10
47.817200
 20
13.601966
 30
0.000000
  0
VERTEX
  8
MERGEDLAYER-1
 10
47.804960
 20
13.593060
 30
0.000000
  0
SEQEND
  8
MERGEDLAYER-1
  0
POLYLINE
  8
MERGEDLAYER-1
 66
  1
 70
  1
 62
255
  0
VERTEX
  8
MERGEDLAYER-1
 10
46.658278
 20
11.279489
 30
0.000000
  0
VERTEX
  8
MERGEDLAYER-1
 10
46.658278
 20
11.028020
 30
0.000000
  0
VERTEX
  8
MERGEDLAYER-1
 10
46.255934
 20
11.028020
 30
0.000000
  0
VERTEX
  8
MERGEDLAYER-1
 10
46.255934
 20
11.279489
 30
0.000000
  0
SEQEND
  8
MERGEDLAYER-1
  0
POLYLINE
  8
MERGEDLAYER-1
 66
  1
 70
  0
 62
  7
 10
47.986511
 20
14.343623
 30
0.000000
  0
VERTEX
  8
MERGEDLAYER-1
 10
47.986511
 20
14.343623
 30
0.000000
  0
VERTEX
  8
MERGEDLAYER-1
 10
47.949843
 20
14.432162
 30
0.000000
  0
VERTEX
  8
MERGEDLAYER-1
 10
47.861309
 20
14.468830
 30
0.000000
  0
VERTEX
  8
MERGEDLAYER-1
 10
47.772776
 20
14.432162
 30
0.000000
  0
VERTEX
  8
MERGEDLAYER-1
 10
47.736107
 20
14.343623
 30
0.000000
  0
VERTEX
  8
MERGEDLAYER-1
 10
47.772776
 20
14.255085
 30
0.000000
  0
VERTEX
  8
MERGEDLAYER-1
 10
47.861309
 20
14.218417
 30
0.000000
  0
VERTEX
  8
MERGEDLAYER-1
 10
47.949843
 20
14.255085
 30
0.000000
  0
VERTEX
  8
MERGEDLAYER-1
 10
47.986511
 20
14.343623
 30
0.000000
  0
SEQEND
  8
MERGEDLAYER-1
  0
POLYLINE
  8
MERGEDLAYER-1
 66
  1
 70
  0
 62
  7
 10
47.986511
 20
12.708529
 30
0.000000
  0
VERTEX
  8
MERGEDLAYER-1
 10
47.986511
 20
12.708529
 30
0.000000
  0
VERTEX
  8
MERGEDLAYER-1
 10
47.949843
 20
12.797063
 30
0.000000
  0
VERTEX
  8
MERGEDLAYER-1
 10
47.861309
 20
12.833736
 30
0.000000
  0
VERTEX
  8
MERGEDLAYER-1
 10
47.772776
 20
12.797063
 30
0.000000
  0
VERTEX
  8
MERGEDLAYER-1
 10
47.736107
 20
12.708529
 30
0.000000
  0
VERTEX
  8
MERGEDLAYER-1
 10
47.772776
 20
12.619990
 30
0.000000
  0
VERTEX
  8
MERGEDLAYER-1
 10
47.861309
 20
12.583318
 30
0.000000
  0
VERTEX
  8
MERGEDLAYER-1
 10
47.949843
 20
12.619990
 30
0.000000
  0
VERTEX
  8
MERGEDLAYER-1
 10
47.986511
 20
12.708529
 30
0.000000
  0
SEQEND
  8
MERGEDLAYER-1
  0
POLYLINE
  8
MERGEDLAYER-1
 66
  1
 70
  0
 62
  7
 10
28.537412
 20
15.507949
 30
0.000000
  0
VERTEX
  8
MERGEDLAYER-1
 10
28.537412
 20
15.507949
 30
0.000000
  0
VERTEX
  8
MERGEDLAYER-1
 10
47.528954
 20
15.507949
 30
0.000000
  0
SEQEND
  8
MERGEDLAYER-1
  0
POLYLINE
  8
MERGEDLAYER-1
  6
LTYPE01
 66
  1
 70
  0
 62
  7
  6
LTYPE01
 10
28.485140
 20
14.666682
 30
0.000000
  0
VERTEX
  8
MERGEDLAYER-1
  6
LTYPE01
 10
28.485140
 20
14.666682
 30
0.000000
  0
VERTEX
  8
MERGEDLAYER-1
  6
LTYPE01
 10
46.313481
 20
14.667133
 30
0.000000
  0
SEQEND
  8
MERGEDLAYER-1
  0
POLYLINE
  8
MERGEDLAYER-1
  6
LTYPE01
 66
  1
 70
  0
 62
  7
  6
LTYPE01
 10
46.313481
 20
12.334050
 30
0.000000
  0
VERTEX
  8
MERGEDLAYER-1
  6
LTYPE01
 10
46.313481
 20
12.334050
 30
0.000000
  0
VERTEX
  8
MERGEDLAYER-1
  6
LTYPE01
 10
30.119690
 20
12.339750
 30
0.000000
  0
SEQEND
  8
MERGEDLAYER-1
  0
POLYLINE
  8
MERGEDLAYER-1
 66
  1
 70
  1
 62
  7
  0
VERTEX
  8
MERGEDLAYER-1
 10
46.696134
 20
17.514874
 30
0.000000
  0
VERTEX
  8
MERGEDLAYER-1
 10
46.915983
 20
17.514874
 30
0.000000
  0
VERTEX
  8
MERGEDLAYER-1
 10
46.915983
 20
17.390489
 30
0.000000
  0
VERTEX
  8
MERGEDLAYER-1
 10
46.696134
 20
17.390489
 30
0.000000
  0
SEQEND
  8
MERGEDLAYER-1
  0
POLYLINE
  8
MERGEDLAYER-1
 66
  1
 70
  0
 62
  7
 10
46.646771
 20
17.389897
 30
0.000000
  0
VERTEX
  8
MERGEDLAYER-1
 10
46.646771
 20
17.389897
 30
0.000000
  0
VERTEX
  8
MERGEDLAYER-1
 10
46.959252
 20
17.389897
 30
0.000000
  0
SEQEND
  8
MERGEDLAYER-1
  0
POLYLINE
  8
MERGEDLAYER-1
 66
  1
 70
  1
 62
  7
  0
VERTEX
  8
MERGEDLAYER-1
 10
46.915983
 20
18.199702
 30
0.000000
  0
VERTEX
  8
MERGEDLAYER-1
 10
46.696134
 20
18.199702
 30
0.000000
  0
VERTEX
  8
MERGEDLAYER-1
 10
46.696134
 20
18.324087
 30
0.000000
  0
VERTEX
  8
MERGEDLAYER-1
 10
46.915983
 20
18.324087
 30
0.000000
  0
SEQEND
  8
MERGEDLAYER-1
  0
POLYLINE
  8
MERGEDLAYER-1
 66
  1
 70
  0
 62
  7
 10
46.646771
 20
18.324679
 30
0.000000
  0
VERTEX
  8
MERGEDLAYER-1
 10
46.646771
 20
18.324679
 30
0.000000
  0
VERTEX
  8
MERGEDLAYER-1
 10
46.959252
 20
18.324679
 30
0.000000
  0
SEQEND
  8
MERGEDLAYER-1
  0
POLYLINE
  8
MERGEDLAYER-1
 66
  1
 70
  1
 62
  7
  0
VERTEX
  8
MERGEDLAYER-1
 10
14.045143
 20
17.505845
 30
0.000000
  0
VERTEX
  8
MERGEDLAYER-1
 10
14.264997
 20
17.505845
 30
0.000000
  0
VERTEX
  8
MERGEDLAYER-1
 10
14.264997
 20
17.381465
 30
0.000000
  0
VERTEX
  8
MERGEDLAYER-1
 10
14.045143
 20
17.381465
 30
0.000000
  0
SEQEND
  8
MERGEDLAYER-1
  0
POLYLINE
  8
MERGEDLAYER-1
 66
  1
 70
  0
 62
  7
 10
14.314360
 20
17.380873
 30
0.000000
  0
VERTEX
  8
MERGEDLAYER-1
 10
14.314360
 20
17.380873
 30
0.000000
  0
VERTEX
  8
MERGEDLAYER-1
 10
14.001876
 20
17.380873
 30
0.000000
  0
SEQEND
  8
MERGEDLAYER-1
  0
POLYLINE
  8
MERGEDLAYER-1
 66
  1
 70
  1
 62
  7
  0
VERTEX
  8
MERGEDLAYER-1
 10
14.264997
 20
18.190683
 30
0.000000
  0
VERTEX
  8
MERGEDLAYER-1
 10
14.045143
 20
18.190683
 30
0.000000
  0
VERTEX
  8
MERGEDLAYER-1
 10
14.045143
 20
18.315068
 30
0.000000
  0
VERTEX
  8
MERGEDLAYER-1
 10
14.264997
 20
18.315068
 30
0.000000
  0
SEQEND
  8
MERGEDLAYER-1
  0
POLYLINE
  8
MERGEDLAYER-1
 66
  1
 70
  0
 62
  7
 10
14.314360
 20
18.315655
 30
0.000000
  0
VERTEX
  8
MERGEDLAYER-1
 10
14.314360
 20
18.315655
 30
0.000000
  0
VERTEX
  8
MERGEDLAYER-1
 10
14.001876
 20
18.315655
 30
0.000000
  0
SEQEND
  8
MERGEDLAYER-1
  0
POLYLINE
  8
MERGEDLAYER-1
 66
  1
 70
  1
 62
  7
  0
VERTEX
  8
MERGEDLAYER-1
 10
7.180333
 20
56.593266
 30
0.000000
  0
VERTEX
  8
MERGEDLAYER-1
 10
28.088726
 20
56.593266
 30
0.000000
  0
VERTEX
  8
MERGEDLAYER-1
 10
28.088726
 20
55.284405
 30
0.000000
  0
VERTEX
  8
MERGEDLAYER-1
 10
7.180333
 20
55.284405
 30
0.000000
  0
SEQEND
  8
MERGEDLAYER-1
  0
POLYLINE
  8
MERGEDLAYER-1
 66
  1
 70
  1
 62
  7
 10
6.786722
 20
55.771696
 30
0.000000
  0
VERTEX
  8
MERGEDLAYER-1
 10
6.786722
 20
55.771696
 30
0.000000
  0
VERTEX
  8
MERGEDLAYER-1
 10
7.180332
 20
55.771696
 30
0.000000
  0
VERTEX
  8
MERGEDLAYER-1
 10
7.180332
 20
56.084196
 30
0.000000
  0
VERTEX
  8
MERGEDLAYER-1
 10
6.786722
 20
56.084196
 30
0.000000
  0
SEQEND
  8
MERGEDLAYER-1
  0
POLYLINE
  8
MERGEDLAYER-1
 66
  1
 70
  1
 62
  7
 10
6.990714
 20
56.139292
 30
0.000000
  0
VERTEX
  8
MERGEDLAYER-1
 10
6.990714
 20
56.139292
 30
0.000000
  0
VERTEX
  8
MERGEDLAYER-1
 10
6.990714
 20
56.139292
 30
0.000000
  0
VERTEX
  8
MERGEDLAYER-1
 10
6.990714
 20
56.254155
 30
0.000000
  0
VERTEX
  8
MERGEDLAYER-1
 10
6.917035
 20
56.284490
 30
0.000000
  0
VERTEX
  8
MERGEDLAYER-1
 10
6.917035
 20
56.520696
 30
0.000000
  0
VERTEX
  8
MERGEDLAYER-1
 10
6.844002
 20
56.520696
 30
0.000000
  0
VERTEX
  8
MERGEDLAYER-1
 10
6.844808
 20
56.284490
 30
0.000000
  0
VERTEX
  8
MERGEDLAYER-1
 10
6.844808
 20
56.284490
 30
0.000000
  0
VERTEX
  8
MERGEDLAYER-1
 10
6.844808
 20
55.582379
 30
0.000000
  0
VERTEX
  8
MERGEDLAYER-1
 10
6.844808
 20
55.582379
 30
0.000000
  0
VERTEX
  8
MERGEDLAYER-1
 10
6.844002
 20
55.350464
 30
0.000000
  0
VERTEX
  8
MERGEDLAYER-1
 10
6.916230
 20
55.350464
 30
0.000000
  0
VERTEX
  8
MERGEDLAYER-1
 10
6.917035
 20
55.582379
 30
0.000000
  0
VERTEX
  8
MERGEDLAYER-1
 10
6.990714
 20
55.612727
 30
0.000000
  0
VERTEX
  8
MERGEDLAYER-1
 10
6.990714
 20
55.724314
 30
0.000000
  0
VERTEX
  8
MERGEDLAYER-1
 10
6.990714
 20
55.724314
 30
0.000000
  0
SEQEND
  8
MERGEDLAYER-1
  0
POLYLINE
  8
MERGEDLAYER-1
 66
  1
 70
  1
 62
  7
  0
VERTEX
  8
MERGEDLAYER-1
 10
6.990714
 20
56.139292
 30
0.000000
  0
VERTEX
  8
MERGEDLAYER-1
 10
7.121806
 20
56.139292
 30
0.000000
  0
VERTEX
  8
MERGEDLAYER-1
 10
7.121806
 20
55.724314
 30
0.000000
  0
VERTEX
  8
MERGEDLAYER-1
 10
6.990714
 20
55.724314
 30
0.000000
  0
SEQEND
  8
MERGEDLAYER-1
  0
POLYLINE
  8
MERGEDLAYER-1
 66
  1
 70
  1
 62
  7
  0
VERTEX
  8
MERGEDLAYER-1
 10
6.787714
 20
56.520696
 30
0.000000
  0
VERTEX
  8
MERGEDLAYER-1
 10
6.844002
 20
56.520696
 30
0.000000
  0
VERTEX
  8
MERGEDLAYER-1
 10
6.844002
 20
55.350464
 30
0.000000
  0
VERTEX
  8
MERGEDLAYER-1
 10
6.787714
 20
55.350464
 30
0.000000
  0
SEQEND
  8
MERGEDLAYER-1
  0
POLYLINE
  8
MERGEDLAYER-1
 66
  1
 70
  0
 62
  7
 10
6.844808
 20
56.284490
 30
0.000000
  0
VERTEX
  8
MERGEDLAYER-1
 10
6.844808
 20
56.284490
 30
0.000000
  0
VERTEX
  8
MERGEDLAYER-1
 10
6.844808
 20
55.582379
 30
0.000000
  0
SEQEND
  8
MERGEDLAYER-1
  0
POLYLINE
  8
MERGEDLAYER-1
 66
  1
 70
  1
 62
  7
 10
28.194486
 20
56.471642
 30
0.000000
  0
VERTEX
  8
MERGEDLAYER-1
 10
28.194486
 20
56.471642
 30
0.000000
  0
VERTEX
  8
MERGEDLAYER-1
 10
28.450484
 20
56.471642
 30
0.000000
  0
VERTEX
  8
MERGEDLAYER-1
 10
28.450484
 20
55.399517
 30
0.000000
  0
VERTEX
  8
MERGEDLAYER-1
 10
28.092332
 20
55.399517
 30
0.000000
  0
VERTEX
  8
MERGEDLAYER-1
 10
28.092332
 20
56.420950
 30
0.000000
  0
VERTEX
  8
MERGEDLAYER-1
 10
28.194486
 20
56.420950
 30
0.000000
  0
SEQEND
  8
MERGEDLAYER-1
  0
POLYLINE
  8
MERGEDLAYER-1
 66
  1
 70
  1
 62
  7
  0
VERTEX
  8
MERGEDLAYER-1
 10
8.398229
 20
56.240094
 30
0.000000
  0
VERTEX
  8
MERGEDLAYER-1
 10
11.661978
 20
56.240094
 30
0.000000
  0
VERTEX
  8
MERGEDLAYER-1
 10
11.661978
 20
55.476206
 30
0.000000
  0
VERTEX
  8
MERGEDLAYER-1
 10
8.398229
 20
55.476206
 30
0.000000
  0
SEQEND
  8
MERGEDLAYER-1
  0
TEXT
  8
MERGEDLAYER-1
 62
  7
 10
8.461538
 20
55.543410
 30
0.000000
 40
0.576923
  1
BARREL
 72
  5
 11
12.000000
 21
55.543410
 31
0.000000
  0
POLYLINE
  8
MERGEDLAYER-1
 66
  1
 70
  0
 62
  7
 10
28.096154
 20
51.771719
 30
0.000000
  0
VERTEX
  8
MERGEDLAYER-1
 10
28.096154
 20
51.771719
 30
0.000000
  0
VERTEX
  8
MERGEDLAYER-1
 10
28.136223
 20
51.554387
 30
0.000000
  0
SEQEND
  8
MERGEDLAYER-1
  0
POLYLINE
  8
MERGEDLAYER-1
 66
  1
 70
  0
 62
  7
 10
28.088240
 20
51.901123
 30
0.000000
  0
VERTEX
  8
MERGEDLAYER-1
 10
28.088240
 20
51.901123
 30
0.000000
  0
VERTEX
  8
MERGEDLAYER-1
 10
28.094015
 20
51.774372
 30
0.000000
  0
VERTEX
  8
MERGEDLAYER-1
 10
28.096166
 20
51.771710
 30
0.000000
  0
SEQEND
  8
MERGEDLAYER-1
  0
POLYLINE
  8
MERGEDLAYER-1
 66
  1
 70
  0
 62
  7
 10
28.220978
 20
52.185021
 30
0.000000
  0
VERTEX
  8
MERGEDLAYER-1
 10
28.220978
 20
52.185021
 30
0.000000
  0
VERTEX
  8
MERGEDLAYER-1
 10
28.124261
 20
52.057636
 30
0.000000
  0
VERTEX
  8
MERGEDLAYER-1
 10
28.088247
 20
51.901137
 30
0.000000
  0
SEQEND
  8
MERGEDLAYER-1
  0
POLYLINE
  8
MERGEDLAYER-1
 66
  1
 70
  0
 62
  7
 10
28.388240
 20
52.186476
 30
0.000000
  0
VERTEX
  8
MERGEDLAYER-1
 10
28.388240
 20
52.186476
 30
0.000000
  0
VERTEX
  8
MERGEDLAYER-1
 10
28.278945
 20
52.212431
 30
0.000000
  0
VERTEX
  8
MERGEDLAYER-1
 10
28.220968
 20
52.185021
 30
0.000000
  0
SEQEND
  8
MERGEDLAYER-1
  0
POLYLINE
  8
MERGEDLAYER-1
 66
  1
 70
  0
 62
  7
 10
28.483870
 20
52.037307
 30
0.000000
  0
VERTEX
  8
MERGEDLAYER-1
 10
28.483870
 20
52.037307
 30
0.000000
  0
VERTEX
  8
MERGEDLAYER-1
 10
28.396360
 20
52.181420
 30
0.000000
  0
VERTEX
  8
MERGEDLAYER-1
 10
28.388238
 20
52.186476
 30
0.000000
  0
SEQEND
  8
MERGEDLAYER-1
  0
POLYLINE
  8
MERGEDLAYER-1
 66
  1
 70
  0
 62
  7
 10
28.494263
 20
51.887179
 30
0.000000
  0
VERTEX
  8
MERGEDLAYER-1
 10
28.494263
 20
51.887179
 30
0.000000
  0
VERTEX
  8
MERGEDLAYER-1
 10
28.483887
 20
52.037307
 30
0.000000
  0
SEQEND
  8
MERGEDLAYER-1
  0
POLYLINE
  8
MERGEDLAYER-1
 66
  1
 70
  0
 62
  7
 10
28.472483
 20
51.735131
 30
0.000000
  0
VERTEX
  8
MERGEDLAYER-1
 10
28.472483
 20
51.735131
 30
0.000000
  0
VERTEX
  8
MERGEDLAYER-1
 10
28.494263
 20
51.887179
 30
0.000000
  0
SEQEND
  8
MERGEDLAYER-1
  0
POLYLINE
  8
MERGEDLAYER-1
 66
  1
 70
  0
 62
  7
 10
28.472483
 20
51.735131
 30
0.000000
  0
VERTEX
  8
MERGEDLAYER-1
 10
28.472483
 20
51.735131
 30
0.000000
  0
VERTEX
  8
MERGEDLAYER-1
 10
28.432911
 20
51.730225
 30
0.000000
  0
SEQEND
  8
MERGEDLAYER-1
  0
POLYLINE
  8
MERGEDLAYER-1
 66
  1
 70
  0
 62
  7
 10
28.432911
 20
51.730225
 30
0.000000
  0
VERTEX
  8
MERGEDLAYER-1
 10
28.432911
 20
51.730225
 30
0.000000
  0
VERTEX
  8
MERGEDLAYER-1
 10
28.396170
 20
51.874962
 30
0.000000
  0
SEQEND
  8
MERGEDLAYER-1
  0
POLYLINE
  8
MERGEDLAYER-1
 66
  1
 70
  0
 62
  7
 10
28.396170
 20
51.874962
 30
0.000000
  0
VERTEX
  8
MERGEDLAYER-1
 10
28.396170
 20
51.874962
 30
0.000000
  0
VERTEX
  8
MERGEDLAYER-1
 10
28.389404
 20
51.988746
 30
0.000000
  0
SEQEND
  8
MERGEDLAYER-1
  0
POLYLINE
  8
MERGEDLAYER-1
 66
  1
 70
  0
 62
  7
 10
28.389402
 20
51.988741
 30
0.000000
  0
VERTEX
  8
MERGEDLAYER-1
 10
28.389402
 20
51.988741
 30
0.000000
  0
VERTEX
  8
MERGEDLAYER-1
 10
28.385726
 20
52.012395
 30
0.000000
  0
VERTEX
  8
MERGEDLAYER-1
 10
28.381108
 20
52.033654
 30
0.000000
  0
VERTEX
  8
MERGEDLAYER-1
 10
28.373669
 20
52.054096
 30
0.000000
  0
VERTEX
  8
MERGEDLAYER-1
 10
28.363539
 20
52.073350
 30
0.000000
  0
VERTEX
  8
MERGEDLAYER-1
 10
28.352877
 20
52.089093
 30
0.000000
  0
SEQEND
  8
MERGEDLAYER-1
  0
POLYLINE
  8
MERGEDLAYER-1
 66
  1
 70
  0
 62
  7
 10
28.352889
 20
52.089093
 30
0.000000
  0
VERTEX
  8
MERGEDLAYER-1
 10
28.352889
 20
52.089093
 30
0.000000
  0
VERTEX
  8
MERGEDLAYER-1
 10
28.288119
 20
52.103600
 30
0.000000
  0
VERTEX
  8
MERGEDLAYER-1
 10
28.275043
 20
52.084853
 30
0.000000
  0
SEQEND
  8
MERGEDLAYER-1
  0
POLYLINE
  8
MERGEDLAYER-1
 66
  1
 70
  0
 62
  7
 10
28.275053
 20
52.084848
 30
0.000000
  0
VERTEX
  8
MERGEDLAYER-1
 10
28.275053
 20
52.084848
 30
0.000000
  0
VERTEX
  8
MERGEDLAYER-1
 10
28.199618
 20
51.896254
 30
0.000000
  0
VERTEX
  8
MERGEDLAYER-1
 10
28.198458
 20
51.873845
 30
0.000000
  0
SEQEND
  8
MERGEDLAYER-1
  0
POLYLINE
  8
MERGEDLAYER-1
 66
  1
 70
  0
 62
  7
 10
28.198458
 20
51.873845
 30
0.000000
  0
VERTEX
  8
MERGEDLAYER-1
 10
28.198458
 20
51.873845
 30
0.000000
  0
VERTEX
  8
MERGEDLAYER-1
 10
28.194625
 20
51.855854
 30
0.000000
  0
VERTEX
  8
MERGEDLAYER-1
 10
28.194305
 20
51.835815
 30
0.000000
  0
VERTEX
  8
MERGEDLAYER-1
 10
28.195531
 20
51.815805
 30
0.000000
  0
VERTEX
  8
MERGEDLAYER-1
 10
28.198299
 20
51.795955
 30
0.000000
  0
VERTEX
  8
MERGEDLAYER-1
 10
28.202587
 20
51.776377
 30
0.000000
  0
VERTEX
  8
MERGEDLAYER-1
 10
28.204557
 20
51.774405
 30
0.000000
  0
SEQEND
  8
MERGEDLAYER-1
  0
POLYLINE
  8
MERGEDLAYER-1
 66
  1
 70
  0
 62
  7
 10
28.204531
 20
51.774405
 30
0.000000
  0
VERTEX
  8
MERGEDLAYER-1
 10
28.204531
 20
51.774405
 30
0.000000
  0
VERTEX
  8
MERGEDLAYER-1
 10
28.244136
 20
51.567711
 30
0.000000
  0
SEQEND
  8
MERGEDLAYER-1
  0
POLYLINE
  8
MERGEDLAYER-1
 66
  1
 70
  0
 62
  7
 10
28.246420
 20
51.462168
 30
0.000000
  0
VERTEX
  8
MERGEDLAYER-1
 10
28.246420
 20
51.462168
 30
0.000000
  0
VERTEX
  8
MERGEDLAYER-1
 10
28.244918
 20
51.557265
 30
0.000000
  0
VERTEX
  8
MERGEDLAYER-1
 10
28.244136
 20
51.567707
 30
0.000000
  0
SEQEND
  8
MERGEDLAYER-1
  0
POLYLINE
  8
MERGEDLAYER-1
 66
  1
 70
  0
 62
  7
 10
28.246413
 20
51.462177
 30
0.000000
  0
VERTEX
  8
MERGEDLAYER-1
 10
28.246413
 20
51.462177
 30
0.000000
  0
VERTEX
  8
MERGEDLAYER-1
 10
28.142862
 20
51.486948
 30
0.000000
  0
SEQEND
  8
MERGEDLAYER-1
  0
POLYLINE
  8
MERGEDLAYER-1
 66
  1
 70
  0
 62
  7
 10
28.142865
 20
51.486943
 30
0.000000
  0
VERTEX
  8
MERGEDLAYER-1
 10
28.142865
 20
51.486943
 30
0.000000
  0
VERTEX
  8
MERGEDLAYER-1
 10
28.141285
 20
51.502517
 30
0.000000
  0
VERTEX
  8
MERGEDLAYER-1
 10
28.140808
 20
51.516118
 30
0.000000
  0
VERTEX
  8
MERGEDLAYER-1
 10
28.139472
 20
51.529663
 30
0.000000
  0
VERTEX
  8
MERGEDLAYER-1
 10
28.137284
 20
51.543091
 30
0.000000
  0
VERTEX
  8
MERGEDLAYER-1
 10
28.134249
 20
51.556359
 30
0.000000
  0
VERTEX
  8
MERGEDLAYER-1
 10
28.136219
 20
51.554392
 30
0.000000
  0
SEQEND
  8
MERGEDLAYER-1
  0
POLYLINE
  8
MERGEDLAYER-1
 66
  1
 70
  1
 62
  7
 10
28.275050
 20
52.084844
 30
0.000000
  0
VERTEX
  8
MERGEDLAYER-1
 10
28.275050
 20
52.084844
 30
0.000000
  0
VERTEX
  8
MERGEDLAYER-1
 10
28.352882
 20
52.089097
 30
0.000000
  0
VERTEX
  8
MERGEDLAYER-1
 10
28.389404
 20
51.988746
 30
0.000000
  0
SEQEND
  8
MERGEDLAYER-1
  0
POLYLINE
  8
MERGEDLAYER-1
 66
  1
 70
  1
 62
  7
  0
VERTEX
  8
MERGEDLAYER-1
 10
25.628833
 20
46.541833
 30
0.000000
  0
VERTEX
  8
MERGEDLAYER-1
 10
25.830994
 20
46.493042
 30
0.000000
  0
VERTEX
  8
MERGEDLAYER-1
 10
25.602628
 20
45.546988
 30
0.000000
  0
VERTEX
  8
MERGEDLAYER-1
 10
25.400470
 20
45.595778
 30
0.000000
  0
SEQEND
  8
MERGEDLAYER-1
  0
POLYLINE
  8
MERGEDLAYER-1
 66
  1
 70
  0
 62
  7
 10
25.660846
 20
46.534090
 30
0.000000
  0
VERTEX
  8
MERGEDLAYER-1
 10
25.660846
 20
46.534090
 30
0.000000
  0
VERTEX
  8
MERGEDLAYER-1
 10
25.795504
 20
46.501592
 30
0.000000
  0
SEQEND
  8
MERGEDLAYER-1
  0
POLYLINE
  8
MERGEDLAYER-1
 66
  1
 70
  0
 62
  7
 10
25.660846
 20
46.534090
 30
0.000000
  0
VERTEX
  8
MERGEDLAYER-1
 10
25.660846
 20
46.534090
 30
0.000000
  0
VERTEX
  8
MERGEDLAYER-1
 10
25.705088
 20
46.718924
 30
0.000000
  0
SEQEND
  8
MERGEDLAYER-1
  0
POLYLINE
  8
MERGEDLAYER-1
 66
  1
 70
  0
 62
  7
 10
25.814430
 20
46.869643
 30
0.000000
  0
VERTEX
  8
MERGEDLAYER-1
 10
25.814430
 20
46.869643
 30
0.000000
  0
VERTEX
  8
MERGEDLAYER-1
 10
25.742800
 20
46.807124
 30
0.000000
  0
VERTEX
  8
MERGEDLAYER-1
 10
25.705090
 20
46.718919
 30
0.000000
  0
SEQEND
  8
MERGEDLAYER-1
  0
POLYLINE
  8
MERGEDLAYER-1
 66
  1
 70
  0
 62
  7
 10
25.814418
 20
46.869643
 30
0.000000
  0
VERTEX
  8
MERGEDLAYER-1
 10
25.814418
 20
46.869643
 30
0.000000
  0
VERTEX
  8
MERGEDLAYER-1
 10
27.150799
 20
47.689876
 30
0.000000
  0
SEQEND
  8
MERGEDLAYER-1
  0
POLYLINE
  8
MERGEDLAYER-1
 66
  1
 70
  0
 62
  7
 10
27.150813
 20
47.689885
 30
0.000000
  0
VERTEX
  8
MERGEDLAYER-1
 10
27.150813
 20
47.689885
 30
0.000000
  0
VERTEX
  8
MERGEDLAYER-1
 10
27.239598
 20
47.812270
 30
0.000000
  0
SEQEND
  8
MERGEDLAYER-1
  0
POLYLINE
  8
MERGEDLAYER-1
 66
  1
 70
  0
 62
  7
 10
27.294368
 20
48.038748
 30
0.000000
  0
VERTEX
  8
MERGEDLAYER-1
 10
27.294368
 20
48.038748
 30
0.000000
  0
VERTEX
  8
MERGEDLAYER-1
 10
27.239591
 20
47.812261
 30
0.000000
  0
SEQEND
  8
MERGEDLAYER-1
  0
POLYLINE
  8
MERGEDLAYER-1
 66
  1
 70
  0
 62
  7
 10
27.294368
 20
48.038748
 30
0.000000
  0
VERTEX
  8
MERGEDLAYER-1
 10
27.294368
 20
48.038748
 30
0.000000
  0
VERTEX
  8
MERGEDLAYER-1
 10
27.429378
 20
48.006160
 30
0.000000
  0
SEQEND
  8
MERGEDLAYER-1
  0
POLYLINE
  8
MERGEDLAYER-1
 66
  1
 70
  0
 62
  7
 10
27.429378
 20
48.006160
 30
0.000000
  0
VERTEX
  8
MERGEDLAYER-1
 10
27.429378
 20
48.006160
 30
0.000000
  0
VERTEX
  8
MERGEDLAYER-1
 10
27.365354
 20
47.742643
 30
0.000000
  0
SEQEND
  8
MERGEDLAYER-1
  0
POLYLINE
  8
MERGEDLAYER-1
 66
  1
 70
  0
 62
  7
 10
27.256017
 20
47.591928
 30
0.000000
  0
VERTEX
  8
MERGEDLAYER-1
 10
27.256017
 20
47.591928
 30
0.000000
  0
VERTEX
  8
MERGEDLAYER-1
 10
27.323709
 20
47.658382
 30
0.000000
  0
VERTEX
  8
MERGEDLAYER-1
 10
27.365356
 20
47.742648
 30
0.000000
  0
SEQEND
  8
MERGEDLAYER-1
  0
POLYLINE
  8
MERGEDLAYER-1
 66
  1
 70
  0
 62
  7
 10
27.256024
 20
47.591924
 30
0.000000
  0
VERTEX
  8
MERGEDLAYER-1
 10
27.256024
 20
47.591924
 30
0.000000
  0
VERTEX
  8
MERGEDLAYER-1
 10
25.919626
 20
46.771691
 30
0.000000
  0
SEQEND
  8
MERGEDLAYER-1
  0
POLYLINE
  8
MERGEDLAYER-1
 66
  1
 70
  0
 62
  7
 10
25.919631
 20
46.771686
 30
0.000000
  0
VERTEX
  8
MERGEDLAYER-1
 10
25.919631
 20
46.771686
 30
0.000000
  0
VERTEX
  8
MERGEDLAYER-1
 10
25.828879
 20
46.651273
 30
0.000000
  0
VERTEX
  8
MERGEDLAYER-1
 10
25.830846
 20
46.649301
 30
0.000000
  0
SEQEND
  8
MERGEDLAYER-1
  0
POLYLINE
  8
MERGEDLAYER-1
 66
  1
 70
  0
 62
  7
 10
25.795560
 20
46.501845
 30
0.000000
  0
VERTEX
  8
MERGEDLAYER-1
 10
25.795560
 20
46.501845
 30
0.000000
  0
VERTEX
  8
MERGEDLAYER-1
 10
25.830841
 20
46.649301
 30
0.000000
  0
SEQEND
  8
MERGEDLAYER-1
  0
POLYLINE
  8
MERGEDLAYER-1
 66
  1
 70
  1
 62
  7
  0
VERTEX
  8
MERGEDLAYER-1
 10
27.483988
 20
48.994202
 30
0.000000
  0
VERTEX
  8
MERGEDLAYER-1
 10
27.688070
 20
48.945374
 30
0.000000
  0
VERTEX
  8
MERGEDLAYER-1
 10
27.461646
 20
47.999272
 30
0.000000
  0
VERTEX
  8
MERGEDLAYER-1
 10
27.257578
 20
48.048100
 30
0.000000
  0
SEQEND
  8
MERGEDLAYER-1
  0
POLYLINE
  8
MERGEDLAYER-1
 66
  1
 70
  1
 62
  7
  0
VERTEX
  8
MERGEDLAYER-1
 10
28.123735
 20
51.495906
 30
0.000000
  0
VERTEX
  8
MERGEDLAYER-1
 10
28.263188
 20
51.462247
 30
0.000000
  0
VERTEX
  8
MERGEDLAYER-1
 10
27.657452
 20
48.952763
 30
0.000000
  0
VERTEX
  8
MERGEDLAYER-1
 10
27.518001
 20
48.986422
 30
0.000000
  0
SEQEND
  8
MERGEDLAYER-1
  0
POLYLINE
  8
MERGEDLAYER-1
 66
  1
 70
  1
 62
  7
 10
28.228201
 20
52.903339
 30
0.000000
  0
VERTEX
  8
MERGEDLAYER-1
 10
28.228201
 20
52.903339
 30
0.000000
  0
VERTEX
  8
MERGEDLAYER-1
 10
28.382472
 20
52.904898
 30
0.000000
  0
VERTEX
  8
MERGEDLAYER-1
 10
28.406055
 20
52.894127
 30
0.000000
  0
VERTEX
  8
MERGEDLAYER-1
 10
28.415271
 20
52.871878
 30
0.000000
  0
VERTEX
  8
MERGEDLAYER-1
 10
28.424507
 20
52.556655
 30
0.000000
  0
VERTEX
  8
MERGEDLAYER-1
 10
28.499751
 20
52.467858
 30
0.000000
  0
VERTEX
  8
MERGEDLAYER-1
 10
28.509334
 20
52.419692
 30
0.000000
  0
VERTEX
  8
MERGEDLAYER-1
 10
28.509343
 20
52.086989
 30
0.000000
  0
VERTEX
  8
MERGEDLAYER-1
 10
28.501063
 20
52.045927
 30
0.000000
  0
VERTEX
  8
MERGEDLAYER-1
 10
28.483103
 20
52.023663
 30
0.000000
  0
VERTEX
  8
MERGEDLAYER-1
 10
28.456191
 20
52.007465
 30
0.000000
  0
VERTEX
  8
MERGEDLAYER-1
 10
28.419776
 20
51.997437
 30
0.000000
  0
VERTEX
  8
MERGEDLAYER-1
 10
28.192242
 20
51.997432
 30
0.000000
  0
VERTEX
  8
MERGEDLAYER-1
 10
28.158112
 20
52.004258
 30
0.000000
  0
VERTEX
  8
MERGEDLAYER-1
 10
28.128916
 20
52.023663
 30
0.000000
  0
VERTEX
  8
MERGEDLAYER-1
 10
28.110035
 20
52.058744
 30
0.000000
  0
VERTEX
  8
MERGEDLAYER-1
 10
28.102687
 20
52.086989
 30
0.000000
  0
VERTEX
  8
MERGEDLAYER-1
 10
28.102687
 20
52.419692
 30
0.000000
  0
VERTEX
  8
MERGEDLAYER-1
 10
28.112272
 20
52.467858
 30
0.000000
  0
VERTEX
  8
MERGEDLAYER-1
 10
28.139557
 20
52.508690
 30
0.000000
  0
VERTEX
  8
MERGEDLAYER-1
 10
28.187535
 20
52.556659
 30
0.000000
  0
VERTEX
  8
MERGEDLAYER-1
 10
28.196737
 20
52.871878
 30
0.000000
  0
VERTEX
  8
MERGEDLAYER-1
 10
28.205951
 20
52.894127
 30
0.000000
  0
SEQEND
  8
MERGEDLAYER-1
  0
POLYLINE
  8
MERGEDLAYER-1
 66
  1
 70
  0
 62
  7
 10
28.278480
 20
52.475412
 30
0.000000
  0
VERTEX
  8
MERGEDLAYER-1
 10
28.278480
 20
52.475412
 30
0.000000
  0
VERTEX
  8
MERGEDLAYER-1
 10
28.339027
 20
52.475412
 30
0.000000
  0
SEQEND
  8
MERGEDLAYER-1
  0
POLYLINE
  8
MERGEDLAYER-1
 66
  1
 70
  0
 62
  7
 10
28.401703
 20
52.412734
 30
0.000000
  0
VERTEX
  8
MERGEDLAYER-1
 10
28.401703
 20
52.412734
 30
0.000000
  0
VERTEX
  8
MERGEDLAYER-1
 10
28.401703
 20
52.166293
 30
0.000000
  0
SEQEND
  8
MERGEDLAYER-1
  0
POLYLINE
  8
MERGEDLAYER-1
 66
  1
 70
  0
 62
  7
 10
28.339027
 20
52.103619
 30
0.000000
  0
VERTEX
  8
MERGEDLAYER-1
 10
28.339027
 20
52.103619
 30
0.000000
  0
VERTEX
  8
MERGEDLAYER-1
 10
28.278480
 20
52.103619
 30
0.000000
  0
SEQEND
  8
MERGEDLAYER-1
  0
POLYLINE
  8
MERGEDLAYER-1
 66
  1
 70
  0
 62
  7
 10
28.215802
 20
52.166293
 30
0.000000
  0
VERTEX
  8
MERGEDLAYER-1
 10
28.215802
 20
52.166293
 30
0.000000
  0
VERTEX
  8
MERGEDLAYER-1
 10
28.215802
 20
52.412734
 30
0.000000
  0
SEQEND
  8
MERGEDLAYER-1
  0
ARC
  8
MERGEDLAYER-1
 62
  7
 10
28.278480
 20
52.412734
 30
0.000000
 40
0.062676
 50
90.000000
 51
180.000000
  0
ARC
  8
MERGEDLAYER-1
 62
  7
 10
28.278480
 20
52.166293
 30
0.000000
 40
0.062676
 50
180.000000
 51
270.000000
  0
ARC
  8
MERGEDLAYER-1
 62
  7
 10
28.339027
 20
52.166293
 30
0.000000
 40
0.062676
 50
270.000000
 51
0.000000
  0
ARC
  8
MERGEDLAYER-1
 62
  7
 10
28.339027
 20
52.412734
 30
0.000000
 40
0.062676
 50
0.000000
 51
90.000000
  0
TEXT
  8
MERGEDLAYER-1
 62
  7
 10
29.923077
 20
46.928025
 30
0.000000
 40
0.576923
  1
HAND
 72
  5
 11
32.461538
 21
46.928025
 31
0.000000
  0
TEXT
  8
MERGEDLAYER-1
 62
  7
 10
29.923077
 20
46.081872
 30
0.000000
 40
0.576923
  1
CRANK
 72
  5
 11
33.000000
 21
46.081872
 31
0.000000
  0
TEXT
  8
MERGEDLAYER-1
 62
  7
 10
29.923077
 20
45.235718
 30
0.000000
 40
0.576923
  1
OVERRIDE
 72
  5
 11
34.384615
 21
45.235718
 31
0.000000
  0
POLYLINE
  8
MERGEDLAYER-1
 66
  1
 70
  0
 62
  7
 10
29.249737
 20
47.348656
 30
0.000000
  0
VERTEX
  8
MERGEDLAYER-1
 10
29.249737
 20
47.348656
 30
0.000000
  0
VERTEX
  8
MERGEDLAYER-1
 10
27.345116
 20
47.653306
 30
0.000000
  0
SEQEND
  8
MERGEDLAYER-1
  0
POLYLINE
  8
MERGEDLAYER-1
 66
  1
 70
  1
 62
  7
  0
VERTEX
  8
MERGEDLAYER-1
 10
27.325679
 20
47.656414
 30
0.000000
  0
VERTEX
  8
MERGEDLAYER-1
 10
27.741915
 20
47.823538
 30
0.000000
  0
VERTEX
  8
MERGEDLAYER-1
 10
27.705465
 20
47.595666
 30
0.000000
  0
VERTEX
  8
MERGEDLAYER-1
 10
27.669016
 20
47.367793
 30
0.000000
  0
VERTEX
  8
MERGEDLAYER-1
 10
27.325679
 20
47.656414
 30
0.000000
  0
SEQEND
  8
MERGEDLAYER-1
  0
POLYLINE
  8
MERGEDLAYER-1
 66
  1
 70
  1
 62
  7
  0
VERTEX
  8
MERGEDLAYER-1
 10
28.246721
 20
55.391043
 30
0.000000
  0
VERTEX
  8
MERGEDLAYER-1
 10
28.347196
 20
55.391043
 30
0.000000
  0
VERTEX
  8
MERGEDLAYER-1
 10
28.347196
 20
52.895649
 30
0.000000
  0
VERTEX
  8
MERGEDLAYER-1
 10
28.246721
 20
52.895649
 30
0.000000
  0
SEQEND
  8
MERGEDLAYER-1
  0
POLYLINE
  8
MERGEDLAYER-1
 66
  1
 70
  0
 62
255
 10
28.230530
 20
51.997798
 30
0.000000
  0
VERTEX
  8
MERGEDLAYER-1
 10
28.230530
 20
51.997798
 30
0.000000
  0
VERTEX
  8
MERGEDLAYER-1
 10
28.183089
 20
51.997798
 30
0.000000
  0
SEQEND
  8
MERGEDLAYER-1
  0
POLYLINE
  8
MERGEDLAYER-1
 66
  1
 70
  0
 62
255
 10
28.115227
 20
52.029884
 30
0.000000
  0
VERTEX
  8
MERGEDLAYER-1
 10
28.115227
 20
52.029884
 30
0.000000
  0
VERTEX
  8
MERGEDLAYER-1
 10
28.168034
 20
52.000408
 30
0.000000
  0
VERTEX
  8
MERGEDLAYER-1
 10
28.183087
 20
51.997803
 30
0.000000
  0
SEQEND
  8
MERGEDLAYER-1
  0
POLYLINE
  8
MERGEDLAYER-1
 66
  1
 70
  0
 62
255
 10
28.205463
 20
52.167246
 30
0.000000
  0
VERTEX
  8
MERGEDLAYER-1
 10
28.205463
 20
52.167246
 30
0.000000
  0
VERTEX
  8
MERGEDLAYER-1
 10
28.116967
 20
52.041006
 30
0.000000
  0
VERTEX
  8
MERGEDLAYER-1
 10
28.115227
 20
52.029884
 30
0.000000
  0
SEQEND
  8
MERGEDLAYER-1
  0
POLYLINE
  8
MERGEDLAYER-1
 66
  1
 70
  0
 62
255
 10
28.388404
 20
52.183805
 30
0.000000
  0
VERTEX
  8
MERGEDLAYER-1
 10
28.388404
 20
52.183805
 30
0.000000
  0
VERTEX
  8
MERGEDLAYER-1
 10
28.281250
 20
52.209984
 30
0.000000
  0
VERTEX
  8
MERGEDLAYER-1
 10
28.205468
 20
52.167246
 30
0.000000
  0
SEQEND
  8
MERGEDLAYER-1
  0
POLYLINE
  8
MERGEDLAYER-1
 66
  1
 70
  0
 62
255
 10
28.388404
 20
52.183805
 30
0.000000
  0
VERTEX
  8
MERGEDLAYER-1
 10
28.388404
 20
52.183805
 30
0.000000
  0
VERTEX
  8
MERGEDLAYER-1
 10
28.388404
 20
52.169114
 30
0.000000
  0
SEQEND
  8
MERGEDLAYER-1
  0
POLYLINE
  8
MERGEDLAYER-1
 66
  1
 70
  0
 62
255
 10
28.323054
 20
52.103764
 30
0.000000
  0
VERTEX
  8
MERGEDLAYER-1
 10
28.323054
 20
52.103764
 30
0.000000
  0
VERTEX
  8
MERGEDLAYER-1
 10
28.386435
 20
52.171077
 30
0.000000
  0
VERTEX
  8
MERGEDLAYER-1
 10
28.388404
 20
52.169114
 30
0.000000
  0
SEQEND
  8
MERGEDLAYER-1
  0
POLYLINE
  8
MERGEDLAYER-1
 66
  1
 70
  0
 62
255
 10
28.323052
 20
52.103764
 30
0.000000
  0
VERTEX
  8
MERGEDLAYER-1
 10
28.323052
 20
52.103764
 30
0.000000
  0
VERTEX
  8
MERGEDLAYER-1
 10
28.297715
 20
52.103764
 30
0.000000
  0
SEQEND
  8
MERGEDLAYER-1
  0
POLYLINE
  8
MERGEDLAYER-1
 66
  1
 70
  0
 62
255
 10
28.297708
 20
52.103764
 30
0.000000
  0
VERTEX
  8
MERGEDLAYER-1
 10
28.297708
 20
52.103764
 30
0.000000
  0
VERTEX
  8
MERGEDLAYER-1
 10
28.277149
 20
52.088285
 30
0.000000
  0
VERTEX
  8
MERGEDLAYER-1
 10
28.260899
 20
52.068636
 30
0.000000
  0
VERTEX
  8
MERGEDLAYER-1
 10
28.247249
 20
52.047100
 30
0.000000
  0
VERTEX
  8
MERGEDLAYER-1
 10
28.236413
 20
52.024024
 30
0.000000
  0
VERTEX
  8
MERGEDLAYER-1
 10
28.230530
 20
51.997798
 30
0.000000
  0
SEQEND
  8
MERGEDLAYER-1
  0
POLYLINE
  8
MERGEDLAYER-1
 66
  1
 70
  1
 62
255
 10
28.388404
 20
52.183805
 30
0.000000
  0
VERTEX
  8
MERGEDLAYER-1
 10
28.388404
 20
52.183805
 30
0.000000
  0
VERTEX
  8
MERGEDLAYER-1
 10
28.205465
 20
52.167246
 30
0.000000
  0
VERTEX
  8
MERGEDLAYER-1
 10
28.115225
 20
52.029884
 30
0.000000
  0
VERTEX
  8
MERGEDLAYER-1
 10
28.183089
 20
51.997798
 30
0.000000
  0
VERTEX
  8
MERGEDLAYER-1
 10
28.297715
 20
52.103764
 30
0.000000
  0
SEQEND
  8
MERGEDLAYER-1
  0
POLYLINE
  8
MERGEDLAYER-1
 66
  1
 70
  1
 62
  7
  0
VERTEX
  8
MERGEDLAYER-1
 10
49.482394
 20
56.206271
 30
0.000000
  0
VERTEX
  8
MERGEDLAYER-1
 10
49.582881
 20
56.206271
 30
0.000000
  0
VERTEX
  8
MERGEDLAYER-1
 10
49.582881
 20
53.077191
 30
0.000000
  0
VERTEX
  8
MERGEDLAYER-1
 10
49.482394
 20
53.077191
 30
0.000000
  0
SEQEND
  8
MERGEDLAYER-1
  0
POLYLINE
  8
MERGEDLAYER-1
 66
  1
 70
  0
 62
  7
 10
49.595684
 20
56.206111
 30
0.000000
  0
VERTEX
  8
MERGEDLAYER-1
 10
49.595684
 20
56.206111
 30
0.000000
  0
VERTEX
  8
MERGEDLAYER-1
 10
49.474675
 20
56.206111
 30
0.000000
  0
SEQEND
  8
MERGEDLAYER-1
  0
POLYLINE
  8
MERGEDLAYER-1
 66
  1
 70
  0
 62
  7
 10
49.555636
 20
56.236384
 30
0.000000
  0
VERTEX
  8
MERGEDLAYER-1
 10
49.555636
 20
56.236384
 30
0.000000
  0
VERTEX
  8
MERGEDLAYER-1
 10
49.514766
 20
56.236384
 30
0.000000
  0
SEQEND
  8
MERGEDLAYER-1
  0
POLYLINE
  8
MERGEDLAYER-1
 66
  1
 70
  0
 62
  7
 10
49.595684
 20
56.212675
 30
0.000000
  0
VERTEX
  8
MERGEDLAYER-1
 10
49.595684
 20
56.212675
 30
0.000000
  0
VERTEX
  8
MERGEDLAYER-1
 10
49.587726
 20
56.222173
 30
0.000000
  0
VERTEX
  8
MERGEDLAYER-1
 10
49.580468
 20
56.228492
 30
0.000000
  0
VERTEX
  8
MERGEDLAYER-1
 10
49.572191
 20
56.233394
 30
0.000000
  0
VERTEX
  8
MERGEDLAYER-1
 10
49.563157
 20
56.236723
 30
0.000000
  0
VERTEX
  8
MERGEDLAYER-1
 10
49.553673
 20
56.238356
 30
0.000000
  0
VERTEX
  8
MERGEDLAYER-1
 10
49.555636
 20
56.236389
 30
0.000000
  0
SEQEND
  8
MERGEDLAYER-1
  0
POLYLINE
  8
MERGEDLAYER-1
 66
  1
 70
  0
 62
  7
 10
49.514775
 20
56.236384
 30
0.000000
  0
VERTEX
  8
MERGEDLAYER-1
 10
49.514775
 20
56.236384
 30
0.000000
  0
VERTEX
  8
MERGEDLAYER-1
 10
49.503535
 20
56.236150
 30
0.000000
  0
VERTEX
  8
MERGEDLAYER-1
 10
49.494699
 20
56.232582
 30
0.000000
  0
VERTEX
  8
MERGEDLAYER-1
 10
49.486497
 20
56.227732
 30
0.000000
  0
VERTEX
  8
MERGEDLAYER-1
 10
49.479117
 20
56.221708
 30
0.000000
  0
VERTEX
  8
MERGEDLAYER-1
 10
49.474689
 20
56.212675
 30
0.000000
  0
SEQEND
  8
MERGEDLAYER-1
  0
POLYLINE
  8
MERGEDLAYER-1
 66
  1
 70
  0
 62
  7
 10
49.595684
 20
56.206111
 30
0.000000
  0
VERTEX
  8
MERGEDLAYER-1
 10
49.595684
 20
56.206111
 30
0.000000
  0
VERTEX
  8
MERGEDLAYER-1
 10
49.595684
 20
56.212675
 30
0.000000
  0
SEQEND
  8
MERGEDLAYER-1
  0
POLYLINE
  8
MERGEDLAYER-1
 66
  1
 70
  0
 62
  7
 10
49.474684
 20
56.212675
 30
0.000000
  0
VERTEX
  8
MERGEDLAYER-1
 10
49.474684
 20
56.212675
 30
0.000000
  0
VERTEX
  8
MERGEDLAYER-1
 10
49.474684
 20
56.206111
 30
0.000000
  0
SEQEND
  8
MERGEDLAYER-1
  0
POLYLINE
  8
MERGEDLAYER-1
 66
  1
 70
  1
 62
  7
  0
VERTEX
  8
MERGEDLAYER-1
 10
49.467708
 20
56.206271
 30
0.000000
  0
VERTEX
  8
MERGEDLAYER-1
 10
49.601722
 20
56.206271
 30
0.000000
  0
VERTEX
  8
MERGEDLAYER-1
 10
49.601722
 20
56.191777
 30
0.000000
  0
VERTEX
  8
MERGEDLAYER-1
 10
49.467708
 20
56.191777
 30
0.000000
  0
SEQEND
  8
MERGEDLAYER-1
  0
POLYLINE
  8
MERGEDLAYER-1
 66
  1
 70
  1
 62
  7
 10
49.457388
 20
53.082369
 30
0.000000
  0
VERTEX
  8
MERGEDLAYER-1
 10
49.457388
 20
53.082369
 30
0.000000
  0
VERTEX
  8
MERGEDLAYER-1
 10
49.611657
 20
53.083928
 30
0.000000
  0
VERTEX
  8
MERGEDLAYER-1
 10
49.635240
 20
53.073158
 30
0.000000
  0
VERTEX
  8
MERGEDLAYER-1
 10
49.644456
 20
53.050908
 30
0.000000
  0
VERTEX
  8
MERGEDLAYER-1
 10
49.653691
 20
52.735685
 30
0.000000
  0
VERTEX
  8
MERGEDLAYER-1
 10
49.728933
 20
52.646888
 30
0.000000
  0
VERTEX
  8
MERGEDLAYER-1
 10
49.738516
 20
52.598722
 30
0.000000
  0
VERTEX
  8
MERGEDLAYER-1
 10
49.738530
 20
52.266015
 30
0.000000
  0
VERTEX
  8
MERGEDLAYER-1
 10
49.730248
 20
52.224957
 30
0.000000
  0
VERTEX
  8
MERGEDLAYER-1
 10
49.712285
 20
52.202693
 30
0.000000
  0
VERTEX
  8
MERGEDLAYER-1
 10
49.685373
 20
52.186491
 30
0.000000
  0
VERTEX
  8
MERGEDLAYER-1
 10
49.648963
 20
52.176462
 30
0.000000
  0
VERTEX
  8
MERGEDLAYER-1
 10
49.421424
 20
52.176462
 30
0.000000
  0
VERTEX
  8
MERGEDLAYER-1
 10
49.387301
 20
52.183284
 30
0.000000
  0
VERTEX
  8
MERGEDLAYER-1
 10
49.358103
 20
52.202693
 30
0.000000
  0
VERTEX
  8
MERGEDLAYER-1
 10
49.339219
 20
52.237774
 30
0.000000
  0
VERTEX
  8
MERGEDLAYER-1
 10
49.331872
 20
52.266015
 30
0.000000
  0
VERTEX
  8
MERGEDLAYER-1
 10
49.331872
 20
52.598722
 30
0.000000
  0
VERTEX
  8
MERGEDLAYER-1
 10
49.341454
 20
52.646888
 30
0.000000
  0
VERTEX
  8
MERGEDLAYER-1
 10
49.368746
 20
52.687716
 30
0.000000
  0
VERTEX
  8
MERGEDLAYER-1
 10
49.416720
 20
52.735685
 30
0.000000
  0
VERTEX
  8
MERGEDLAYER-1
 10
49.425922
 20
53.050908
 30
0.000000
  0
VERTEX
  8
MERGEDLAYER-1
 10
49.435134
 20
53.073158
 30
0.000000
  0
SEQEND
  8
MERGEDLAYER-1
  0
POLYLINE
  8
MERGEDLAYER-1
 66
  1
 70
  0
 62
255
 10
49.507662
 20
52.654442
 30
0.000000
  0
VERTEX
  8
MERGEDLAYER-1
 10
49.507662
 20
52.654442
 30
0.000000
  0
VERTEX
  8
MERGEDLAYER-1
 10
49.568209
 20
52.654442
 30
0.000000
  0
SEQEND
  8
MERGEDLAYER-1
  0
POLYLINE
  8
MERGEDLAYER-1
 66
  1
 70
  0
 62
255
 10
49.630888
 20
52.591764
 30
0.000000
  0
VERTEX
  8
MERGEDLAYER-1
 10
49.630888
 20
52.591764
 30
0.000000
  0
VERTEX
  8
MERGEDLAYER-1
 10
49.630888
 20
52.345323
 30
0.000000
  0
SEQEND
  8
MERGEDLAYER-1
  0
POLYLINE
  8
MERGEDLAYER-1
 66
  1
 70
  0
 62
255
 10
49.568209
 20
52.282644
 30
0.000000
  0
VERTEX
  8
MERGEDLAYER-1
 10
49.568209
 20
52.282644
 30
0.000000
  0
VERTEX
  8
MERGEDLAYER-1
 10
49.507662
 20
52.282644
 30
0.000000
  0
SEQEND
  8
MERGEDLAYER-1
  0
POLYLINE
  8
MERGEDLAYER-1
 66
  1
 70
  0
 62
255
 10
49.444984
 20
52.345323
 30
0.000000
  0
VERTEX
  8
MERGEDLAYER-1
 10
49.444984
 20
52.345323
 30
0.000000
  0
VERTEX
  8
MERGEDLAYER-1
 10
49.444984
 20
52.591764
 30
0.000000
  0
SEQEND
  8
MERGEDLAYER-1
  0
ARC
  8
MERGEDLAYER-1
 62
255
 10
49.507662
 20
52.591764
 30
0.000000
 40
0.062676
 50
90.000000
 51
180.000000
  0
ARC
  8
MERGEDLAYER-1
 62
255
 10
49.507662
 20
52.345323
 30
0.000000
 40
0.062676
 50
180.000000
 51
270.000000
  0
ARC
  8
MERGEDLAYER-1
 62
255
 10
49.568209
 20
52.345323
 30
0.000000
 40
0.062676
 50
270.000000
 51
0.000000
  0
ARC
  8
MERGEDLAYER-1
 62
255
 10
49.568209
 20
52.591764
 30
0.000000
 40
0.062676
 50
0.000000
 51
90.000000
  0
POLYLINE
  8
MERGEDLAYER-1
 66
  1
 70
  0
 62
  7
 10
49.103121
 20
56.948458
 30
0.000000
  0
VERTEX
  8
MERGEDLAYER-1
 10
49.103121
 20
56.948458
 30
0.000000
  0
VERTEX
  8
MERGEDLAYER-1
 10
49.055345
 20
57.063805
 30
0.000000
  0
VERTEX
  8
MERGEDLAYER-1
 10
48.940002
 20
57.111582
 30
0.000000
  0
VERTEX
  8
MERGEDLAYER-1
 10
48.824660
 20
57.063805
 30
0.000000
  0
VERTEX
  8
MERGEDLAYER-1
 10
48.776888
 20
56.948458
 30
0.000000
  0
VERTEX
  8
MERGEDLAYER-1
 10
48.824660
 20
56.833111
 30
0.000000
  0
VERTEX
  8
MERGEDLAYER-1
 10
48.940002
 20
56.785335
 30
0.000000
  0
VERTEX
  8
MERGEDLAYER-1
 10
49.055345
 20
56.833111
 30
0.000000
  0
VERTEX
  8
MERGEDLAYER-1
 10
49.103121
 20
56.948458
 30
0.000000
  0
SEQEND
  8
MERGEDLAYER-1
  0
POLYLINE
  8
MERGEDLAYER-1
 66
  1
 70
  0
 62
  7
 10
49.019142
 20
56.948458
 30
0.000000
  0
VERTEX
  8
MERGEDLAYER-1
 10
49.019142
 20
56.948458
 30
0.000000
  0
VERTEX
  8
MERGEDLAYER-1
 10
48.995958
 20
57.004418
 30
0.000000
  0
VERTEX
  8
MERGEDLAYER-1
 10
48.940002
 20
57.027597
 30
0.000000
  0
VERTEX
  8
MERGEDLAYER-1
 10
48.884047
 20
57.004418
 30
0.000000
  0
VERTEX
  8
MERGEDLAYER-1
 10
48.860868
 20
56.948458
 30
0.000000
  0
VERTEX
  8
MERGEDLAYER-1
 10
48.884047
 20
56.892498
 30
0.000000
  0
VERTEX
  8
MERGEDLAYER-1
 10
48.940002
 20
56.869319
 30
0.000000
  0
VERTEX
  8
MERGEDLAYER-1
 10
48.995958
 20
56.892498
 30
0.000000
  0
VERTEX
  8
MERGEDLAYER-1
 10
49.019142
 20
56.948458
 30
0.000000
  0
SEQEND
  8
MERGEDLAYER-1
  0
POLYLINE
  8
MERGEDLAYER-1
 66
  1
 70
  0
 62
  7
 10
49.056645
 20
55.942317
 30
0.000000
  0
VERTEX
  8
MERGEDLAYER-1
 10
49.056645
 20
55.942317
 30
0.000000
  0
VERTEX
  8
MERGEDLAYER-1
 10
49.023907
 20
56.021358
 30
0.000000
  0
VERTEX
  8
MERGEDLAYER-1
 10
48.944871
 20
56.054096
 30
0.000000
  0
VERTEX
  8
MERGEDLAYER-1
 10
48.865835
 20
56.021358
 30
0.000000
  0
VERTEX
  8
MERGEDLAYER-1
 10
48.833097
 20
55.942317
 30
0.000000
  0
VERTEX
  8
MERGEDLAYER-1
 10
48.865835
 20
55.863277
 30
0.000000
  0
VERTEX
  8
MERGEDLAYER-1
 10
48.944871
 20
55.830538
 30
0.000000
  0
VERTEX
  8
MERGEDLAYER-1
 10
49.023907
 20
55.863277
 30
0.000000
  0
VERTEX
  8
MERGEDLAYER-1
 10
49.056645
 20
55.942317
 30
0.000000
  0
SEQEND
  8
MERGEDLAYER-1
  0
POLYLINE
  8
MERGEDLAYER-1
 66
  1
 70
  0
 62
  7
 10
48.551058
 20
56.505456
 30
0.000000
  0
VERTEX
  8
MERGEDLAYER-1
 10
48.551058
 20
56.505456
 30
0.000000
  0
VERTEX
  8
MERGEDLAYER-1
 10
49.322998
 20
56.505456
 30
0.000000
  0
SEQEND
  8
MERGEDLAYER-1
  0
POLYLINE
  8
MERGEDLAYER-1
 66
  1
 70
  0
 62
  7
 10
49.640860
 20
55.655273
 30
0.000000
  0
VERTEX
  8
MERGEDLAYER-1
 10
49.640860
 20
55.655273
 30
0.000000
  0
VERTEX
  8
MERGEDLAYER-1
 10
49.640860
 20
56.248131
 30
0.000000
  0
SEQEND
  8
MERGEDLAYER-1
  0
POLYLINE
  8
MERGEDLAYER-1
 66
  1
 70
  0
 62
  7
 10
49.590407
 20
55.604816
 30
0.000000
  0
VERTEX
  8
MERGEDLAYER-1
 10
49.590407
 20
55.604816
 30
0.000000
  0
VERTEX
  8
MERGEDLAYER-1
 10
49.640860
 20
55.655273
 30
0.000000
  0
SEQEND
  8
MERGEDLAYER-1
  0
POLYLINE
  8
MERGEDLAYER-1
 66
  1
 70
  0
 62
  7
 10
48.551058
 20
55.397949
 30
0.000000
  0
VERTEX
  8
MERGEDLAYER-1
 10
48.551058
 20
55.397949
 30
0.000000
  0
VERTEX
  8
MERGEDLAYER-1
 10
49.322998
 20
55.397949
 30
0.000000
  0
SEQEND
  8
MERGEDLAYER-1
  0
POLYLINE
  8
MERGEDLAYER-1
 66
  1
 70
  0
 62
  7
 10
48.432490
 20
55.471107
 30
0.000000
  0
VERTEX
  8
MERGEDLAYER-1
 10
48.432490
 20
55.471107
 30
0.000000
  0
VERTEX
  8
MERGEDLAYER-1
 10
48.432490
 20
56.432293
 30
0.000000
  0
SEQEND
  8
MERGEDLAYER-1
  0
POLYLINE
  8
MERGEDLAYER-1
 66
  1
 70
  0
 62
  7
 10
49.426429
 20
56.298584
 30
0.000000
  0
VERTEX
  8
MERGEDLAYER-1
 10
49.426429
 20
56.298584
 30
0.000000
  0
VERTEX
  8
MERGEDLAYER-1
 10
49.590407
 20
56.298584
 30
0.000000
  0
SEQEND
  8
MERGEDLAYER-1
  0
POLYLINE
  8
MERGEDLAYER-1
 66
  1
 70
  0
 62
  7
 10
49.640860
 20
56.248131
 30
0.000000
  0
VERTEX
  8
MERGEDLAYER-1
 10
49.640860
 20
56.248131
 30
0.000000
  0
VERTEX
  8
MERGEDLAYER-1
 10
49.590407
 20
56.298589
 30
0.000000
  0
SEQEND
  8
MERGEDLAYER-1
  0
POLYLINE
  8
MERGEDLAYER-1
 66
  1
 70
  0
 62
  7
 10
49.396156
 20
56.328857
 30
0.000000
  0
VERTEX
  8
MERGEDLAYER-1
 10
49.396156
 20
56.328857
 30
0.000000
  0
VERTEX
  8
MERGEDLAYER-1
 10
49.396156
 20
56.402020
 30
0.000000
  0
SEQEND
  8
MERGEDLAYER-1
  0
POLYLINE
  8
MERGEDLAYER-1
 66
  1
 70
  0
 62
  7
 10
49.396156
 20
56.328857
 30
0.000000
  0
VERTEX
  8
MERGEDLAYER-1
 10
49.396156
 20
56.328857
 30
0.000000
  0
VERTEX
  8
MERGEDLAYER-1
 10
49.426429
 20
56.298584
 30
0.000000
  0
SEQEND
  8
MERGEDLAYER-1
  0
POLYLINE
  8
MERGEDLAYER-1
 66
  1
 70
  0
 62
  7
 10
49.426429
 20
55.604816
 30
0.000000
  0
VERTEX
  8
MERGEDLAYER-1
 10
49.426429
 20
55.604816
 30
0.000000
  0
VERTEX
  8
MERGEDLAYER-1
 10
49.590407
 20
55.604816
 30
0.000000
  0
SEQEND
  8
MERGEDLAYER-1
  0
POLYLINE
  8
MERGEDLAYER-1
 66
  1
 70
  0
 62
  7
 10
49.396156
 20
55.574543
 30
0.000000
  0
VERTEX
  8
MERGEDLAYER-1
 10
49.396156
 20
55.574543
 30
0.000000
  0
VERTEX
  8
MERGEDLAYER-1
 10
49.396156
 20
55.501380
 30
0.000000
  0
SEQEND
  8
MERGEDLAYER-1
  0
POLYLINE
  8
MERGEDLAYER-1
 66
  1
 70
  0
 62
  7
 10
49.426429
 20
55.604816
 30
0.000000
  0
VERTEX
  8
MERGEDLAYER-1
 10
49.426429
 20
55.604816
 30
0.000000
  0
VERTEX
  8
MERGEDLAYER-1
 10
49.396156
 20
55.574543
 30
0.000000
  0
SEQEND
  8
MERGEDLAYER-1
  0
POLYLINE
  8
MERGEDLAYER-1
 66
  1
 70
  0
 62
  7
 10
49.365882
 20
56.432293
 30
0.000000
  0
VERTEX
  8
MERGEDLAYER-1
 10
49.365882
 20
56.432293
 30
0.000000
  0
VERTEX
  8
MERGEDLAYER-1
 10
49.322998
 20
56.432293
 30
0.000000
  0
SEQEND
  8
MERGEDLAYER-1
  0
POLYLINE
  8
MERGEDLAYER-1
 66
  1
 70
  0
 62
  7
 10
49.396156
 20
56.402020
 30
0.000000
  0
VERTEX
  8
MERGEDLAYER-1
 10
49.396156
 20
56.402020
 30
0.000000
  0
VERTEX
  8
MERGEDLAYER-1
 10
49.365882
 20
56.432293
 30
0.000000
  0
SEQEND
  8
MERGEDLAYER-1
  0
POLYLINE
  8
MERGEDLAYER-1
 66
  1
 70
  0
 62
  7
 10
49.322998
 20
56.505456
 30
0.000000
  0
VERTEX
  8
MERGEDLAYER-1
 10
49.322998
 20
56.505456
 30
0.000000
  0
VERTEX
  8
MERGEDLAYER-1
 10
49.322998
 20
56.432293
 30
0.000000
  0
SEQEND
  8
MERGEDLAYER-1
  0
POLYLINE
  8
MERGEDLAYER-1
 66
  1
 70
  0
 62
  7
 10
48.551058
 20
56.505456
 30
0.000000
  0
VERTEX
  8
MERGEDLAYER-1
 10
48.551058
 20
56.505456
 30
0.000000
  0
VERTEX
  8
MERGEDLAYER-1
 10
48.551058
 20
56.432293
 30
0.000000
  0
SEQEND
  8
MERGEDLAYER-1
  0
POLYLINE
  8
MERGEDLAYER-1
 66
  1
 70
  0
 62
  7
 10
48.432490
 20
56.432293
 30
0.000000
  0
VERTEX
  8
MERGEDLAYER-1
 10
48.432490
 20
56.432293
 30
0.000000
  0
VERTEX
  8
MERGEDLAYER-1
 10
48.551058
 20
56.432293
 30
0.000000
  0
SEQEND
  8
MERGEDLAYER-1
  0
POLYLINE
  8
MERGEDLAYER-1
 66
  1
 70
  0
 62
  7
 10
49.365882
 20
55.471107
 30
0.000000
  0
VERTEX
  8
MERGEDLAYER-1
 10
49.365882
 20
55.471107
 30
0.000000
  0
VERTEX
  8
MERGEDLAYER-1
 10
49.322998
 20
55.471107
 30
0.000000
  0
SEQEND
  8
MERGEDLAYER-1
  0
POLYLINE
  8
MERGEDLAYER-1
 66
  1
 70
  0
 62
  7
 10
49.365882
 20
55.471107
 30
0.000000
  0
VERTEX
  8
MERGEDLAYER-1
 10
49.365882
 20
55.471107
 30
0.000000
  0
VERTEX
  8
MERGEDLAYER-1
 10
49.396156
 20
55.501380
 30
0.000000
  0
SEQEND
  8
MERGEDLAYER-1
  0
POLYLINE
  8
MERGEDLAYER-1
 66
  1
 70
  0
 62
  7
 10
49.322998
 20
55.471107
 30
0.000000
  0
VERTEX
  8
MERGEDLAYER-1
 10
49.322998
 20
55.471107
 30
0.000000
  0
VERTEX
  8
MERGEDLAYER-1
 10
49.322998
 20
55.397949
 30
0.000000
  0
SEQEND
  8
MERGEDLAYER-1
  0
POLYLINE
  8
MERGEDLAYER-1
 66
  1
 70
  0
 62
  7
 10
48.432490
 20
55.471107
 30
0.000000
  0
VERTEX
  8
MERGEDLAYER-1
 10
48.432490
 20
55.471107
 30
0.000000
  0
VERTEX
  8
MERGEDLAYER-1
 10
48.551058
 20
55.471107
 30
0.000000
  0
SEQEND
  8
MERGEDLAYER-1
  0
POLYLINE
  8
MERGEDLAYER-1
 66
  1
 70
  0
 62
  7
 10
48.551058
 20
55.471107
 30
0.000000
  0
VERTEX
  8
MERGEDLAYER-1
 10
48.551058
 20
55.471107
 30
0.000000
  0
VERTEX
  8
MERGEDLAYER-1
 10
48.551058
 20
55.397949
 30
0.000000
  0
SEQEND
  8
MERGEDLAYER-1
  0
POLYLINE
  8
MERGEDLAYER-1
 66
  1
 70
  0
 62
  7
 10
70.918626
 20
50.075533
 30
0.000000
  0
VERTEX
  8
MERGEDLAYER-1
 10
70.918626
 20
50.075533
 30
0.000000
  0
VERTEX
  8
MERGEDLAYER-1
 10
70.900151
 20
49.990018
 30
0.000000
  0
VERTEX
  8
MERGEDLAYER-1
 10
70.885301
 20
49.902240
 30
0.000000
  0
VERTEX
  8
MERGEDLAYER-1
 10
70.872113
 20
49.814200
 30
0.000000
  0
VERTEX
  8
MERGEDLAYER-1
 10
70.860596
 20
49.725924
 30
0.000000
  0
VERTEX
  8
MERGEDLAYER-1
 10
70.850746
 20
49.637446
 30
0.000000
  0
VERTEX
  8
MERGEDLAYER-1
 10
70.852713
 20
49.635475
 30
0.000000
  0
SEQEND
  8
MERGEDLAYER-1
  0
POLYLINE
  8
MERGEDLAYER-1
 66
  1
 70
  0
 62
  7
 10
71.528527
 20
50.453308
 30
0.000000
  0
VERTEX
  8
MERGEDLAYER-1
 10
71.528527
 20
50.453308
 30
0.000000
  0
VERTEX
  8
MERGEDLAYER-1
 10
71.528527
 20
49.623676
 30
0.000000
  0
SEQEND
  8
MERGEDLAYER-1
  0
POLYLINE
  8
MERGEDLAYER-1
 66
  1
 70
  0
 62
  7
 10
71.528527
 20
49.623676
 30
0.000000
  0
VERTEX
  8
MERGEDLAYER-1
 10
71.528527
 20
49.623676
 30
0.000000
  0
VERTEX
  8
MERGEDLAYER-1
 10
70.935946
 20
49.623676
 30
0.000000
  0
SEQEND
  8
MERGEDLAYER-1
  0
POLYLINE
  8
MERGEDLAYER-1
 66
  1
 70
  0
 62
  7
 10
70.935946
 20
49.623676
 30
0.000000
  0
VERTEX
  8
MERGEDLAYER-1
 10
70.935946
 20
49.623676
 30
0.000000
  0
VERTEX
  8
MERGEDLAYER-1
 10
70.995183
 20
49.682946
 30
0.000000
  0
SEQEND
  8
MERGEDLAYER-1
  0
CIRCLE
  8
MERGEDLAYER-1
 62
  7
 10
71.118648
 20
50.031095
 30
0.000000
 40
0.197531
  0
POLYLINE
  8
MERGEDLAYER-1
 66
  1
 70
  0
 62
  7
 10
71.262047
 20
50.177420
 30
0.000000
  0
VERTEX
  8
MERGEDLAYER-1
 10
71.262047
 20
50.177420
 30
0.000000
  0
VERTEX
  8
MERGEDLAYER-1
 10
71.114610
 20
50.237929
 30
0.000000
  0
VERTEX
  8
MERGEDLAYER-1
 10
70.970356
 20
50.176467
 30
0.000000
  0
VERTEX
  8
MERGEDLAYER-1
 10
70.918640
 20
50.075538
 30
0.000000
  0
SEQEND
  8
MERGEDLAYER-1
  0
POLYLINE
  8
MERGEDLAYER-1
 66
  1
 70
  0
 62
  7
 10
70.693510
 20
50.577754
 30
0.000000
  0
VERTEX
  8
MERGEDLAYER-1
 10
70.693510
 20
50.577754
 30
0.000000
  0
VERTEX
  8
MERGEDLAYER-1
 10
70.693510
 20
50.459243
 30
0.000000
  0
SEQEND
  8
MERGEDLAYER-1
  0
POLYLINE
  8
MERGEDLAYER-1
 66
  1
 70
  0
 62
  7
 10
70.693510
 20
50.459243
 30
0.000000
  0
VERTEX
  8
MERGEDLAYER-1
 10
70.693510
 20
50.459243
 30
0.000000
  0
VERTEX
  8
MERGEDLAYER-1
 10
71.523175
 20
50.459243
 30
0.000000
  0
SEQEND
  8
MERGEDLAYER-1
  0
POLYLINE
  8
MERGEDLAYER-1
 66
  1
 70
  1
 62
  7
  0
VERTEX
  8
MERGEDLAYER-1
 10
76.457074
 20
55.469853
 30
0.000000
  0
VERTEX
  8
MERGEDLAYER-1
 10
77.269574
 20
55.469853
 30
0.000000
  0
VERTEX
  8
MERGEDLAYER-1
 10
77.269574
 20
54.657353
 30
0.000000
  0
VERTEX
  8
MERGEDLAYER-1
 10
76.457074
 20
54.657353
 30
0.000000
  0
SEQEND
  8
MERGEDLAYER-1
  0
TEXT
  8
MERGEDLAYER-1
 62
  7
 10
78.000000
 20
54.466487
 30
0.000000
 40
0.807692
  1
KEY SWITCH
 72
  5
 11
85.000000
 21
54.466487
 31
0.000000
  0
POLYLINE
  8
MERGEDLAYER-1
 66
  1
 70
  1
 62
  7
  0
VERTEX
  8
MERGEDLAYER-1
 10
67.962858
 20
55.477750
 30
0.000000
  0
VERTEX
  8
MERGEDLAYER-1
 10
68.775358
 20
55.477750
 30
0.000000
  0
VERTEX
  8
MERGEDLAYER-1
 10
68.775358
 20
54.665246
 30
0.000000
  0
VERTEX
  8
MERGEDLAYER-1
 10
67.962858
 20
54.665246
 30
0.000000
  0
SEQEND
  8
MERGEDLAYER-1
  0
TEXT
  8
MERGEDLAYER-1
 62
  7
 10
69.461538
 20
54.466487
 30
0.000000
 40
0.807692
  1
PADDLE  
 72
  5
 11
74.692308
 21
54.466487
 31
0.000000
  0
TEXT
  8
MERGEDLAYER-1
 62
  7
 10
74.692308
 20
54.466487
 30
0.000000
 40
0.634615
  1
OR
 72
  5
 11
76.230769
 21
54.466487
 31
0.000000
  0
TEXT
  8
MERGEDLAYER-1
 62
  7
 10
69.538462
 20
53.235718
 30
0.000000
 40
0.807692
  1
REMOTE CONTROL
 72
  5
 11
80.153846
 21
53.235718
 31
0.000000
  0
POLYLINE
  8
MERGEDLAYER-1
 66
  1
 70
  1
 62
  7
  0
VERTEX
  8
MERGEDLAYER-1
 10
67.962858
 20
54.250845
 30
0.000000
  0
VERTEX
  8
MERGEDLAYER-1
 10
68.775358
 20
54.250845
 30
0.000000
  0
VERTEX
  8
MERGEDLAYER-1
 10
68.775358
 20
53.438345
 30
0.000000
  0
VERTEX
  8
MERGEDLAYER-1
 10
67.962858
 20
53.438345
 30
0.000000
  0
SEQEND
  8
MERGEDLAYER-1
  0
ENDSEC
  0
EOF
