  0
SECTION
  2
HEADER
999
MacDraft 5.0\0
  9
$ACADVER
  1
AC1006
  9
$CLAYER
  8
LAYER-1
  9
$EXTMIN
 10
0.000000
 20
0.000000
  9
$EXTMAX
 10
6.287269
 20
9.926355
  9
$FASTZOOM
 70
0
  9
$FILLMODE
 70
1
  0
ENDSEC
  0
SECTION
  2
TABLES
  0
TABLE
  2
LTYPE
 70
16
  0
LTYPE
  2
CONTINUOUS
 70
64
  3
Solid Line
 72
65
 73
0
 40
0.000000
  0
LTYPE
  2
LTYPE01
 70
64
  3
CUSTOM
 72
65
 73
2
 40
0.111111
 49
0.083333
 49
-0.027778
  0
LTYPE
  2
LTYPE02
 70
64
  3
CUSTOM
 72
65
 73
2
 40
0.194444
 49
0.166667
 49
-0.027778
  0
LTYPE
  2
LTYPE03
 70
64
  3
CUSTOM
 72
65
 73
2
 40
0.375000
 49
0.333333
 49
-0.041667
  0
LTYPE
  2
LTYPE04
 70
64
  3
CUSTOM
 72
65
 73
2
 40
0.722222
 49
0.666667
 49
-0.055556
  0
LTYPE
  2
LTYPE05
 70
64
  3
CUSTOM
 72
65
 73
4
 40
0.152778
 49
0.083333
 49
-0.027778
 49
0.013889
 49
-0.027778
  0
LTYPE
  2
LTYPE06
 70
64
  3
CUSTOM
 72
65
 73
4
 40
0.236111
 49
0.166667
 49
-0.027778
 49
0.013889
 49
-0.027778
  0
LTYPE
  2
LTYPE07
 70
64
  3
CUSTOM
 72
65
 73
4
 40
0.444444
 49
0.333333
 49
-0.041667
 49
0.027778
 49
-0.041667
  0
LTYPE
  2
LTYPE08
 70
64
  3
CUSTOM
 72
65
 73
4
 40
0.805556
 49
0.666667
 49
-0.055556
 49
0.027778
 49
-0.055556
  0
LTYPE
  2
LTYPE09
 70
64
  3
CUSTOM
 72
65
 73
6
 40
0.194444
 49
0.083333
 49
-0.027778
 49
0.013889
 49
-0.027778
 49
0.013889
 49
-0.027778
  0
LTYPE
  2
LTYPE10
 70
64
  3
CUSTOM
 72
65
 73
6
 40
0.277778
 49
0.166667
 49
-0.027778
 49
0.013889
 49
-0.027778
 49
0.013889
 49
-0.027778
  0
LTYPE
  2
LTYPE11
 70
64
  3
CUSTOM
 72
65
 73
6
 40
0.500000
 49
0.333333
 49
-0.041667
 49
0.027778
 49
-0.027778
 49
0.027778
 49
-0.041667
  0
LTYPE
  2
LTYPE12
 70
64
  3
CUSTOM
 72
65
 73
6
 40
0.861111
 49
0.666667
 49
-0.055556
 49
0.027778
 49
-0.027778
 49
0.027778
 49
-0.055556
  0
LTYPE
  2
LTYPE13
 70
64
  3
CUSTOM
 72
65
 73
8
 40
0.319444
 49
0.166667
 49
-0.027778
 49
0.013889
 49
-0.027778
 49
0.013889
 49
-0.027778
 49
0.013889
 49
-0.027778
  0
LTYPE
  2
LTYPE14
 70
64
  3
CUSTOM
 72
65
 73
8
 40
0.555556
 49
0.333333
 49
-0.041667
 49
0.027778
 49
-0.027778
 49
0.027778
 49
-0.027778
 49
0.027778
 49
-0.041667
  0
LTYPE
  2
LTYPE15
 70
64
  3
CUSTOM
 72
65
 73
8
 40
0.944444
 49
0.666667
 49
-0.055556
 49
0.027778
 49
-0.041667
 49
0.027778
 49
-0.041667
 49
0.027778
 49
-0.055556
  0
ENDTAB
  0
TABLE
  2
LAYER
 70
1
  0
LAYER
  2
LAYER-1
 70
0
 62
7
  6
CONTINUOUS
  0
ENDTAB
  0
ENDSEC
  0
SECTION
  2
BLOCKS
  0
ENDSEC
  0
SECTION
  2
ENTITIES
  0
LINE
  8
LAYER-1
 62
  0
 10
3.974733
 20
3.950540
 30
0.000000
 11
3.406950
 21
3.950540
 31
0.000000
  0
LINE
  8
LAYER-1
 62
  0
 10
3.974733
 20
4.040540
 30
0.000000
 11
3.406950
 21
4.040540
 31
0.000000
  0
LINE
  8
LAYER-1
 62
  0
 10
2.492319
 20
4.039624
 30
0.000000
 11
3.060118
 21
4.039624
 31
0.000000
  0
LINE
  8
LAYER-1
 62
  0
 10
2.492319
 20
3.949623
 30
0.000000
 11
3.060118
 21
3.949623
 31
0.000000
  0
TEXT
  8
LAYER-1
 62
  0
 10
3.509487
 20
2.682492
 30
0.000000
 40
0.104167
  1
4"
 72
  5
 11
3.717820
 21
2.682492
 31
0.000000
  0
TEXT
  8
LAYER-1
 62
  0
 10
3.342820
 20
2.460270
 30
0.000000
 40
0.104167
  1
102mm
 72
  5
 11
3.884487
 21
2.460270
 31
0.000000
  0
ARC
  8
LAYER-1
 62
  0
 10
4.940267
 20
8.859575
 30
0.000000
 40
0.254425
 50
270.000000
 51
90.000000
  0
POLYLINE
  8
LAYER-1
 66
  1
 70
  0
 62
  0
 10
4.940267
 20
9.114001
 30
0.000000
  0
VERTEX
  8
LAYER-1
 10
4.940267
 20
9.114001
 30
0.000000
  0
VERTEX
  8
LAYER-1
 10
1.275344
 20
9.114001
 30
0.000000
  0
SEQEND
  8
LAYER-1
  0
POLYLINE
  8
LAYER-1
 66
  1
 70
  0
 62
  0
 10
1.275344
 20
9.114001
 30
0.000000
  0
VERTEX
  8
LAYER-1
 10
1.275344
 20
9.114001
 30
0.000000
  0
VERTEX
  8
LAYER-1
 10
1.275344
 20
8.605151
 30
0.000000
  0
SEQEND
  8
LAYER-1
  0
POLYLINE
  8
LAYER-1
 66
  1
 70
  0
 62
  0
 10
4.940267
 20
8.605151
 30
0.000000
  0
VERTEX
  8
LAYER-1
 10
4.940267
 20
8.605151
 30
0.000000
  0
VERTEX
  8
LAYER-1
 10
1.275344
 20
8.605151
 30
0.000000
  0
SEQEND
  8
LAYER-1
  0
TEXT
  8
LAYER-1
 62
  0
 10
3.078931
 20
9.404714
 30
0.000000
 40
0.333333
  1
MobilFlex
 72
  5
 11
5.231709
 21
9.404714
 31
0.000000
  0
POLYLINE
  8
LAYER-1
 66
  1
 70
  1
 62
  0
  0
VERTEX
  8
LAYER-1
 10
1.276847
 20
9.924689
 30
0.000000
  0
VERTEX
  8
LAYER-1
 10
1.514694
 20
9.924689
 30
0.000000
  0
VERTEX
  8
LAYER-1
 10
1.514694
 20
9.407744
 30
0.000000
  0
VERTEX
  8
LAYER-1
 10
1.276847
 20
9.407744
 30
0.000000
  0
SEQEND
  8
LAYER-1
  0
POLYLINE
  8
LAYER-1
 66
  1
 70
  1
 62
  0
  0
VERTEX
  8
LAYER-1
 10
1.589347
 20
9.924689
 30
0.000000
  0
VERTEX
  8
LAYER-1
 10
1.827194
 20
9.924689
 30
0.000000
  0
VERTEX
  8
LAYER-1
 10
1.827194
 20
9.407744
 30
0.000000
  0
VERTEX
  8
LAYER-1
 10
1.589347
 20
9.407744
 30
0.000000
  0
SEQEND
  8
LAYER-1
  0
POLYLINE
  8
LAYER-1
 66
  1
 70
  1
 62
  0
  0
VERTEX
  8
LAYER-1
 10
1.889694
 20
9.924689
 30
0.000000
  0
VERTEX
  8
LAYER-1
 10
2.127542
 20
9.924689
 30
0.000000
  0
VERTEX
  8
LAYER-1
 10
2.127542
 20
9.407744
 30
0.000000
  0
VERTEX
  8
LAYER-1
 10
1.889694
 20
9.407744
 30
0.000000
  0
SEQEND
  8
LAYER-1
  0
POLYLINE
  8
LAYER-1
 66
  1
 70
  1
 62
  0
  0
VERTEX
  8
LAYER-1
 10
2.193514
 20
9.924689
 30
0.000000
  0
VERTEX
  8
LAYER-1
 10
2.431362
 20
9.924689
 30
0.000000
  0
VERTEX
  8
LAYER-1
 10
2.431362
 20
9.407744
 30
0.000000
  0
VERTEX
  8
LAYER-1
 10
2.193514
 20
9.407744
 30
0.000000
  0
SEQEND
  8
LAYER-1
  0
POLYLINE
  8
LAYER-1
 66
  1
 70
  1
 62
  0
  0
VERTEX
  8
LAYER-1
 10
2.510355
 20
9.920773
 30
0.000000
  0
VERTEX
  8
LAYER-1
 10
2.885789
 20
9.920773
 30
0.000000
  0
VERTEX
  8
LAYER-1
 10
2.885789
 20
9.782752
 30
0.000000
  0
VERTEX
  8
LAYER-1
 10
2.510355
 20
9.782752
 30
0.000000
  0
SEQEND
  8
LAYER-1
  0
POLYLINE
  8
LAYER-1
 66
  1
 70
  1
 62
  0
  0
VERTEX
  8
LAYER-1
 10
2.509921
 20
9.693342
 30
0.000000
  0
VERTEX
  8
LAYER-1
 10
2.818080
 20
9.693342
 30
0.000000
  0
VERTEX
  8
LAYER-1
 10
2.818080
 20
9.559228
 30
0.000000
  0
VERTEX
  8
LAYER-1
 10
2.509921
 20
9.559228
 30
0.000000
  0
SEQEND
  8
LAYER-1
  0
POLYLINE
  8
LAYER-1
 66
  1
 70
  1
 62
  0
  0
VERTEX
  8
LAYER-1
 10
1.276847
 20
9.323117
 30
0.000000
  0
VERTEX
  8
LAYER-1
 10
5.195251
 20
9.323117
 30
0.000000
  0
VERTEX
  8
LAYER-1
 10
5.195251
 20
9.279714
 30
0.000000
  0
VERTEX
  8
LAYER-1
 10
1.276847
 20
9.279714
 30
0.000000
  0
SEQEND
  8
LAYER-1
  0
POLYLINE
  8
LAYER-1
 66
  1
 70
  1
 62
  0
  0
VERTEX
  8
LAYER-1
 10
2.595693
 20
4.454866
 30
0.000000
  0
VERTEX
  8
LAYER-1
 10
3.871290
 20
4.454866
 30
0.000000
  0
VERTEX
  8
LAYER-1
 10
3.871290
 20
4.289513
 30
0.000000
  0
VERTEX
  8
LAYER-1
 10
2.595693
 20
4.289513
 30
0.000000
  0
SEQEND
  8
LAYER-1
  0
POLYLINE
  8
LAYER-1
 66
  1
 70
  1
 62
  0
  0
VERTEX
  8
LAYER-1
 10
2.595693
 20
4.629770
 30
0.000000
  0
VERTEX
  8
LAYER-1
 10
3.871290
 20
4.629770
 30
0.000000
  0
VERTEX
  8
LAYER-1
 10
3.871290
 20
4.464416
 30
0.000000
  0
VERTEX
  8
LAYER-1
 10
2.595693
 20
4.464416
 30
0.000000
  0
SEQEND
  8
LAYER-1
  0
POLYLINE
  8
LAYER-1
 66
  1
 70
  1
 62
  0
  0
VERTEX
  8
LAYER-1
 10
2.595791
 20
4.569920
 30
0.000000
  0
VERTEX
  8
LAYER-1
 10
3.870973
 20
4.569920
 30
0.000000
  0
VERTEX
  8
LAYER-1
 10
3.870973
 20
4.516101
 30
0.000000
  0
VERTEX
  8
LAYER-1
 10
2.595791
 20
4.516101
 30
0.000000
  0
SEQEND
  8
LAYER-1
  0
POLYLINE
  8
LAYER-1
 66
  1
 70
  0
 62
  0
 10
2.595791
 20
4.599434
 30
0.000000
  0
VERTEX
  8
LAYER-1
 10
2.595791
 20
4.599434
 30
0.000000
  0
VERTEX
  8
LAYER-1
 10
3.869238
 20
4.599434
 30
0.000000
  0
SEQEND
  8
LAYER-1
  0
POLYLINE
  8
LAYER-1
 66
  1
 70
  0
 62
  0
 10
2.595791
 20
4.486588
 30
0.000000
  0
VERTEX
  8
LAYER-1
 10
2.595791
 20
4.486588
 30
0.000000
  0
VERTEX
  8
LAYER-1
 10
3.870973
 20
4.486588
 30
0.000000
  0
SEQEND
  8
LAYER-1
  0
POLYLINE
  8
LAYER-1
 66
  1
 70
  1
 62
  0
  0
VERTEX
  8
LAYER-1
 10
2.595792
 20
4.398914
 30
0.000000
  0
VERTEX
  8
LAYER-1
 10
3.870973
 20
4.398914
 30
0.000000
  0
VERTEX
  8
LAYER-1
 10
3.870973
 20
4.345094
 30
0.000000
  0
VERTEX
  8
LAYER-1
 10
2.595792
 20
4.345094
 30
0.000000
  0
SEQEND
  8
LAYER-1
  0
POLYLINE
  8
LAYER-1
 66
  1
 70
  0
 62
  0
 10
2.595791
 20
4.428427
 30
0.000000
  0
VERTEX
  8
LAYER-1
 10
2.595791
 20
4.428427
 30
0.000000
  0
VERTEX
  8
LAYER-1
 10
3.869238
 20
4.428427
 30
0.000000
  0
SEQEND
  8
LAYER-1
  0
POLYLINE
  8
LAYER-1
 66
  1
 70
  0
 62
  0
 10
2.595791
 20
4.315580
 30
0.000000
  0
VERTEX
  8
LAYER-1
 10
2.595791
 20
4.315580
 30
0.000000
  0
VERTEX
  8
LAYER-1
 10
3.870973
 20
4.315580
 30
0.000000
  0
SEQEND
  8
LAYER-1
  0
POLYLINE
  8
LAYER-1
 66
  1
 70
  0
 62
  0
 10
3.332823
 20
3.925650
 30
0.000000
  0
VERTEX
  8
LAYER-1
 10
3.332823
 20
3.925650
 30
0.000000
  0
VERTEX
  8
LAYER-1
 10
3.334172
 20
3.945221
 30
0.000000
  0
VERTEX
  8
LAYER-1
 10
3.334470
 20
3.948295
 30
0.000000
  0
SEQEND
  8
LAYER-1
  0
POLYLINE
  8
LAYER-1
 66
  1
 70
  0
 62
  0
 10
3.371157
 20
3.948292
 30
0.000000
  0
VERTEX
  8
LAYER-1
 10
3.371157
 20
3.948292
 30
0.000000
  0
VERTEX
  8
LAYER-1
 10
3.334470
 20
3.948294
 30
0.000000
  0
SEQEND
  8
LAYER-1
  0
POLYLINE
  8
LAYER-1
 66
  1
 70
  0
 62
  0
 10
3.371157
 20
3.948292
 30
0.000000
  0
VERTEX
  8
LAYER-1
 10
3.371157
 20
3.948292
 30
0.000000
  0
VERTEX
  8
LAYER-1
 10
3.378785
 20
3.955921
 30
0.000000
  0
SEQEND
  8
LAYER-1
  0
POLYLINE
  8
LAYER-1
 66
  1
 70
  0
 62
  0
 10
3.378786
 20
4.281066
 30
0.000000
  0
VERTEX
  8
LAYER-1
 10
3.378786
 20
4.281066
 30
0.000000
  0
VERTEX
  8
LAYER-1
 10
3.378786
 20
3.955921
 30
0.000000
  0
SEQEND
  8
LAYER-1
  0
POLYLINE
  8
LAYER-1
 66
  1
 70
  0
 62
  0
 10
3.378785
 20
4.281066
 30
0.000000
  0
VERTEX
  8
LAYER-1
 10
3.378785
 20
4.281066
 30
0.000000
  0
VERTEX
  8
LAYER-1
 10
3.371157
 20
4.288694
 30
0.000000
  0
SEQEND
  8
LAYER-1
  0
POLYLINE
  8
LAYER-1
 66
  1
 70
  0
 62
  0
 10
3.369551
 20
4.288694
 30
0.000000
  0
VERTEX
  8
LAYER-1
 10
3.369551
 20
4.288694
 30
0.000000
  0
VERTEX
  8
LAYER-1
 10
3.371157
 20
4.288694
 30
0.000000
  0
SEQEND
  8
LAYER-1
  0
POLYLINE
  8
LAYER-1
 66
  1
 70
  0
 62
  0
 10
3.369551
 20
4.288694
 30
0.000000
  0
VERTEX
  8
LAYER-1
 10
3.369551
 20
4.288694
 30
0.000000
  0
VERTEX
  8
LAYER-1
 10
3.361922
 20
4.281066
 30
0.000000
  0
SEQEND
  8
LAYER-1
  0
POLYLINE
  8
LAYER-1
 66
  1
 70
  0
 62
  0
 10
3.361923
 20
4.279605
 30
0.000000
  0
VERTEX
  8
LAYER-1
 10
3.361923
 20
4.279605
 30
0.000000
  0
VERTEX
  8
LAYER-1
 10
3.361923
 20
4.281066
 30
0.000000
  0
SEQEND
  8
LAYER-1
  0
POLYLINE
  8
LAYER-1
 66
  1
 70
  0
 62
  0
 10
3.354295
 20
4.271977
 30
0.000000
  0
VERTEX
  8
LAYER-1
 10
3.354295
 20
4.271977
 30
0.000000
  0
VERTEX
  8
LAYER-1
 10
3.361923
 20
4.279605
 30
0.000000
  0
SEQEND
  8
LAYER-1
  0
POLYLINE
  8
LAYER-1
 66
  1
 70
  0
 62
  0
 10
3.334296
 20
4.271978
 30
0.000000
  0
VERTEX
  8
LAYER-1
 10
3.334296
 20
4.271978
 30
0.000000
  0
VERTEX
  8
LAYER-1
 10
3.354295
 20
4.271978
 30
0.000000
  0
SEQEND
  8
LAYER-1
  0
POLYLINE
  8
LAYER-1
 66
  1
 70
  0
 62
  0
 10
3.326668
 20
4.279605
 30
0.000000
  0
VERTEX
  8
LAYER-1
 10
3.326668
 20
4.279605
 30
0.000000
  0
VERTEX
  8
LAYER-1
 10
3.334296
 20
4.271977
 30
0.000000
  0
SEQEND
  8
LAYER-1
  0
POLYLINE
  8
LAYER-1
 66
  1
 70
  0
 62
  0
 10
3.326668
 20
4.281066
 30
0.000000
  0
VERTEX
  8
LAYER-1
 10
3.326668
 20
4.281066
 30
0.000000
  0
VERTEX
  8
LAYER-1
 10
3.326668
 20
4.279605
 30
0.000000
  0
SEQEND
  8
LAYER-1
  0
POLYLINE
  8
LAYER-1
 66
  1
 70
  0
 62
  0
 10
3.326668
 20
4.281066
 30
0.000000
  0
VERTEX
  8
LAYER-1
 10
3.326668
 20
4.281066
 30
0.000000
  0
VERTEX
  8
LAYER-1
 10
3.319039
 20
4.288694
 30
0.000000
  0
SEQEND
  8
LAYER-1
  0
POLYLINE
  8
LAYER-1
 66
  1
 70
  0
 62
  0
 10
3.150351
 20
4.288694
 30
0.000000
  0
VERTEX
  8
LAYER-1
 10
3.150351
 20
4.288694
 30
0.000000
  0
VERTEX
  8
LAYER-1
 10
3.319039
 20
4.288694
 30
0.000000
  0
SEQEND
  8
LAYER-1
  0
POLYLINE
  8
LAYER-1
 66
  1
 70
  0
 62
  0
 10
3.150351
 20
4.288694
 30
0.000000
  0
VERTEX
  8
LAYER-1
 10
3.150351
 20
4.288694
 30
0.000000
  0
VERTEX
  8
LAYER-1
 10
3.142723
 20
4.281066
 30
0.000000
  0
SEQEND
  8
LAYER-1
  0
POLYLINE
  8
LAYER-1
 66
  1
 70
  0
 62
  0
 10
3.142723
 20
4.279605
 30
0.000000
  0
VERTEX
  8
LAYER-1
 10
3.142723
 20
4.279605
 30
0.000000
  0
VERTEX
  8
LAYER-1
 10
3.142723
 20
4.281066
 30
0.000000
  0
SEQEND
  8
LAYER-1
  0
POLYLINE
  8
LAYER-1
 66
  1
 70
  0
 62
  0
 10
3.135094
 20
4.271977
 30
0.000000
  0
VERTEX
  8
LAYER-1
 10
3.135094
 20
4.271977
 30
0.000000
  0
VERTEX
  8
LAYER-1
 10
3.142723
 20
4.279605
 30
0.000000
  0
SEQEND
  8
LAYER-1
  0
POLYLINE
  8
LAYER-1
 66
  1
 70
  0
 62
  0
 10
3.115094
 20
4.271978
 30
0.000000
  0
VERTEX
  8
LAYER-1
 10
3.115094
 20
4.271978
 30
0.000000
  0
VERTEX
  8
LAYER-1
 10
3.135094
 20
4.271978
 30
0.000000
  0
SEQEND
  8
LAYER-1
  0
POLYLINE
  8
LAYER-1
 66
  1
 70
  0
 62
  0
 10
3.107466
 20
4.279605
 30
0.000000
  0
VERTEX
  8
LAYER-1
 10
3.107466
 20
4.279605
 30
0.000000
  0
VERTEX
  8
LAYER-1
 10
3.115094
 20
4.271977
 30
0.000000
  0
SEQEND
  8
LAYER-1
  0
POLYLINE
  8
LAYER-1
 66
  1
 70
  0
 62
  0
 10
3.107466
 20
4.281066
 30
0.000000
  0
VERTEX
  8
LAYER-1
 10
3.107466
 20
4.281066
 30
0.000000
  0
VERTEX
  8
LAYER-1
 10
3.107466
 20
4.279605
 30
0.000000
  0
SEQEND
  8
LAYER-1
  0
POLYLINE
  8
LAYER-1
 66
  1
 70
  0
 62
  0
 10
3.107466
 20
4.281066
 30
0.000000
  0
VERTEX
  8
LAYER-1
 10
3.107466
 20
4.281066
 30
0.000000
  0
VERTEX
  8
LAYER-1
 10
3.099838
 20
4.288694
 30
0.000000
  0
SEQEND
  8
LAYER-1
  0
POLYLINE
  8
LAYER-1
 66
  1
 70
  0
 62
  0
 10
3.099766
 20
4.288694
 30
0.000000
  0
VERTEX
  8
LAYER-1
 10
3.099766
 20
4.288694
 30
0.000000
  0
VERTEX
  8
LAYER-1
 10
3.099838
 20
4.288694
 30
0.000000
  0
SEQEND
  8
LAYER-1
  0
POLYLINE
  8
LAYER-1
 66
  1
 70
  0
 62
  0
 10
3.099766
 20
4.288694
 30
0.000000
  0
VERTEX
  8
LAYER-1
 10
3.099766
 20
4.288694
 30
0.000000
  0
VERTEX
  8
LAYER-1
 10
3.092137
 20
4.281066
 30
0.000000
  0
SEQEND
  8
LAYER-1
  0
POLYLINE
  8
LAYER-1
 66
  1
 70
  0
 62
  0
 10
3.092137
 20
4.281066
 30
0.000000
  0
VERTEX
  8
LAYER-1
 10
3.092137
 20
4.281066
 30
0.000000
  0
VERTEX
  8
LAYER-1
 10
3.092137
 20
3.955921
 30
0.000000
  0
SEQEND
  8
LAYER-1
  0
POLYLINE
  8
LAYER-1
 66
  1
 70
  0
 62
  0
 10
3.092137
 20
3.955921
 30
0.000000
  0
VERTEX
  8
LAYER-1
 10
3.092137
 20
3.955921
 30
0.000000
  0
VERTEX
  8
LAYER-1
 10
3.099766
 20
3.948292
 30
0.000000
  0
SEQEND
  8
LAYER-1
  0
POLYLINE
  8
LAYER-1
 66
  1
 70
  0
 62
  0
 10
3.099766
 20
3.948292
 30
0.000000
  0
VERTEX
  8
LAYER-1
 10
3.099766
 20
3.948292
 30
0.000000
  0
VERTEX
  8
LAYER-1
 10
3.136431
 20
3.948294
 30
0.000000
  0
SEQEND
  8
LAYER-1
  0
POLYLINE
  8
LAYER-1
 66
  1
 70
  0
 62
  0
 10
3.136431
 20
3.948295
 30
0.000000
  0
VERTEX
  8
LAYER-1
 10
3.136431
 20
3.948295
 30
0.000000
  0
VERTEX
  8
LAYER-1
 10
3.133727
 20
3.932365
 30
0.000000
  0
VERTEX
  8
LAYER-1
 10
3.138078
 20
3.925650
 30
0.000000
  0
SEQEND
  8
LAYER-1
  0
POLYLINE
  8
LAYER-1
 66
  1
 70
  0
 62
  0
 10
3.138078
 20
3.925649
 30
0.000000
  0
VERTEX
  8
LAYER-1
 10
3.138078
 20
3.925649
 30
0.000000
  0
VERTEX
  8
LAYER-1
 10
3.148939
 20
3.932752
 30
0.000000
  0
SEQEND
  8
LAYER-1
  0
POLYLINE
  8
LAYER-1
 66
  1
 70
  0
 62
  0
 10
3.166419
 20
3.932785
 30
0.000000
  0
VERTEX
  8
LAYER-1
 10
3.166419
 20
3.932785
 30
0.000000
  0
VERTEX
  8
LAYER-1
 10
3.161371
 20
3.949176
 30
0.000000
  0
VERTEX
  8
LAYER-1
 10
3.146949
 20
3.946096
 30
0.000000
  0
VERTEX
  8
LAYER-1
 10
3.148940
 20
3.932752
 30
0.000000
  0
SEQEND
  8
LAYER-1
  0
POLYLINE
  8
LAYER-1
 66
  1
 70
  0
 62
  0
 10
3.166419
 20
3.932785
 30
0.000000
  0
VERTEX
  8
LAYER-1
 10
3.166419
 20
3.932785
 30
0.000000
  0
VERTEX
  8
LAYER-1
 10
3.177373
 20
3.925668
 30
0.000000
  0
SEQEND
  8
LAYER-1
  0
POLYLINE
  8
LAYER-1
 66
  1
 70
  0
 62
  0
 10
3.177373
 20
3.925668
 30
0.000000
  0
VERTEX
  8
LAYER-1
 10
3.177373
 20
3.925668
 30
0.000000
  0
VERTEX
  8
LAYER-1
 10
3.178676
 20
3.945315
 30
0.000000
  0
VERTEX
  8
LAYER-1
 10
3.179000
 20
3.948295
 30
0.000000
  0
SEQEND
  8
LAYER-1
  0
POLYLINE
  8
LAYER-1
 66
  1
 70
  0
 62
  0
 10
3.185643
 20
3.948292
 30
0.000000
  0
VERTEX
  8
LAYER-1
 10
3.185643
 20
3.948292
 30
0.000000
  0
VERTEX
  8
LAYER-1
 10
3.178999
 20
3.948294
 30
0.000000
  0
SEQEND
  8
LAYER-1
  0
POLYLINE
  8
LAYER-1
 66
  1
 70
  0
 62
  0
 10
3.185643
 20
3.974126
 30
0.000000
  0
VERTEX
  8
LAYER-1
 10
3.185643
 20
3.974126
 30
0.000000
  0
VERTEX
  8
LAYER-1
 10
3.185643
 20
3.948292
 30
0.000000
  0
SEQEND
  8
LAYER-1
  0
POLYLINE
  8
LAYER-1
 66
  1
 70
  0
 62
  0
 10
3.115897
 20
3.996161
 30
0.000000
  0
VERTEX
  8
LAYER-1
 10
3.115897
 20
3.996161
 30
0.000000
  0
VERTEX
  8
LAYER-1
 10
3.185643
 20
3.974126
 30
0.000000
  0
SEQEND
  8
LAYER-1
  0
POLYLINE
  8
LAYER-1
 66
  1
 70
  0
 62
  0
 10
3.115897
 20
3.996161
 30
0.000000
  0
VERTEX
  8
LAYER-1
 10
3.115897
 20
3.996161
 30
0.000000
  0
VERTEX
  8
LAYER-1
 10
3.115897
 20
4.022622
 30
0.000000
  0
SEQEND
  8
LAYER-1
  0
POLYLINE
  8
LAYER-1
 66
  1
 70
  0
 62
  0
 10
3.115897
 20
4.022622
 30
0.000000
  0
VERTEX
  8
LAYER-1
 10
3.115897
 20
4.022622
 30
0.000000
  0
VERTEX
  8
LAYER-1
 10
3.108953
 20
4.030219
 30
0.000000
  0
SEQEND
  8
LAYER-1
  0
POLYLINE
  8
LAYER-1
 66
  1
 70
  0
 62
  0
 10
3.107466
 20
4.030354
 30
0.000000
  0
VERTEX
  8
LAYER-1
 10
3.107466
 20
4.030354
 30
0.000000
  0
VERTEX
  8
LAYER-1
 10
3.108953
 20
4.030220
 30
0.000000
  0
SEQEND
  8
LAYER-1
  0
POLYLINE
  8
LAYER-1
 66
  1
 70
  0
 62
  0
 10
3.107466
 20
4.030354
 30
0.000000
  0
VERTEX
  8
LAYER-1
 10
3.107466
 20
4.030354
 30
0.000000
  0
VERTEX
  8
LAYER-1
 10
3.107466
 20
4.247634
 30
0.000000
  0
SEQEND
  8
LAYER-1
  0
POLYLINE
  8
LAYER-1
 66
  1
 70
  0
 62
  0
 10
3.115094
 20
4.255262
 30
0.000000
  0
VERTEX
  8
LAYER-1
 10
3.115094
 20
4.255262
 30
0.000000
  0
VERTEX
  8
LAYER-1
 10
3.107466
 20
4.247634
 30
0.000000
  0
SEQEND
  8
LAYER-1
  0
POLYLINE
  8
LAYER-1
 66
  1
 70
  0
 62
  0
 10
3.115094
 20
4.255262
 30
0.000000
  0
VERTEX
  8
LAYER-1
 10
3.115094
 20
4.255262
 30
0.000000
  0
VERTEX
  8
LAYER-1
 10
3.135094
 20
4.255262
 30
0.000000
  0
SEQEND
  8
LAYER-1
  0
POLYLINE
  8
LAYER-1
 66
  1
 70
  0
 62
  0
 10
3.142723
 20
4.247634
 30
0.000000
  0
VERTEX
  8
LAYER-1
 10
3.142723
 20
4.247634
 30
0.000000
  0
VERTEX
  8
LAYER-1
 10
3.135094
 20
4.255262
 30
0.000000
  0
SEQEND
  8
LAYER-1
  0
POLYLINE
  8
LAYER-1
 66
  1
 70
  0
 62
  0
 10
3.142723
 20
4.247634
 30
0.000000
  0
VERTEX
  8
LAYER-1
 10
3.142723
 20
4.247634
 30
0.000000
  0
VERTEX
  8
LAYER-1
 10
3.142723
 20
4.246174
 30
0.000000
  0
SEQEND
  8
LAYER-1
  0
POLYLINE
  8
LAYER-1
 66
  1
 70
  0
 62
  0
 10
3.142723
 20
4.246174
 30
0.000000
  0
VERTEX
  8
LAYER-1
 10
3.142723
 20
4.246174
 30
0.000000
  0
VERTEX
  8
LAYER-1
 10
3.150351
 20
4.238545
 30
0.000000
  0
SEQEND
  8
LAYER-1
  0
POLYLINE
  8
LAYER-1
 66
  1
 70
  0
 62
  0
 10
3.150351
 20
4.238545
 30
0.000000
  0
VERTEX
  8
LAYER-1
 10
3.150351
 20
4.238545
 30
0.000000
  0
VERTEX
  8
LAYER-1
 10
3.164421
 20
4.238545
 30
0.000000
  0
SEQEND
  8
LAYER-1
  0
POLYLINE
  8
LAYER-1
 66
  1
 70
  0
 62
  0
 10
3.164421
 20
4.238545
 30
0.000000
  0
VERTEX
  8
LAYER-1
 10
3.164421
 20
4.238545
 30
0.000000
  0
VERTEX
  8
LAYER-1
 10
3.168781
 20
4.242904
 30
0.000000
  0
SEQEND
  8
LAYER-1
  0
POLYLINE
  8
LAYER-1
 66
  1
 70
  0
 62
  0
 10
3.168781
 20
4.246344
 30
0.000000
  0
VERTEX
  8
LAYER-1
 10
3.168781
 20
4.246344
 30
0.000000
  0
VERTEX
  8
LAYER-1
 10
3.168781
 20
4.242904
 30
0.000000
  0
SEQEND
  8
LAYER-1
  0
POLYLINE
  8
LAYER-1
 66
  1
 70
  0
 62
  0
 10
3.168781
 20
4.246344
 30
0.000000
  0
VERTEX
  8
LAYER-1
 10
3.168781
 20
4.246344
 30
0.000000
  0
VERTEX
  8
LAYER-1
 10
3.164421
 20
4.250703
 30
0.000000
  0
SEQEND
  8
LAYER-1
  0
POLYLINE
  8
LAYER-1
 66
  1
 70
  0
 62
  0
 10
3.163943
 20
4.250703
 30
0.000000
  0
VERTEX
  8
LAYER-1
 10
3.163943
 20
4.250703
 30
0.000000
  0
VERTEX
  8
LAYER-1
 10
3.164421
 20
4.250703
 30
0.000000
  0
SEQEND
  8
LAYER-1
  0
POLYLINE
  8
LAYER-1
 66
  1
 70
  0
 62
  0
 10
3.159584
 20
4.255062
 30
0.000000
  0
VERTEX
  8
LAYER-1
 10
3.159584
 20
4.255062
 30
0.000000
  0
VERTEX
  8
LAYER-1
 10
3.163943
 20
4.250703
 30
0.000000
  0
SEQEND
  8
LAYER-1
  0
POLYLINE
  8
LAYER-1
 66
  1
 70
  0
 62
  0
 10
3.159584
 20
4.264350
 30
0.000000
  0
VERTEX
  8
LAYER-1
 10
3.159584
 20
4.264350
 30
0.000000
  0
VERTEX
  8
LAYER-1
 10
3.159584
 20
4.255062
 30
0.000000
  0
SEQEND
  8
LAYER-1
  0
POLYLINE
  8
LAYER-1
 66
  1
 70
  0
 62
  0
 10
3.167213
 20
4.271978
 30
0.000000
  0
VERTEX
  8
LAYER-1
 10
3.167213
 20
4.271978
 30
0.000000
  0
VERTEX
  8
LAYER-1
 10
3.159584
 20
4.264350
 30
0.000000
  0
SEQEND
  8
LAYER-1
  0
POLYLINE
  8
LAYER-1
 66
  1
 70
  0
 62
  0
 10
3.167213
 20
4.271978
 30
0.000000
  0
VERTEX
  8
LAYER-1
 10
3.167213
 20
4.271978
 30
0.000000
  0
VERTEX
  8
LAYER-1
 10
3.302178
 20
4.271978
 30
0.000000
  0
SEQEND
  8
LAYER-1
  0
POLYLINE
  8
LAYER-1
 66
  1
 70
  0
 62
  0
 10
3.309807
 20
4.264350
 30
0.000000
  0
VERTEX
  8
LAYER-1
 10
3.309807
 20
4.264350
 30
0.000000
  0
VERTEX
  8
LAYER-1
 10
3.302178
 20
4.271978
 30
0.000000
  0
SEQEND
  8
LAYER-1
  0
POLYLINE
  8
LAYER-1
 66
  1
 70
  0
 62
  0
 10
3.309807
 20
4.264350
 30
0.000000
  0
VERTEX
  8
LAYER-1
 10
3.309807
 20
4.264350
 30
0.000000
  0
VERTEX
  8
LAYER-1
 10
3.309807
 20
4.255062
 30
0.000000
  0
SEQEND
  8
LAYER-1
  0
POLYLINE
  8
LAYER-1
 66
  1
 70
  0
 62
  0
 10
3.305448
 20
4.250703
 30
0.000000
  0
VERTEX
  8
LAYER-1
 10
3.305448
 20
4.250703
 30
0.000000
  0
VERTEX
  8
LAYER-1
 10
3.309807
 20
4.255062
 30
0.000000
  0
SEQEND
  8
LAYER-1
  0
POLYLINE
  8
LAYER-1
 66
  1
 70
  0
 62
  0
 10
3.305448
 20
4.250703
 30
0.000000
  0
VERTEX
  8
LAYER-1
 10
3.305448
 20
4.250703
 30
0.000000
  0
VERTEX
  8
LAYER-1
 10
3.304968
 20
4.250703
 30
0.000000
  0
SEQEND
  8
LAYER-1
  0
POLYLINE
  8
LAYER-1
 66
  1
 70
  0
 62
  0
 10
3.304968
 20
4.250703
 30
0.000000
  0
VERTEX
  8
LAYER-1
 10
3.304968
 20
4.250703
 30
0.000000
  0
VERTEX
  8
LAYER-1
 10
3.300609
 20
4.246344
 30
0.000000
  0
SEQEND
  8
LAYER-1
  0
POLYLINE
  8
LAYER-1
 66
  1
 70
  0
 62
  0
 10
3.300609
 20
4.246344
 30
0.000000
  0
VERTEX
  8
LAYER-1
 10
3.300609
 20
4.246344
 30
0.000000
  0
VERTEX
  8
LAYER-1
 10
3.300609
 20
4.242904
 30
0.000000
  0
SEQEND
  8
LAYER-1
  0
POLYLINE
  8
LAYER-1
 66
  1
 70
  0
 62
  0
 10
3.300609
 20
4.242904
 30
0.000000
  0
VERTEX
  8
LAYER-1
 10
3.300609
 20
4.242904
 30
0.000000
  0
VERTEX
  8
LAYER-1
 10
3.304968
 20
4.238545
 30
0.000000
  0
SEQEND
  8
LAYER-1
  0
POLYLINE
  8
LAYER-1
 66
  1
 70
  0
 62
  0
 10
3.319039
 20
4.238545
 30
0.000000
  0
VERTEX
  8
LAYER-1
 10
3.319039
 20
4.238545
 30
0.000000
  0
VERTEX
  8
LAYER-1
 10
3.304968
 20
4.238545
 30
0.000000
  0
SEQEND
  8
LAYER-1
  0
POLYLINE
  8
LAYER-1
 66
  1
 70
  0
 62
  0
 10
3.319039
 20
4.238545
 30
0.000000
  0
VERTEX
  8
LAYER-1
 10
3.319039
 20
4.238545
 30
0.000000
  0
VERTEX
  8
LAYER-1
 10
3.326668
 20
4.246174
 30
0.000000
  0
SEQEND
  8
LAYER-1
  0
POLYLINE
  8
LAYER-1
 66
  1
 70
  0
 62
  0
 10
3.326668
 20
4.247634
 30
0.000000
  0
VERTEX
  8
LAYER-1
 10
3.326668
 20
4.247634
 30
0.000000
  0
VERTEX
  8
LAYER-1
 10
3.326668
 20
4.246174
 30
0.000000
  0
SEQEND
  8
LAYER-1
  0
POLYLINE
  8
LAYER-1
 66
  1
 70
  0
 62
  0
 10
3.334296
 20
4.255262
 30
0.000000
  0
VERTEX
  8
LAYER-1
 10
3.334296
 20
4.255262
 30
0.000000
  0
VERTEX
  8
LAYER-1
 10
3.326668
 20
4.247634
 30
0.000000
  0
SEQEND
  8
LAYER-1
  0
POLYLINE
  8
LAYER-1
 66
  1
 70
  0
 62
  0
 10
3.334296
 20
4.255262
 30
0.000000
  0
VERTEX
  8
LAYER-1
 10
3.334296
 20
4.255262
 30
0.000000
  0
VERTEX
  8
LAYER-1
 10
3.354295
 20
4.255262
 30
0.000000
  0
SEQEND
  8
LAYER-1
  0
POLYLINE
  8
LAYER-1
 66
  1
 70
  0
 62
  0
 10
3.361923
 20
4.247634
 30
0.000000
  0
VERTEX
  8
LAYER-1
 10
3.361923
 20
4.247634
 30
0.000000
  0
VERTEX
  8
LAYER-1
 10
3.354295
 20
4.255262
 30
0.000000
  0
SEQEND
  8
LAYER-1
  0
POLYLINE
  8
LAYER-1
 66
  1
 70
  0
 62
  0
 10
3.361923
 20
4.030354
 30
0.000000
  0
VERTEX
  8
LAYER-1
 10
3.361923
 20
4.030354
 30
0.000000
  0
VERTEX
  8
LAYER-1
 10
3.361923
 20
4.247634
 30
0.000000
  0
SEQEND
  8
LAYER-1
  0
POLYLINE
  8
LAYER-1
 66
  1
 70
  0
 62
  0
 10
3.361923
 20
4.030354
 30
0.000000
  0
VERTEX
  8
LAYER-1
 10
3.361923
 20
4.030354
 30
0.000000
  0
VERTEX
  8
LAYER-1
 10
3.359727
 20
4.030172
 30
0.000000
  0
SEQEND
  8
LAYER-1
  0
POLYLINE
  8
LAYER-1
 66
  1
 70
  0
 62
  0
 10
3.359727
 20
4.030172
 30
0.000000
  0
VERTEX
  8
LAYER-1
 10
3.359727
 20
4.030172
 30
0.000000
  0
VERTEX
  8
LAYER-1
 10
3.352727
 20
4.022570
 30
0.000000
  0
SEQEND
  8
LAYER-1
  0
POLYLINE
  8
LAYER-1
 66
  1
 70
  0
 62
  0
 10
3.352727
 20
3.996161
 30
0.000000
  0
VERTEX
  8
LAYER-1
 10
3.352727
 20
3.996161
 30
0.000000
  0
VERTEX
  8
LAYER-1
 10
3.352727
 20
4.022570
 30
0.000000
  0
SEQEND
  8
LAYER-1
  0
POLYLINE
  8
LAYER-1
 66
  1
 70
  0
 62
  0
 10
3.285280
 20
3.974126
 30
0.000000
  0
VERTEX
  8
LAYER-1
 10
3.285280
 20
3.974126
 30
0.000000
  0
VERTEX
  8
LAYER-1
 10
3.352727
 20
3.996161
 30
0.000000
  0
SEQEND
  8
LAYER-1
  0
POLYLINE
  8
LAYER-1
 66
  1
 70
  0
 62
  0
 10
3.285280
 20
3.974126
 30
0.000000
  0
VERTEX
  8
LAYER-1
 10
3.285280
 20
3.974126
 30
0.000000
  0
VERTEX
  8
LAYER-1
 10
3.285280
 20
3.948292
 30
0.000000
  0
SEQEND
  8
LAYER-1
  0
POLYLINE
  8
LAYER-1
 66
  1
 70
  0
 62
  0
 10
3.291902
 20
3.948294
 30
0.000000
  0
VERTEX
  8
LAYER-1
 10
3.291902
 20
3.948294
 30
0.000000
  0
VERTEX
  8
LAYER-1
 10
3.285280
 20
3.948292
 30
0.000000
  0
SEQEND
  8
LAYER-1
  0
POLYLINE
  8
LAYER-1
 66
  1
 70
  0
 62
  0
 10
3.291901
 20
3.948295
 30
0.000000
  0
VERTEX
  8
LAYER-1
 10
3.291901
 20
3.948295
 30
0.000000
  0
VERTEX
  8
LAYER-1
 10
3.289225
 20
3.932298
 30
0.000000
  0
VERTEX
  8
LAYER-1
 10
3.293528
 20
3.925668
 30
0.000000
  0
SEQEND
  8
LAYER-1
  0
POLYLINE
  8
LAYER-1
 66
  1
 70
  0
 62
  0
 10
3.293529
 20
3.925668
 30
0.000000
  0
VERTEX
  8
LAYER-1
 10
3.293529
 20
3.925668
 30
0.000000
  0
VERTEX
  8
LAYER-1
 10
3.304483
 20
3.932785
 30
0.000000
  0
SEQEND
  8
LAYER-1
  0
POLYLINE
  8
LAYER-1
 66
  1
 70
  0
 62
  0
 10
3.321962
 20
3.932752
 30
0.000000
  0
VERTEX
  8
LAYER-1
 10
3.321962
 20
3.932752
 30
0.000000
  0
VERTEX
  8
LAYER-1
 10
3.316969
 20
3.949153
 30
0.000000
  0
VERTEX
  8
LAYER-1
 10
3.302536
 20
3.946130
 30
0.000000
  0
VERTEX
  8
LAYER-1
 10
3.304482
 20
3.932785
 30
0.000000
  0
SEQEND
  8
LAYER-1
  0
POLYLINE
  8
LAYER-1
 66
  1
 70
  0
 62
  0
 10
3.321962
 20
3.932752
 30
0.000000
  0
VERTEX
  8
LAYER-1
 10
3.321962
 20
3.932752
 30
0.000000
  0
VERTEX
  8
LAYER-1
 10
3.332824
 20
3.925649
 30
0.000000
  0
SEQEND
  8
LAYER-1
  0
POLYLINE
  8
LAYER-1
 66
  1
 70
  0
 62
  7
 10
3.190483
 20
4.004584
 30
0.000000
  0
VERTEX
  8
LAYER-1
 10
3.190483
 20
4.004584
 30
0.000000
  0
VERTEX
  8
LAYER-1
 10
3.179285
 20
4.031385
 30
0.000000
  0
VERTEX
  8
LAYER-1
 10
3.152252
 20
4.042486
 30
0.000000
  0
VERTEX
  8
LAYER-1
 10
3.125218
 20
4.031385
 30
0.000000
  0
VERTEX
  8
LAYER-1
 10
3.114020
 20
4.004584
 30
0.000000
  0
VERTEX
  8
LAYER-1
 10
3.125218
 20
3.977783
 30
0.000000
  0
VERTEX
  8
LAYER-1
 10
3.152252
 20
3.966682
 30
0.000000
  0
VERTEX
  8
LAYER-1
 10
3.179285
 20
3.977783
 30
0.000000
  0
VERTEX
  8
LAYER-1
 10
3.190483
 20
4.004584
 30
0.000000
  0
SEQEND
  8
LAYER-1
  0
POLYLINE
  8
LAYER-1
 66
  1
 70
  0
 62
  7
 10
3.349847
 20
4.006257
 30
0.000000
  0
VERTEX
  8
LAYER-1
 10
3.349847
 20
4.006257
 30
0.000000
  0
VERTEX
  8
LAYER-1
 10
3.338649
 20
4.033059
 30
0.000000
  0
VERTEX
  8
LAYER-1
 10
3.311615
 20
4.044160
 30
0.000000
  0
VERTEX
  8
LAYER-1
 10
3.284581
 20
4.033059
 30
0.000000
  0
VERTEX
  8
LAYER-1
 10
3.273383
 20
4.006257
 30
0.000000
  0
VERTEX
  8
LAYER-1
 10
3.284581
 20
3.979456
 30
0.000000
  0
VERTEX
  8
LAYER-1
 10
3.311615
 20
3.968355
 30
0.000000
  0
VERTEX
  8
LAYER-1
 10
3.338649
 20
3.979456
 30
0.000000
  0
VERTEX
  8
LAYER-1
 10
3.349847
 20
4.006257
 30
0.000000
  0
SEQEND
  8
LAYER-1
  0
POLYLINE
  8
LAYER-1
 66
  1
 70
  1
 62
  7
  0
VERTEX
  8
LAYER-1
 10
2.422809
 20
0.526198
 30
0.000000
  0
VERTEX
  8
LAYER-1
 10
4.028036
 20
0.526198
 30
0.000000
  0
VERTEX
  8
LAYER-1
 10
4.028036
 20
0.001667
 30
0.000000
  0
VERTEX
  8
LAYER-1
 10
2.422809
 20
0.001667
 30
0.000000
  0
SEQEND
  8
LAYER-1
  0
POLYLINE
  8
LAYER-1
 66
  1
 70
  1
 62
  0
 10
2.473584
 20
0.500009
 30
0.000000
  0
VERTEX
  8
LAYER-1
 10
2.473584
 20
0.500009
 30
0.000000
  0
VERTEX
  8
LAYER-1
 10
2.460942
 20
0.487628
 30
0.000000
  0
VERTEX
  8
LAYER-1
 10
2.482014
 20
0.477151
 30
0.000000
  0
SEQEND
  8
LAYER-1
  0
POLYLINE
  8
LAYER-1
 66
  1
 70
  1
 62
  0
 10
2.505926
 20
0.441585
 30
0.000000
  0
VERTEX
  8
LAYER-1
 10
2.505926
 20
0.441585
 30
0.000000
  0
VERTEX
  8
LAYER-1
 10
2.516885
 20
0.427298
 30
0.000000
  0
VERTEX
  8
LAYER-1
 10
2.526156
 20
0.451110
 30
0.000000
  0
SEQEND
  8
LAYER-1
  0
POLYLINE
  8
LAYER-1
 66
  1
 70
  1
 62
  0
 10
2.619140
 20
0.490876
 30
0.000000
  0
VERTEX
  8
LAYER-1
 10
2.619140
 20
0.490876
 30
0.000000
  0
VERTEX
  8
LAYER-1
 10
2.577584
 20
0.487764
 30
0.000000
  0
VERTEX
  8
LAYER-1
 10
2.627168
 20
0.469105
 30
0.000000
  0
SEQEND
  8
LAYER-1
  0
POLYLINE
  8
LAYER-1
 66
  1
 70
  1
 62
  0
 10
2.713143
 20
0.479961
 30
0.000000
  0
VERTEX
  8
LAYER-1
 10
2.713143
 20
0.479961
 30
0.000000
  0
VERTEX
  8
LAYER-1
 10
2.700499
 20
0.467578
 30
0.000000
  0
VERTEX
  8
LAYER-1
 10
2.721572
 20
0.457102
 30
0.000000
  0
SEQEND
  8
LAYER-1
  0
POLYLINE
  8
LAYER-1
 66
  1
 70
  1
 62
  0
 10
2.973784
 20
0.466868
 30
0.000000
  0
VERTEX
  8
LAYER-1
 10
2.973784
 20
0.466868
 30
0.000000
  0
VERTEX
  8
LAYER-1
 10
2.961143
 20
0.454486
 30
0.000000
  0
VERTEX
  8
LAYER-1
 10
2.982216
 20
0.444009
 30
0.000000
  0
SEQEND
  8
LAYER-1
  0
POLYLINE
  8
LAYER-1
 66
  1
 70
  1
 62
  0
 10
3.052291
 20
0.472655
 30
0.000000
  0
VERTEX
  8
LAYER-1
 10
3.052291
 20
0.472655
 30
0.000000
  0
VERTEX
  8
LAYER-1
 10
3.094160
 20
0.466447
 30
0.000000
  0
VERTEX
  8
LAYER-1
 10
3.102990
 20
0.489125
 30
0.000000
  0
SEQEND
  8
LAYER-1
  0
POLYLINE
  8
LAYER-1
 66
  1
 70
  1
 62
  0
 10
3.229024
 20
0.457377
 30
0.000000
  0
VERTEX
  8
LAYER-1
 10
3.229024
 20
0.457377
 30
0.000000
  0
VERTEX
  8
LAYER-1
 10
3.239461
 20
0.443769
 30
0.000000
  0
VERTEX
  8
LAYER-1
 10
3.248291
 20
0.466447
 30
0.000000
  0
SEQEND
  8
LAYER-1
  0
POLYLINE
  8
LAYER-1
 66
  1
 70
  1
 62
  0
 10
3.188142
 20
0.408643
 30
0.000000
  0
VERTEX
  8
LAYER-1
 10
3.188142
 20
0.408643
 30
0.000000
  0
VERTEX
  8
LAYER-1
 10
3.202080
 20
0.417367
 30
0.000000
  0
VERTEX
  8
LAYER-1
 10
3.184269
 20
0.431818
 30
0.000000
  0
SEQEND
  8
LAYER-1
  0
POLYLINE
  8
LAYER-1
 66
  1
 70
  1
 62
  0
 10
3.267224
 20
0.329607
 30
0.000000
  0
VERTEX
  8
LAYER-1
 10
3.267224
 20
0.329607
 30
0.000000
  0
VERTEX
  8
LAYER-1
 10
3.279265
 20
0.341399
 30
0.000000
  0
VERTEX
  8
LAYER-1
 10
3.259194
 20
0.351378
 30
0.000000
  0
SEQEND
  8
LAYER-1
  0
POLYLINE
  8
LAYER-1
 66
  1
 70
  1
 62
  0
 10
3.188150
 20
0.353644
 30
0.000000
  0
VERTEX
  8
LAYER-1
 10
3.188150
 20
0.353644
 30
0.000000
  0
VERTEX
  8
LAYER-1
 10
3.177714
 20
0.367253
 30
0.000000
  0
VERTEX
  8
LAYER-1
 10
3.168884
 20
0.344575
 30
0.000000
  0
SEQEND
  8
LAYER-1
  0
POLYLINE
  8
LAYER-1
 66
  1
 70
  1
 62
  0
 10
3.003112
 20
0.309651
 30
0.000000
  0
VERTEX
  8
LAYER-1
 10
3.003112
 20
0.309651
 30
0.000000
  0
VERTEX
  8
LAYER-1
 10
3.024513
 20
0.325086
 30
0.000000
  0
VERTEX
  8
LAYER-1
 10
2.996734
 20
0.359807
 30
0.000000
  0
SEQEND
  8
LAYER-1
  0
POLYLINE
  8
LAYER-1
 66
  1
 70
  1
 62
  0
 10
2.911715
 20
0.329609
 30
0.000000
  0
VERTEX
  8
LAYER-1
 10
2.911715
 20
0.329609
 30
0.000000
  0
VERTEX
  8
LAYER-1
 10
2.900757
 20
0.343896
 30
0.000000
  0
VERTEX
  8
LAYER-1
 10
2.891486
 20
0.320085
 30
0.000000
  0
SEQEND
  8
LAYER-1
  0
POLYLINE
  8
LAYER-1
 66
  1
 70
  1
 62
  0
 10
2.474146
 20
0.361261
 30
0.000000
  0
VERTEX
  8
LAYER-1
 10
2.474146
 20
0.361261
 30
0.000000
  0
VERTEX
  8
LAYER-1
 10
2.493262
 20
0.335503
 30
0.000000
  0
VERTEX
  8
LAYER-1
 10
2.515952
 20
0.369723
 30
0.000000
  0
SEQEND
  8
LAYER-1
  0
POLYLINE
  8
LAYER-1
 66
  1
 70
  1
 62
  0
 10
2.559145
 20
0.329609
 30
0.000000
  0
VERTEX
  8
LAYER-1
 10
2.559145
 20
0.329609
 30
0.000000
  0
VERTEX
  8
LAYER-1
 10
2.573781
 20
0.338771
 30
0.000000
  0
VERTEX
  8
LAYER-1
 10
2.555078
 20
0.353945
 30
0.000000
  0
SEQEND
  8
LAYER-1
  0
POLYLINE
  8
LAYER-1
 66
  1
 70
  1
 62
  0
 10
2.754633
 20
0.356970
 30
0.000000
  0
VERTEX
  8
LAYER-1
 10
2.754633
 20
0.356970
 30
0.000000
  0
VERTEX
  8
LAYER-1
 10
2.765591
 20
0.342681
 30
0.000000
  0
VERTEX
  8
LAYER-1
 10
2.774862
 20
0.366493
 30
0.000000
  0
SEQEND
  8
LAYER-1
  0
POLYLINE
  8
LAYER-1
 66
  1
 70
  1
 62
  0
 10
2.720693
 20
0.307725
 30
0.000000
  0
VERTEX
  8
LAYER-1
 10
2.720693
 20
0.307725
 30
0.000000
  0
VERTEX
  8
LAYER-1
 10
2.747497
 20
0.319736
 30
0.000000
  0
VERTEX
  8
LAYER-1
 10
2.705068
 20
0.347655
 30
0.000000
  0
SEQEND
  8
LAYER-1
  0
POLYLINE
  8
LAYER-1
 66
  1
 70
  1
 62
  0
 10
2.875207
 20
0.458767
 30
0.000000
  0
VERTEX
  8
LAYER-1
 10
2.875207
 20
0.458767
 30
0.000000
  0
VERTEX
  8
LAYER-1
 10
2.858798
 20
0.494016
 30
0.000000
  0
VERTEX
  8
LAYER-1
 10
2.844348
 20
0.476206
 30
0.000000
  0
SEQEND
  8
LAYER-1
  0
POLYLINE
  8
LAYER-1
 66
  1
 70
  1
 62
  0
 10
3.348986
 20
0.482816
 30
0.000000
  0
VERTEX
  8
LAYER-1
 10
3.348986
 20
0.482816
 30
0.000000
  0
VERTEX
  8
LAYER-1
 10
3.336342
 20
0.470434
 30
0.000000
  0
VERTEX
  8
LAYER-1
 10
3.357416
 20
0.459957
 30
0.000000
  0
SEQEND
  8
LAYER-1
  0
POLYLINE
  8
LAYER-1
 66
  1
 70
  1
 62
  0
 10
3.433411
 20
0.443490
 30
0.000000
  0
VERTEX
  8
LAYER-1
 10
3.433411
 20
0.443490
 30
0.000000
  0
VERTEX
  8
LAYER-1
 10
3.444370
 20
0.429203
 30
0.000000
  0
VERTEX
  8
LAYER-1
 10
3.453641
 20
0.453013
 30
0.000000
  0
SEQEND
  8
LAYER-1
  0
POLYLINE
  8
LAYER-1
 66
  1
 70
  1
 62
  0
 10
3.502458
 20
0.492689
 30
0.000000
  0
VERTEX
  8
LAYER-1
 10
3.502458
 20
0.492689
 30
0.000000
  0
VERTEX
  8
LAYER-1
 10
3.460903
 20
0.489577
 30
0.000000
  0
VERTEX
  8
LAYER-1
 10
3.510487
 20
0.470918
 30
0.000000
  0
SEQEND
  8
LAYER-1
  0
POLYLINE
  8
LAYER-1
 66
  1
 70
  1
 62
  0
 10
3.640628
 20
0.481864
 30
0.000000
  0
VERTEX
  8
LAYER-1
 10
3.640628
 20
0.481864
 30
0.000000
  0
VERTEX
  8
LAYER-1
 10
3.627984
 20
0.469481
 30
0.000000
  0
VERTEX
  8
LAYER-1
 10
3.649056
 20
0.459006
 30
0.000000
  0
SEQEND
  8
LAYER-1
  0
POLYLINE
  8
LAYER-1
 66
  1
 70
  1
 62
  0
 10
3.923839
 20
0.510439
 30
0.000000
  0
VERTEX
  8
LAYER-1
 10
3.923839
 20
0.510439
 30
0.000000
  0
VERTEX
  8
LAYER-1
 10
3.911196
 20
0.498056
 30
0.000000
  0
VERTEX
  8
LAYER-1
 10
3.932270
 20
0.487579
 30
0.000000
  0
SEQEND
  8
LAYER-1
  0
POLYLINE
  8
LAYER-1
 66
  1
 70
  1
 62
  0
 10
3.935609
 20
0.474467
 30
0.000000
  0
VERTEX
  8
LAYER-1
 10
3.935609
 20
0.474467
 30
0.000000
  0
VERTEX
  8
LAYER-1
 10
3.977477
 20
0.468260
 30
0.000000
  0
VERTEX
  8
LAYER-1
 10
3.986308
 20
0.490938
 30
0.000000
  0
SEQEND
  8
LAYER-1
  0
POLYLINE
  8
LAYER-1
 66
  1
 70
  1
 62
  0
 10
3.886430
 20
0.311464
 30
0.000000
  0
VERTEX
  8
LAYER-1
 10
3.886430
 20
0.311464
 30
0.000000
  0
VERTEX
  8
LAYER-1
 10
3.907832
 20
0.326898
 30
0.000000
  0
VERTEX
  8
LAYER-1
 10
3.880053
 20
0.361621
 30
0.000000
  0
SEQEND
  8
LAYER-1
  0
POLYLINE
  8
LAYER-1
 66
  1
 70
  1
 62
  0
 10
3.839199
 20
0.331512
 30
0.000000
  0
VERTEX
  8
LAYER-1
 10
3.839199
 20
0.331512
 30
0.000000
  0
VERTEX
  8
LAYER-1
 10
3.828241
 20
0.345799
 30
0.000000
  0
VERTEX
  8
LAYER-1
 10
3.818971
 20
0.321988
 30
0.000000
  0
SEQEND
  8
LAYER-1
  0
POLYLINE
  8
LAYER-1
 66
  1
 70
  1
 62
  0
 10
3.357464
 20
0.363074
 30
0.000000
  0
VERTEX
  8
LAYER-1
 10
3.357464
 20
0.363074
 30
0.000000
  0
VERTEX
  8
LAYER-1
 10
3.376582
 20
0.337316
 30
0.000000
  0
VERTEX
  8
LAYER-1
 10
3.399271
 20
0.371536
 30
0.000000
  0
SEQEND
  8
LAYER-1
  0
POLYLINE
  8
LAYER-1
 66
  1
 70
  1
 62
  0
 10
3.486629
 20
0.331512
 30
0.000000
  0
VERTEX
  8
LAYER-1
 10
3.486629
 20
0.331512
 30
0.000000
  0
VERTEX
  8
LAYER-1
 10
3.501265
 20
0.340675
 30
0.000000
  0
VERTEX
  8
LAYER-1
 10
3.482562
 20
0.355848
 30
0.000000
  0
SEQEND
  8
LAYER-1
  0
POLYLINE
  8
LAYER-1
 66
  1
 70
  1
 62
  0
 10
3.682118
 20
0.358873
 30
0.000000
  0
VERTEX
  8
LAYER-1
 10
3.682118
 20
0.358873
 30
0.000000
  0
VERTEX
  8
LAYER-1
 10
3.693076
 20
0.344584
 30
0.000000
  0
VERTEX
  8
LAYER-1
 10
3.702347
 20
0.368396
 30
0.000000
  0
SEQEND
  8
LAYER-1
  0
POLYLINE
  8
LAYER-1
 66
  1
 70
  1
 62
  0
 10
3.604012
 20
0.309537
 30
0.000000
  0
VERTEX
  8
LAYER-1
 10
3.604012
 20
0.309537
 30
0.000000
  0
VERTEX
  8
LAYER-1
 10
3.630815
 20
0.321548
 30
0.000000
  0
VERTEX
  8
LAYER-1
 10
3.588387
 20
0.349467
 30
0.000000
  0
SEQEND
  8
LAYER-1
  0
POLYLINE
  8
LAYER-1
 66
  1
 70
  1
 62
  0
 10
3.779726
 20
0.401475
 30
0.000000
  0
VERTEX
  8
LAYER-1
 10
3.779726
 20
0.401475
 30
0.000000
  0
VERTEX
  8
LAYER-1
 10
3.772781
 20
0.458765
 30
0.000000
  0
VERTEX
  8
LAYER-1
 10
3.743291
 20
0.441562
 30
0.000000
  0
SEQEND
  8
LAYER-1
  0
POLYLINE
  8
LAYER-1
 66
  1
 70
  1
 62
  0
  0
VERTEX
  8
LAYER-1
 10
2.422809
 20
0.584755
 30
0.000000
  0
VERTEX
  8
LAYER-1
 10
4.028036
 20
0.584755
 30
0.000000
  0
VERTEX
  8
LAYER-1
 10
4.028036
 20
0.526198
 30
0.000000
  0
VERTEX
  8
LAYER-1
 10
2.422809
 20
0.526198
 30
0.000000
  0
SEQEND
  8
LAYER-1
  0
POLYLINE
  8
LAYER-1
 66
  1
 70
  0
 62
  0
 10
2.594317
 20
0.894756
 30
0.000000
  0
VERTEX
  8
LAYER-1
 10
2.594317
 20
0.894756
 30
0.000000
  0
VERTEX
  8
LAYER-1
 10
3.876662
 20
0.894756
 30
0.000000
  0
SEQEND
  8
LAYER-1
  0
TEXT
  8
LAYER-1
 62
  0
 10
1.259487
 20
0.460270
 30
0.000000
 40
0.083333
  1
DOUILLE
 72
  5
 11
1.787264
 21
0.460270
 31
0.000000
  0
TEXT
  8
LAYER-1
 62
  0
 10
1.259487
 20
0.335270
 30
0.000000
 40
0.083333
  1
ANTI-POUSSIéRE
 72
  5
 11
2.245598
 21
0.335270
 31
0.000000
  0
TEXT
  8
LAYER-1
 62
  0
 10
1.259487
 20
0.210270
 30
0.000000
 40
0.083333
  1
( pour poteau
 72
  5
 11
1.940042
 21
0.210270
 31
0.000000
  0
TEXT
  8
LAYER-1
 62
  0
 10
1.259487
 20
0.085270
 30
0.000000
 40
0.083333
  1
  avec verrou )
 72
  5
 11
2.009487
 21
0.085270
 31
0.000000
  0
POLYLINE
  8
LAYER-1
 66
  1
 70
  0
 62
  0
 10
4.225588
 20
0.893564
 30
0.000000
  0
VERTEX
  8
LAYER-1
 10
4.225588
 20
0.893564
 30
0.000000
  0
VERTEX
  8
LAYER-1
 10
4.056858
 20
0.893564
 30
0.000000
  0
SEQEND
  8
LAYER-1
  0
POLYLINE
  8
LAYER-1
 66
  1
 70
  0
 62
  0
 10
4.225588
 20
0.600052
 30
0.000000
  0
VERTEX
  8
LAYER-1
 10
4.225588
 20
0.600052
 30
0.000000
  0
VERTEX
  8
LAYER-1
 10
4.061076
 20
0.600052
 30
0.000000
  0
SEQEND
  8
LAYER-1
  0
POLYLINE
  8
LAYER-1
 66
  1
 70
  0
 62
  0
 10
4.100361
 20
0.893564
 30
0.000000
  0
VERTEX
  8
LAYER-1
 10
4.100361
 20
0.893564
 30
0.000000
  0
VERTEX
  8
LAYER-1
 10
4.103258
 20
0.600052
 30
0.000000
  0
SEQEND
  8
LAYER-1
  0
LINE
  8
LAYER-1
 62
  0
 10
4.130113
 20
0.864393
 30
0.000000
 11
4.070610
 21
0.922735
 31
0.000000
  0
LINE
  8
LAYER-1
 62
  0
 10
4.133009
 20
0.570881
 30
0.000000
 11
4.073506
 21
0.629222
 31
0.000000
  0
TEXT
  8
LAYER-1
 62
  0
 10
4.315042
 20
0.779714
 30
0.000000
 40
0.104167
  1
STANDARD 1-1/2"  -  38mm
 72
  5
 11
6.176153
 21
0.779714
 31
0.000000
  0
TEXT
  8
LAYER-1
 62
  0
 10
4.315042
 20
0.626936
 30
0.000000
 40
0.104167
  1
COMPTOIR 1"  -  25mm
 72
  5
 11
5.912264
 21
0.626936
 31
0.000000
  0
POLYLINE
  8
LAYER-1
 66
  1
 70
  1
 62
  0
 10
3.967899
 20
0.042283
 30
0.000000
  0
VERTEX
  8
LAYER-1
 10
3.967899
 20
0.042283
 30
0.000000
  0
VERTEX
  8
LAYER-1
 10
3.980543
 20
0.054665
 30
0.000000
  0
VERTEX
  8
LAYER-1
 10
3.959469
 20
0.065142
 30
0.000000
  0
SEQEND
  8
LAYER-1
  0
POLYLINE
  8
LAYER-1
 66
  1
 70
  1
 62
  0
 10
3.935557
 20
0.100708
 30
0.000000
  0
VERTEX
  8
LAYER-1
 10
3.935557
 20
0.100708
 30
0.000000
  0
VERTEX
  8
LAYER-1
 10
3.924599
 20
0.114995
 30
0.000000
  0
VERTEX
  8
LAYER-1
 10
3.915328
 20
0.091182
 30
0.000000
  0
SEQEND
  8
LAYER-1
  0
POLYLINE
  8
LAYER-1
 66
  1
 70
  1
 62
  0
 10
3.822344
 20
0.051416
 30
0.000000
  0
VERTEX
  8
LAYER-1
 10
3.822344
 20
0.051416
 30
0.000000
  0
VERTEX
  8
LAYER-1
 10
3.863899
 20
0.054529
 30
0.000000
  0
VERTEX
  8
LAYER-1
 10
3.814315
 20
0.073187
 30
0.000000
  0
SEQEND
  8
LAYER-1
  0
POLYLINE
  8
LAYER-1
 66
  1
 70
  1
 62
  0
 10
3.728341
 20
0.062332
 30
0.000000
  0
VERTEX
  8
LAYER-1
 10
3.728341
 20
0.062332
 30
0.000000
  0
VERTEX
  8
LAYER-1
 10
3.740985
 20
0.074716
 30
0.000000
  0
VERTEX
  8
LAYER-1
 10
3.719911
 20
0.085191
 30
0.000000
  0
SEQEND
  8
LAYER-1
  0
POLYLINE
  8
LAYER-1
 66
  1
 70
  1
 62
  0
 10
3.467699
 20
0.075425
 30
0.000000
  0
VERTEX
  8
LAYER-1
 10
3.467699
 20
0.075425
 30
0.000000
  0
VERTEX
  8
LAYER-1
 10
3.480341
 20
0.087807
 30
0.000000
  0
VERTEX
  8
LAYER-1
 10
3.459267
 20
0.098284
 30
0.000000
  0
SEQEND
  8
LAYER-1
  0
POLYLINE
  8
LAYER-1
 66
  1
 70
  1
 62
  0
 10
3.389193
 20
0.069639
 30
0.000000
  0
VERTEX
  8
LAYER-1
 10
3.389193
 20
0.069639
 30
0.000000
  0
VERTEX
  8
LAYER-1
 10
3.347325
 20
0.075846
 30
0.000000
  0
VERTEX
  8
LAYER-1
 10
3.338495
 20
0.053168
 30
0.000000
  0
SEQEND
  8
LAYER-1
  0
POLYLINE
  8
LAYER-1
 66
  1
 70
  1
 62
  0
 10
3.212461
 20
0.084916
 30
0.000000
  0
VERTEX
  8
LAYER-1
 10
3.212461
 20
0.084916
 30
0.000000
  0
VERTEX
  8
LAYER-1
 10
3.202024
 20
0.098524
 30
0.000000
  0
VERTEX
  8
LAYER-1
 10
3.193194
 20
0.075846
 30
0.000000
  0
SEQEND
  8
LAYER-1
  0
POLYLINE
  8
LAYER-1
 66
  1
 70
  1
 62
  0
 10
3.253342
 20
0.133650
 30
0.000000
  0
VERTEX
  8
LAYER-1
 10
3.253342
 20
0.133650
 30
0.000000
  0
VERTEX
  8
LAYER-1
 10
3.239405
 20
0.124926
 30
0.000000
  0
VERTEX
  8
LAYER-1
 10
3.257216
 20
0.110475
 30
0.000000
  0
SEQEND
  8
LAYER-1
  0
POLYLINE
  8
LAYER-1
 66
  1
 70
  1
 62
  0
 10
3.174261
 20
0.212685
 30
0.000000
  0
VERTEX
  8
LAYER-1
 10
3.174261
 20
0.212685
 30
0.000000
  0
VERTEX
  8
LAYER-1
 10
3.162220
 20
0.200894
 30
0.000000
  0
VERTEX
  8
LAYER-1
 10
3.182290
 20
0.190915
 30
0.000000
  0
SEQEND
  8
LAYER-1
  0
POLYLINE
  8
LAYER-1
 66
  1
 70
  1
 62
  0
 10
3.253335
 20
0.188649
 30
0.000000
  0
VERTEX
  8
LAYER-1
 10
3.253335
 20
0.188649
 30
0.000000
  0
VERTEX
  8
LAYER-1
 10
3.263771
 20
0.175040
 30
0.000000
  0
VERTEX
  8
LAYER-1
 10
3.272601
 20
0.197718
 30
0.000000
  0
SEQEND
  8
LAYER-1
  0
POLYLINE
  8
LAYER-1
 66
  1
 70
  1
 62
  0
 10
3.438371
 20
0.232642
 30
0.000000
  0
VERTEX
  8
LAYER-1
 10
3.438371
 20
0.232642
 30
0.000000
  0
VERTEX
  8
LAYER-1
 10
3.416972
 20
0.217207
 30
0.000000
  0
VERTEX
  8
LAYER-1
 10
3.444749
 20
0.182486
 30
0.000000
  0
SEQEND
  8
LAYER-1
  0
POLYLINE
  8
LAYER-1
 66
  1
 70
  1
 62
  0
 10
3.529768
 20
0.212684
 30
0.000000
  0
VERTEX
  8
LAYER-1
 10
3.529768
 20
0.212684
 30
0.000000
  0
VERTEX
  8
LAYER-1
 10
3.540727
 20
0.198396
 30
0.000000
  0
VERTEX
  8
LAYER-1
 10
3.549997
 20
0.222207
 30
0.000000
  0
SEQEND
  8
LAYER-1
  0
POLYLINE
  8
LAYER-1
 66
  1
 70
  1
 62
  0
 10
3.967338
 20
0.181032
 30
0.000000
  0
VERTEX
  8
LAYER-1
 10
3.967338
 20
0.181032
 30
0.000000
  0
VERTEX
  8
LAYER-1
 10
3.948222
 20
0.206790
 30
0.000000
  0
VERTEX
  8
LAYER-1
 10
3.925531
 20
0.172570
 30
0.000000
  0
SEQEND
  8
LAYER-1
  0
POLYLINE
  8
LAYER-1
 66
  1
 70
  1
 62
  0
 10
3.882338
 20
0.212684
 30
0.000000
  0
VERTEX
  8
LAYER-1
 10
3.882338
 20
0.212684
 30
0.000000
  0
VERTEX
  8
LAYER-1
 10
3.867703
 20
0.203522
 30
0.000000
  0
VERTEX
  8
LAYER-1
 10
3.886406
 20
0.188349
 30
0.000000
  0
SEQEND
  8
LAYER-1
  0
POLYLINE
  8
LAYER-1
 66
  1
 70
  1
 62
  0
 10
3.686851
 20
0.185323
 30
0.000000
  0
VERTEX
  8
LAYER-1
 10
3.686851
 20
0.185323
 30
0.000000
  0
VERTEX
  8
LAYER-1
 10
3.675892
 20
0.199612
 30
0.000000
  0
VERTEX
  8
LAYER-1
 10
3.666622
 20
0.175799
 30
0.000000
  0
SEQEND
  8
LAYER-1
  0
POLYLINE
  8
LAYER-1
 66
  1
 70
  1
 62
  0
 10
3.720790
 20
0.234568
 30
0.000000
  0
VERTEX
  8
LAYER-1
 10
3.720790
 20
0.234568
 30
0.000000
  0
VERTEX
  8
LAYER-1
 10
3.693987
 20
0.222557
 30
0.000000
  0
VERTEX
  8
LAYER-1
 10
3.736415
 20
0.194639
 30
0.000000
  0
SEQEND
  8
LAYER-1
  0
POLYLINE
  8
LAYER-1
 66
  1
 70
  1
 62
  0
 10
3.566276
 20
0.083526
 30
0.000000
  0
VERTEX
  8
LAYER-1
 10
3.566276
 20
0.083526
 30
0.000000
  0
VERTEX
  8
LAYER-1
 10
3.582686
 20
0.048277
 30
0.000000
  0
VERTEX
  8
LAYER-1
 10
3.597136
 20
0.066086
 30
0.000000
  0
SEQEND
  8
LAYER-1
  0
POLYLINE
  8
LAYER-1
 66
  1
 70
  1
 62
  0
 10
3.092499
 20
0.059477
 30
0.000000
  0
VERTEX
  8
LAYER-1
 10
3.092499
 20
0.059477
 30
0.000000
  0
VERTEX
  8
LAYER-1
 10
3.105143
 20
0.071859
 30
0.000000
  0
VERTEX
  8
LAYER-1
 10
3.084069
 20
0.082336
 30
0.000000
  0
SEQEND
  8
LAYER-1
  0
POLYLINE
  8
LAYER-1
 66
  1
 70
  1
 62
  0
 10
3.008073
 20
0.098803
 30
0.000000
  0
VERTEX
  8
LAYER-1
 10
3.008073
 20
0.098803
 30
0.000000
  0
VERTEX
  8
LAYER-1
 10
2.997113
 20
0.113090
 30
0.000000
  0
VERTEX
  8
LAYER-1
 10
2.987843
 20
0.089279
 30
0.000000
  0
SEQEND
  8
LAYER-1
  0
POLYLINE
  8
LAYER-1
 66
  1
 70
  1
 62
  0
 10
2.939025
 20
0.049604
 30
0.000000
  0
VERTEX
  8
LAYER-1
 10
2.939025
 20
0.049604
 30
0.000000
  0
VERTEX
  8
LAYER-1
 10
2.980581
 20
0.052716
 30
0.000000
  0
VERTEX
  8
LAYER-1
 10
2.930997
 20
0.071375
 30
0.000000
  0
SEQEND
  8
LAYER-1
  0
POLYLINE
  8
LAYER-1
 66
  1
 70
  1
 62
  0
 10
2.800856
 20
0.060428
 30
0.000000
  0
VERTEX
  8
LAYER-1
 10
2.800856
 20
0.060428
 30
0.000000
  0
VERTEX
  8
LAYER-1
 10
2.813499
 20
0.072812
 30
0.000000
  0
VERTEX
  8
LAYER-1
 10
2.792427
 20
0.083288
 30
0.000000
  0
SEQEND
  8
LAYER-1
  0
POLYLINE
  8
LAYER-1
 66
  1
 70
  1
 62
  0
 10
2.517644
 20
0.031854
 30
0.000000
  0
VERTEX
  8
LAYER-1
 10
2.517644
 20
0.031854
 30
0.000000
  0
VERTEX
  8
LAYER-1
 10
2.530287
 20
0.044236
 30
0.000000
  0
VERTEX
  8
LAYER-1
 10
2.509214
 20
0.054714
 30
0.000000
  0
SEQEND
  8
LAYER-1
  0
POLYLINE
  8
LAYER-1
 66
  1
 70
  1
 62
  0
 10
2.505874
 20
0.067826
 30
0.000000
  0
VERTEX
  8
LAYER-1
 10
2.505874
 20
0.067826
 30
0.000000
  0
VERTEX
  8
LAYER-1
 10
2.464006
 20
0.074033
 30
0.000000
  0
VERTEX
  8
LAYER-1
 10
2.455176
 20
0.051355
 30
0.000000
  0
SEQEND
  8
LAYER-1
  0
POLYLINE
  8
LAYER-1
 66
  1
 70
  1
 62
  0
 10
2.555053
 20
0.230829
 30
0.000000
  0
VERTEX
  8
LAYER-1
 10
2.555053
 20
0.230829
 30
0.000000
  0
VERTEX
  8
LAYER-1
 10
2.533652
 20
0.215395
 30
0.000000
  0
VERTEX
  8
LAYER-1
 10
2.561430
 20
0.180673
 30
0.000000
  0
SEQEND
  8
LAYER-1
  0
POLYLINE
  8
LAYER-1
 66
  1
 70
  1
 62
  0
 10
2.602284
 20
0.210781
 30
0.000000
  0
VERTEX
  8
LAYER-1
 10
2.602284
 20
0.210781
 30
0.000000
  0
VERTEX
  8
LAYER-1
 10
2.613242
 20
0.196493
 30
0.000000
  0
VERTEX
  8
LAYER-1
 10
2.622513
 20
0.220304
 30
0.000000
  0
SEQEND
  8
LAYER-1
  0
POLYLINE
  8
LAYER-1
 66
  1
 70
  1
 62
  0
 10
3.084021
 20
0.179220
 30
0.000000
  0
VERTEX
  8
LAYER-1
 10
3.084021
 20
0.179220
 30
0.000000
  0
VERTEX
  8
LAYER-1
 10
3.064903
 20
0.204977
 30
0.000000
  0
VERTEX
  8
LAYER-1
 10
3.042213
 20
0.170757
 30
0.000000
  0
SEQEND
  8
LAYER-1
  0
POLYLINE
  8
LAYER-1
 66
  1
 70
  1
 62
  0
 10
2.954854
 20
0.210781
 30
0.000000
  0
VERTEX
  8
LAYER-1
 10
2.954854
 20
0.210781
 30
0.000000
  0
VERTEX
  8
LAYER-1
 10
2.940218
 20
0.201619
 30
0.000000
  0
VERTEX
  8
LAYER-1
 10
2.958922
 20
0.186445
 30
0.000000
  0
SEQEND
  8
LAYER-1
  0
POLYLINE
  8
LAYER-1
 66
  1
 70
  1
 62
  0
 10
2.759366
 20
0.183420
 30
0.000000
  0
VERTEX
  8
LAYER-1
 10
2.759366
 20
0.183420
 30
0.000000
  0
VERTEX
  8
LAYER-1
 10
2.748407
 20
0.197709
 30
0.000000
  0
VERTEX
  8
LAYER-1
 10
2.739136
 20
0.173896
 30
0.000000
  0
SEQEND
  8
LAYER-1
  0
POLYLINE
  8
LAYER-1
 66
  1
 70
  1
 62
  0
 10
2.837471
 20
0.232755
 30
0.000000
  0
VERTEX
  8
LAYER-1
 10
2.837471
 20
0.232755
 30
0.000000
  0
VERTEX
  8
LAYER-1
 10
2.810668
 20
0.220745
 30
0.000000
  0
VERTEX
  8
LAYER-1
 10
2.853096
 20
0.192826
 30
0.000000
  0
SEQEND
  8
LAYER-1
  0
POLYLINE
  8
LAYER-1
 66
  1
 70
  1
 62
  0
 10
2.661757
 20
0.140818
 30
0.000000
  0
VERTEX
  8
LAYER-1
 10
2.661757
 20
0.140818
 30
0.000000
  0
VERTEX
  8
LAYER-1
 10
2.668702
 20
0.083527
 30
0.000000
  0
VERTEX
  8
LAYER-1
 10
2.698192
 20
0.100731
 30
0.000000
  0
SEQEND
  8
LAYER-1
  0
POLYLINE
  8
LAYER-1
 66
  1
 70
  0
 62
  0
 10
3.112535
 20
0.590552
 30
0.000000
  0
VERTEX
  8
LAYER-1
 10
3.112535
 20
0.590552
 30
0.000000
  0
VERTEX
  8
LAYER-1
 10
3.146182
 20
0.610468
 30
0.000000
  0
SEQEND
  8
LAYER-1
  0
POLYLINE
  8
LAYER-1
 66
  1
 70
  0
 62
  0
 10
3.112535
 20
0.590552
 30
0.000000
  0
VERTEX
  8
LAYER-1
 10
3.112535
 20
0.590552
 30
0.000000
  0
VERTEX
  8
LAYER-1
 10
3.112535
 20
0.586431
 30
0.000000
  0
SEQEND
  8
LAYER-1
  0
POLYLINE
  8
LAYER-1
 66
  1
 70
  1
 62
  0
  0
VERTEX
  8
LAYER-1
 10
3.161101
 20
0.586390
 30
0.000000
  0
VERTEX
  8
LAYER-1
 10
3.310107
 20
0.586390
 30
0.000000
  0
VERTEX
  8
LAYER-1
 10
3.310107
 20
0.092234
 30
0.000000
  0
VERTEX
  8
LAYER-1
 10
3.161101
 20
0.092234
 30
0.000000
  0
SEQEND
  8
LAYER-1
  0
POLYLINE
  8
LAYER-1
  6
LTYPE01
 66
  1
 70
  1
 62
  0
  0
VERTEX
  8
LAYER-1
  6
LTYPE01
 10
3.173460
 20
0.610424
 30
0.000000
  0
VERTEX
  8
LAYER-1
  6
LTYPE01
 10
3.297061
 20
0.610424
 30
0.000000
  0
VERTEX
  8
LAYER-1
  6
LTYPE01
 10
3.297061
 20
0.117408
 30
0.000000
  0
VERTEX
  8
LAYER-1
  6
LTYPE01
 10
3.173460
 20
0.117408
 30
0.000000
  0
SEQEND
  8
LAYER-1
  0
POLYLINE
  8
LAYER-1
 66
  1
 70
  0
 62
  0
 10
3.112535
 20
0.586431
 30
0.000000
  0
VERTEX
  8
LAYER-1
 10
3.112535
 20
0.586431
 30
0.000000
  0
VERTEX
  8
LAYER-1
 10
3.359048
 20
0.586431
 30
0.000000
  0
SEQEND
  8
LAYER-1
  0
POLYLINE
  8
LAYER-1
 66
  1
 70
  0
 62
  0
 10
3.359048
 20
0.586431
 30
0.000000
  0
VERTEX
  8
LAYER-1
 10
3.359048
 20
0.586431
 30
0.000000
  0
VERTEX
  8
LAYER-1
 10
3.359048
 20
0.590552
 30
0.000000
  0
SEQEND
  8
LAYER-1
  0
POLYLINE
  8
LAYER-1
 66
  1
 70
  0
 62
  0
 10
3.359048
 20
0.590552
 30
0.000000
  0
VERTEX
  8
LAYER-1
 10
3.359048
 20
0.590552
 30
0.000000
  0
VERTEX
  8
LAYER-1
 10
3.324716
 20
0.610468
 30
0.000000
  0
SEQEND
  8
LAYER-1
  0
POLYLINE
  8
LAYER-1
  6
LTYPE02
 66
  1
 70
  0
 62
  0
  6
LTYPE02
 10
3.176738
 20
0.345072
 30
0.000000
  0
VERTEX
  8
LAYER-1
  6
LTYPE02
 10
3.176738
 20
0.345072
 30
0.000000
  0
VERTEX
  8
LAYER-1
  6
LTYPE02
 10
3.176738
 20
0.255808
 30
0.000000
  0
SEQEND
  8
LAYER-1
  0
POLYLINE
  8
LAYER-1
  6
LTYPE02
 66
  1
 70
  0
 62
  0
  6
LTYPE02
 10
3.187028
 20
0.345072
 30
0.000000
  0
VERTEX
  8
LAYER-1
  6
LTYPE02
 10
3.187028
 20
0.345072
 30
0.000000
  0
VERTEX
  8
LAYER-1
  6
LTYPE02
 10
3.176738
 20
0.345072
 30
0.000000
  0
SEQEND
  8
LAYER-1
  0
POLYLINE
  8
LAYER-1
  6
LTYPE02
 66
  1
 70
  0
 62
  0
  6
LTYPE02
 10
3.187028
 20
0.345072
 30
0.000000
  0
VERTEX
  8
LAYER-1
  6
LTYPE02
 10
3.187028
 20
0.345072
 30
0.000000
  0
VERTEX
  8
LAYER-1
  6
LTYPE02
 10
3.187028
 20
0.356745
 30
0.000000
  0
SEQEND
  8
LAYER-1
  0
POLYLINE
  8
LAYER-1
  6
LTYPE02
 66
  1
 70
  0
 62
  0
  6
LTYPE02
 10
3.187028
 20
0.356745
 30
0.000000
  0
VERTEX
  8
LAYER-1
  6
LTYPE02
 10
3.187028
 20
0.356745
 30
0.000000
  0
VERTEX
  8
LAYER-1
  6
LTYPE02
 10
3.285143
 20
0.356745
 30
0.000000
  0
SEQEND
  8
LAYER-1
  0
POLYLINE
  8
LAYER-1
  6
LTYPE02
 66
  1
 70
  0
 62
  0
  6
LTYPE02
 10
3.176738
 20
0.255808
 30
0.000000
  0
VERTEX
  8
LAYER-1
  6
LTYPE02
 10
3.176738
 20
0.255808
 30
0.000000
  0
VERTEX
  8
LAYER-1
  6
LTYPE02
 10
3.293472
 20
0.255808
 30
0.000000
  0
SEQEND
  8
LAYER-1
  0
POLYLINE
  8
LAYER-1
  6
LTYPE02
 66
  1
 70
  0
 62
  0
  6
LTYPE02
 10
3.293472
 20
0.255808
 30
0.000000
  0
VERTEX
  8
LAYER-1
  6
LTYPE02
 10
3.293472
 20
0.255808
 30
0.000000
  0
VERTEX
  8
LAYER-1
  6
LTYPE02
 10
3.293472
 20
0.345072
 30
0.000000
  0
SEQEND
  8
LAYER-1
  0
POLYLINE
  8
LAYER-1
  6
LTYPE02
 66
  1
 70
  0
 62
  0
  6
LTYPE02
 10
3.285143
 20
0.345072
 30
0.000000
  0
VERTEX
  8
LAYER-1
  6
LTYPE02
 10
3.285143
 20
0.345072
 30
0.000000
  0
VERTEX
  8
LAYER-1
  6
LTYPE02
 10
3.293472
 20
0.345072
 30
0.000000
  0
SEQEND
  8
LAYER-1
  0
POLYLINE
  8
LAYER-1
  6
LTYPE02
 66
  1
 70
  0
 62
  0
  6
LTYPE02
 10
3.285143
 20
0.356745
 30
0.000000
  0
VERTEX
  8
LAYER-1
  6
LTYPE02
 10
3.285143
 20
0.356745
 30
0.000000
  0
VERTEX
  8
LAYER-1
  6
LTYPE02
 10
3.285143
 20
0.345072
 30
0.000000
  0
SEQEND
  8
LAYER-1
  0
POLYLINE
  8
LAYER-1
  6
LTYPE01
 66
  1
 70
  1
 62
  0
  0
VERTEX
  8
LAYER-1
  6
LTYPE01
 10
3.190267
 20
0.255426
 30
0.000000
  0
VERTEX
  8
LAYER-1
  6
LTYPE01
 10
3.280907
 20
0.255426
 30
0.000000
  0
VERTEX
  8
LAYER-1
  6
LTYPE01
 10
3.280907
 20
0.118094
 30
0.000000
  0
VERTEX
  8
LAYER-1
  6
LTYPE01
 10
3.190267
 20
0.118094
 30
0.000000
  0
SEQEND
  8
LAYER-1
  0
POLYLINE
  8
LAYER-1
  6
LTYPE02
 66
  1
 70
  0
 62
  0
  6
LTYPE02
 10
3.280907
 20
0.255426
 30
0.000000
  0
VERTEX
  8
LAYER-1
  6
LTYPE02
 10
3.280907
 20
0.255426
 30
0.000000
  0
VERTEX
  8
LAYER-1
  6
LTYPE02
 10
3.190267
 20
0.247871
 30
0.000000
  0
SEQEND
  8
LAYER-1
  0
POLYLINE
  8
LAYER-1
  6
LTYPE02
 66
  1
 70
  0
 62
  0
  6
LTYPE02
 10
3.280907
 20
0.251305
 30
0.000000
  0
VERTEX
  8
LAYER-1
  6
LTYPE02
 10
3.280907
 20
0.251305
 30
0.000000
  0
VERTEX
  8
LAYER-1
  6
LTYPE02
 10
3.190267
 20
0.243064
 30
0.000000
  0
SEQEND
  8
LAYER-1
  0
POLYLINE
  8
LAYER-1
  6
LTYPE02
 66
  1
 70
  0
 62
  0
  6
LTYPE02
 10
3.280907
 20
0.242380
 30
0.000000
  0
VERTEX
  8
LAYER-1
  6
LTYPE02
 10
3.280907
 20
0.242380
 30
0.000000
  0
VERTEX
  8
LAYER-1
  6
LTYPE02
 10
3.190267
 20
0.234823
 30
0.000000
  0
SEQEND
  8
LAYER-1
  0
POLYLINE
  8
LAYER-1
  6
LTYPE02
 66
  1
 70
  0
 62
  0
  6
LTYPE02
 10
3.280907
 20
0.238258
 30
0.000000
  0
VERTEX
  8
LAYER-1
  6
LTYPE02
 10
3.280907
 20
0.238258
 30
0.000000
  0
VERTEX
  8
LAYER-1
  6
LTYPE02
 10
3.190267
 20
0.230019
 30
0.000000
  0
SEQEND
  8
LAYER-1
  0
POLYLINE
  8
LAYER-1
  6
LTYPE02
 66
  1
 70
  0
 62
  0
  6
LTYPE02
 10
3.280907
 20
0.228818
 30
0.000000
  0
VERTEX
  8
LAYER-1
  6
LTYPE02
 10
3.280907
 20
0.228818
 30
0.000000
  0
VERTEX
  8
LAYER-1
  6
LTYPE02
 10
3.190267
 20
0.221262
 30
0.000000
  0
SEQEND
  8
LAYER-1
  0
POLYLINE
  8
LAYER-1
  6
LTYPE02
 66
  1
 70
  0
 62
  0
  6
LTYPE02
 10
3.280907
 20
0.224700
 30
0.000000
  0
VERTEX
  8
LAYER-1
  6
LTYPE02
 10
3.280907
 20
0.224700
 30
0.000000
  0
VERTEX
  8
LAYER-1
  6
LTYPE02
 10
3.190267
 20
0.216457
 30
0.000000
  0
SEQEND
  8
LAYER-1
  0
POLYLINE
  8
LAYER-1
  6
LTYPE02
 66
  1
 70
  0
 62
  0
  6
LTYPE02
 10
3.280735
 20
0.216971
 30
0.000000
  0
VERTEX
  8
LAYER-1
  6
LTYPE02
 10
3.280735
 20
0.216971
 30
0.000000
  0
VERTEX
  8
LAYER-1
  6
LTYPE02
 10
3.190095
 20
0.209418
 30
0.000000
  0
SEQEND
  8
LAYER-1
  0
POLYLINE
  8
LAYER-1
  6
LTYPE02
 66
  1
 70
  0
 62
  0
  6
LTYPE02
 10
3.280735
 20
0.212853
 30
0.000000
  0
VERTEX
  8
LAYER-1
  6
LTYPE02
 10
3.280735
 20
0.212853
 30
0.000000
  0
VERTEX
  8
LAYER-1
  6
LTYPE02
 10
3.190095
 20
0.204614
 30
0.000000
  0
SEQEND
  8
LAYER-1
  0
POLYLINE
  8
LAYER-1
  6
LTYPE02
 66
  1
 70
  0
 62
  0
  6
LTYPE02
 10
3.280735
 20
0.204271
 30
0.000000
  0
VERTEX
  8
LAYER-1
  6
LTYPE02
 10
3.280735
 20
0.204271
 30
0.000000
  0
VERTEX
  8
LAYER-1
  6
LTYPE02
 10
3.190095
 20
0.196715
 30
0.000000
  0
SEQEND
  8
LAYER-1
  0
POLYLINE
  8
LAYER-1
  6
LTYPE02
 66
  1
 70
  0
 62
  0
  6
LTYPE02
 10
3.280735
 20
0.200148
 30
0.000000
  0
VERTEX
  8
LAYER-1
  6
LTYPE02
 10
3.280735
 20
0.200148
 30
0.000000
  0
VERTEX
  8
LAYER-1
  6
LTYPE02
 10
3.190095
 20
0.191908
 30
0.000000
  0
SEQEND
  8
LAYER-1
  0
POLYLINE
  8
LAYER-1
  6
LTYPE02
 66
  1
 70
  0
 62
  0
  6
LTYPE02
 10
3.280735
 20
0.191224
 30
0.000000
  0
VERTEX
  8
LAYER-1
  6
LTYPE02
 10
3.280735
 20
0.191224
 30
0.000000
  0
VERTEX
  8
LAYER-1
  6
LTYPE02
 10
3.190095
 20
0.183668
 30
0.000000
  0
SEQEND
  8
LAYER-1
  0
POLYLINE
  8
LAYER-1
  6
LTYPE02
 66
  1
 70
  0
 62
  0
  6
LTYPE02
 10
3.280735
 20
0.187103
 30
0.000000
  0
VERTEX
  8
LAYER-1
  6
LTYPE02
 10
3.280735
 20
0.187103
 30
0.000000
  0
VERTEX
  8
LAYER-1
  6
LTYPE02
 10
3.190095
 20
0.178861
 30
0.000000
  0
SEQEND
  8
LAYER-1
  0
POLYLINE
  8
LAYER-1
  6
LTYPE02
 66
  1
 70
  0
 62
  0
  6
LTYPE02
 10
3.280735
 20
0.177661
 30
0.000000
  0
VERTEX
  8
LAYER-1
  6
LTYPE02
 10
3.280735
 20
0.177661
 30
0.000000
  0
VERTEX
  8
LAYER-1
  6
LTYPE02
 10
3.190095
 20
0.170108
 30
0.000000
  0
SEQEND
  8
LAYER-1
  0
POLYLINE
  8
LAYER-1
  6
LTYPE02
 66
  1
 70
  0
 62
  0
  6
LTYPE02
 10
3.280735
 20
0.173542
 30
0.000000
  0
VERTEX
  8
LAYER-1
  6
LTYPE02
 10
3.280735
 20
0.173542
 30
0.000000
  0
VERTEX
  8
LAYER-1
  6
LTYPE02
 10
3.190095
 20
0.165303
 30
0.000000
  0
SEQEND
  8
LAYER-1
  0
POLYLINE
  8
LAYER-1
  6
LTYPE02
 66
  1
 70
  0
 62
  0
  6
LTYPE02
 10
3.280563
 20
0.165816
 30
0.000000
  0
VERTEX
  8
LAYER-1
  6
LTYPE02
 10
3.280563
 20
0.165816
 30
0.000000
  0
VERTEX
  8
LAYER-1
  6
LTYPE02
 10
3.189924
 20
0.158263
 30
0.000000
  0
SEQEND
  8
LAYER-1
  0
POLYLINE
  8
LAYER-1
  6
LTYPE02
 66
  1
 70
  0
 62
  0
  6
LTYPE02
 10
3.280563
 20
0.161698
 30
0.000000
  0
VERTEX
  8
LAYER-1
  6
LTYPE02
 10
3.280563
 20
0.161698
 30
0.000000
  0
VERTEX
  8
LAYER-1
  6
LTYPE02
 10
3.189924
 20
0.153456
 30
0.000000
  0
SEQEND
  8
LAYER-1
  0
POLYLINE
  8
LAYER-1
  6
LTYPE02
 66
  1
 70
  0
 62
  0
  6
LTYPE02
 10
3.280907
 20
0.154315
 30
0.000000
  0
VERTEX
  8
LAYER-1
  6
LTYPE02
 10
3.280907
 20
0.154315
 30
0.000000
  0
VERTEX
  8
LAYER-1
  6
LTYPE02
 10
3.190267
 20
0.146762
 30
0.000000
  0
SEQEND
  8
LAYER-1
  0
POLYLINE
  8
LAYER-1
  6
LTYPE02
 66
  1
 70
  0
 62
  0
  6
LTYPE02
 10
3.280907
 20
0.150196
 30
0.000000
  0
VERTEX
  8
LAYER-1
  6
LTYPE02
 10
3.280907
 20
0.150196
 30
0.000000
  0
VERTEX
  8
LAYER-1
  6
LTYPE02
 10
3.190267
 20
0.141954
 30
0.000000
  0
SEQEND
  8
LAYER-1
  0
POLYLINE
  8
LAYER-1
  6
LTYPE02
 66
  1
 70
  0
 62
  0
  6
LTYPE02
 10
3.280907
 20
0.141268
 30
0.000000
  0
VERTEX
  8
LAYER-1
  6
LTYPE02
 10
3.280907
 20
0.141268
 30
0.000000
  0
VERTEX
  8
LAYER-1
  6
LTYPE02
 10
3.190267
 20
0.133715
 30
0.000000
  0
SEQEND
  8
LAYER-1
  0
POLYLINE
  8
LAYER-1
  6
LTYPE02
 66
  1
 70
  0
 62
  0
  6
LTYPE02
 10
3.280907
 20
0.137149
 30
0.000000
  0
VERTEX
  8
LAYER-1
  6
LTYPE02
 10
3.280907
 20
0.137149
 30
0.000000
  0
VERTEX
  8
LAYER-1
  6
LTYPE02
 10
3.190267
 20
0.128909
 30
0.000000
  0
SEQEND
  8
LAYER-1
  0
POLYLINE
  8
LAYER-1
  6
LTYPE02
 66
  1
 70
  0
 62
  0
  6
LTYPE02
 10
3.280907
 20
0.127707
 30
0.000000
  0
VERTEX
  8
LAYER-1
  6
LTYPE02
 10
3.280907
 20
0.127707
 30
0.000000
  0
VERTEX
  8
LAYER-1
  6
LTYPE02
 10
3.190267
 20
0.120154
 30
0.000000
  0
SEQEND
  8
LAYER-1
  0
POLYLINE
  8
LAYER-1
  6
LTYPE02
 66
  1
 70
  0
 62
  0
  6
LTYPE02
 10
3.280907
 20
0.123587
 30
0.000000
  0
VERTEX
  8
LAYER-1
  6
LTYPE02
 10
3.280907
 20
0.123587
 30
0.000000
  0
VERTEX
  8
LAYER-1
  6
LTYPE02
 10
3.220309
 20
0.118094
 30
0.000000
  0
SEQEND
  8
LAYER-1
  0
POLYLINE
  8
LAYER-1
 66
  1
 70
  0
 62
  0
 10
3.146182
 20
0.610468
 30
0.000000
  0
VERTEX
  8
LAYER-1
 10
3.146182
 20
0.610468
 30
0.000000
  0
VERTEX
  8
LAYER-1
 10
3.324716
 20
0.610468
 30
0.000000
  0
SEQEND
  8
LAYER-1
  0
POLYLINE
  8
LAYER-1
 66
  1
 70
  0
 62
  0
 10
3.339553
 20
4.175794
 30
0.000000
  0
VERTEX
  8
LAYER-1
 10
3.339553
 20
4.175794
 30
0.000000
  0
VERTEX
  8
LAYER-1
 10
3.330790
 20
4.194167
 30
0.000000
  0
VERTEX
  8
LAYER-1
 10
3.314384
 20
4.200962
 30
0.000000
  0
VERTEX
  8
LAYER-1
 10
3.297979
 20
4.194167
 30
0.000000
  0
VERTEX
  8
LAYER-1
 10
3.293152
 20
4.175794
 30
0.000000
  0
SEQEND
  8
LAYER-1
  0
POLYLINE
  8
LAYER-1
 66
  1
 70
  0
 62
  0
 10
3.293152
 20
4.175794
 30
0.000000
  0
VERTEX
  8
LAYER-1
 10
3.293152
 20
4.175794
 30
0.000000
  0
VERTEX
  8
LAYER-1
 10
3.293152
 20
3.989136
 30
0.000000
  0
SEQEND
  8
LAYER-1
  0
POLYLINE
  8
LAYER-1
 66
  1
 70
  0
 62
  0
 10
3.339553
 20
4.175794
 30
0.000000
  0
VERTEX
  8
LAYER-1
 10
3.339553
 20
4.175794
 30
0.000000
  0
VERTEX
  8
LAYER-1
 10
3.339553
 20
3.989136
 30
0.000000
  0
SEQEND
  8
LAYER-1
  0
POLYLINE
  8
LAYER-1
 66
  1
 70
  0
 62
  0
 10
3.293152
 20
3.989136
 30
0.000000
  0
VERTEX
  8
LAYER-1
 10
3.293152
 20
3.989136
 30
0.000000
  0
VERTEX
  8
LAYER-1
 10
3.297979
 20
3.974700
 30
0.000000
  0
VERTEX
  8
LAYER-1
 10
3.314384
 20
3.967905
 30
0.000000
  0
VERTEX
  8
LAYER-1
 10
3.330790
 20
3.974700
 30
0.000000
  0
VERTEX
  8
LAYER-1
 10
3.339553
 20
3.989136
 30
0.000000
  0
SEQEND
  8
LAYER-1
  0
POLYLINE
  8
LAYER-1
 66
  1
 70
  0
 62
  0
 10
3.175567
 20
4.175794
 30
0.000000
  0
VERTEX
  8
LAYER-1
 10
3.175567
 20
4.175794
 30
0.000000
  0
VERTEX
  8
LAYER-1
 10
3.166803
 20
4.194167
 30
0.000000
  0
VERTEX
  8
LAYER-1
 10
3.150397
 20
4.200962
 30
0.000000
  0
VERTEX
  8
LAYER-1
 10
3.133992
 20
4.194167
 30
0.000000
  0
VERTEX
  8
LAYER-1
 10
3.129165
 20
4.175794
 30
0.000000
  0
SEQEND
  8
LAYER-1
  0
POLYLINE
  8
LAYER-1
 66
  1
 70
  0
 62
  0
 10
3.129166
 20
4.175794
 30
0.000000
  0
VERTEX
  8
LAYER-1
 10
3.129166
 20
4.175794
 30
0.000000
  0
VERTEX
  8
LAYER-1
 10
3.129166
 20
3.989136
 30
0.000000
  0
SEQEND
  8
LAYER-1
  0
POLYLINE
  8
LAYER-1
 66
  1
 70
  0
 62
  0
 10
3.175568
 20
4.175794
 30
0.000000
  0
VERTEX
  8
LAYER-1
 10
3.175568
 20
4.175794
 30
0.000000
  0
VERTEX
  8
LAYER-1
 10
3.175568
 20
3.989136
 30
0.000000
  0
SEQEND
  8
LAYER-1
  0
POLYLINE
  8
LAYER-1
 66
  1
 70
  0
 62
  0
 10
3.129165
 20
3.989136
 30
0.000000
  0
VERTEX
  8
LAYER-1
 10
3.129165
 20
3.989136
 30
0.000000
  0
VERTEX
  8
LAYER-1
 10
3.133992
 20
3.974700
 30
0.000000
  0
VERTEX
  8
LAYER-1
 10
3.150397
 20
3.967905
 30
0.000000
  0
VERTEX
  8
LAYER-1
 10
3.166803
 20
3.974700
 30
0.000000
  0
VERTEX
  8
LAYER-1
 10
3.175567
 20
3.989136
 30
0.000000
  0
SEQEND
  8
LAYER-1
  0
POLYLINE
  8
LAYER-1
 66
  1
 70
  1
 62
  0
  0
VERTEX
  8
LAYER-1
 10
3.205841
 20
4.031846
 30
0.000000
  0
VERTEX
  8
LAYER-1
 10
3.261296
 20
4.031846
 30
0.000000
  0
VERTEX
  8
LAYER-1
 10
3.261296
 20
3.748357
 30
0.000000
  0
VERTEX
  8
LAYER-1
 10
3.205841
 20
3.748357
 30
0.000000
  0
SEQEND
  8
LAYER-1
  0
POLYLINE
  8
LAYER-1
 66
  1
 70
  0
 62
  0
 10
2.594317
 20
3.748450
 30
0.000000
  0
VERTEX
  8
LAYER-1
 10
2.594317
 20
3.748450
 30
0.000000
  0
VERTEX
  8
LAYER-1
 10
3.876662
 20
3.748450
 30
0.000000
  0
SEQEND
  8
LAYER-1
  0
POLYLINE
  8
LAYER-1
 66
  1
 70
  0
 62
  0
 10
3.298766
 20
2.259261
 30
0.000000
  0
VERTEX
  8
LAYER-1
 10
3.298766
 20
2.259261
 30
0.000000
  0
VERTEX
  8
LAYER-1
 10
3.876662
 20
2.259261
 30
0.000000
  0
SEQEND
  8
LAYER-1
  0
POLYLINE
  8
LAYER-1
 66
  1
 70
  0
 62
  0
 10
3.138470
 20
2.259261
 30
0.000000
  0
VERTEX
  8
LAYER-1
 10
3.138470
 20
2.259261
 30
0.000000
  0
VERTEX
  8
LAYER-1
 10
2.594317
 20
2.259261
 30
0.000000
  0
SEQEND
  8
LAYER-1
  0
POLYLINE
  8
LAYER-1
 66
  1
 70
  0
 62
  0
 10
3.311420
 20
2.174896
 30
0.000000
  0
VERTEX
  8
LAYER-1
 10
3.311420
 20
2.174896
 30
0.000000
  0
VERTEX
  8
LAYER-1
 10
3.876662
 20
2.174896
 30
0.000000
  0
SEQEND
  8
LAYER-1
  0
POLYLINE
  8
LAYER-1
 66
  1
 70
  0
 62
  0
 10
3.151125
 20
2.174896
 30
0.000000
  0
VERTEX
  8
LAYER-1
 10
3.151125
 20
2.174896
 30
0.000000
  0
VERTEX
  8
LAYER-1
 10
2.594317
 20
2.174896
 30
0.000000
  0
SEQEND
  8
LAYER-1
  0
POLYLINE
  8
LAYER-1
 66
  1
 70
  0
 62
  0
 10
3.298766
 20
2.259261
 30
0.000000
  0
VERTEX
  8
LAYER-1
 10
3.298766
 20
2.259261
 30
0.000000
  0
VERTEX
  8
LAYER-1
 10
3.298766
 20
2.185442
 30
0.000000
  0
SEQEND
  8
LAYER-1
  0
POLYLINE
  8
LAYER-1
 66
  1
 70
  0
 62
  0
 10
3.138470
 20
2.259261
 30
0.000000
  0
VERTEX
  8
LAYER-1
 10
3.138470
 20
2.259261
 30
0.000000
  0
VERTEX
  8
LAYER-1
 10
3.138470
 20
2.293006
 30
0.000000
  0
SEQEND
  8
LAYER-1
  0
POLYLINE
  8
LAYER-1
 66
  1
 70
  0
 62
  0
 10
3.138470
 20
2.293006
 30
0.000000
  0
VERTEX
  8
LAYER-1
 10
3.138470
 20
2.293006
 30
0.000000
  0
VERTEX
  8
LAYER-1
 10
3.298766
 20
2.185442
 30
0.000000
  0
SEQEND
  8
LAYER-1
  0
POLYLINE
  8
LAYER-1
 66
  1
 70
  0
 62
  0
 10
3.311420
 20
2.103187
 30
0.000000
  0
VERTEX
  8
LAYER-1
 10
3.311420
 20
2.103187
 30
0.000000
  0
VERTEX
  8
LAYER-1
 10
3.311420
 20
2.174896
 30
0.000000
  0
SEQEND
  8
LAYER-1
  0
POLYLINE
  8
LAYER-1
 66
  1
 70
  0
 62
  0
 10
3.151125
 20
2.174896
 30
0.000000
  0
VERTEX
  8
LAYER-1
 10
3.151125
 20
2.174896
 30
0.000000
  0
VERTEX
  8
LAYER-1
 10
3.151125
 20
2.210752
 30
0.000000
  0
SEQEND
  8
LAYER-1
  0
POLYLINE
  8
LAYER-1
 66
  1
 70
  0
 62
  0
 10
3.151125
 20
2.210752
 30
0.000000
  0
VERTEX
  8
LAYER-1
 10
3.151125
 20
2.210752
 30
0.000000
  0
VERTEX
  8
LAYER-1
 10
3.311420
 20
2.103187
 30
0.000000
  0
SEQEND
  8
LAYER-1
  0
POLYLINE
  8
LAYER-1
 66
  1
 70
  0
 62
  0
 10
3.241279
 20
2.560732
 30
0.000000
  0
VERTEX
  8
LAYER-1
 10
3.241279
 20
2.560732
 30
0.000000
  0
VERTEX
  8
LAYER-1
 10
3.241279
 20
2.696557
 30
0.000000
  0
SEQEND
  8
LAYER-1
  0
POLYLINE
  8
LAYER-1
 66
  1
 70
  0
 62
  0
 10
2.435593
 20
2.697400
 30
0.000000
  0
VERTEX
  8
LAYER-1
 10
2.435593
 20
2.697400
 30
0.000000
  0
VERTEX
  8
LAYER-1
 10
2.435593
 20
2.555669
 30
0.000000
  0
SEQEND
  8
LAYER-1
  0
POLYLINE
  8
LAYER-1
 66
  1
 70
  0
 62
  0
 10
4.041897
 20
2.697400
 30
0.000000
  0
VERTEX
  8
LAYER-1
 10
4.041897
 20
2.697400
 30
0.000000
  0
VERTEX
  8
LAYER-1
 10
4.041897
 20
2.555669
 30
0.000000
  0
SEQEND
  8
LAYER-1
  0
POLYLINE
  8
LAYER-1
 66
  1
 70
  0
 62
  0
 10
2.455490
 20
2.626535
 30
0.000000
  0
VERTEX
  8
LAYER-1
 10
2.455490
 20
2.626535
 30
0.000000
  0
VERTEX
  8
LAYER-1
 10
3.222436
 20
2.626535
 30
0.000000
  0
SEQEND
  8
LAYER-1
  0
POLYLINE
  8
LAYER-1
 66
  1
 70
  1
 62
  0
  0
VERTEX
  8
LAYER-1
 10
2.435805
 20
2.626535
 30
0.000000
  0
VERTEX
  8
LAYER-1
 10
2.505249
 20
2.584869
 30
0.000000
  0
VERTEX
  8
LAYER-1
 10
2.505249
 20
2.626536
 30
0.000000
  0
VERTEX
  8
LAYER-1
 10
2.505249
 20
2.668203
 30
0.000000
  0
VERTEX
  8
LAYER-1
 10
2.435805
 20
2.626535
 30
0.000000
  0
SEQEND
  8
LAYER-1
  0
POLYLINE
  8
LAYER-1
 66
  1
 70
  1
 62
  0
  0
VERTEX
  8
LAYER-1
 10
3.242122
 20
2.626535
 30
0.000000
  0
VERTEX
  8
LAYER-1
 10
3.172678
 20
2.584868
 30
0.000000
  0
VERTEX
  8
LAYER-1
 10
3.172677
 20
2.626534
 30
0.000000
  0
VERTEX
  8
LAYER-1
 10
3.172677
 20
2.668201
 30
0.000000
  0
VERTEX
  8
LAYER-1
 10
3.242122
 20
2.626535
 30
0.000000
  0
SEQEND
  8
LAYER-1
  0
POLYLINE
  8
LAYER-1
 66
  1
 70
  0
 62
  0
 10
3.260753
 20
2.626535
 30
0.000000
  0
VERTEX
  8
LAYER-1
 10
3.260753
 20
2.626535
 30
0.000000
  0
VERTEX
  8
LAYER-1
 10
4.022424
 20
2.626535
 30
0.000000
  0
SEQEND
  8
LAYER-1
  0
POLYLINE
  8
LAYER-1
 66
  1
 70
  1
 62
  0
  0
VERTEX
  8
LAYER-1
 10
3.241068
 20
2.626535
 30
0.000000
  0
VERTEX
  8
LAYER-1
 10
3.310513
 20
2.584869
 30
0.000000
  0
VERTEX
  8
LAYER-1
 10
3.310513
 20
2.626536
 30
0.000000
  0
VERTEX
  8
LAYER-1
 10
3.310512
 20
2.668203
 30
0.000000
  0
VERTEX
  8
LAYER-1
 10
3.241068
 20
2.626535
 30
0.000000
  0
SEQEND
  8
LAYER-1
  0
POLYLINE
  8
LAYER-1
 66
  1
 70
  1
 62
  0
  0
VERTEX
  8
LAYER-1
 10
4.042109
 20
2.626535
 30
0.000000
  0
VERTEX
  8
LAYER-1
 10
3.972665
 20
2.584868
 30
0.000000
  0
VERTEX
  8
LAYER-1
 10
3.972665
 20
2.626534
 30
0.000000
  0
VERTEX
  8
LAYER-1
 10
3.972664
 20
2.668201
 30
0.000000
  0
VERTEX
  8
LAYER-1
 10
4.042109
 20
2.626535
 30
0.000000
  0
SEQEND
  8
LAYER-1
  0
TEXT
  8
LAYER-1
 62
  0
 10
2.759487
 20
2.682492
 30
0.000000
 40
0.104167
  1
4"
 72
  5
 11
2.967820
 21
2.682492
 31
0.000000
  0
TEXT
  8
LAYER-1
 62
  0
 10
2.592820
 20
2.460270
 30
0.000000
 40
0.104167
  1
102mm
 72
  5
 11
3.134487
 21
2.460270
 31
0.000000
  0
POLYLINE
  8
LAYER-1
 66
  1
 70
  0
 62
  0
 10
4.209902
 20
4.290492
 30
0.000000
  0
VERTEX
  8
LAYER-1
 10
4.209902
 20
4.290492
 30
0.000000
  0
VERTEX
  8
LAYER-1
 10
4.041172
 20
4.290492
 30
0.000000
  0
SEQEND
  8
LAYER-1
  0
POLYLINE
  8
LAYER-1
 66
  1
 70
  0
 62
  0
 10
4.209902
 20
3.946707
 30
0.000000
  0
VERTEX
  8
LAYER-1
 10
4.209902
 20
3.946707
 30
0.000000
  0
VERTEX
  8
LAYER-1
 10
4.045392
 20
3.946707
 30
0.000000
  0
SEQEND
  8
LAYER-1
  0
POLYLINE
  8
LAYER-1
 66
  1
 70
  0
 62
  0
 10
4.087573
 20
4.290492
 30
0.000000
  0
VERTEX
  8
LAYER-1
 10
4.087573
 20
4.290492
 30
0.000000
  0
VERTEX
  8
LAYER-1
 10
4.087573
 20
3.946707
 30
0.000000
  0
SEQEND
  8
LAYER-1
  0
LINE
  8
LAYER-1
 62
  0
 10
4.117036
 20
4.261029
 30
0.000000
 11
4.058110
 21
4.319954
 31
0.000000
  0
LINE
  8
LAYER-1
 62
  0
 10
4.117036
 20
3.917245
 30
0.000000
 11
4.058110
 21
3.976170
 31
0.000000
  0
TEXT
  8
LAYER-1
 62
  0
 10
4.217820
 20
4.113047
 30
0.000000
 40
0.104167
  1
1-1/2"  -  40mm
 72
  5
 11
5.273375
 21
4.113047
 31
0.000000
  0
POLYLINE
  8
LAYER-1
 66
  1
 70
  0
 62
  0
 10
3.064973
 20
4.856789
 30
0.000000
  0
VERTEX
  8
LAYER-1
 10
3.064973
 20
4.856789
 30
0.000000
  0
VERTEX
  8
LAYER-1
 10
3.064973
 20
4.646109
 30
0.000000
  0
SEQEND
  8
LAYER-1
  0
POLYLINE
  8
LAYER-1
 66
  1
 70
  0
 62
  0
 10
3.407579
 20
4.851230
 30
0.000000
  0
VERTEX
  8
LAYER-1
 10
3.407579
 20
4.851230
 30
0.000000
  0
VERTEX
  8
LAYER-1
 10
3.407579
 20
4.645818
 30
0.000000
  0
SEQEND
  8
LAYER-1
  0
POLYLINE
  8
LAYER-1
 66
  1
 70
  0
 62
  0
 10
3.064478
 20
4.824862
 30
0.000000
  0
VERTEX
  8
LAYER-1
 10
3.064478
 20
4.824862
 30
0.000000
  0
VERTEX
  8
LAYER-1
 10
3.408811
 20
4.824862
 30
0.000000
  0
SEQEND
  8
LAYER-1
  0
LINE
  8
LAYER-1
 62
  0
 10
3.093941
 20
4.854325
 30
0.000000
 11
3.035015
 21
4.795399
 31
0.000000
  0
LINE
  8
LAYER-1
 62
  0
 10
3.438274
 20
4.854325
 30
0.000000
 11
3.379349
 21
4.795399
 31
0.000000
  0
TEXT
  8
LAYER-1
 62
  0
 10
2.731709
 20
4.946381
 30
0.000000
 40
0.104167
  1
1-1/2"  -  38mm
 72
  5
 11
3.787264
 21
4.946381
 31
0.000000
  0
POLYLINE
  8
LAYER-1
 66
  1
 70
  1
 62
  0
  0
VERTEX
  8
LAYER-1
 10
3.407829
 20
4.289474
 30
0.000000
  0
VERTEX
  8
LAYER-1
 10
3.745288
 20
4.289474
 30
0.000000
  0
VERTEX
  8
LAYER-1
 10
3.745288
 20
4.044816
 30
0.000000
  0
VERTEX
  8
LAYER-1
 10
3.407829
 20
4.044816
 30
0.000000
  0
SEQEND
  8
LAYER-1
  0
POLYLINE
  8
LAYER-1
 66
  1
 70
  0
 62
  0
 10
3.407829
 20
4.289474
 30
0.000000
  0
VERTEX
  8
LAYER-1
 10
3.407829
 20
4.289474
 30
0.000000
  0
VERTEX
  8
LAYER-1
 10
3.745288
 20
4.044816
 30
0.000000
  0
SEQEND
  8
LAYER-1
  0
POLYLINE
  8
LAYER-1
 66
  1
 70
  0
 62
  0
 10
3.745288
 20
4.289474
 30
0.000000
  0
VERTEX
  8
LAYER-1
 10
3.745288
 20
4.289474
 30
0.000000
  0
VERTEX
  8
LAYER-1
 10
3.407829
 20
4.044816
 30
0.000000
  0
SEQEND
  8
LAYER-1
  0
POLYLINE
  8
LAYER-1
 66
  1
 70
  0
 62
  0
 40
0.027778
 41
0.027778
 10
3.467839
 20
3.946234
 30
0.000000
  0
VERTEX
  8
LAYER-1
 10
3.467839
 20
3.946234
 30
0.000000
  0
VERTEX
  8
LAYER-1
 10
3.406950
 20
3.946234
 30
0.000000
  0
SEQEND
  8
LAYER-1
  0
POLYLINE
  8
LAYER-1
 66
  1
 70
  0
 62
  0
 40
0.027778
 41
0.027778
 10
3.406950
 20
3.946234
 30
0.000000
  0
VERTEX
  8
LAYER-1
 10
3.406950
 20
3.946234
 30
0.000000
  0
VERTEX
  8
LAYER-1
 10
3.406950
 20
4.099590
 30
0.000000
  0
SEQEND
  8
LAYER-1
  0
POLYLINE
  8
LAYER-1
 66
  1
 70
  1
 62
  0
  0
VERTEX
  8
LAYER-1
 10
2.721766
 20
4.289426
 30
0.000000
  0
VERTEX
  8
LAYER-1
 10
3.059225
 20
4.289426
 30
0.000000
  0
VERTEX
  8
LAYER-1
 10
3.059225
 20
4.044768
 30
0.000000
  0
VERTEX
  8
LAYER-1
 10
2.721766
 20
4.044768
 30
0.000000
  0
SEQEND
  8
LAYER-1
  0
POLYLINE
  8
LAYER-1
 66
  1
 70
  0
 62
  0
 10
3.059225
 20
4.289426
 30
0.000000
  0
VERTEX
  8
LAYER-1
 10
3.059225
 20
4.289426
 30
0.000000
  0
VERTEX
  8
LAYER-1
 10
2.721766
 20
4.044768
 30
0.000000
  0
SEQEND
  8
LAYER-1
  0
POLYLINE
  8
LAYER-1
 66
  1
 70
  0
 62
  0
 10
2.721766
 20
4.289426
 30
0.000000
  0
VERTEX
  8
LAYER-1
 10
2.721766
 20
4.289426
 30
0.000000
  0
VERTEX
  8
LAYER-1
 10
3.059225
 20
4.044768
 30
0.000000
  0
SEQEND
  8
LAYER-1
  0
POLYLINE
  8
LAYER-1
 66
  1
 70
  0
 62
  0
 10
4.209482
 20
4.628864
 30
0.000000
  0
VERTEX
  8
LAYER-1
 10
4.209482
 20
4.628864
 30
0.000000
  0
VERTEX
  8
LAYER-1
 10
4.040753
 20
4.628864
 30
0.000000
  0
SEQEND
  8
LAYER-1
  0
POLYLINE
  8
LAYER-1
 66
  1
 70
  0
 62
  0
 10
4.209482
 20
4.290789
 30
0.000000
  0
VERTEX
  8
LAYER-1
 10
4.209482
 20
4.290789
 30
0.000000
  0
VERTEX
  8
LAYER-1
 10
4.044970
 20
4.290789
 30
0.000000
  0
SEQEND
  8
LAYER-1
  0
POLYLINE
  8
LAYER-1
 66
  1
 70
  0
 62
  0
 10
4.087152
 20
4.628864
 30
0.000000
  0
VERTEX
  8
LAYER-1
 10
4.087152
 20
4.628864
 30
0.000000
  0
VERTEX
  8
LAYER-1
 10
4.087152
 20
4.290789
 30
0.000000
  0
SEQEND
  8
LAYER-1
  0
LINE
  8
LAYER-1
 62
  0
 10
4.116615
 20
4.599401
 30
0.000000
 11
4.057689
 21
4.658327
 31
0.000000
  0
LINE
  8
LAYER-1
 62
  0
 10
4.116615
 20
4.261326
 30
0.000000
 11
4.057689
 21
4.320251
 31
0.000000
  0
TEXT
  8
LAYER-1
 62
  0
 10
4.217820
 20
4.474158
 30
0.000000
 40
0.104167
  1
1-1/2"  -  38mm
 72
  5
 11
5.273375
 21
4.474158
 31
0.000000
  0
TEXT
  8
LAYER-1
 62
  0
 10
3.009487
 20
5.099158
 30
0.000000
 40
0.083333
  1
MINIMUM
 72
  5
 11
3.592820
 21
5.099158
 31
0.000000
  0
POLYLINE
  8
LAYER-1
 66
  1
 70
  0
 62
  0
 40
0.027778
 41
0.027778
 10
2.999228
 20
3.947247
 30
0.000000
  0
VERTEX
  8
LAYER-1
 10
2.999228
 20
3.947247
 30
0.000000
  0
VERTEX
  8
LAYER-1
 10
3.060118
 20
3.947247
 30
0.000000
  0
SEQEND
  8
LAYER-1
  0
POLYLINE
  8
LAYER-1
 66
  1
 70
  0
 62
  0
 40
0.027778
 41
0.027778
 10
3.060118
 20
3.947247
 30
0.000000
  0
VERTEX
  8
LAYER-1
 10
3.060118
 20
3.947247
 30
0.000000
  0
VERTEX
  8
LAYER-1
 10
3.060118
 20
4.100604
 30
0.000000
  0
SEQEND
  8
LAYER-1
  0
TEXT
  8
LAYER-1
 62
  0
 10
0.051153
 20
5.001936
 30
0.000000
 40
0.145833
  1
RAIL ENCASTRƒ
 72
  5
 11
1.690042
 21
5.001936
 31
0.000000
  0
TEXT
  8
LAYER-1
 62
  0
 10
1.259487
 20
2.738047
 30
0.000000
 40
0.083333
  1
DƒGAGEMENT
 72
  5
 11
2.106709
 21
2.738047
 31
0.000000
  0
TEXT
  8
LAYER-1
 62
  0
 10
1.259487
 20
2.613047
 30
0.000000
 40
0.083333
  1
DE CHAQUE CïTƒ
 72
  5
 11
2.315042
 21
2.613047
 31
0.000000
  0
TEXT
  8
LAYER-1
 62
  0
 10
1.259487
 20
2.488047
 30
0.000000
 40
0.083333
  1
DU CENTRE
 72
  5
 11
1.981709
 21
2.488047
 31
0.000000
  0
TEXT
  8
LAYER-1
 62
  0
 10
1.259487
 20
2.363047
 30
0.000000
 40
0.083333
  1
DU RAIL
 72
  5
 11
1.759487
 21
2.363047
 31
0.000000
  0
TEXT
  8
LAYER-1
 62
  0
 10
4.328931
 20
3.724158
 30
0.000000
 40
0.083333
  1
MOULURE EN "J"
 72
  5
 11
5.301153
 21
3.724158
 31
0.000000
  0
TEXT
  8
LAYER-1
 62
  0
 10
4.328931
 20
3.599158
 30
0.000000
 40
0.083333
  1
DE CHAQUE CïTƒ
 72
  5
 11
5.384487
 21
3.599158
 31
0.000000
  0
TEXT
  8
LAYER-1
 62
  0
 10
4.328931
 20
3.474158
 30
0.000000
 40
0.083333
  1
DE L'ENCASTREMENT
 72
  5
 11
5.578931
 21
3.474158
 31
0.000000
  0
POLYLINE
  8
LAYER-1
 66
  1
 70
  0
 62
  0
 10
4.190042
 20
3.751936
 30
0.000000
  0
VERTEX
  8
LAYER-1
 10
4.190042
 20
3.751936
 30
0.000000
  0
VERTEX
  8
LAYER-1
 10
3.426056
 20
3.941493
 30
0.000000
  0
SEQEND
  8
LAYER-1
  0
POLYLINE
  8
LAYER-1
 66
  1
 70
  1
 62
  0
  0
VERTEX
  8
LAYER-1
 10
3.406950
 20
3.946234
 30
0.000000
  0
VERTEX
  8
LAYER-1
 10
3.484385
 20
3.969950
 30
0.000000
  0
VERTEX
  8
LAYER-1
 10
3.474351
 20
3.929510
 30
0.000000
  0
VERTEX
  8
LAYER-1
 10
3.464317
 20
3.889069
 30
0.000000
  0
VERTEX
  8
LAYER-1
 10
3.406950
 20
3.946234
 30
0.000000
  0
SEQEND
  8
LAYER-1
  0
TEXT
  8
LAYER-1
 62
  0
 10
4.287264
 20
4.349158
 30
0.000000
 40
0.072917
  1
MINIMUM  (EXEMPLE SUPPORT DE BOIS)
 72
  5
 11
6.328931
 21
4.349158
 31
0.000000
  0
POLYLINE
  8
LAYER-1
 66
  1
 70
  0
 62
  0
 10
3.329380
 20
6.433588
 30
0.000000
  0
VERTEX
  8
LAYER-1
 10
3.329380
 20
6.433588
 30
0.000000
  0
VERTEX
  8
LAYER-1
 10
3.330730
 20
6.453160
 30
0.000000
  0
VERTEX
  8
LAYER-1
 10
3.331027
 20
6.456233
 30
0.000000
  0
SEQEND
  8
LAYER-1
  0
POLYLINE
  8
LAYER-1
 66
  1
 70
  0
 62
  0
 10
3.367714
 20
6.456231
 30
0.000000
  0
VERTEX
  8
LAYER-1
 10
3.367714
 20
6.456231
 30
0.000000
  0
VERTEX
  8
LAYER-1
 10
3.331027
 20
6.456234
 30
0.000000
  0
SEQEND
  8
LAYER-1
  0
POLYLINE
  8
LAYER-1
 66
  1
 70
  0
 62
  0
 10
3.367714
 20
6.456231
 30
0.000000
  0
VERTEX
  8
LAYER-1
 10
3.367714
 20
6.456231
 30
0.000000
  0
VERTEX
  8
LAYER-1
 10
3.375342
 20
6.463860
 30
0.000000
  0
SEQEND
  8
LAYER-1
  0
POLYLINE
  8
LAYER-1
 66
  1
 70
  0
 62
  0
 10
3.375343
 20
6.789005
 30
0.000000
  0
VERTEX
  8
LAYER-1
 10
3.375343
 20
6.789005
 30
0.000000
  0
VERTEX
  8
LAYER-1
 10
3.375343
 20
6.463860
 30
0.000000
  0
SEQEND
  8
LAYER-1
  0
POLYLINE
  8
LAYER-1
 66
  1
 70
  0
 62
  0
 10
3.375342
 20
6.789005
 30
0.000000
  0
VERTEX
  8
LAYER-1
 10
3.375342
 20
6.789005
 30
0.000000
  0
VERTEX
  8
LAYER-1
 10
3.367714
 20
6.796633
 30
0.000000
  0
SEQEND
  8
LAYER-1
  0
POLYLINE
  8
LAYER-1
 66
  1
 70
  0
 62
  0
 10
3.366108
 20
6.796633
 30
0.000000
  0
VERTEX
  8
LAYER-1
 10
3.366108
 20
6.796633
 30
0.000000
  0
VERTEX
  8
LAYER-1
 10
3.367714
 20
6.796633
 30
0.000000
  0
SEQEND
  8
LAYER-1
  0
POLYLINE
  8
LAYER-1
 66
  1
 70
  0
 62
  0
 10
3.366108
 20
6.796633
 30
0.000000
  0
VERTEX
  8
LAYER-1
 10
3.366108
 20
6.796633
 30
0.000000
  0
VERTEX
  8
LAYER-1
 10
3.358479
 20
6.789005
 30
0.000000
  0
SEQEND
  8
LAYER-1
  0
POLYLINE
  8
LAYER-1
 66
  1
 70
  0
 62
  0
 10
3.358480
 20
6.787545
 30
0.000000
  0
VERTEX
  8
LAYER-1
 10
3.358480
 20
6.787545
 30
0.000000
  0
VERTEX
  8
LAYER-1
 10
3.358480
 20
6.789005
 30
0.000000
  0
SEQEND
  8
LAYER-1
  0
POLYLINE
  8
LAYER-1
 66
  1
 70
  0
 62
  0
 10
3.350852
 20
6.779917
 30
0.000000
  0
VERTEX
  8
LAYER-1
 10
3.350852
 20
6.779917
 30
0.000000
  0
VERTEX
  8
LAYER-1
 10
3.358480
 20
6.787545
 30
0.000000
  0
SEQEND
  8
LAYER-1
  0
POLYLINE
  8
LAYER-1
 66
  1
 70
  0
 62
  0
 10
3.330853
 20
6.779917
 30
0.000000
  0
VERTEX
  8
LAYER-1
 10
3.330853
 20
6.779917
 30
0.000000
  0
VERTEX
  8
LAYER-1
 10
3.350852
 20
6.779917
 30
0.000000
  0
SEQEND
  8
LAYER-1
  0
POLYLINE
  8
LAYER-1
 66
  1
 70
  0
 62
  0
 10
3.323225
 20
6.787545
 30
0.000000
  0
VERTEX
  8
LAYER-1
 10
3.323225
 20
6.787545
 30
0.000000
  0
VERTEX
  8
LAYER-1
 10
3.330853
 20
6.779917
 30
0.000000
  0
SEQEND
  8
LAYER-1
  0
POLYLINE
  8
LAYER-1
 66
  1
 70
  0
 62
  0
 10
3.323225
 20
6.789005
 30
0.000000
  0
VERTEX
  8
LAYER-1
 10
3.323225
 20
6.789005
 30
0.000000
  0
VERTEX
  8
LAYER-1
 10
3.323225
 20
6.787545
 30
0.000000
  0
SEQEND
  8
LAYER-1
  0
POLYLINE
  8
LAYER-1
 66
  1
 70
  0
 62
  0
 10
3.323225
 20
6.789005
 30
0.000000
  0
VERTEX
  8
LAYER-1
 10
3.323225
 20
6.789005
 30
0.000000
  0
VERTEX
  8
LAYER-1
 10
3.315597
 20
6.796633
 30
0.000000
  0
SEQEND
  8
LAYER-1
  0
POLYLINE
  8
LAYER-1
 66
  1
 70
  0
 62
  0
 10
3.146908
 20
6.796633
 30
0.000000
  0
VERTEX
  8
LAYER-1
 10
3.146908
 20
6.796633
 30
0.000000
  0
VERTEX
  8
LAYER-1
 10
3.315597
 20
6.796633
 30
0.000000
  0
SEQEND
  8
LAYER-1
  0
POLYLINE
  8
LAYER-1
 66
  1
 70
  0
 62
  0
 10
3.146908
 20
6.796633
 30
0.000000
  0
VERTEX
  8
LAYER-1
 10
3.146908
 20
6.796633
 30
0.000000
  0
VERTEX
  8
LAYER-1
 10
3.139280
 20
6.789005
 30
0.000000
  0
SEQEND
  8
LAYER-1
  0
POLYLINE
  8
LAYER-1
 66
  1
 70
  0
 62
  0
 10
3.139280
 20
6.787545
 30
0.000000
  0
VERTEX
  8
LAYER-1
 10
3.139280
 20
6.787545
 30
0.000000
  0
VERTEX
  8
LAYER-1
 10
3.139280
 20
6.789005
 30
0.000000
  0
SEQEND
  8
LAYER-1
  0
POLYLINE
  8
LAYER-1
 66
  1
 70
  0
 62
  0
 10
3.131652
 20
6.779917
 30
0.000000
  0
VERTEX
  8
LAYER-1
 10
3.131652
 20
6.779917
 30
0.000000
  0
VERTEX
  8
LAYER-1
 10
3.139280
 20
6.787545
 30
0.000000
  0
SEQEND
  8
LAYER-1
  0
POLYLINE
  8
LAYER-1
 66
  1
 70
  0
 62
  0
 10
3.111652
 20
6.779917
 30
0.000000
  0
VERTEX
  8
LAYER-1
 10
3.111652
 20
6.779917
 30
0.000000
  0
VERTEX
  8
LAYER-1
 10
3.131652
 20
6.779917
 30
0.000000
  0
SEQEND
  8
LAYER-1
  0
POLYLINE
  8
LAYER-1
 66
  1
 70
  0
 62
  0
 10
3.104023
 20
6.787545
 30
0.000000
  0
VERTEX
  8
LAYER-1
 10
3.104023
 20
6.787545
 30
0.000000
  0
VERTEX
  8
LAYER-1
 10
3.111652
 20
6.779917
 30
0.000000
  0
SEQEND
  8
LAYER-1
  0
POLYLINE
  8
LAYER-1
 66
  1
 70
  0
 62
  0
 10
3.104023
 20
6.789005
 30
0.000000
  0
VERTEX
  8
LAYER-1
 10
3.104023
 20
6.789005
 30
0.000000
  0
VERTEX
  8
LAYER-1
 10
3.104023
 20
6.787545
 30
0.000000
  0
SEQEND
  8
LAYER-1
  0
POLYLINE
  8
LAYER-1
 66
  1
 70
  0
 62
  0
 10
3.104023
 20
6.789005
 30
0.000000
  0
VERTEX
  8
LAYER-1
 10
3.104023
 20
6.789005
 30
0.000000
  0
VERTEX
  8
LAYER-1
 10
3.096395
 20
6.796633
 30
0.000000
  0
SEQEND
  8
LAYER-1
  0
POLYLINE
  8
LAYER-1
 66
  1
 70
  0
 62
  0
 10
3.096323
 20
6.796633
 30
0.000000
  0
VERTEX
  8
LAYER-1
 10
3.096323
 20
6.796633
 30
0.000000
  0
VERTEX
  8
LAYER-1
 10
3.096395
 20
6.796633
 30
0.000000
  0
SEQEND
  8
LAYER-1
  0
POLYLINE
  8
LAYER-1
 66
  1
 70
  0
 62
  0
 10
3.096323
 20
6.796633
 30
0.000000
  0
VERTEX
  8
LAYER-1
 10
3.096323
 20
6.796633
 30
0.000000
  0
VERTEX
  8
LAYER-1
 10
3.088694
 20
6.789005
 30
0.000000
  0
SEQEND
  8
LAYER-1
  0
POLYLINE
  8
LAYER-1
 66
  1
 70
  0
 62
  0
 10
3.088694
 20
6.789005
 30
0.000000
  0
VERTEX
  8
LAYER-1
 10
3.088694
 20
6.789005
 30
0.000000
  0
VERTEX
  8
LAYER-1
 10
3.088694
 20
6.463860
 30
0.000000
  0
SEQEND
  8
LAYER-1
  0
POLYLINE
  8
LAYER-1
 66
  1
 70
  0
 62
  0
 10
3.088694
 20
6.463860
 30
0.000000
  0
VERTEX
  8
LAYER-1
 10
3.088694
 20
6.463860
 30
0.000000
  0
VERTEX
  8
LAYER-1
 10
3.096323
 20
6.456231
 30
0.000000
  0
SEQEND
  8
LAYER-1
  0
POLYLINE
  8
LAYER-1
 66
  1
 70
  0
 62
  0
 10
3.096323
 20
6.456231
 30
0.000000
  0
VERTEX
  8
LAYER-1
 10
3.096323
 20
6.456231
 30
0.000000
  0
VERTEX
  8
LAYER-1
 10
3.132988
 20
6.456234
 30
0.000000
  0
SEQEND
  8
LAYER-1
  0
POLYLINE
  8
LAYER-1
 66
  1
 70
  0
 62
  0
 10
3.132988
 20
6.456233
 30
0.000000
  0
VERTEX
  8
LAYER-1
 10
3.132988
 20
6.456233
 30
0.000000
  0
VERTEX
  8
LAYER-1
 10
3.130284
 20
6.440303
 30
0.000000
  0
VERTEX
  8
LAYER-1
 10
3.134635
 20
6.433588
 30
0.000000
  0
SEQEND
  8
LAYER-1
  0
POLYLINE
  8
LAYER-1
 66
  1
 70
  0
 62
  0
 10
3.134635
 20
6.433589
 30
0.000000
  0
VERTEX
  8
LAYER-1
 10
3.134635
 20
6.433589
 30
0.000000
  0
VERTEX
  8
LAYER-1
 10
3.145497
 20
6.440690
 30
0.000000
  0
SEQEND
  8
LAYER-1
  0
POLYLINE
  8
LAYER-1
 66
  1
 70
  0
 62
  0
 10
3.162976
 20
6.440725
 30
0.000000
  0
VERTEX
  8
LAYER-1
 10
3.162976
 20
6.440725
 30
0.000000
  0
VERTEX
  8
LAYER-1
 10
3.157928
 20
6.457114
 30
0.000000
  0
VERTEX
  8
LAYER-1
 10
3.143506
 20
6.454035
 30
0.000000
  0
VERTEX
  8
LAYER-1
 10
3.145497
 20
6.440690
 30
0.000000
  0
SEQEND
  8
LAYER-1
  0
POLYLINE
  8
LAYER-1
 66
  1
 70
  0
 62
  0
 10
3.162976
 20
6.440724
 30
0.000000
  0
VERTEX
  8
LAYER-1
 10
3.162976
 20
6.440724
 30
0.000000
  0
VERTEX
  8
LAYER-1
 10
3.173930
 20
6.433606
 30
0.000000
  0
SEQEND
  8
LAYER-1
  0
POLYLINE
  8
LAYER-1
 66
  1
 70
  0
 62
  0
 10
3.173930
 20
6.433606
 30
0.000000
  0
VERTEX
  8
LAYER-1
 10
3.173930
 20
6.433606
 30
0.000000
  0
VERTEX
  8
LAYER-1
 10
3.175233
 20
6.453254
 30
0.000000
  0
VERTEX
  8
LAYER-1
 10
3.175557
 20
6.456233
 30
0.000000
  0
SEQEND
  8
LAYER-1
  0
POLYLINE
  8
LAYER-1
 66
  1
 70
  0
 62
  0
 10
3.182200
 20
6.456231
 30
0.000000
  0
VERTEX
  8
LAYER-1
 10
3.182200
 20
6.456231
 30
0.000000
  0
VERTEX
  8
LAYER-1
 10
3.175557
 20
6.456234
 30
0.000000
  0
SEQEND
  8
LAYER-1
  0
POLYLINE
  8
LAYER-1
 66
  1
 70
  0
 62
  0
 10
3.182200
 20
6.482065
 30
0.000000
  0
VERTEX
  8
LAYER-1
 10
3.182200
 20
6.482065
 30
0.000000
  0
VERTEX
  8
LAYER-1
 10
3.182200
 20
6.456231
 30
0.000000
  0
SEQEND
  8
LAYER-1
  0
POLYLINE
  8
LAYER-1
 66
  1
 70
  0
 62
  0
 10
3.112455
 20
6.504101
 30
0.000000
  0
VERTEX
  8
LAYER-1
 10
3.112455
 20
6.504101
 30
0.000000
  0
VERTEX
  8
LAYER-1
 10
3.182200
 20
6.482065
 30
0.000000
  0
SEQEND
  8
LAYER-1
  0
POLYLINE
  8
LAYER-1
 66
  1
 70
  0
 62
  0
 10
3.112455
 20
6.504101
 30
0.000000
  0
VERTEX
  8
LAYER-1
 10
3.112455
 20
6.504101
 30
0.000000
  0
VERTEX
  8
LAYER-1
 10
3.112455
 20
6.530562
 30
0.000000
  0
SEQEND
  8
LAYER-1
  0
POLYLINE
  8
LAYER-1
 66
  1
 70
  0
 62
  0
 10
3.112455
 20
6.530562
 30
0.000000
  0
VERTEX
  8
LAYER-1
 10
3.112455
 20
6.530562
 30
0.000000
  0
VERTEX
  8
LAYER-1
 10
3.105510
 20
6.538159
 30
0.000000
  0
SEQEND
  8
LAYER-1
  0
POLYLINE
  8
LAYER-1
 66
  1
 70
  0
 62
  0
 10
3.104023
 20
6.538293
 30
0.000000
  0
VERTEX
  8
LAYER-1
 10
3.104023
 20
6.538293
 30
0.000000
  0
VERTEX
  8
LAYER-1
 10
3.105511
 20
6.538159
 30
0.000000
  0
SEQEND
  8
LAYER-1
  0
POLYLINE
  8
LAYER-1
 66
  1
 70
  0
 62
  0
 10
3.104023
 20
6.538293
 30
0.000000
  0
VERTEX
  8
LAYER-1
 10
3.104023
 20
6.538293
 30
0.000000
  0
VERTEX
  8
LAYER-1
 10
3.104023
 20
6.755573
 30
0.000000
  0
SEQEND
  8
LAYER-1
  0
POLYLINE
  8
LAYER-1
 66
  1
 70
  0
 62
  0
 10
3.111652
 20
6.763201
 30
0.000000
  0
VERTEX
  8
LAYER-1
 10
3.111652
 20
6.763201
 30
0.000000
  0
VERTEX
  8
LAYER-1
 10
3.104023
 20
6.755573
 30
0.000000
  0
SEQEND
  8
LAYER-1
  0
POLYLINE
  8
LAYER-1
 66
  1
 70
  0
 62
  0
 10
3.111652
 20
6.763201
 30
0.000000
  0
VERTEX
  8
LAYER-1
 10
3.111652
 20
6.763201
 30
0.000000
  0
VERTEX
  8
LAYER-1
 10
3.131652
 20
6.763201
 30
0.000000
  0
SEQEND
  8
LAYER-1
  0
POLYLINE
  8
LAYER-1
 66
  1
 70
  0
 62
  0
 10
3.139280
 20
6.755573
 30
0.000000
  0
VERTEX
  8
LAYER-1
 10
3.139280
 20
6.755573
 30
0.000000
  0
VERTEX
  8
LAYER-1
 10
3.131652
 20
6.763201
 30
0.000000
  0
SEQEND
  8
LAYER-1
  0
POLYLINE
  8
LAYER-1
 66
  1
 70
  0
 62
  0
 10
3.139280
 20
6.755573
 30
0.000000
  0
VERTEX
  8
LAYER-1
 10
3.139280
 20
6.755573
 30
0.000000
  0
VERTEX
  8
LAYER-1
 10
3.139280
 20
6.754113
 30
0.000000
  0
SEQEND
  8
LAYER-1
  0
POLYLINE
  8
LAYER-1
 66
  1
 70
  0
 62
  0
 10
3.139280
 20
6.754113
 30
0.000000
  0
VERTEX
  8
LAYER-1
 10
3.139280
 20
6.754113
 30
0.000000
  0
VERTEX
  8
LAYER-1
 10
3.146908
 20
6.746485
 30
0.000000
  0
SEQEND
  8
LAYER-1
  0
POLYLINE
  8
LAYER-1
 66
  1
 70
  0
 62
  0
 10
3.146908
 20
6.746485
 30
0.000000
  0
VERTEX
  8
LAYER-1
 10
3.146908
 20
6.746485
 30
0.000000
  0
VERTEX
  8
LAYER-1
 10
3.160979
 20
6.746485
 30
0.000000
  0
SEQEND
  8
LAYER-1
  0
POLYLINE
  8
LAYER-1
 66
  1
 70
  0
 62
  0
 10
3.160979
 20
6.746485
 30
0.000000
  0
VERTEX
  8
LAYER-1
 10
3.160979
 20
6.746485
 30
0.000000
  0
VERTEX
  8
LAYER-1
 10
3.165338
 20
6.750844
 30
0.000000
  0
SEQEND
  8
LAYER-1
  0
POLYLINE
  8
LAYER-1
 66
  1
 70
  0
 62
  0
 10
3.165338
 20
6.754283
 30
0.000000
  0
VERTEX
  8
LAYER-1
 10
3.165338
 20
6.754283
 30
0.000000
  0
VERTEX
  8
LAYER-1
 10
3.165338
 20
6.750844
 30
0.000000
  0
SEQEND
  8
LAYER-1
  0
POLYLINE
  8
LAYER-1
 66
  1
 70
  0
 62
  0
 10
3.165338
 20
6.754283
 30
0.000000
  0
VERTEX
  8
LAYER-1
 10
3.165338
 20
6.754283
 30
0.000000
  0
VERTEX
  8
LAYER-1
 10
3.160979
 20
6.758642
 30
0.000000
  0
SEQEND
  8
LAYER-1
  0
POLYLINE
  8
LAYER-1
 66
  1
 70
  0
 62
  0
 10
3.160500
 20
6.758642
 30
0.000000
  0
VERTEX
  8
LAYER-1
 10
3.160500
 20
6.758642
 30
0.000000
  0
VERTEX
  8
LAYER-1
 10
3.160979
 20
6.758642
 30
0.000000
  0
SEQEND
  8
LAYER-1
  0
POLYLINE
  8
LAYER-1
 66
  1
 70
  0
 62
  0
 10
3.156141
 20
6.763001
 30
0.000000
  0
VERTEX
  8
LAYER-1
 10
3.156141
 20
6.763001
 30
0.000000
  0
VERTEX
  8
LAYER-1
 10
3.160500
 20
6.758642
 30
0.000000
  0
SEQEND
  8
LAYER-1
  0
POLYLINE
  8
LAYER-1
 66
  1
 70
  0
 62
  0
 10
3.156141
 20
6.772289
 30
0.000000
  0
VERTEX
  8
LAYER-1
 10
3.156141
 20
6.772289
 30
0.000000
  0
VERTEX
  8
LAYER-1
 10
3.156141
 20
6.763001
 30
0.000000
  0
SEQEND
  8
LAYER-1
  0
POLYLINE
  8
LAYER-1
 66
  1
 70
  0
 62
  0
 10
3.163770
 20
6.779917
 30
0.000000
  0
VERTEX
  8
LAYER-1
 10
3.163770
 20
6.779917
 30
0.000000
  0
VERTEX
  8
LAYER-1
 10
3.156141
 20
6.772289
 30
0.000000
  0
SEQEND
  8
LAYER-1
  0
POLYLINE
  8
LAYER-1
 66
  1
 70
  0
 62
  0
 10
3.163770
 20
6.779917
 30
0.000000
  0
VERTEX
  8
LAYER-1
 10
3.163770
 20
6.779917
 30
0.000000
  0
VERTEX
  8
LAYER-1
 10
3.298736
 20
6.779917
 30
0.000000
  0
SEQEND
  8
LAYER-1
  0
POLYLINE
  8
LAYER-1
 66
  1
 70
  0
 62
  0
 10
3.306364
 20
6.772289
 30
0.000000
  0
VERTEX
  8
LAYER-1
 10
3.306364
 20
6.772289
 30
0.000000
  0
VERTEX
  8
LAYER-1
 10
3.298736
 20
6.779917
 30
0.000000
  0
SEQEND
  8
LAYER-1
  0
POLYLINE
  8
LAYER-1
 66
  1
 70
  0
 62
  0
 10
3.306364
 20
6.772289
 30
0.000000
  0
VERTEX
  8
LAYER-1
 10
3.306364
 20
6.772289
 30
0.000000
  0
VERTEX
  8
LAYER-1
 10
3.306364
 20
6.763001
 30
0.000000
  0
SEQEND
  8
LAYER-1
  0
POLYLINE
  8
LAYER-1
 66
  1
 70
  0
 62
  0
 10
3.302005
 20
6.758642
 30
0.000000
  0
VERTEX
  8
LAYER-1
 10
3.302005
 20
6.758642
 30
0.000000
  0
VERTEX
  8
LAYER-1
 10
3.306364
 20
6.763001
 30
0.000000
  0
SEQEND
  8
LAYER-1
  0
POLYLINE
  8
LAYER-1
 66
  1
 70
  0
 62
  0
 10
3.302005
 20
6.758642
 30
0.000000
  0
VERTEX
  8
LAYER-1
 10
3.302005
 20
6.758642
 30
0.000000
  0
VERTEX
  8
LAYER-1
 10
3.301525
 20
6.758642
 30
0.000000
  0
SEQEND
  8
LAYER-1
  0
POLYLINE
  8
LAYER-1
 66
  1
 70
  0
 62
  0
 10
3.301525
 20
6.758642
 30
0.000000
  0
VERTEX
  8
LAYER-1
 10
3.301525
 20
6.758642
 30
0.000000
  0
VERTEX
  8
LAYER-1
 10
3.297166
 20
6.754283
 30
0.000000
  0
SEQEND
  8
LAYER-1
  0
POLYLINE
  8
LAYER-1
 66
  1
 70
  0
 62
  0
 10
3.297166
 20
6.754283
 30
0.000000
  0
VERTEX
  8
LAYER-1
 10
3.297166
 20
6.754283
 30
0.000000
  0
VERTEX
  8
LAYER-1
 10
3.297166
 20
6.750844
 30
0.000000
  0
SEQEND
  8
LAYER-1
  0
POLYLINE
  8
LAYER-1
 66
  1
 70
  0
 62
  0
 10
3.297166
 20
6.750844
 30
0.000000
  0
VERTEX
  8
LAYER-1
 10
3.297166
 20
6.750844
 30
0.000000
  0
VERTEX
  8
LAYER-1
 10
3.301525
 20
6.746485
 30
0.000000
  0
SEQEND
  8
LAYER-1
  0
POLYLINE
  8
LAYER-1
 66
  1
 70
  0
 62
  0
 10
3.315597
 20
6.746485
 30
0.000000
  0
VERTEX
  8
LAYER-1
 10
3.315597
 20
6.746485
 30
0.000000
  0
VERTEX
  8
LAYER-1
 10
3.301525
 20
6.746485
 30
0.000000
  0
SEQEND
  8
LAYER-1
  0
POLYLINE
  8
LAYER-1
 66
  1
 70
  0
 62
  0
 10
3.315597
 20
6.746485
 30
0.000000
  0
VERTEX
  8
LAYER-1
 10
3.315597
 20
6.746485
 30
0.000000
  0
VERTEX
  8
LAYER-1
 10
3.323225
 20
6.754113
 30
0.000000
  0
SEQEND
  8
LAYER-1
  0
POLYLINE
  8
LAYER-1
 66
  1
 70
  0
 62
  0
 10
3.323225
 20
6.755573
 30
0.000000
  0
VERTEX
  8
LAYER-1
 10
3.323225
 20
6.755573
 30
0.000000
  0
VERTEX
  8
LAYER-1
 10
3.323225
 20
6.754113
 30
0.000000
  0
SEQEND
  8
LAYER-1
  0
POLYLINE
  8
LAYER-1
 66
  1
 70
  0
 62
  0
 10
3.330853
 20
6.763201
 30
0.000000
  0
VERTEX
  8
LAYER-1
 10
3.330853
 20
6.763201
 30
0.000000
  0
VERTEX
  8
LAYER-1
 10
3.323225
 20
6.755573
 30
0.000000
  0
SEQEND
  8
LAYER-1
  0
POLYLINE
  8
LAYER-1
 66
  1
 70
  0
 62
  0
 10
3.330853
 20
6.763201
 30
0.000000
  0
VERTEX
  8
LAYER-1
 10
3.330853
 20
6.763201
 30
0.000000
  0
VERTEX
  8
LAYER-1
 10
3.350852
 20
6.763201
 30
0.000000
  0
SEQEND
  8
LAYER-1
  0
POLYLINE
  8
LAYER-1
 66
  1
 70
  0
 62
  0
 10
3.358480
 20
6.755573
 30
0.000000
  0
VERTEX
  8
LAYER-1
 10
3.358480
 20
6.755573
 30
0.000000
  0
VERTEX
  8
LAYER-1
 10
3.350852
 20
6.763201
 30
0.000000
  0
SEQEND
  8
LAYER-1
  0
POLYLINE
  8
LAYER-1
 66
  1
 70
  0
 62
  0
 10
3.358480
 20
6.538293
 30
0.000000
  0
VERTEX
  8
LAYER-1
 10
3.358480
 20
6.538293
 30
0.000000
  0
VERTEX
  8
LAYER-1
 10
3.358480
 20
6.755573
 30
0.000000
  0
SEQEND
  8
LAYER-1
  0
POLYLINE
  8
LAYER-1
 66
  1
 70
  0
 62
  0
 10
3.358480
 20
6.538293
 30
0.000000
  0
VERTEX
  8
LAYER-1
 10
3.358480
 20
6.538293
 30
0.000000
  0
VERTEX
  8
LAYER-1
 10
3.356284
 20
6.538112
 30
0.000000
  0
SEQEND
  8
LAYER-1
  0
POLYLINE
  8
LAYER-1
 66
  1
 70
  0
 62
  0
 10
3.356284
 20
6.538112
 30
0.000000
  0
VERTEX
  8
LAYER-1
 10
3.356284
 20
6.538112
 30
0.000000
  0
VERTEX
  8
LAYER-1
 10
3.349284
 20
6.530510
 30
0.000000
  0
SEQEND
  8
LAYER-1
  0
POLYLINE
  8
LAYER-1
 66
  1
 70
  0
 62
  0
 10
3.349284
 20
6.504101
 30
0.000000
  0
VERTEX
  8
LAYER-1
 10
3.349284
 20
6.504101
 30
0.000000
  0
VERTEX
  8
LAYER-1
 10
3.349284
 20
6.530510
 30
0.000000
  0
SEQEND
  8
LAYER-1
  0
POLYLINE
  8
LAYER-1
 66
  1
 70
  0
 62
  0
 10
3.281837
 20
6.482065
 30
0.000000
  0
VERTEX
  8
LAYER-1
 10
3.281837
 20
6.482065
 30
0.000000
  0
VERTEX
  8
LAYER-1
 10
3.349284
 20
6.504101
 30
0.000000
  0
SEQEND
  8
LAYER-1
  0
POLYLINE
  8
LAYER-1
 66
  1
 70
  0
 62
  0
 10
3.281837
 20
6.482065
 30
0.000000
  0
VERTEX
  8
LAYER-1
 10
3.281837
 20
6.482065
 30
0.000000
  0
VERTEX
  8
LAYER-1
 10
3.281837
 20
6.456231
 30
0.000000
  0
SEQEND
  8
LAYER-1
  0
POLYLINE
  8
LAYER-1
 66
  1
 70
  0
 62
  0
 10
3.288459
 20
6.456234
 30
0.000000
  0
VERTEX
  8
LAYER-1
 10
3.288459
 20
6.456234
 30
0.000000
  0
VERTEX
  8
LAYER-1
 10
3.281837
 20
6.456231
 30
0.000000
  0
SEQEND
  8
LAYER-1
  0
POLYLINE
  8
LAYER-1
 66
  1
 70
  0
 62
  0
 10
3.288459
 20
6.456233
 30
0.000000
  0
VERTEX
  8
LAYER-1
 10
3.288459
 20
6.456233
 30
0.000000
  0
VERTEX
  8
LAYER-1
 10
3.285782
 20
6.440237
 30
0.000000
  0
VERTEX
  8
LAYER-1
 10
3.290086
 20
6.433606
 30
0.000000
  0
SEQEND
  8
LAYER-1
  0
POLYLINE
  8
LAYER-1
 66
  1
 70
  0
 62
  0
 10
3.290086
 20
6.433607
 30
0.000000
  0
VERTEX
  8
LAYER-1
 10
3.290086
 20
6.433607
 30
0.000000
  0
VERTEX
  8
LAYER-1
 10
3.301040
 20
6.440725
 30
0.000000
  0
SEQEND
  8
LAYER-1
  0
POLYLINE
  8
LAYER-1
 66
  1
 70
  0
 62
  0
 10
3.318519
 20
6.440690
 30
0.000000
  0
VERTEX
  8
LAYER-1
 10
3.318519
 20
6.440690
 30
0.000000
  0
VERTEX
  8
LAYER-1
 10
3.313527
 20
6.457092
 30
0.000000
  0
VERTEX
  8
LAYER-1
 10
3.299093
 20
6.454069
 30
0.000000
  0
VERTEX
  8
LAYER-1
 10
3.301040
 20
6.440725
 30
0.000000
  0
SEQEND
  8
LAYER-1
  0
POLYLINE
  8
LAYER-1
 66
  1
 70
  0
 62
  0
 10
3.318519
 20
6.440690
 30
0.000000
  0
VERTEX
  8
LAYER-1
 10
3.318519
 20
6.440690
 30
0.000000
  0
VERTEX
  8
LAYER-1
 10
3.329381
 20
6.433589
 30
0.000000
  0
SEQEND
  8
LAYER-1
  0
POLYLINE
  8
LAYER-1
 66
  1
 70
  0
 62
  7
 10
3.187040
 20
6.512524
 30
0.000000
  0
VERTEX
  8
LAYER-1
 10
3.187040
 20
6.512524
 30
0.000000
  0
VERTEX
  8
LAYER-1
 10
3.175842
 20
6.539325
 30
0.000000
  0
VERTEX
  8
LAYER-1
 10
3.148809
 20
6.550426
 30
0.000000
  0
VERTEX
  8
LAYER-1
 10
3.121775
 20
6.539325
 30
0.000000
  0
VERTEX
  8
LAYER-1
 10
3.110577
 20
6.512524
 30
0.000000
  0
VERTEX
  8
LAYER-1
 10
3.121775
 20
6.485723
 30
0.000000
  0
VERTEX
  8
LAYER-1
 10
3.148809
 20
6.474621
 30
0.000000
  0
VERTEX
  8
LAYER-1
 10
3.175842
 20
6.485723
 30
0.000000
  0
VERTEX
  8
LAYER-1
 10
3.187040
 20
6.512524
 30
0.000000
  0
SEQEND
  8
LAYER-1
  0
POLYLINE
  8
LAYER-1
 66
  1
 70
  0
 62
  7
 10
3.346404
 20
6.514197
 30
0.000000
  0
VERTEX
  8
LAYER-1
 10
3.346404
 20
6.514197
 30
0.000000
  0
VERTEX
  8
LAYER-1
 10
3.335206
 20
6.540998
 30
0.000000
  0
VERTEX
  8
LAYER-1
 10
3.308172
 20
6.552099
 30
0.000000
  0
VERTEX
  8
LAYER-1
 10
3.281138
 20
6.540998
 30
0.000000
  0
VERTEX
  8
LAYER-1
 10
3.269940
 20
6.514197
 30
0.000000
  0
VERTEX
  8
LAYER-1
 10
3.281138
 20
6.487396
 30
0.000000
  0
VERTEX
  8
LAYER-1
 10
3.308172
 20
6.476295
 30
0.000000
  0
VERTEX
  8
LAYER-1
 10
3.335206
 20
6.487396
 30
0.000000
  0
VERTEX
  8
LAYER-1
 10
3.346404
 20
6.514197
 30
0.000000
  0
SEQEND
  8
LAYER-1
  0
POLYLINE
  8
LAYER-1
 66
  1
 70
  1
 62
  0
  0
VERTEX
  8
LAYER-1
 10
2.594726
 20
7.080709
 30
0.000000
  0
VERTEX
  8
LAYER-1
 10
3.870322
 20
7.080709
 30
0.000000
  0
VERTEX
  8
LAYER-1
 10
3.870322
 20
6.915355
 30
0.000000
  0
VERTEX
  8
LAYER-1
 10
2.594726
 20
6.915355
 30
0.000000
  0
SEQEND
  8
LAYER-1
  0
POLYLINE
  8
LAYER-1
 66
  1
 70
  1
 62
  0
  0
VERTEX
  8
LAYER-1
 10
2.594726
 20
7.255613
 30
0.000000
  0
VERTEX
  8
LAYER-1
 10
3.870322
 20
7.255613
 30
0.000000
  0
VERTEX
  8
LAYER-1
 10
3.870322
 20
7.090258
 30
0.000000
  0
VERTEX
  8
LAYER-1
 10
2.594726
 20
7.090258
 30
0.000000
  0
SEQEND
  8
LAYER-1
  0
POLYLINE
  8
LAYER-1
 66
  1
 70
  0
 62
  0
 10
2.594823
 20
7.225277
 30
0.000000
  0
VERTEX
  8
LAYER-1
 10
2.594823
 20
7.225277
 30
0.000000
  0
VERTEX
  8
LAYER-1
 10
3.868270
 20
7.225277
 30
0.000000
  0
SEQEND
  8
LAYER-1
  0
POLYLINE
  8
LAYER-1
 66
  1
 70
  0
 62
  0
 10
2.594823
 20
7.112430
 30
0.000000
  0
VERTEX
  8
LAYER-1
 10
2.594823
 20
7.112430
 30
0.000000
  0
VERTEX
  8
LAYER-1
 10
3.870005
 20
7.112430
 30
0.000000
  0
SEQEND
  8
LAYER-1
  0
POLYLINE
  8
LAYER-1
 66
  1
 70
  1
 62
  0
  0
VERTEX
  8
LAYER-1
 10
2.594823
 20
7.024757
 30
0.000000
  0
VERTEX
  8
LAYER-1
 10
3.869572
 20
7.024757
 30
0.000000
  0
VERTEX
  8
LAYER-1
 10
3.869572
 20
6.970937
 30
0.000000
  0
VERTEX
  8
LAYER-1
 10
2.594823
 20
6.970937
 30
0.000000
  0
SEQEND
  8
LAYER-1
  0
POLYLINE
  8
LAYER-1
 66
  1
 70
  0
 62
  0
 10
2.594824
 20
7.054270
 30
0.000000
  0
VERTEX
  8
LAYER-1
 10
2.594824
 20
7.054270
 30
0.000000
  0
VERTEX
  8
LAYER-1
 10
3.868270
 20
7.054270
 30
0.000000
  0
SEQEND
  8
LAYER-1
  0
POLYLINE
  8
LAYER-1
 66
  1
 70
  0
 62
  0
 10
2.594824
 20
6.941423
 30
0.000000
  0
VERTEX
  8
LAYER-1
 10
2.594824
 20
6.941423
 30
0.000000
  0
VERTEX
  8
LAYER-1
 10
3.870005
 20
6.941423
 30
0.000000
  0
SEQEND
  8
LAYER-1
  0
POLYLINE
  8
LAYER-1
 66
  1
 70
  1
 62
  0
  0
VERTEX
  8
LAYER-1
 10
2.594823
 20
7.195763
 30
0.000000
  0
VERTEX
  8
LAYER-1
 10
3.869572
 20
7.195763
 30
0.000000
  0
VERTEX
  8
LAYER-1
 10
3.869572
 20
7.141943
 30
0.000000
  0
VERTEX
  8
LAYER-1
 10
2.594823
 20
7.141943
 30
0.000000
  0
SEQEND
  8
LAYER-1
  0
POLYLINE
  8
LAYER-1
 66
  1
 70
  0
 62
  0
 10
4.210309
 20
7.255588
 30
0.000000
  0
VERTEX
  8
LAYER-1
 10
4.210309
 20
7.255588
 30
0.000000
  0
VERTEX
  8
LAYER-1
 10
4.041582
 20
7.255588
 30
0.000000
  0
SEQEND
  8
LAYER-1
  0
POLYLINE
  8
LAYER-1
 66
  1
 70
  0
 62
  0
 10
4.210309
 20
6.915777
 30
0.000000
  0
VERTEX
  8
LAYER-1
 10
4.210309
 20
6.915777
 30
0.000000
  0
VERTEX
  8
LAYER-1
 10
4.045799
 20
6.915777
 30
0.000000
  0
SEQEND
  8
LAYER-1
  0
POLYLINE
  8
LAYER-1
 66
  1
 70
  0
 62
  0
 10
4.087982
 20
7.255588
 30
0.000000
  0
VERTEX
  8
LAYER-1
 10
4.087982
 20
7.255588
 30
0.000000
  0
VERTEX
  8
LAYER-1
 10
4.087982
 20
6.915777
 30
0.000000
  0
SEQEND
  8
LAYER-1
  0
LINE
  8
LAYER-1
 62
  0
 10
4.117445
 20
7.226125
 30
0.000000
 11
4.058519
 21
7.285051
 31
0.000000
  0
LINE
  8
LAYER-1
 62
  0
 10
4.117445
 20
6.886314
 30
0.000000
 11
4.058519
 21
6.945240
 31
0.000000
  0
TEXT
  8
LAYER-1
 62
  0
 10
4.217820
 20
7.099158
 30
0.000000
 40
0.104167
  1
1-1/2"  -  38mm
 72
  5
 11
5.273375
 21
7.099158
 31
0.000000
  0
TEXT
  8
LAYER-1
 62
  0
 10
0.037264
 20
7.751936
 30
0.000000
 40
0.145833
  1
RAIL APPARENT
 72
  5
 11
1.676153
 21
7.751936
 31
0.000000
  0
POLYLINE
  8
LAYER-1
 66
  1
 70
  0
 62
  0
 10
3.335479
 20
6.684246
 30
0.000000
  0
VERTEX
  8
LAYER-1
 10
3.335479
 20
6.684246
 30
0.000000
  0
VERTEX
  8
LAYER-1
 10
3.326715
 20
6.702529
 30
0.000000
  0
VERTEX
  8
LAYER-1
 10
3.310309
 20
6.709287
 30
0.000000
  0
VERTEX
  8
LAYER-1
 10
3.293904
 20
6.702529
 30
0.000000
  0
VERTEX
  8
LAYER-1
 10
3.289078
 20
6.684246
 30
0.000000
  0
SEQEND
  8
LAYER-1
  0
POLYLINE
  8
LAYER-1
 66
  1
 70
  0
 62
  0
 10
3.289077
 20
6.684246
 30
0.000000
  0
VERTEX
  8
LAYER-1
 10
3.289077
 20
6.684246
 30
0.000000
  0
VERTEX
  8
LAYER-1
 10
3.289077
 20
6.498619
 30
0.000000
  0
SEQEND
  8
LAYER-1
  0
POLYLINE
  8
LAYER-1
 66
  1
 70
  0
 62
  0
 10
3.335478
 20
6.684246
 30
0.000000
  0
VERTEX
  8
LAYER-1
 10
3.335478
 20
6.684246
 30
0.000000
  0
VERTEX
  8
LAYER-1
 10
3.335478
 20
6.498619
 30
0.000000
  0
SEQEND
  8
LAYER-1
  0
POLYLINE
  8
LAYER-1
 66
  1
 70
  0
 62
  0
 10
3.289078
 20
6.498619
 30
0.000000
  0
VERTEX
  8
LAYER-1
 10
3.289078
 20
6.498619
 30
0.000000
  0
VERTEX
  8
LAYER-1
 10
3.293904
 20
6.484273
 30
0.000000
  0
VERTEX
  8
LAYER-1
 10
3.310309
 20
6.477515
 30
0.000000
  0
VERTEX
  8
LAYER-1
 10
3.326715
 20
6.484273
 30
0.000000
  0
VERTEX
  8
LAYER-1
 10
3.335479
 20
6.498619
 30
0.000000
  0
SEQEND
  8
LAYER-1
  0
POLYLINE
  8
LAYER-1
 66
  1
 70
  0
 62
  0
 10
3.171491
 20
6.684110
 30
0.000000
  0
VERTEX
  8
LAYER-1
 10
3.171491
 20
6.684110
 30
0.000000
  0
VERTEX
  8
LAYER-1
 10
3.162726
 20
6.702483
 30
0.000000
  0
VERTEX
  8
LAYER-1
 10
3.146321
 20
6.709278
 30
0.000000
  0
VERTEX
  8
LAYER-1
 10
3.129917
 20
6.702483
 30
0.000000
  0
VERTEX
  8
LAYER-1
 10
3.125089
 20
6.684110
 30
0.000000
  0
SEQEND
  8
LAYER-1
  0
POLYLINE
  8
LAYER-1
 66
  1
 70
  0
 62
  0
 10
3.125090
 20
6.684110
 30
0.000000
  0
VERTEX
  8
LAYER-1
 10
3.125090
 20
6.684110
 30
0.000000
  0
VERTEX
  8
LAYER-1
 10
3.125090
 20
6.497453
 30
0.000000
  0
SEQEND
  8
LAYER-1
  0
POLYLINE
  8
LAYER-1
 66
  1
 70
  0
 62
  0
 10
3.171492
 20
6.684110
 30
0.000000
  0
VERTEX
  8
LAYER-1
 10
3.171492
 20
6.684110
 30
0.000000
  0
VERTEX
  8
LAYER-1
 10
3.171492
 20
6.497453
 30
0.000000
  0
SEQEND
  8
LAYER-1
  0
POLYLINE
  8
LAYER-1
 66
  1
 70
  0
 62
  0
 10
3.125089
 20
6.497453
 30
0.000000
  0
VERTEX
  8
LAYER-1
 10
3.125089
 20
6.497453
 30
0.000000
  0
VERTEX
  8
LAYER-1
 10
3.129917
 20
6.483017
 30
0.000000
  0
VERTEX
  8
LAYER-1
 10
3.146321
 20
6.476222
 30
0.000000
  0
VERTEX
  8
LAYER-1
 10
3.162726
 20
6.483017
 30
0.000000
  0
VERTEX
  8
LAYER-1
 10
3.171491
 20
6.497453
 30
0.000000
  0
SEQEND
  8
LAYER-1
  0
POLYLINE
  8
LAYER-1
 66
  1
 70
  1
 62
  0
  0
VERTEX
  8
LAYER-1
 10
3.202634
 20
6.540162
 30
0.000000
  0
VERTEX
  8
LAYER-1
 10
3.256353
 20
6.540162
 30
0.000000
  0
VERTEX
  8
LAYER-1
 10
3.256353
 20
6.257538
 30
0.000000
  0
VERTEX
  8
LAYER-1
 10
3.202634
 20
6.257538
 30
0.000000
  0
SEQEND
  8
LAYER-1
  0
POLYLINE
  8
LAYER-1
 66
  1
 70
  0
 62
  0
 10
4.209051
 20
6.801638
 30
0.000000
  0
VERTEX
  8
LAYER-1
 10
4.209051
 20
6.801638
 30
0.000000
  0
VERTEX
  8
LAYER-1
 10
4.040322
 20
6.801638
 30
0.000000
  0
SEQEND
  8
LAYER-1
  0
POLYLINE
  8
LAYER-1
 66
  1
 70
  0
 62
  0
 10
4.209051
 20
6.457852
 30
0.000000
  0
VERTEX
  8
LAYER-1
 10
4.209051
 20
6.457852
 30
0.000000
  0
VERTEX
  8
LAYER-1
 10
4.044540
 20
6.457852
 30
0.000000
  0
SEQEND
  8
LAYER-1
  0
POLYLINE
  8
LAYER-1
 66
  1
 70
  0
 62
  0
 10
4.086722
 20
6.801638
 30
0.000000
  0
VERTEX
  8
LAYER-1
 10
4.086722
 20
6.801638
 30
0.000000
  0
VERTEX
  8
LAYER-1
 10
4.086722
 20
6.457852
 30
0.000000
  0
SEQEND
  8
LAYER-1
  0
LINE
  8
LAYER-1
 62
  0
 10
4.116185
 20
6.772175
 30
0.000000
 11
4.057259
 21
6.831100
 31
0.000000
  0
LINE
  8
LAYER-1
 62
  0
 10
4.116185
 20
6.428389
 30
0.000000
 11
4.057259
 21
6.487314
 31
0.000000
  0
TEXT
  8
LAYER-1
 62
  0
 10
4.217820
 20
6.571381
 30
0.000000
 40
0.104167
  1
1-9/16"  -  40mm
 72
  5
 11
5.356709
 21
6.571381
 31
0.000000
  0
POLYLINE
  8
LAYER-1
 66
  1
 70
  0
 62
  0
 10
3.088911
 20
6.271453
 30
0.000000
  0
VERTEX
  8
LAYER-1
 10
3.088911
 20
6.271453
 30
0.000000
  0
VERTEX
  8
LAYER-1
 10
3.088911
 20
6.052100
 30
0.000000
  0
SEQEND
  8
LAYER-1
  0
POLYLINE
  8
LAYER-1
 66
  1
 70
  0
 62
  0
 10
3.376541
 20
6.262772
 30
0.000000
  0
VERTEX
  8
LAYER-1
 10
3.376541
 20
6.262772
 30
0.000000
  0
VERTEX
  8
LAYER-1
 10
3.376541
 20
6.048904
 30
0.000000
  0
SEQEND
  8
LAYER-1
  0
POLYLINE
  8
LAYER-1
 66
  1
 70
  0
 62
  0
 10
3.090278
 20
6.115867
 30
0.000000
  0
VERTEX
  8
LAYER-1
 10
3.090278
 20
6.115867
 30
0.000000
  0
VERTEX
  8
LAYER-1
 10
3.376740
 20
6.115867
 30
0.000000
  0
SEQEND
  8
LAYER-1
  0
LINE
  8
LAYER-1
 62
  0
 10
3.119741
 20
6.145330
 30
0.000000
 11
3.060815
 21
6.086404
 31
0.000000
  0
LINE
  8
LAYER-1
 62
  0
 10
3.406203
 20
6.145330
 30
0.000000
 11
3.347278
 21
6.086404
 31
0.000000
  0
TEXT
  8
LAYER-1
 62
  0
 10
2.648375
 20
5.863047
 30
0.000000
 40
0.104167
  1
1-5/16"  -  33mm
 72
  5
 11
3.787264
 21
5.863047
 31
0.000000
  0
TEXT
  8
LAYER-1
 62
  7
 10
1.565042
 20
8.738047
 30
0.000000
 40
0.187500
  1
Coupe verticale
 72
  5
 11
3.495598
 21
8.738047
 31
0.000000
  0
POLYLINE
  8
LAYER-1
 66
  1
 70
  1
 62
  0
  0
VERTEX
  8
LAYER-1
 10
2.446244
 20
6.915355
 30
0.000000
  0
VERTEX
  8
LAYER-1
 10
4.028927
 20
6.915355
 30
0.000000
  0
VERTEX
  8
LAYER-1
 10
4.028927
 20
6.797245
 30
0.000000
  0
VERTEX
  8
LAYER-1
 10
2.446244
 20
6.797245
 30
0.000000
  0
SEQEND
  8
LAYER-1
  0
POLYLINE
  8
LAYER-1
 66
  1
 70
  0
 62
  0
 10
2.594317
 20
3.748450
 30
0.000000
  0
VERTEX
  8
LAYER-1
 10
2.594317
 20
3.748450
 30
0.000000
  0
VERTEX
  8
LAYER-1
 10
2.594317
 20
2.259261
 30
0.000000
  0
SEQEND
  8
LAYER-1
  0
POLYLINE
  8
LAYER-1
 66
  1
 70
  0
 62
  0
 10
3.876662
 20
3.748450
 30
0.000000
  0
VERTEX
  8
LAYER-1
 10
3.876662
 20
3.748450
 30
0.000000
  0
VERTEX
  8
LAYER-1
 10
3.876662
 20
2.259261
 30
0.000000
  0
SEQEND
  8
LAYER-1
  0
POLYLINE
  8
LAYER-1
 66
  1
 70
  0
 62
  0
 10
2.594317
 20
0.894756
 30
0.000000
  0
VERTEX
  8
LAYER-1
 10
2.594317
 20
0.894756
 30
0.000000
  0
VERTEX
  8
LAYER-1
 10
2.594317
 20
2.174896
 30
0.000000
  0
SEQEND
  8
LAYER-1
  0
POLYLINE
  8
LAYER-1
 66
  1
 70
  0
 62
  0
 10
3.876662
 20
0.894756
 30
0.000000
  0
VERTEX
  8
LAYER-1
 10
3.876662
 20
0.894756
 30
0.000000
  0
VERTEX
  8
LAYER-1
 10
3.876662
 20
2.174896
 30
0.000000
  0
SEQEND
  8
LAYER-1
  0
TEXT
  8
LAYER-1
 62
  0
 10
3.440042
 20
7.585270
 30
0.000000
 40
0.062500
  1
2
 72
  5
 11
3.551153
 21
7.585270
 31
0.000000
  0
TEXT
  8
LAYER-1
 62
  0
 10
3.940042
 20
7.585270
 30
0.000000
 40
0.062500
  1
2
 72
  5
 11
4.051153
 21
7.585270
 31
0.000000
  0
TEXT
  8
LAYER-1
 62
  0
 10
2.287264
 20
7.793603
 30
0.000000
 40
0.104167
  1
SUPPORT DE BOIS FAIT PAR
 72
  5
 11
4.342820
 21
7.793603
 31
0.000000
  0
TEXT
  8
LAYER-1
 62
  0
 10
2.287264
 20
7.640825
 30
0.000000
 40
0.104167
  1
L'ENTREPRENEUR GƒNƒRAL POUR UN
 72
  5
 11
5.023375
 21
7.640825
 31
0.000000
  0
TEXT
  8
LAYER-1
 62
  0
 10
2.287264
 20
7.488047
 30
0.000000
 40
0.104167
  1
POIDS DE 15 kg/m  (3 lb/pi
 72
  5
 11
4.106709
 21
7.488047
 31
0.000000
  0
TEXT
  8
LAYER-1
 62
  0
 10
4.106709
 20
7.488047
 30
0.000000
 40
0.062500
  1
  
 72
  5
 11
4.231709
 21
7.488047
 31
0.000000
  0
TEXT
  8
LAYER-1
 62
  0
 10
4.231709
 20
7.488047
 30
0.000000
 40
0.104167
  1
) DE GRILLE
 72
  5
 11
5.134487
 21
7.488047
 31
0.000000
  0
POLYLINE
  8
LAYER-1
 66
  1
 70
  0
 62
  0
 10
2.176153
 20
0.404260
 30
0.000000
  0
VERTEX
  8
LAYER-1
 10
2.176153
 20
0.404260
 30
0.000000
  0
VERTEX
  8
LAYER-1
 10
3.141280
 20
0.404260
 30
0.000000
  0
SEQEND
  8
LAYER-1
  0
POLYLINE
  8
LAYER-1
 66
  1
 70
  1
 62
  0
  0
VERTEX
  8
LAYER-1
 10
3.160965
 20
0.404260
 30
0.000000
  0
VERTEX
  8
LAYER-1
 10
3.091521
 20
0.362593
 30
0.000000
  0
VERTEX
  8
LAYER-1
 10
3.091520
 20
0.404260
 30
0.000000
  0
VERTEX
  8
LAYER-1
 10
3.091520
 20
0.445926
 30
0.000000
  0
VERTEX
  8
LAYER-1
 10
3.160965
 20
0.404260
 30
0.000000
  0
SEQEND
  8
LAYER-1
  0
POLYLINE
  8
LAYER-1
 66
  1
 70
  1
 62
  0
  0
VERTEX
  8
LAYER-1
 10
3.171492
 20
6.633491
 30
0.000000
  0
VERTEX
  8
LAYER-1
 10
3.289077
 20
6.633491
 30
0.000000
  0
VERTEX
  8
LAYER-1
 10
3.289077
 20
6.540163
 30
0.000000
  0
VERTEX
  8
LAYER-1
 10
3.171492
 20
6.540163
 30
0.000000
  0
SEQEND
  8
LAYER-1
  0
POLYLINE
  8
LAYER-1
 66
  1
 70
  1
 62
  0
  0
VERTEX
  8
LAYER-1
 10
3.175568
 20
4.125175
 30
0.000000
  0
VERTEX
  8
LAYER-1
 10
3.293152
 20
4.125175
 30
0.000000
  0
VERTEX
  8
LAYER-1
 10
3.293152
 20
4.031846
 30
0.000000
  0
VERTEX
  8
LAYER-1
 10
3.175568
 20
4.031846
 30
0.000000
  0
SEQEND
  8
LAYER-1
  0
TEXT
  8
LAYER-1
 62
  0
 10
4.287264
 20
6.960270
 30
0.000000
 40
0.072917
  1
MINIMUM
 72
  5
 11
4.801153
 21
6.960270
 31
0.000000
  0
TEXT
  8
LAYER-1
 62
  0
 10
4.287264
 20
4.001936
 30
0.000000
 40
0.072917
  1
ENCASTREMENT MAXIMUM
 72
  5
 11
5.690042
 21
4.001936
 31
0.000000
  0
POLYLINE
  8
LAYER-1
 66
  1
 70
  0
 62
  0
 10
3.192876
 20
0.411335
 30
0.000000
  0
VERTEX
  8
LAYER-1
 10
3.192876
 20
0.411335
 30
0.000000
  0
VERTEX
  8
LAYER-1
 10
3.194148
 20
0.397011
 30
0.000000
  0
VERTEX
  8
LAYER-1
 10
3.203377
 20
0.383200
 30
0.000000
  0
VERTEX
  8
LAYER-1
 10
3.217189
 20
0.373972
 30
0.000000
  0
VERTEX
  8
LAYER-1
 10
3.233480
 20
0.370730
 30
0.000000
  0
VERTEX
  8
LAYER-1
 10
3.249773
 20
0.373972
 30
0.000000
  0
VERTEX
  8
LAYER-1
 10
3.263584
 20
0.383200
 30
0.000000
  0
VERTEX
  8
LAYER-1
 10
3.272813
 20
0.397011
 30
0.000000
  0
VERTEX
  8
LAYER-1
 10
3.278022
 20
0.411335
 30
0.000000
  0
SEQEND
  8
LAYER-1
  0
POLYLINE
  8
LAYER-1
 66
  1
 70
  0
 62
  0
 10
3.192876
 20
0.411335
 30
0.000000
  0
VERTEX
  8
LAYER-1
 10
3.192876
 20
0.411335
 30
0.000000
  0
VERTEX
  8
LAYER-1
 10
3.192972
 20
0.894768
 30
0.000000
  0
SEQEND
  8
LAYER-1
  0
POLYLINE
  8
LAYER-1
 66
  1
 70
  0
 62
  0
 10
3.192972
 20
0.894768
 30
0.000000
  0
VERTEX
  8
LAYER-1
 10
3.192972
 20
0.894768
 30
0.000000
  0
VERTEX
  8
LAYER-1
 10
3.278011
 20
0.894768
 30
0.000000
  0
SEQEND
  8
LAYER-1
  0
POLYLINE
  8
LAYER-1
 66
  1
 70
  0
 62
  0
 10
3.278011
 20
0.894768
 30
0.000000
  0
VERTEX
  8
LAYER-1
 10
3.278011
 20
0.894768
 30
0.000000
  0
VERTEX
  8
LAYER-1
 10
3.278023
 20
0.411335
 30
0.000000
  0
SEQEND
  8
LAYER-1
  0
POLYLINE
  8
LAYER-1
 66
  1
 70
  1
 62
  0
  0
VERTEX
  8
LAYER-1
 10
0.106709
 20
4.626934
 30
0.000000
  0
VERTEX
  8
LAYER-1
 10
1.516431
 20
4.626934
 30
0.000000
  0
VERTEX
  8
LAYER-1
 10
1.516431
 20
3.446379
 30
0.000000
  0
VERTEX
  8
LAYER-1
 10
0.106709
 20
3.446379
 30
0.000000
  0
SEQEND
  8
LAYER-1
  0
POLYLINE
  8
LAYER-1
 66
  1
 70
  1
 62
  0
  0
VERTEX
  8
LAYER-1
 10
0.155320
 20
4.578323
 30
0.000000
  0
VERTEX
  8
LAYER-1
 10
1.460875
 20
4.578323
 30
0.000000
  0
VERTEX
  8
LAYER-1
 10
1.460875
 20
3.501934
 30
0.000000
  0
VERTEX
  8
LAYER-1
 10
0.155320
 20
3.501934
 30
0.000000
  0
SEQEND
  8
LAYER-1
  0
TEXT
  8
LAYER-1
 62
  0
 10
0.259487
 20
4.390825
 30
0.000000
 40
0.083333
  1
ESPACE LIBRE
 72
  5
 11
1.092820
 21
4.390825
 31
0.000000
  0
TEXT
  8
LAYER-1
 62
  0
 10
0.259487
 20
4.265825
 30
0.000000
 40
0.083333
  1
DE 
 72
  5
 11
0.509487
 21
4.265825
 31
0.000000
  0
TEXT
  8
LAYER-1
 62
  0
 10
0.509487
 20
4.265825
 30
0.000000
 40
0.062500
  1
+/-
 72
  5
 11
0.690042
 21
4.265825
 31
0.000000
  0
TEXT
  8
LAYER-1
 62
  0
 10
0.690042
 20
4.265825
 30
0.000000
 40
0.083333
  1
1/8" (3mm)
 72
  5
 11
1.301153
 21
4.265825
 31
0.000000
  0
TEXT
  8
LAYER-1
 62
  0
 10
0.259487
 20
4.140825
 30
0.000000
 40
0.083333
  1
DE CHAQUE
 72
  5
 11
0.981709
 21
4.140825
 31
0.000000
  0
TEXT
  8
LAYER-1
 62
  0
 10
0.259487
 20
4.015825
 30
0.000000
 40
0.083333
  1
CïTƒ DU RAIL
 72
  5
 11
1.092820
 21
4.015825
 31
0.000000
  0
TEXT
  8
LAYER-1
 62
  0
 10
0.203931
 20
3.821381
 30
0.000000
 40
0.083333
  1
NE PAS COINCER
 72
  5
 11
1.203931
 21
3.821381
 31
0.000000
  0
TEXT
  8
LAYER-1
 62
  0
 10
0.203931
 20
3.696381
 30
0.000000
 40
0.083333
  1
NI SCELLER LE FINI
 72
  5
 11
1.287264
 21
3.696381
 31
0.000000
  0
TEXT
  8
LAYER-1
 62
  0
 10
0.203931
 20
3.571381
 30
0.000000
 40
0.083333
  1
DE PLAFOND AU RAIL
 72
  5
 11
1.412264
 21
3.571381
 31
0.000000
  0
POLYLINE
  8
LAYER-1
 66
  1
 70
  0
 62
  0
 10
1.516431
 20
4.036658
 30
0.000000
  0
VERTEX
  8
LAYER-1
 10
1.516431
 20
4.036658
 30
0.000000
  0
VERTEX
  8
LAYER-1
 10
3.038471
 20
4.153211
 30
0.000000
  0
SEQEND
  8
LAYER-1
  0
POLYLINE
  8
LAYER-1
 66
  1
 70
  1
 62
  0
  0
VERTEX
  8
LAYER-1
 10
3.058098
 20
4.154714
 30
0.000000
  0
VERTEX
  8
LAYER-1
 10
2.992037
 20
4.107867
 30
0.000000
  0
VERTEX
  8
LAYER-1
 10
2.988856
 20
4.149412
 30
0.000000
  0
VERTEX
  8
LAYER-1
 10
2.985675
 20
4.190957
 30
0.000000
  0
VERTEX
  8
LAYER-1
 10
3.058098
 20
4.154714
 30
0.000000
  0
SEQEND
  8
LAYER-1
  0
ENDSEC
  0
EOF
