  0
SECTION
  2
HEADER
999
MacDraft 5.0\0
  9
$ACADVER
  1
AC1006
  9
$CLAYER
  8
LAYER-1
  9
$EXTMIN
 10
0.000000
 20
0.000000
  9
$EXTMAX
 10
7.250006
 20
10.129096
  9
$FASTZOOM
 70
0
  9
$FILLMODE
 70
1
  0
ENDSEC
  0
SECTION
  2
TABLES
  0
TABLE
  2
LTYPE
 70
16
  0
LTYPE
  2
CONTINUOUS
 70
64
  3
Solid Line
 72
65
 73
0
 40
0.000000
  0
LTYPE
  2
LTYPE01
 70
64
  3
CUSTOM
 72
65
 73
2
 40
0.111111
 49
0.083333
 49
-0.027778
  0
LTYPE
  2
LTYPE02
 70
64
  3
CUSTOM
 72
65
 73
2
 40
0.194444
 49
0.166667
 49
-0.027778
  0
LTYPE
  2
LTYPE03
 70
64
  3
CUSTOM
 72
65
 73
2
 40
0.375000
 49
0.333333
 49
-0.041667
  0
LTYPE
  2
LTYPE04
 70
64
  3
CUSTOM
 72
65
 73
2
 40
0.722222
 49
0.666667
 49
-0.055556
  0
LTYPE
  2
LTYPE05
 70
64
  3
CUSTOM
 72
65
 73
4
 40
0.152778
 49
0.083333
 49
-0.027778
 49
0.013889
 49
-0.027778
  0
LTYPE
  2
LTYPE06
 70
64
  3
CUSTOM
 72
65
 73
4
 40
0.236111
 49
0.166667
 49
-0.027778
 49
0.013889
 49
-0.027778
  0
LTYPE
  2
LTYPE07
 70
64
  3
CUSTOM
 72
65
 73
4
 40
0.444444
 49
0.333333
 49
-0.041667
 49
0.027778
 49
-0.041667
  0
LTYPE
  2
LTYPE08
 70
64
  3
CUSTOM
 72
65
 73
4
 40
0.805556
 49
0.666667
 49
-0.055556
 49
0.027778
 49
-0.055556
  0
LTYPE
  2
LTYPE09
 70
64
  3
CUSTOM
 72
65
 73
6
 40
0.194444
 49
0.083333
 49
-0.027778
 49
0.013889
 49
-0.027778
 49
0.013889
 49
-0.027778
  0
LTYPE
  2
LTYPE10
 70
64
  3
CUSTOM
 72
65
 73
6
 40
0.277778
 49
0.166667
 49
-0.027778
 49
0.013889
 49
-0.027778
 49
0.013889
 49
-0.027778
  0
LTYPE
  2
LTYPE11
 70
64
  3
CUSTOM
 72
65
 73
6
 40
0.500000
 49
0.333333
 49
-0.041667
 49
0.027778
 49
-0.027778
 49
0.027778
 49
-0.041667
  0
LTYPE
  2
LTYPE12
 70
64
  3
CUSTOM
 72
65
 73
6
 40
0.861111
 49
0.666667
 49
-0.055556
 49
0.027778
 49
-0.027778
 49
0.027778
 49
-0.055556
  0
LTYPE
  2
LTYPE13
 70
64
  3
CUSTOM
 72
65
 73
8
 40
0.319444
 49
0.166667
 49
-0.027778
 49
0.013889
 49
-0.027778
 49
0.013889
 49
-0.027778
 49
0.013889
 49
-0.027778
  0
LTYPE
  2
LTYPE14
 70
64
  3
CUSTOM
 72
65
 73
8
 40
0.555556
 49
0.333333
 49
-0.041667
 49
0.027778
 49
-0.027778
 49
0.027778
 49
-0.027778
 49
0.027778
 49
-0.041667
  0
LTYPE
  2
LTYPE15
 70
64
  3
CUSTOM
 72
65
 73
8
 40
0.944444
 49
0.666667
 49
-0.055556
 49
0.027778
 49
-0.041667
 49
0.027778
 49
-0.041667
 49
0.027778
 49
-0.055556
  0
ENDTAB
  0
TABLE
  2
LAYER
 70
1
  0
LAYER
  2
LAYER-1
 70
0
 62
7
  6
CONTINUOUS
  0
ENDTAB
  0
ENDSEC
  0
SECTION
  2
BLOCKS
  0
ENDSEC
  0
SECTION
  2
ENTITIES
  0
TEXT
  8
LAYER-1
 62
  0
 10
0.118057
 20
2.555553
 30
0.000000
 40
0.145833
  1
8" - 203mm 
 72
  5
 11
1.270834
 21
2.555553
 31
0.000000
  0
TEXT
  8
LAYER-1
 62
  0
 10
0.173612
 20
2.222220
 30
0.000000
 40
0.145833
  1
9" - 229mm
 72
  5
 11
1.270834
 21
2.222220
 31
0.000000
  0
TEXT
  8
LAYER-1
 62
  0
 10
0.034723
 20
1.888886
 30
0.000000
 40
0.145833
  1
10" - 254mm
 72
  5
 11
1.270834
 21
1.888886
 31
0.000000
  0
TEXT
  8
LAYER-1
 62
  0
 10
0.062501
 20
1.555553
 30
0.000000
 40
0.145833
  1
12" - 305mm
 72
  5
 11
1.270834
 21
1.555553
 31
0.000000
  0
ARC
  8
LAYER-1
 62
  0
 10
5.267622
 20
9.073254
 30
0.000000
 40
0.254425
 50
270.000000
 51
90.000000
  0
POLYLINE
  8
LAYER-1
 66
  1
 70
  0
 62
  0
 10
5.267622
 20
9.327679
 30
0.000000
  0
VERTEX
  8
LAYER-1
 10
5.267622
 20
9.327679
 30
0.000000
  0
VERTEX
  8
LAYER-1
 10
1.602700
 20
9.327679
 30
0.000000
  0
SEQEND
  8
LAYER-1
  0
POLYLINE
  8
LAYER-1
 66
  1
 70
  0
 62
  0
 10
1.602700
 20
9.327679
 30
0.000000
  0
VERTEX
  8
LAYER-1
 10
1.602700
 20
9.327679
 30
0.000000
  0
VERTEX
  8
LAYER-1
 10
1.602700
 20
8.818830
 30
0.000000
  0
SEQEND
  8
LAYER-1
  0
POLYLINE
  8
LAYER-1
 66
  1
 70
  0
 62
  0
 10
5.267622
 20
8.818830
 30
0.000000
  0
VERTEX
  8
LAYER-1
 10
5.267622
 20
8.818830
 30
0.000000
  0
VERTEX
  8
LAYER-1
 10
1.602700
 20
8.818830
 30
0.000000
  0
SEQEND
  8
LAYER-1
  0
TEXT
  8
LAYER-1
 62
  0
 10
3.409723
 20
9.597220
 30
0.000000
 40
0.333333
  1
MobilFlex
 72
  5
 11
5.562501
 21
9.597220
 31
0.000000
  0
POLYLINE
  8
LAYER-1
 66
  1
 70
  1
 62
  0
  0
VERTEX
  8
LAYER-1
 10
1.604203
 20
10.127430
 30
0.000000
  0
VERTEX
  8
LAYER-1
 10
1.842050
 20
10.127430
 30
0.000000
  0
VERTEX
  8
LAYER-1
 10
1.842050
 20
9.610485
 30
0.000000
  0
VERTEX
  8
LAYER-1
 10
1.604203
 20
9.610485
 30
0.000000
  0
SEQEND
  8
LAYER-1
  0
POLYLINE
  8
LAYER-1
 66
  1
 70
  1
 62
  0
  0
VERTEX
  8
LAYER-1
 10
1.916703
 20
10.127430
 30
0.000000
  0
VERTEX
  8
LAYER-1
 10
2.154550
 20
10.127430
 30
0.000000
  0
VERTEX
  8
LAYER-1
 10
2.154550
 20
9.610485
 30
0.000000
  0
VERTEX
  8
LAYER-1
 10
1.916703
 20
9.610485
 30
0.000000
  0
SEQEND
  8
LAYER-1
  0
POLYLINE
  8
LAYER-1
 66
  1
 70
  1
 62
  0
  0
VERTEX
  8
LAYER-1
 10
2.217050
 20
10.127430
 30
0.000000
  0
VERTEX
  8
LAYER-1
 10
2.454898
 20
10.127430
 30
0.000000
  0
VERTEX
  8
LAYER-1
 10
2.454898
 20
9.610485
 30
0.000000
  0
VERTEX
  8
LAYER-1
 10
2.217050
 20
9.610485
 30
0.000000
  0
SEQEND
  8
LAYER-1
  0
POLYLINE
  8
LAYER-1
 66
  1
 70
  1
 62
  0
  0
VERTEX
  8
LAYER-1
 10
2.520870
 20
10.127430
 30
0.000000
  0
VERTEX
  8
LAYER-1
 10
2.758717
 20
10.127430
 30
0.000000
  0
VERTEX
  8
LAYER-1
 10
2.758717
 20
9.610485
 30
0.000000
  0
VERTEX
  8
LAYER-1
 10
2.520870
 20
9.610485
 30
0.000000
  0
SEQEND
  8
LAYER-1
  0
POLYLINE
  8
LAYER-1
 66
  1
 70
  1
 62
  0
  0
VERTEX
  8
LAYER-1
 10
2.837710
 20
10.123514
 30
0.000000
  0
VERTEX
  8
LAYER-1
 10
3.213144
 20
10.123514
 30
0.000000
  0
VERTEX
  8
LAYER-1
 10
3.213144
 20
9.985493
 30
0.000000
  0
VERTEX
  8
LAYER-1
 10
2.837710
 20
9.985493
 30
0.000000
  0
SEQEND
  8
LAYER-1
  0
POLYLINE
  8
LAYER-1
 66
  1
 70
  1
 62
  0
  0
VERTEX
  8
LAYER-1
 10
2.837276
 20
9.896083
 30
0.000000
  0
VERTEX
  8
LAYER-1
 10
3.145436
 20
9.896083
 30
0.000000
  0
VERTEX
  8
LAYER-1
 10
3.145436
 20
9.761969
 30
0.000000
  0
VERTEX
  8
LAYER-1
 10
2.837276
 20
9.761969
 30
0.000000
  0
SEQEND
  8
LAYER-1
  0
POLYLINE
  8
LAYER-1
 66
  1
 70
  1
 62
  0
  0
VERTEX
  8
LAYER-1
 10
1.604203
 20
9.525858
 30
0.000000
  0
VERTEX
  8
LAYER-1
 10
5.522607
 20
9.525858
 30
0.000000
  0
VERTEX
  8
LAYER-1
 10
5.522607
 20
9.482455
 30
0.000000
  0
VERTEX
  8
LAYER-1
 10
1.604203
 20
9.482455
 30
0.000000
  0
SEQEND
  8
LAYER-1
  0
TEXT
  8
LAYER-1
 62
  7
 10
1.909723
 20
8.958331
 30
0.000000
 40
0.187500
  1
DÄtails de la niche
 72
  5
 11
4.159723
 21
8.958331
 31
0.000000
  0
POLYLINE
  8
LAYER-1
 66
  1
 70
  0
 62
  0
 10
0.076389
 20
3.687493
 30
0.000000
  0
VERTEX
  8
LAYER-1
 10
0.076389
 20
3.687493
 30
0.000000
  0
VERTEX
  8
LAYER-1
 10
3.854175
 20
3.687493
 30
0.000000
  0
SEQEND
  8
LAYER-1
  0
POLYLINE
  8
LAYER-1
 66
  1
 70
  0
 62
  0
 10
3.854175
 20
3.687493
 30
0.000000
  0
VERTEX
  8
LAYER-1
 10
3.854175
 20
3.687493
 30
0.000000
  0
VERTEX
  8
LAYER-1
 10
3.854175
 20
1.430549
 30
0.000000
  0
SEQEND
  8
LAYER-1
  0
POLYLINE
  8
LAYER-1
 66
  1
 70
  0
 62
  0
 10
3.854175
 20
1.430549
 30
0.000000
  0
VERTEX
  8
LAYER-1
 10
3.854175
 20
1.430549
 30
0.000000
  0
VERTEX
  8
LAYER-1
 10
0.076389
 20
1.430549
 30
0.000000
  0
SEQEND
  8
LAYER-1
  0
POLYLINE
  8
LAYER-1
 66
  1
 70
  0
 62
  0
 10
0.076389
 20
1.430549
 30
0.000000
  0
VERTEX
  8
LAYER-1
 10
0.076389
 20
1.430549
 30
0.000000
  0
VERTEX
  8
LAYER-1
 10
0.076389
 20
3.687493
 30
0.000000
  0
SEQEND
  8
LAYER-1
  0
TEXT
  8
LAYER-1
 62
  0
 10
2.576390
 20
2.555553
 30
0.000000
 40
0.145833
  1
14" - 356mm
 72
  5
 11
3.784723
 21
2.555553
 31
0.000000
  0
TEXT
  8
LAYER-1
 62
  0
 10
2.576390
 20
2.222220
 30
0.000000
 40
0.145833
  1
11" - 279mm
 72
  5
 11
3.784723
 21
2.222220
 31
0.000000
  0
TEXT
  8
LAYER-1
 62
  0
 10
2.576390
 20
1.888886
 30
0.000000
 40
0.145833
  1
10" - 254mm
 72
  5
 11
3.784723
 21
1.888886
 31
0.000000
  0
TEXT
  8
LAYER-1
 62
  0
 10
2.687501
 20
1.555553
 30
0.000000
 40
0.145833
  1
9" - 229mm
 72
  5
 11
3.784723
 21
1.555553
 31
0.000000
  0
TEXT
  8
LAYER-1
 62
  0
 10
4.618057
 20
3.374997
 30
0.000000
 40
0.187500
  1
P 
 72
  5
 11
4.923612
 21
3.374997
 31
0.000000
  0
TEXT
  8
LAYER-1
 62
  0
 10
4.923612
 20
3.374997
 30
0.000000
 40
0.145833
  1
(entassement minimun) =
 72
  5
 11
7.243057
 21
3.374997
 31
0.000000
  0
TEXT
  8
LAYER-1
 62
  0
 10
7.243057
 20
3.374997
 30
0.000000
 40
0.187500
  1
 
 72
  5
 11
7.381946
 21
3.374997
 31
0.000000
  0
TEXT
  8
LAYER-1
 62
  0
 10
4.618057
 20
2.902775
 30
0.000000
 40
0.145833
  1
1,15" par pied linÄaire
 72
  5
 11
6.618057
 21
2.902775
 31
0.000000
  0
TEXT
  8
LAYER-1
 62
  0
 10
4.618057
 20
2.680553
 30
0.000000
 40
0.145833
  1
+ 3" par poteau
 72
  5
 11
6.048612
 21
2.680553
 31
0.000000
  0
TEXT
  8
LAYER-1
 62
  0
 10
4.618057
 20
2.236109
 30
0.000000
 40
0.145833
  1
ou
 72
  5
 11
4.909723
 21
2.236109
 31
0.000000
  0
TEXT
  8
LAYER-1
 62
  0
 10
4.618057
 20
1.791664
 30
0.000000
 40
0.145833
  1
95mm par mÅtre linÄaire
 72
  5
 11
6.854168
 21
1.791664
 31
0.000000
  0
TEXT
  8
LAYER-1
 62
  0
 10
4.618057
 20
1.569442
 30
0.000000
 40
0.145833
  1
+ 76mm par poteau
 72
  5
 11
6.423612
 21
1.569442
 31
0.000000
  0
TEXT
  8
LAYER-1
 62
  0
 10
2.951390
 20
3.458331
 30
0.000000
 40
0.125000
  1
Rayon
 72
  5
 11
3.506946
 21
3.458331
 31
0.000000
  0
TEXT
  8
LAYER-1
 62
  0
 10
2.631946
 20
3.249997
 30
0.000000
 40
0.145833
  1
10" - 254mm
 72
  5
 11
3.840279
 21
3.249997
 31
0.000000
  0
TEXT
  8
LAYER-1
 62
  0
 10
1.368057
 20
2.555553
 30
0.000000
 40
0.145833
  1
18" - 457mm
 72
  5
 11
2.576390
 21
2.555553
 31
0.000000
  0
TEXT
  8
LAYER-1
 62
  0
 10
1.368057
 20
2.222220
 30
0.000000
 40
0.145833
  1
14" - 356mm
 72
  5
 11
2.576390
 21
2.222220
 31
0.000000
  0
TEXT
  8
LAYER-1
 62
  0
 10
1.354168
 20
1.888886
 30
0.000000
 40
0.145833
  1
12" - 305mm
 72
  5
 11
2.590279
 21
1.888886
 31
0.000000
  0
TEXT
  8
LAYER-1
 62
  0
 10
1.340279
 20
1.555553
 30
0.000000
 40
0.145833
  1
11" - 279mm 
 72
  5
 11
2.604168
 21
1.555553
 31
0.000000
  0
POLYLINE
  8
LAYER-1
 66
  1
 70
  0
 62
  0
 10
0.076389
 20
3.173604
 30
0.000000
  0
VERTEX
  8
LAYER-1
 10
0.076389
 20
3.173604
 30
0.000000
  0
VERTEX
  8
LAYER-1
 10
3.854175
 20
3.173604
 30
0.000000
  0
SEQEND
  8
LAYER-1
  0
POLYLINE
  8
LAYER-1
 66
  1
 70
  0
 62
  0
 10
3.854175
 20
2.812493
 30
0.000000
  0
VERTEX
  8
LAYER-1
 10
3.854175
 20
2.812493
 30
0.000000
  0
VERTEX
  8
LAYER-1
 10
0.076389
 20
2.812493
 30
0.000000
  0
SEQEND
  8
LAYER-1
  0
TEXT
  8
LAYER-1
 62
  0
 10
1.687501
 20
3.458331
 30
0.000000
 40
0.125000
  1
Rayon
 72
  5
 11
2.284723
 21
3.458331
 31
0.000000
  0
TEXT
  8
LAYER-1
 62
  0
 10
1.368057
 20
3.249997
 30
0.000000
 40
0.145833
  1
14" - 356mm
 72
  5
 11
2.604168
 21
3.249997
 31
0.000000
  0
POLYLINE
  8
LAYER-1
 66
  1
 70
  0
 62
  0
 10
1.361111
 20
3.687493
 30
0.000000
  0
VERTEX
  8
LAYER-1
 10
1.361111
 20
3.687493
 30
0.000000
  0
VERTEX
  8
LAYER-1
 10
1.361111
 20
1.430549
 30
0.000000
  0
SEQEND
  8
LAYER-1
  0
POLYLINE
  8
LAYER-1
 66
  1
 70
  0
 62
  0
 10
2.611114
 20
3.687493
 30
0.000000
  0
VERTEX
  8
LAYER-1
 10
2.611114
 20
3.687493
 30
0.000000
  0
VERTEX
  8
LAYER-1
 10
2.611114
 20
1.430549
 30
0.000000
  0
SEQEND
  8
LAYER-1
  0
TEXT
  8
LAYER-1
 62
  0
 10
1.854168
 20
2.916664
 30
0.000000
 40
0.187500
  1
B
 72
  5
 11
2.090279
 21
2.916664
 31
0.000000
  0
TEXT
  8
LAYER-1
 62
  0
 10
3.118057
 20
2.916664
 30
0.000000
 40
0.187500
  1
B
 72
  5
 11
3.354168
 21
2.916664
 31
0.000000
  0
TEXT
  8
LAYER-1
 62
  0
 10
0.604168
 20
2.916664
 30
0.000000
 40
0.187500
  1
A
 72
  5
 11
0.840279
 21
2.916664
 31
0.000000
  0
TEXT
  8
LAYER-1
 62
  0
 10
0.090279
 20
1.083331
 30
0.000000
 40
0.145833
  1
A
 72
  5
 11
0.298612
 21
1.083331
 31
0.000000
  0
TEXT
  8
LAYER-1
 62
  0
 10
0.298612
 20
1.083331
 30
0.000000
 40
0.125000
  1
:
 72
  5
 11
0.409723
 21
1.083331
 31
0.000000
  0
TEXT
  8
LAYER-1
 62
  0
 10
0.409723
 20
1.083331
 30
0.000000
 40
0.125000
  1
 Dimension intÄrieure de la niche
 72
  5
 11
3.006946
 21
1.083331
 31
0.000000
  0
TEXT
  8
LAYER-1
 62
  0
 10
0.090279
 20
0.888886
 30
0.000000
 40
0.125000
  1
Une niche de 10" - 254mm de large est
 72
  5
 11
3.145834
 21
0.888886
 31
0.000000
  0
TEXT
  8
LAYER-1
 62
  0
 10
0.090279
 20
0.694442
 30
0.000000
 40
0.125000
  1
recommandÄe avec un rayon standard de
 72
  5
 11
3.326390
 21
0.694442
 31
0.000000
  0
TEXT
  8
LAYER-1
 62
  0
 10
0.090279
 20
0.499997
 30
0.000000
 40
0.125000
  1
14" - 356mm et l'ouverture B ê 12" - 305mm.
 72
  5
 11
3.506946
 21
0.499997
 31
0.000000
  0
TEXT
  8
LAYER-1
 62
  0
 10
0.090279
 20
0.083331
 30
0.000000
 40
0.145833
  1
B
 72
  5
 11
0.298612
 21
0.083331
 31
0.000000
  0
TEXT
  8
LAYER-1
 62
  0
 10
0.298612
 20
0.083331
 30
0.000000
 40
0.125000
  1
:
 72
  5
 11
0.409723
 21
0.083331
 31
0.000000
  0
TEXT
  8
LAYER-1
 62
  0
 10
0.409723
 20
0.083331
 30
0.000000
 40
0.125000
  1
 Ouverture libre ê l'entrÄe de la niche
 72
  5
 11
3.243057
 21
0.083331
 31
0.000000
  0
TEXT
  8
LAYER-1
 62
  0
 10
4.437501
 20
1.097220
 30
0.000000
 40
0.125000
  1
DÄgagement min de 4" - 102mm
 72
  5
 11
7.006946
 21
1.097220
 31
0.000000
  0
TEXT
  8
LAYER-1
 62
  0
 10
4.437501
 20
0.902775
 30
0.000000
 40
0.125000
  1
est requis de chaque cÖtÄ du rail.
 72
  5
 11
7.034723
 21
0.902775
 31
0.000000
  0
TEXT
  8
LAYER-1
 62
  2
 10
4.437501
 20
0.708331
 30
0.000000
 40
0.125000
  1
Une porte de niche doit dÄgager
 72
  5
 11
6.951390
 21
0.708331
 31
0.000000
  0
TEXT
  8
LAYER-1
 62
  2
 10
4.437501
 20
0.513886
 30
0.000000
 40
0.125000
  1
complÅtement l'entrÄe de la niche.
 72
  5
 11
7.118057
 21
0.513886
 31
0.000000
  0
POLYLINE
  8
LAYER-1
 66
  1
 70
  1
 62
  0
  0
VERTEX
  8
LAYER-1
 10
1.356494
 20
4.417141
 30
0.000000
  0
VERTEX
  8
LAYER-1
 10
1.404437
 20
4.417141
 30
0.000000
  0
VERTEX
  8
LAYER-1
 10
1.404437
 20
4.127751
 30
0.000000
  0
VERTEX
  8
LAYER-1
 10
1.356494
 20
4.127751
 30
0.000000
  0
SEQEND
  8
LAYER-1
  0
POLYLINE
  8
LAYER-1
 66
  1
 70
  1
 62
  0
 10
1.645421
 20
5.610353
 30
0.000000
  0
VERTEX
  8
LAYER-1
 10
1.645421
 20
5.610353
 30
0.000000
  0
VERTEX
  8
LAYER-1
 10
1.596066
 20
5.610254
 30
0.000000
  0
VERTEX
  8
LAYER-1
 10
1.596066
 20
7.635863
 30
0.000000
  0
VERTEX
  8
LAYER-1
 10
2.637869
 20
7.635863
 30
0.000000
  0
VERTEX
  8
LAYER-1
 10
2.637869
 20
4.366632
 30
0.000000
  0
VERTEX
  8
LAYER-1
 10
1.405019
 20
4.366632
 30
0.000000
  0
VERTEX
  8
LAYER-1
 10
1.404437
 20
4.417141
 30
0.000000
  0
VERTEX
  8
LAYER-1
 10
2.590797
 20
4.416766
 30
0.000000
  0
VERTEX
  8
LAYER-1
 10
2.590797
 20
7.586925
 30
0.000000
  0
VERTEX
  8
LAYER-1
 10
1.645421
 20
7.586925
 30
0.000000
  0
SEQEND
  8
LAYER-1
  0
POLYLINE
  8
LAYER-1
 66
  1
 70
  1
 62
  0
 10
1.403213
 20
5.610254
 30
0.000000
  0
VERTEX
  8
LAYER-1
 10
1.403213
 20
5.610254
 30
0.000000
  0
VERTEX
  8
LAYER-1
 10
1.355929
 20
5.610353
 30
0.000000
  0
VERTEX
  8
LAYER-1
 10
1.356142
 20
7.876205
 30
0.000000
  0
VERTEX
  8
LAYER-1
 10
2.880076
 20
7.876205
 30
0.000000
  0
VERTEX
  8
LAYER-1
 10
2.880076
 20
4.127751
 30
0.000000
  0
VERTEX
  8
LAYER-1
 10
1.404437
 20
4.127751
 30
0.000000
  0
VERTEX
  8
LAYER-1
 10
1.405019
 20
4.175308
 30
0.000000
  0
VERTEX
  8
LAYER-1
 10
2.830722
 20
4.175308
 30
0.000000
  0
VERTEX
  8
LAYER-1
 10
2.830722
 20
7.828717
 30
0.000000
  0
VERTEX
  8
LAYER-1
 10
1.403213
 20
7.828717
 30
0.000000
  0
SEQEND
  8
LAYER-1
  0
POLYLINE
  8
LAYER-1
 66
  1
 70
  1
 62
  0
 10
5.105443
 20
5.196103
 30
0.000000
  0
VERTEX
  8
LAYER-1
 10
5.105443
 20
5.196103
 30
0.000000
  0
VERTEX
  8
LAYER-1
 10
5.105443
 20
7.301956
 30
0.000000
  0
VERTEX
  8
LAYER-1
 10
5.964452
 20
7.301956
 30
0.000000
  0
VERTEX
  8
LAYER-1
 10
5.964452
 20
5.196022
 30
0.000000
  0
VERTEX
  8
LAYER-1
 10
5.916998
 20
5.196004
 30
0.000000
  0
VERTEX
  8
LAYER-1
 10
5.917379
 20
7.253018
 30
0.000000
  0
VERTEX
  8
LAYER-1
 10
5.154798
 20
7.253018
 30
0.000000
  0
VERTEX
  8
LAYER-1
 10
5.154989
 20
5.196103
 30
0.000000
  0
SEQEND
  8
LAYER-1
  0
POLYLINE
  8
LAYER-1
 66
  1
 70
  0
 62
  0
 10
5.918321
 20
7.584429
 30
0.000000
  0
VERTEX
  8
LAYER-1
 10
5.918321
 20
7.584429
 30
0.000000
  0
VERTEX
  8
LAYER-1
 10
5.916760
 20
7.852379
 30
0.000000
  0
SEQEND
  8
LAYER-1
  0
POLYLINE
  8
LAYER-1
 66
  1
 70
  0
 62
  0
 10
5.153857
 20
7.579724
 30
0.000000
  0
VERTEX
  8
LAYER-1
 10
5.153857
 20
7.579724
 30
0.000000
  0
VERTEX
  8
LAYER-1
 10
5.152870
 20
7.852379
 30
0.000000
  0
SEQEND
  8
LAYER-1
  0
POLYLINE
  8
LAYER-1
  6
LTYPE06
 66
  1
 70
  0
 62
  0
  6
LTYPE06
 10
5.542092
 20
4.638555
 30
0.000000
  0
VERTEX
  8
LAYER-1
  6
LTYPE06
 10
5.542092
 20
4.638555
 30
0.000000
  0
VERTEX
  8
LAYER-1
  6
LTYPE06
 10
5.540070
 20
7.252509
 30
0.000000
  0
SEQEND
  8
LAYER-1
  0
POLYLINE
  8
LAYER-1
 66
  1
 70
  0
 62
  0
 10
5.918321
 20
7.787853
 30
0.000000
  0
VERTEX
  8
LAYER-1
 10
5.918321
 20
7.787853
 30
0.000000
  0
VERTEX
  8
LAYER-1
 10
5.153858
 20
7.787853
 30
0.000000
  0
SEQEND
  8
LAYER-1
  0
LINE
  8
LAYER-1
 62
  0
 10
5.888858
 20
7.758390
 30
0.000000
 11
5.947784
 21
7.817315
 31
0.000000
  0
LINE
  8
LAYER-1
 62
  0
 10
5.124395
 20
7.758390
 30
0.000000
 11
5.183321
 21
7.817315
 31
0.000000
  0
POLYLINE
  8
LAYER-1
 66
  1
 70
  0
 62
  0
 10
5.964452
 20
5.196022
 30
0.000000
  0
VERTEX
  8
LAYER-1
 10
5.964452
 20
5.196022
 30
0.000000
  0
VERTEX
  8
LAYER-1
 10
6.157305
 20
5.196022
 30
0.000000
  0
SEQEND
  8
LAYER-1
  0
POLYLINE
  8
LAYER-1
 66
  1
 70
  1
 62
  0
 10
6.133918
 20
5.197636
 30
0.000000
  0
VERTEX
  8
LAYER-1
 10
6.133918
 20
5.197636
 30
0.000000
  0
VERTEX
  8
LAYER-1
 10
6.127341
 20
5.204213
 30
0.000000
  0
VERTEX
  8
LAYER-1
 10
5.994312
 20
5.204213
 30
0.000000
  0
VERTEX
  8
LAYER-1
 10
5.987734
 20
5.197636
 30
0.000000
  0
VERTEX
  8
LAYER-1
 10
5.965313
 20
5.197636
 30
0.000000
  0
VERTEX
  8
LAYER-1
 10
5.965313
 20
5.293298
 30
0.000000
  0
VERTEX
  8
LAYER-1
 10
5.987734
 20
5.293298
 30
0.000000
  0
VERTEX
  8
LAYER-1
 10
5.987734
 20
5.286721
 30
0.000000
  0
VERTEX
  8
LAYER-1
 10
5.971890
 20
5.286721
 30
0.000000
  0
VERTEX
  8
LAYER-1
 10
5.971890
 20
5.204213
 30
0.000000
  0
VERTEX
  8
LAYER-1
 10
5.984744
 20
5.204213
 30
0.000000
  0
VERTEX
  8
LAYER-1
 10
5.991621
 20
5.211088
 30
0.000000
  0
VERTEX
  8
LAYER-1
 10
6.129733
 20
5.211088
 30
0.000000
  0
VERTEX
  8
LAYER-1
 10
6.136609
 20
5.204213
 30
0.000000
  0
VERTEX
  8
LAYER-1
 10
6.150061
 20
5.204213
 30
0.000000
  0
VERTEX
  8
LAYER-1
 10
6.150061
 20
5.286721
 30
0.000000
  0
VERTEX
  8
LAYER-1
 10
6.133918
 20
5.286721
 30
0.000000
  0
VERTEX
  8
LAYER-1
 10
6.133918
 20
5.293298
 30
0.000000
  0
VERTEX
  8
LAYER-1
 10
6.156637
 20
5.293298
 30
0.000000
  0
VERTEX
  8
LAYER-1
 10
6.156637
 20
5.197636
 30
0.000000
  0
SEQEND
  8
LAYER-1
  0
POLYLINE
  8
LAYER-1
 66
  1
 70
  1
 62
  0
 10
5.987935
 20
7.297085
 30
0.000000
  0
VERTEX
  8
LAYER-1
 10
5.987935
 20
7.297085
 30
0.000000
  0
VERTEX
  8
LAYER-1
 10
5.994513
 20
7.290507
 30
0.000000
  0
VERTEX
  8
LAYER-1
 10
6.127541
 20
7.290507
 30
0.000000
  0
VERTEX
  8
LAYER-1
 10
6.134119
 20
7.297084
 30
0.000000
  0
VERTEX
  8
LAYER-1
 10
6.156540
 20
7.297084
 30
0.000000
  0
VERTEX
  8
LAYER-1
 10
6.156540
 20
7.201423
 30
0.000000
  0
VERTEX
  8
LAYER-1
 10
6.134119
 20
7.201423
 30
0.000000
  0
VERTEX
  8
LAYER-1
 10
6.134119
 20
7.207999
 30
0.000000
  0
VERTEX
  8
LAYER-1
 10
6.149963
 20
7.207999
 30
0.000000
  0
VERTEX
  8
LAYER-1
 10
6.149963
 20
7.290507
 30
0.000000
  0
VERTEX
  8
LAYER-1
 10
6.137108
 20
7.290508
 30
0.000000
  0
VERTEX
  8
LAYER-1
 10
6.130233
 20
7.283632
 30
0.000000
  0
VERTEX
  8
LAYER-1
 10
5.992121
 20
7.283632
 30
0.000000
  0
VERTEX
  8
LAYER-1
 10
5.985245
 20
7.290508
 30
0.000000
  0
VERTEX
  8
LAYER-1
 10
5.971792
 20
7.290507
 30
0.000000
  0
VERTEX
  8
LAYER-1
 10
5.971792
 20
7.207999
 30
0.000000
  0
VERTEX
  8
LAYER-1
 10
5.987935
 20
7.207999
 30
0.000000
  0
VERTEX
  8
LAYER-1
 10
5.987935
 20
7.201423
 30
0.000000
  0
VERTEX
  8
LAYER-1
 10
5.965216
 20
7.201423
 30
0.000000
  0
VERTEX
  8
LAYER-1
 10
5.965216
 20
7.297085
 30
0.000000
  0
SEQEND
  8
LAYER-1
  0
POLYLINE
  8
LAYER-1
 66
  1
 70
  1
 62
  0
 10
5.988033
 20
6.292766
 30
0.000000
  0
VERTEX
  8
LAYER-1
 10
5.988033
 20
6.292766
 30
0.000000
  0
VERTEX
  8
LAYER-1
 10
5.994611
 20
6.286189
 30
0.000000
  0
VERTEX
  8
LAYER-1
 10
6.127640
 20
6.286189
 30
0.000000
  0
VERTEX
  8
LAYER-1
 10
6.134217
 20
6.292766
 30
0.000000
  0
VERTEX
  8
LAYER-1
 10
6.156639
 20
6.292766
 30
0.000000
  0
VERTEX
  8
LAYER-1
 10
6.156639
 20
6.197105
 30
0.000000
  0
VERTEX
  8
LAYER-1
 10
6.134217
 20
6.197105
 30
0.000000
  0
VERTEX
  8
LAYER-1
 10
6.134217
 20
6.203682
 30
0.000000
  0
VERTEX
  8
LAYER-1
 10
6.150061
 20
6.203682
 30
0.000000
  0
VERTEX
  8
LAYER-1
 10
6.150061
 20
6.286189
 30
0.000000
  0
VERTEX
  8
LAYER-1
 10
6.137207
 20
6.286189
 30
0.000000
  0
VERTEX
  8
LAYER-1
 10
6.130331
 20
6.279315
 30
0.000000
  0
VERTEX
  8
LAYER-1
 10
5.992218
 20
6.279315
 30
0.000000
  0
VERTEX
  8
LAYER-1
 10
5.985343
 20
6.286189
 30
0.000000
  0
VERTEX
  8
LAYER-1
 10
5.971890
 20
6.286189
 30
0.000000
  0
VERTEX
  8
LAYER-1
 10
5.971890
 20
6.203682
 30
0.000000
  0
VERTEX
  8
LAYER-1
 10
5.988033
 20
6.203682
 30
0.000000
  0
VERTEX
  8
LAYER-1
 10
5.988033
 20
6.197105
 30
0.000000
  0
VERTEX
  8
LAYER-1
 10
5.965314
 20
6.197105
 30
0.000000
  0
VERTEX
  8
LAYER-1
 10
5.965314
 20
6.292766
 30
0.000000
  0
SEQEND
  8
LAYER-1
  0
POLYLINE
  8
LAYER-1
 66
  1
 70
  1
 62
  0
 10
5.082224
 20
5.196927
 30
0.000000
  0
VERTEX
  8
LAYER-1
 10
5.082224
 20
5.196927
 30
0.000000
  0
VERTEX
  8
LAYER-1
 10
5.075646
 20
5.203504
 30
0.000000
  0
VERTEX
  8
LAYER-1
 10
4.942618
 20
5.203504
 30
0.000000
  0
VERTEX
  8
LAYER-1
 10
4.936040
 20
5.196928
 30
0.000000
  0
VERTEX
  8
LAYER-1
 10
4.913619
 20
5.196928
 30
0.000000
  0
VERTEX
  8
LAYER-1
 10
4.913619
 20
5.292589
 30
0.000000
  0
VERTEX
  8
LAYER-1
 10
4.936040
 20
5.292589
 30
0.000000
  0
VERTEX
  8
LAYER-1
 10
4.936040
 20
5.286012
 30
0.000000
  0
VERTEX
  8
LAYER-1
 10
4.920196
 20
5.286012
 30
0.000000
  0
VERTEX
  8
LAYER-1
 10
4.920196
 20
5.203504
 30
0.000000
  0
VERTEX
  8
LAYER-1
 10
4.933050
 20
5.203503
 30
0.000000
  0
VERTEX
  8
LAYER-1
 10
4.939926
 20
5.210379
 30
0.000000
  0
VERTEX
  8
LAYER-1
 10
5.078038
 20
5.210379
 30
0.000000
  0
VERTEX
  8
LAYER-1
 10
5.084914
 20
5.203503
 30
0.000000
  0
VERTEX
  8
LAYER-1
 10
5.098367
 20
5.203504
 30
0.000000
  0
VERTEX
  8
LAYER-1
 10
5.098367
 20
5.286012
 30
0.000000
  0
VERTEX
  8
LAYER-1
 10
5.082224
 20
5.286012
 30
0.000000
  0
VERTEX
  8
LAYER-1
 10
5.082224
 20
5.292589
 30
0.000000
  0
VERTEX
  8
LAYER-1
 10
5.104943
 20
5.292589
 30
0.000000
  0
VERTEX
  8
LAYER-1
 10
5.104943
 20
5.196927
 30
0.000000
  0
SEQEND
  8
LAYER-1
  0
POLYLINE
  8
LAYER-1
 66
  1
 70
  1
 62
  0
 10
4.936241
 20
7.302256
 30
0.000000
  0
VERTEX
  8
LAYER-1
 10
4.936241
 20
7.302256
 30
0.000000
  0
VERTEX
  8
LAYER-1
 10
4.942819
 20
7.295679
 30
0.000000
  0
VERTEX
  8
LAYER-1
 10
5.075847
 20
7.295679
 30
0.000000
  0
VERTEX
  8
LAYER-1
 10
5.082425
 20
7.302256
 30
0.000000
  0
VERTEX
  8
LAYER-1
 10
5.104846
 20
7.302256
 30
0.000000
  0
VERTEX
  8
LAYER-1
 10
5.104846
 20
7.206594
 30
0.000000
  0
VERTEX
  8
LAYER-1
 10
5.082425
 20
7.206594
 30
0.000000
  0
VERTEX
  8
LAYER-1
 10
5.082425
 20
7.213171
 30
0.000000
  0
VERTEX
  8
LAYER-1
 10
5.098268
 20
7.213171
 30
0.000000
  0
VERTEX
  8
LAYER-1
 10
5.098268
 20
7.295679
 30
0.000000
  0
VERTEX
  8
LAYER-1
 10
5.085414
 20
7.295680
 30
0.000000
  0
VERTEX
  8
LAYER-1
 10
5.078539
 20
7.288804
 30
0.000000
  0
VERTEX
  8
LAYER-1
 10
4.940426
 20
7.288804
 30
0.000000
  0
VERTEX
  8
LAYER-1
 10
4.933550
 20
7.295680
 30
0.000000
  0
VERTEX
  8
LAYER-1
 10
4.920098
 20
7.295679
 30
0.000000
  0
VERTEX
  8
LAYER-1
 10
4.920098
 20
7.213171
 30
0.000000
  0
VERTEX
  8
LAYER-1
 10
4.936241
 20
7.213171
 30
0.000000
  0
VERTEX
  8
LAYER-1
 10
4.936241
 20
7.206594
 30
0.000000
  0
VERTEX
  8
LAYER-1
 10
4.913521
 20
7.206594
 30
0.000000
  0
VERTEX
  8
LAYER-1
 10
4.913521
 20
7.302256
 30
0.000000
  0
SEQEND
  8
LAYER-1
  0
POLYLINE
  8
LAYER-1
 66
  1
 70
  1
 62
  0
 10
4.936339
 20
6.292510
 30
0.000000
  0
VERTEX
  8
LAYER-1
 10
4.936339
 20
6.292510
 30
0.000000
  0
VERTEX
  8
LAYER-1
 10
4.942916
 20
6.285931
 30
0.000000
  0
VERTEX
  8
LAYER-1
 10
5.075945
 20
6.285931
 30
0.000000
  0
VERTEX
  8
LAYER-1
 10
5.082522
 20
6.292509
 30
0.000000
  0
VERTEX
  8
LAYER-1
 10
5.104944
 20
6.292509
 30
0.000000
  0
VERTEX
  8
LAYER-1
 10
5.104944
 20
6.196847
 30
0.000000
  0
VERTEX
  8
LAYER-1
 10
5.082522
 20
6.196847
 30
0.000000
  0
VERTEX
  8
LAYER-1
 10
5.082522
 20
6.203424
 30
0.000000
  0
VERTEX
  8
LAYER-1
 10
5.098367
 20
6.203424
 30
0.000000
  0
VERTEX
  8
LAYER-1
 10
5.098367
 20
6.285931
 30
0.000000
  0
VERTEX
  8
LAYER-1
 10
5.085512
 20
6.285932
 30
0.000000
  0
VERTEX
  8
LAYER-1
 10
5.078637
 20
6.279057
 30
0.000000
  0
VERTEX
  8
LAYER-1
 10
4.940524
 20
6.279057
 30
0.000000
  0
VERTEX
  8
LAYER-1
 10
4.933649
 20
6.285932
 30
0.000000
  0
VERTEX
  8
LAYER-1
 10
4.920196
 20
6.285931
 30
0.000000
  0
VERTEX
  8
LAYER-1
 10
4.920196
 20
6.203424
 30
0.000000
  0
VERTEX
  8
LAYER-1
 10
4.936339
 20
6.203424
 30
0.000000
  0
VERTEX
  8
LAYER-1
 10
4.936339
 20
6.196847
 30
0.000000
  0
VERTEX
  8
LAYER-1
 10
4.913620
 20
6.196847
 30
0.000000
  0
VERTEX
  8
LAYER-1
 10
4.913620
 20
6.292510
 30
0.000000
  0
SEQEND
  8
LAYER-1
  0
POLYLINE
  8
LAYER-1
 66
  1
 70
  1
 62
  0
 10
4.913687
 20
7.325749
 30
0.000000
  0
VERTEX
  8
LAYER-1
 10
4.913687
 20
7.325749
 30
0.000000
  0
VERTEX
  8
LAYER-1
 10
4.920265
 20
7.332326
 30
0.000000
  0
VERTEX
  8
LAYER-1
 10
4.920265
 20
7.465355
 30
0.000000
  0
VERTEX
  8
LAYER-1
 10
4.913688
 20
7.471932
 30
0.000000
  0
VERTEX
  8
LAYER-1
 10
4.913688
 20
7.494353
 30
0.000000
  0
VERTEX
  8
LAYER-1
 10
5.009349
 20
7.494353
 30
0.000000
  0
VERTEX
  8
LAYER-1
 10
5.009349
 20
7.471932
 30
0.000000
  0
VERTEX
  8
LAYER-1
 10
5.002773
 20
7.471932
 30
0.000000
  0
VERTEX
  8
LAYER-1
 10
5.002773
 20
7.487776
 30
0.000000
  0
VERTEX
  8
LAYER-1
 10
4.920265
 20
7.487776
 30
0.000000
  0
VERTEX
  8
LAYER-1
 10
4.920264
 20
7.474922
 30
0.000000
  0
VERTEX
  8
LAYER-1
 10
4.927140
 20
7.468046
 30
0.000000
  0
VERTEX
  8
LAYER-1
 10
4.927140
 20
7.329934
 30
0.000000
  0
VERTEX
  8
LAYER-1
 10
4.920264
 20
7.323058
 30
0.000000
  0
VERTEX
  8
LAYER-1
 10
4.920265
 20
7.309606
 30
0.000000
  0
VERTEX
  8
LAYER-1
 10
5.002773
 20
7.309606
 30
0.000000
  0
VERTEX
  8
LAYER-1
 10
5.002773
 20
7.325749
 30
0.000000
  0
VERTEX
  8
LAYER-1
 10
5.009349
 20
7.325749
 30
0.000000
  0
VERTEX
  8
LAYER-1
 10
5.009349
 20
7.303029
 30
0.000000
  0
VERTEX
  8
LAYER-1
 10
4.913687
 20
7.303029
 30
0.000000
  0
SEQEND
  8
LAYER-1
  0
POLYLINE
  8
LAYER-1
 66
  1
 70
  1
 62
  0
 10
6.156540
 20
7.471151
 30
0.000000
  0
VERTEX
  8
LAYER-1
 10
6.156540
 20
7.471151
 30
0.000000
  0
VERTEX
  8
LAYER-1
 10
6.149963
 20
7.464572
 30
0.000000
  0
VERTEX
  8
LAYER-1
 10
6.149963
 20
7.331545
 30
0.000000
  0
VERTEX
  8
LAYER-1
 10
6.156539
 20
7.324966
 30
0.000000
  0
VERTEX
  8
LAYER-1
 10
6.156539
 20
7.302546
 30
0.000000
  0
VERTEX
  8
LAYER-1
 10
6.060878
 20
7.302546
 30
0.000000
  0
VERTEX
  8
LAYER-1
 10
6.060878
 20
7.324966
 30
0.000000
  0
VERTEX
  8
LAYER-1
 10
6.067455
 20
7.324966
 30
0.000000
  0
VERTEX
  8
LAYER-1
 10
6.067455
 20
7.309123
 30
0.000000
  0
VERTEX
  8
LAYER-1
 10
6.149963
 20
7.309123
 30
0.000000
  0
VERTEX
  8
LAYER-1
 10
6.149964
 20
7.321977
 30
0.000000
  0
VERTEX
  8
LAYER-1
 10
6.143088
 20
7.328852
 30
0.000000
  0
VERTEX
  8
LAYER-1
 10
6.143088
 20
7.466965
 30
0.000000
  0
VERTEX
  8
LAYER-1
 10
6.149964
 20
7.473841
 30
0.000000
  0
VERTEX
  8
LAYER-1
 10
6.149963
 20
7.487294
 30
0.000000
  0
VERTEX
  8
LAYER-1
 10
6.067455
 20
7.487294
 30
0.000000
  0
VERTEX
  8
LAYER-1
 10
6.067455
 20
7.471151
 30
0.000000
  0
VERTEX
  8
LAYER-1
 10
6.060878
 20
7.471151
 30
0.000000
  0
VERTEX
  8
LAYER-1
 10
6.060878
 20
7.493869
 30
0.000000
  0
VERTEX
  8
LAYER-1
 10
6.156540
 20
7.493869
 30
0.000000
  0
SEQEND
  8
LAYER-1
  0
POLYLINE
  8
LAYER-1
 66
  1
 70
  1
 62
  0
  0
VERTEX
  8
LAYER-1
 10
4.865599
 20
5.148161
 30
0.000000
  0
VERTEX
  8
LAYER-1
 10
4.865599
 20
5.196103
 30
0.000000
  0
VERTEX
  8
LAYER-1
 10
5.154989
 20
5.196103
 30
0.000000
  0
VERTEX
  8
LAYER-1
 10
5.154989
 20
5.148161
 30
0.000000
  0
SEQEND
  8
LAYER-1
  0
POLYLINE
  8
LAYER-1
 66
  1
 70
  1
 62
  0
  0
VERTEX
  8
LAYER-1
 10
5.916998
 20
5.148062
 30
0.000000
  0
VERTEX
  8
LAYER-1
 10
5.916998
 20
5.196004
 30
0.000000
  0
VERTEX
  8
LAYER-1
 10
6.206388
 20
5.196004
 30
0.000000
  0
VERTEX
  8
LAYER-1
 10
6.206388
 20
5.148062
 30
0.000000
  0
SEQEND
  8
LAYER-1
  0
POLYLINE
  8
LAYER-1
  6
LTYPE01
 66
  1
 70
  0
 62
  0
  6
LTYPE01
 10
5.856373
 20
6.353394
 30
0.000000
  0
VERTEX
  8
LAYER-1
  6
LTYPE01
 10
5.856373
 20
6.353394
 30
0.000000
  0
VERTEX
  8
LAYER-1
  6
LTYPE01
 10
5.211182
 20
6.416678
 30
0.000000
  0
SEQEND
  8
LAYER-1
  0
POLYLINE
  8
LAYER-1
  6
LTYPE01
 66
  1
 70
  0
 62
  0
  6
LTYPE01
 10
5.211182
 20
6.416678
 30
0.000000
  0
VERTEX
  8
LAYER-1
  6
LTYPE01
 10
5.211182
 20
6.416678
 30
0.000000
  0
VERTEX
  8
LAYER-1
  6
LTYPE01
 10
5.856373
 20
6.479960
 30
0.000000
  0
SEQEND
  8
LAYER-1
  0
POLYLINE
  8
LAYER-1
  6
LTYPE01
 66
  1
 70
  0
 62
  0
  6
LTYPE01
 10
5.856373
 20
6.479960
 30
0.000000
  0
VERTEX
  8
LAYER-1
  6
LTYPE01
 10
5.856373
 20
6.479960
 30
0.000000
  0
VERTEX
  8
LAYER-1
  6
LTYPE01
 10
5.211179
 20
6.543243
 30
0.000000
  0
SEQEND
  8
LAYER-1
  0
POLYLINE
  8
LAYER-1
  6
LTYPE01
 66
  1
 70
  0
 62
  0
  6
LTYPE01
 10
5.211179
 20
6.543243
 30
0.000000
  0
VERTEX
  8
LAYER-1
  6
LTYPE01
 10
5.211179
 20
6.543243
 30
0.000000
  0
VERTEX
  8
LAYER-1
  6
LTYPE01
 10
5.856371
 20
6.606527
 30
0.000000
  0
SEQEND
  8
LAYER-1
  0
POLYLINE
  8
LAYER-1
  6
LTYPE01
 66
  1
 70
  0
 62
  0
  6
LTYPE01
 10
5.856371
 20
6.606527
 30
0.000000
  0
VERTEX
  8
LAYER-1
  6
LTYPE01
 10
5.856371
 20
6.606527
 30
0.000000
  0
VERTEX
  8
LAYER-1
  6
LTYPE01
 10
5.211179
 20
6.669811
 30
0.000000
  0
SEQEND
  8
LAYER-1
  0
POLYLINE
  8
LAYER-1
  6
LTYPE01
 66
  1
 70
  0
 62
  0
  6
LTYPE01
 10
5.211179
 20
6.669811
 30
0.000000
  0
VERTEX
  8
LAYER-1
  6
LTYPE01
 10
5.211179
 20
6.669811
 30
0.000000
  0
VERTEX
  8
LAYER-1
  6
LTYPE01
 10
5.856371
 20
6.733095
 30
0.000000
  0
SEQEND
  8
LAYER-1
  0
POLYLINE
  8
LAYER-1
  6
LTYPE01
 66
  1
 70
  0
 62
  0
  6
LTYPE01
 10
5.856371
 20
6.733095
 30
0.000000
  0
VERTEX
  8
LAYER-1
  6
LTYPE01
 10
5.856371
 20
6.733095
 30
0.000000
  0
VERTEX
  8
LAYER-1
  6
LTYPE01
 10
5.211179
 20
6.796378
 30
0.000000
  0
SEQEND
  8
LAYER-1
  0
POLYLINE
  8
LAYER-1
  6
LTYPE01
 66
  1
 70
  0
 62
  0
  6
LTYPE01
 10
5.211179
 20
6.796378
 30
0.000000
  0
VERTEX
  8
LAYER-1
  6
LTYPE01
 10
5.211179
 20
6.796378
 30
0.000000
  0
VERTEX
  8
LAYER-1
  6
LTYPE01
 10
5.856371
 20
6.859662
 30
0.000000
  0
SEQEND
  8
LAYER-1
  0
POLYLINE
  8
LAYER-1
  6
LTYPE01
 66
  1
 70
  0
 62
  0
  6
LTYPE01
 10
5.856371
 20
6.859662
 30
0.000000
  0
VERTEX
  8
LAYER-1
  6
LTYPE01
 10
5.856371
 20
6.859662
 30
0.000000
  0
VERTEX
  8
LAYER-1
  6
LTYPE01
 10
5.211179
 20
6.922945
 30
0.000000
  0
SEQEND
  8
LAYER-1
  0
POLYLINE
  8
LAYER-1
  6
LTYPE01
 66
  1
 70
  0
 62
  0
  6
LTYPE01
 10
5.211179
 20
6.922945
 30
0.000000
  0
VERTEX
  8
LAYER-1
  6
LTYPE01
 10
5.211179
 20
6.922945
 30
0.000000
  0
VERTEX
  8
LAYER-1
  6
LTYPE01
 10
5.856371
 20
6.986228
 30
0.000000
  0
SEQEND
  8
LAYER-1
  0
POLYLINE
  8
LAYER-1
  6
LTYPE01
 66
  1
 70
  0
 62
  0
  6
LTYPE01
 10
5.856371
 20
6.986228
 30
0.000000
  0
VERTEX
  8
LAYER-1
  6
LTYPE01
 10
5.856371
 20
6.986228
 30
0.000000
  0
VERTEX
  8
LAYER-1
  6
LTYPE01
 10
5.211173
 20
7.050174
 30
0.000000
  0
SEQEND
  8
LAYER-1
  0
POLYLINE
  8
LAYER-1
  6
LTYPE01
 66
  1
 70
  0
 62
  0
  6
LTYPE01
 10
5.211599
 20
7.050870
 30
0.000000
  0
VERTEX
  8
LAYER-1
  6
LTYPE01
 10
5.211599
 20
7.050870
 30
0.000000
  0
VERTEX
  8
LAYER-1
  6
LTYPE01
 10
5.535130
 20
7.083655
 30
0.000000
  0
SEQEND
  8
LAYER-1
  0
POLYLINE
  8
LAYER-1
  6
LTYPE01
 66
  1
 70
  0
 62
  0
  6
LTYPE01
 10
5.535129
 20
6.320819
 30
0.000000
  0
VERTEX
  8
LAYER-1
  6
LTYPE01
 10
5.535129
 20
6.320819
 30
0.000000
  0
VERTEX
  8
LAYER-1
  6
LTYPE01
 10
5.857723
 20
6.352460
 30
0.000000
  0
SEQEND
  8
LAYER-1
  0
POLYLINE
  8
LAYER-1
 66
  1
 70
  0
 62
  0
 10
5.489883
 20
7.110405
 30
0.000000
  0
VERTEX
  8
LAYER-1
 10
5.489883
 20
7.110405
 30
0.000000
  0
VERTEX
  8
LAYER-1
 10
5.489883
 20
7.226126
 30
0.000000
  0
SEQEND
  8
LAYER-1
  0
POLYLINE
  8
LAYER-1
 66
  1
 70
  0
 62
  0
 10
5.513013
 20
7.249257
 30
0.000000
  0
VERTEX
  8
LAYER-1
 10
5.513013
 20
7.249257
 30
0.000000
  0
VERTEX
  8
LAYER-1
 10
5.559275
 20
7.249257
 30
0.000000
  0
SEQEND
  8
LAYER-1
  0
POLYLINE
  8
LAYER-1
 66
  1
 70
  0
 62
  0
 10
5.582406
 20
7.226126
 30
0.000000
  0
VERTEX
  8
LAYER-1
 10
5.582406
 20
7.226126
 30
0.000000
  0
VERTEX
  8
LAYER-1
 10
5.582406
 20
7.110405
 30
0.000000
  0
SEQEND
  8
LAYER-1
  0
POLYLINE
  8
LAYER-1
 66
  1
 70
  0
 62
  0
 10
5.559275
 20
7.087275
 30
0.000000
  0
VERTEX
  8
LAYER-1
 10
5.559275
 20
7.087275
 30
0.000000
  0
VERTEX
  8
LAYER-1
 10
5.513013
 20
7.087275
 30
0.000000
  0
SEQEND
  8
LAYER-1
  0
ARC
  8
LAYER-1
 62
  0
 10
5.513013
 20
7.110405
 30
0.000000
 40
0.023130
 50
180.000000
 51
270.000000
  0
ARC
  8
LAYER-1
 62
  0
 10
5.559275
 20
7.110405
 30
0.000000
 40
0.023130
 50
270.000000
 51
0.000000
  0
ARC
  8
LAYER-1
 62
  0
 10
5.559275
 20
7.226126
 30
0.000000
 40
0.023130
 50
0.000000
 51
90.000000
  0
ARC
  8
LAYER-1
 62
  0
 10
5.513013
 20
7.226126
 30
0.000000
 40
0.023130
 50
90.000000
 51
180.000000
  0
POLYLINE
  8
LAYER-1
 66
  1
 70
  0
 62
  0
 10
5.491519
 20
6.180183
 30
0.000000
  0
VERTEX
  8
LAYER-1
 10
5.491519
 20
6.180183
 30
0.000000
  0
VERTEX
  8
LAYER-1
 10
5.491519
 20
6.295904
 30
0.000000
  0
SEQEND
  8
LAYER-1
  0
POLYLINE
  8
LAYER-1
 66
  1
 70
  0
 62
  0
 10
5.514649
 20
6.319035
 30
0.000000
  0
VERTEX
  8
LAYER-1
 10
5.514649
 20
6.319035
 30
0.000000
  0
VERTEX
  8
LAYER-1
 10
5.560912
 20
6.319035
 30
0.000000
  0
SEQEND
  8
LAYER-1
  0
POLYLINE
  8
LAYER-1
 66
  1
 70
  0
 62
  0
 10
5.584042
 20
6.295904
 30
0.000000
  0
VERTEX
  8
LAYER-1
 10
5.584042
 20
6.295904
 30
0.000000
  0
VERTEX
  8
LAYER-1
 10
5.584042
 20
6.180183
 30
0.000000
  0
SEQEND
  8
LAYER-1
  0
POLYLINE
  8
LAYER-1
 66
  1
 70
  0
 62
  0
 10
5.560912
 20
6.157053
 30
0.000000
  0
VERTEX
  8
LAYER-1
 10
5.560912
 20
6.157053
 30
0.000000
  0
VERTEX
  8
LAYER-1
 10
5.514649
 20
6.157053
 30
0.000000
  0
SEQEND
  8
LAYER-1
  0
ARC
  8
LAYER-1
 62
  0
 10
5.514649
 20
6.180183
 30
0.000000
 40
0.023130
 50
180.000000
 51
270.000000
  0
ARC
  8
LAYER-1
 62
  0
 10
5.560912
 20
6.180183
 30
0.000000
 40
0.023130
 50
270.000000
 51
0.000000
  0
ARC
  8
LAYER-1
 62
  0
 10
5.560912
 20
6.295904
 30
0.000000
 40
0.023130
 50
0.000000
 51
90.000000
  0
ARC
  8
LAYER-1
 62
  0
 10
5.514649
 20
6.295904
 30
0.000000
 40
0.023130
 50
90.000000
 51
180.000000
  0
POLYLINE
  8
LAYER-1
 66
  1
 70
  0
 62
  0
 10
5.493329
 20
5.251752
 30
0.000000
  0
VERTEX
  8
LAYER-1
 10
5.493329
 20
5.251752
 30
0.000000
  0
VERTEX
  8
LAYER-1
 10
5.493329
 20
5.367471
 30
0.000000
  0
SEQEND
  8
LAYER-1
  0
POLYLINE
  8
LAYER-1
 66
  1
 70
  0
 62
  0
 10
5.516460
 20
5.390602
 30
0.000000
  0
VERTEX
  8
LAYER-1
 10
5.516460
 20
5.390602
 30
0.000000
  0
VERTEX
  8
LAYER-1
 10
5.562721
 20
5.390602
 30
0.000000
  0
SEQEND
  8
LAYER-1
  0
POLYLINE
  8
LAYER-1
 66
  1
 70
  0
 62
  0
 10
5.585851
 20
5.367471
 30
0.000000
  0
VERTEX
  8
LAYER-1
 10
5.585851
 20
5.367471
 30
0.000000
  0
VERTEX
  8
LAYER-1
 10
5.585851
 20
5.251752
 30
0.000000
  0
SEQEND
  8
LAYER-1
  0
POLYLINE
  8
LAYER-1
 66
  1
 70
  0
 62
  0
 10
5.562721
 20
5.228621
 30
0.000000
  0
VERTEX
  8
LAYER-1
 10
5.562721
 20
5.228621
 30
0.000000
  0
VERTEX
  8
LAYER-1
 10
5.516460
 20
5.228621
 30
0.000000
  0
SEQEND
  8
LAYER-1
  0
ARC
  8
LAYER-1
 62
  0
 10
5.516460
 20
5.251752
 30
0.000000
 40
0.023130
 50
180.000000
 51
270.000000
  0
ARC
  8
LAYER-1
 62
  0
 10
5.562721
 20
5.251752
 30
0.000000
 40
0.023130
 50
270.000000
 51
0.000000
  0
ARC
  8
LAYER-1
 62
  0
 10
5.562721
 20
5.367471
 30
0.000000
 40
0.023130
 50
0.000000
 51
90.000000
  0
ARC
  8
LAYER-1
 62
  0
 10
5.516460
 20
5.367471
 30
0.000000
 40
0.023130
 50
90.000000
 51
180.000000
  0
POLYLINE
  8
LAYER-1
  6
LTYPE01
 66
  1
 70
  0
 62
  0
  6
LTYPE01
 10
5.859988
 20
5.423154
 30
0.000000
  0
VERTEX
  8
LAYER-1
  6
LTYPE01
 10
5.859988
 20
5.423154
 30
0.000000
  0
VERTEX
  8
LAYER-1
  6
LTYPE01
 10
5.214796
 20
5.486436
 30
0.000000
  0
SEQEND
  8
LAYER-1
  0
POLYLINE
  8
LAYER-1
  6
LTYPE01
 66
  1
 70
  0
 62
  0
  6
LTYPE01
 10
5.214796
 20
5.486436
 30
0.000000
  0
VERTEX
  8
LAYER-1
  6
LTYPE01
 10
5.214796
 20
5.486436
 30
0.000000
  0
VERTEX
  8
LAYER-1
  6
LTYPE01
 10
5.859988
 20
5.549719
 30
0.000000
  0
SEQEND
  8
LAYER-1
  0
POLYLINE
  8
LAYER-1
  6
LTYPE01
 66
  1
 70
  0
 62
  0
  6
LTYPE01
 10
5.859988
 20
5.549719
 30
0.000000
  0
VERTEX
  8
LAYER-1
  6
LTYPE01
 10
5.859988
 20
5.549719
 30
0.000000
  0
VERTEX
  8
LAYER-1
  6
LTYPE01
 10
5.214794
 20
5.613002
 30
0.000000
  0
SEQEND
  8
LAYER-1
  0
POLYLINE
  8
LAYER-1
  6
LTYPE01
 66
  1
 70
  0
 62
  0
  6
LTYPE01
 10
5.214794
 20
5.613002
 30
0.000000
  0
VERTEX
  8
LAYER-1
  6
LTYPE01
 10
5.214794
 20
5.613002
 30
0.000000
  0
VERTEX
  8
LAYER-1
  6
LTYPE01
 10
5.859985
 20
5.676285
 30
0.000000
  0
SEQEND
  8
LAYER-1
  0
POLYLINE
  8
LAYER-1
  6
LTYPE01
 66
  1
 70
  0
 62
  0
  6
LTYPE01
 10
5.859985
 20
5.676285
 30
0.000000
  0
VERTEX
  8
LAYER-1
  6
LTYPE01
 10
5.859985
 20
5.676285
 30
0.000000
  0
VERTEX
  8
LAYER-1
  6
LTYPE01
 10
5.214794
 20
5.739568
 30
0.000000
  0
SEQEND
  8
LAYER-1
  0
POLYLINE
  8
LAYER-1
  6
LTYPE01
 66
  1
 70
  0
 62
  0
  6
LTYPE01
 10
5.214794
 20
5.739568
 30
0.000000
  0
VERTEX
  8
LAYER-1
  6
LTYPE01
 10
5.214794
 20
5.739568
 30
0.000000
  0
VERTEX
  8
LAYER-1
  6
LTYPE01
 10
5.859985
 20
5.802850
 30
0.000000
  0
SEQEND
  8
LAYER-1
  0
POLYLINE
  8
LAYER-1
  6
LTYPE01
 66
  1
 70
  0
 62
  0
  6
LTYPE01
 10
5.859985
 20
5.802850
 30
0.000000
  0
VERTEX
  8
LAYER-1
  6
LTYPE01
 10
5.859985
 20
5.802850
 30
0.000000
  0
VERTEX
  8
LAYER-1
  6
LTYPE01
 10
5.214794
 20
5.866133
 30
0.000000
  0
SEQEND
  8
LAYER-1
  0
POLYLINE
  8
LAYER-1
  6
LTYPE01
 66
  1
 70
  0
 62
  0
  6
LTYPE01
 10
5.214794
 20
5.866133
 30
0.000000
  0
VERTEX
  8
LAYER-1
  6
LTYPE01
 10
5.214794
 20
5.866133
 30
0.000000
  0
VERTEX
  8
LAYER-1
  6
LTYPE01
 10
5.859985
 20
5.929418
 30
0.000000
  0
SEQEND
  8
LAYER-1
  0
POLYLINE
  8
LAYER-1
  6
LTYPE01
 66
  1
 70
  0
 62
  0
  6
LTYPE01
 10
5.859985
 20
5.929418
 30
0.000000
  0
VERTEX
  8
LAYER-1
  6
LTYPE01
 10
5.859985
 20
5.929418
 30
0.000000
  0
VERTEX
  8
LAYER-1
  6
LTYPE01
 10
5.214794
 20
5.992702
 30
0.000000
  0
SEQEND
  8
LAYER-1
  0
POLYLINE
  8
LAYER-1
  6
LTYPE01
 66
  1
 70
  0
 62
  0
  6
LTYPE01
 10
5.214794
 20
5.992702
 30
0.000000
  0
VERTEX
  8
LAYER-1
  6
LTYPE01
 10
5.214794
 20
5.992702
 30
0.000000
  0
VERTEX
  8
LAYER-1
  6
LTYPE01
 10
5.859985
 20
6.055984
 30
0.000000
  0
SEQEND
  8
LAYER-1
  0
POLYLINE
  8
LAYER-1
  6
LTYPE01
 66
  1
 70
  0
 62
  0
  6
LTYPE01
 10
5.859985
 20
6.055984
 30
0.000000
  0
VERTEX
  8
LAYER-1
  6
LTYPE01
 10
5.859985
 20
6.055984
 30
0.000000
  0
VERTEX
  8
LAYER-1
  6
LTYPE01
 10
5.214787
 20
6.119930
 30
0.000000
  0
SEQEND
  8
LAYER-1
  0
POLYLINE
  8
LAYER-1
  6
LTYPE01
 66
  1
 70
  0
 62
  0
  6
LTYPE01
 10
5.215213
 20
6.120626
 30
0.000000
  0
VERTEX
  8
LAYER-1
  6
LTYPE01
 10
5.215213
 20
6.120626
 30
0.000000
  0
VERTEX
  8
LAYER-1
  6
LTYPE01
 10
5.538744
 20
6.153412
 30
0.000000
  0
SEQEND
  8
LAYER-1
  0
POLYLINE
  8
LAYER-1
  6
LTYPE01
 66
  1
 70
  0
 62
  0
  6
LTYPE01
 10
5.538744
 20
5.390577
 30
0.000000
  0
VERTEX
  8
LAYER-1
  6
LTYPE01
 10
5.538744
 20
5.390577
 30
0.000000
  0
VERTEX
  8
LAYER-1
  6
LTYPE01
 10
5.861337
 20
5.422218
 30
0.000000
  0
SEQEND
  8
LAYER-1
  0
POLYLINE
  8
LAYER-1
  6
LTYPE01
 66
  1
 70
  0
 62
  0
  6
LTYPE01
 10
5.155446
 20
5.148497
 30
0.000000
  0
VERTEX
  8
LAYER-1
  6
LTYPE01
 10
5.155446
 20
5.148497
 30
0.000000
  0
VERTEX
  8
LAYER-1
  6
LTYPE01
 10
5.157137
 20
5.075953
 30
0.000000
  0
VERTEX
  8
LAYER-1
  6
LTYPE01
 10
5.168083
 20
5.002158
 30
0.000000
  0
VERTEX
  8
LAYER-1
  6
LTYPE01
 10
5.186207
 20
4.929790
 30
0.000000
  0
VERTEX
  8
LAYER-1
  6
LTYPE01
 10
5.211337
 20
4.859549
 30
0.000000
  0
VERTEX
  8
LAYER-1
  6
LTYPE01
 10
5.243230
 20
4.792109
 30
0.000000
  0
VERTEX
  8
LAYER-1
  6
LTYPE01
 10
5.281578
 20
4.728121
 30
0.000000
  0
VERTEX
  8
LAYER-1
  6
LTYPE01
 10
5.326013
 20
4.668199
 30
0.000000
  0
VERTEX
  8
LAYER-1
  6
LTYPE01
 10
5.376108
 20
4.612921
 30
0.000000
  0
VERTEX
  8
LAYER-1
  6
LTYPE01
 10
5.431377
 20
4.562822
 30
0.000000
  0
VERTEX
  8
LAYER-1
  6
LTYPE01
 10
5.491291
 20
4.518381
 30
0.000000
  0
VERTEX
  8
LAYER-1
  6
LTYPE01
 10
5.555272
 20
4.480028
 30
0.000000
  0
VERTEX
  8
LAYER-1
  6
LTYPE01
 10
5.622704
 20
4.448131
 30
0.000000
  0
VERTEX
  8
LAYER-1
  6
LTYPE01
 10
5.692936
 20
4.422998
 30
0.000000
  0
VERTEX
  8
LAYER-1
  6
LTYPE01
 10
5.765294
 20
4.404871
 30
0.000000
  0
VERTEX
  8
LAYER-1
  6
LTYPE01
 10
5.839080
 20
4.393925
 30
0.000000
  0
VERTEX
  8
LAYER-1
  6
LTYPE01
 10
5.913583
 20
4.390264
 30
0.000000
  0
VERTEX
  8
LAYER-1
  6
LTYPE01
 10
5.988086
 20
4.393925
 30
0.000000
  0
VERTEX
  8
LAYER-1
  6
LTYPE01
 10
6.061873
 20
4.404871
 30
0.000000
  0
VERTEX
  8
LAYER-1
  6
LTYPE01
 10
6.134230
 20
4.422998
 30
0.000000
  0
VERTEX
  8
LAYER-1
  6
LTYPE01
 10
6.204463
 20
4.448131
 30
0.000000
  0
VERTEX
  8
LAYER-1
  6
LTYPE01
 10
6.271895
 20
4.480028
 30
0.000000
  0
VERTEX
  8
LAYER-1
  6
LTYPE01
 10
6.335875
 20
4.518381
 30
0.000000
  0
VERTEX
  8
LAYER-1
  6
LTYPE01
 10
6.395789
 20
4.562822
 30
0.000000
  0
VERTEX
  8
LAYER-1
  6
LTYPE01
 10
6.451059
 20
4.612921
 30
0.000000
  0
VERTEX
  8
LAYER-1
  6
LTYPE01
 10
6.454082
 20
4.612011
 30
0.000000
  0
SEQEND
  8
LAYER-1
  0
POLYLINE
  8
LAYER-1
  6
LTYPE01
 66
  1
 70
  1
 62
  0
  6
LTYPE01
 10
6.454089
 20
4.612017
 30
0.000000
  0
VERTEX
  8
LAYER-1
  6
LTYPE01
 10
6.454089
 20
4.612017
 30
0.000000
  0
VERTEX
  8
LAYER-1
  6
LTYPE01
 10
5.917131
 20
5.148976
 30
0.000000
  0
VERTEX
  8
LAYER-1
  6
LTYPE01
 10
5.851098
 20
5.082943
 30
0.000000
  0
VERTEX
  8
LAYER-1
  6
LTYPE01
 10
6.384032
 20
4.550009
 30
0.000000
  0
SEQEND
  8
LAYER-1
  0
TEXT
  8
LAYER-1
 62
  0
 10
6.548612
 20
6.152775
 30
0.000000
 40
0.197917
  1
P
 72
  5
 11
6.798612
 21
6.152775
 31
0.000000
  0
TEXT
  8
LAYER-1
 62
  0
 10
5.368057
 20
8.111109
 30
0.000000
 40
0.197917
  1
A
 72
  5
 11
5.618057
 21
8.111109
 31
0.000000
  0
TEXT
  8
LAYER-1
 62
  0
 10
4.798612
 20
7.861109
 30
0.000000
 40
0.093750
  1
idÄal  10" (254mm)
 72
  5
 11
5.923612
 21
7.861109
 31
0.000000
  0
POLYLINE
  8
LAYER-1
 66
  1
 70
  0
 62
  0
 10
1.208625
 20
4.797732
 30
0.000000
  0
VERTEX
  8
LAYER-1
 10
1.208625
 20
4.797732
 30
0.000000
  0
VERTEX
  8
LAYER-1
 10
1.523532
 20
4.797732
 30
0.000000
  0
SEQEND
  8
LAYER-1
  0
POLYLINE
  8
LAYER-1
 66
  1
 70
  0
 62
  0
 10
0.642153
 20
5.562117
 30
0.000000
  0
VERTEX
  8
LAYER-1
 10
0.642153
 20
5.562117
 30
0.000000
  0
VERTEX
  8
LAYER-1
 10
0.642153
 20
4.415863
 30
0.000000
  0
SEQEND
  8
LAYER-1
  0
LINE
  8
LAYER-1
 62
  0
 10
0.671616
 20
5.532654
 30
0.000000
 11
0.612690
 21
5.591579
 31
0.000000
  0
LINE
  8
LAYER-1
 62
  0
 10
0.671616
 20
4.386400
 30
0.000000
 11
0.612690
 21
4.445325
 31
0.000000
  0
POLYLINE
  8
LAYER-1
 66
  1
 70
  0
 62
  0
 10
2.591736
 20
7.918337
 30
0.000000
  0
VERTEX
  8
LAYER-1
 10
2.591736
 20
7.918337
 30
0.000000
  0
VERTEX
  8
LAYER-1
 10
2.590372
 20
8.189185
 30
0.000000
  0
SEQEND
  8
LAYER-1
  0
POLYLINE
  8
LAYER-1
 66
  1
 70
  0
 62
  0
 10
1.644481
 20
7.913631
 30
0.000000
  0
VERTEX
  8
LAYER-1
 10
1.644481
 20
7.913631
 30
0.000000
  0
VERTEX
  8
LAYER-1
 10
1.645927
 20
8.192657
 30
0.000000
  0
SEQEND
  8
LAYER-1
  0
POLYLINE
  8
LAYER-1
  6
LTYPE06
 66
  1
 70
  0
 62
  0
  6
LTYPE06
 10
2.211296
 20
6.136561
 30
0.000000
  0
VERTEX
  8
LAYER-1
  6
LTYPE06
 10
2.211296
 20
6.136561
 30
0.000000
  0
VERTEX
  8
LAYER-1
  6
LTYPE06
 10
2.209866
 20
7.527310
 30
0.000000
  0
SEQEND
  8
LAYER-1
  0
POLYLINE
  8
LAYER-1
 66
  1
 70
  0
 62
  0
 10
2.591319
 20
8.122487
 30
0.000000
  0
VERTEX
  8
LAYER-1
 10
2.591319
 20
8.122487
 30
0.000000
  0
VERTEX
  8
LAYER-1
 10
1.644481
 20
8.122487
 30
0.000000
  0
SEQEND
  8
LAYER-1
  0
LINE
  8
LAYER-1
 62
  0
 10
2.561856
 20
8.093024
 30
0.000000
 11
2.620781
 21
8.151949
 31
0.000000
  0
LINE
  8
LAYER-1
 62
  0
 10
1.615018
 20
8.093024
 30
0.000000
 11
1.673944
 21
8.151949
 31
0.000000
  0
POLYLINE
  8
LAYER-1
 66
  1
 70
  0
 62
  0
 10
0.552177
 20
5.560712
 30
0.000000
  0
VERTEX
  8
LAYER-1
 10
0.552177
 20
5.560712
 30
0.000000
  0
VERTEX
  8
LAYER-1
 10
0.930649
 20
5.560712
 30
0.000000
  0
SEQEND
  8
LAYER-1
  0
POLYLINE
  8
LAYER-1
 66
  1
 70
  0
 62
  0
 10
1.000094
 20
7.588490
 30
0.000000
  0
VERTEX
  8
LAYER-1
 10
1.000094
 20
7.588490
 30
0.000000
  0
VERTEX
  8
LAYER-1
 10
1.246629
 20
7.589675
 30
0.000000
  0
SEQEND
  8
LAYER-1
  0
POLYLINE
  8
LAYER-1
 66
  1
 70
  0
 62
  0
 10
1.092918
 20
5.561882
 30
0.000000
  0
VERTEX
  8
LAYER-1
 10
1.092918
 20
5.561882
 30
0.000000
  0
VERTEX
  8
LAYER-1
 10
1.091730
 20
7.589675
 30
0.000000
  0
SEQEND
  8
LAYER-1
  0
LINE
  8
LAYER-1
 62
  0
 10
1.063438
 20
5.591328
 30
0.000000
 11
1.122398
 21
5.532436
 31
0.000000
  0
LINE
  8
LAYER-1
 62
  0
 10
1.062250
 20
7.619120
 30
0.000000
 11
1.121210
 21
7.560230
 31
0.000000
  0
POLYLINE
  8
LAYER-1
 66
  1
 70
  1
 62
  0
 10
2.807334
 20
5.471983
 30
0.000000
  0
VERTEX
  8
LAYER-1
 10
2.807334
 20
5.471983
 30
0.000000
  0
VERTEX
  8
LAYER-1
 10
2.800757
 20
5.478560
 30
0.000000
  0
VERTEX
  8
LAYER-1
 10
2.667729
 20
5.478560
 30
0.000000
  0
VERTEX
  8
LAYER-1
 10
2.661150
 20
5.471983
 30
0.000000
  0
VERTEX
  8
LAYER-1
 10
2.638730
 20
5.471983
 30
0.000000
  0
VERTEX
  8
LAYER-1
 10
2.638730
 20
5.567645
 30
0.000000
  0
VERTEX
  8
LAYER-1
 10
2.661150
 20
5.567645
 30
0.000000
  0
VERTEX
  8
LAYER-1
 10
2.661150
 20
5.561068
 30
0.000000
  0
VERTEX
  8
LAYER-1
 10
2.645307
 20
5.561068
 30
0.000000
  0
VERTEX
  8
LAYER-1
 10
2.645307
 20
5.478560
 30
0.000000
  0
VERTEX
  8
LAYER-1
 10
2.658162
 20
5.478559
 30
0.000000
  0
VERTEX
  8
LAYER-1
 10
2.665037
 20
5.485435
 30
0.000000
  0
VERTEX
  8
LAYER-1
 10
2.803149
 20
5.485435
 30
0.000000
  0
VERTEX
  8
LAYER-1
 10
2.810025
 20
5.478559
 30
0.000000
  0
VERTEX
  8
LAYER-1
 10
2.823477
 20
5.478560
 30
0.000000
  0
VERTEX
  8
LAYER-1
 10
2.823477
 20
5.561068
 30
0.000000
  0
VERTEX
  8
LAYER-1
 10
2.807334
 20
5.561068
 30
0.000000
  0
VERTEX
  8
LAYER-1
 10
2.807334
 20
5.567645
 30
0.000000
  0
VERTEX
  8
LAYER-1
 10
2.830054
 20
5.567645
 30
0.000000
  0
VERTEX
  8
LAYER-1
 10
2.830054
 20
5.471983
 30
0.000000
  0
SEQEND
  8
LAYER-1
  0
POLYLINE
  8
LAYER-1
 66
  1
 70
  1
 62
  0
 10
2.661351
 20
7.635516
 30
0.000000
  0
VERTEX
  8
LAYER-1
 10
2.661351
 20
7.635516
 30
0.000000
  0
VERTEX
  8
LAYER-1
 10
2.667930
 20
7.628938
 30
0.000000
  0
VERTEX
  8
LAYER-1
 10
2.800958
 20
7.628938
 30
0.000000
  0
VERTEX
  8
LAYER-1
 10
2.807535
 20
7.635515
 30
0.000000
  0
VERTEX
  8
LAYER-1
 10
2.829957
 20
7.635515
 30
0.000000
  0
VERTEX
  8
LAYER-1
 10
2.829957
 20
7.539854
 30
0.000000
  0
VERTEX
  8
LAYER-1
 10
2.807535
 20
7.539854
 30
0.000000
  0
VERTEX
  8
LAYER-1
 10
2.807535
 20
7.546431
 30
0.000000
  0
VERTEX
  8
LAYER-1
 10
2.823380
 20
7.546431
 30
0.000000
  0
VERTEX
  8
LAYER-1
 10
2.823380
 20
7.628938
 30
0.000000
  0
VERTEX
  8
LAYER-1
 10
2.810525
 20
7.628938
 30
0.000000
  0
VERTEX
  8
LAYER-1
 10
2.803649
 20
7.622064
 30
0.000000
  0
VERTEX
  8
LAYER-1
 10
2.665537
 20
7.622064
 30
0.000000
  0
VERTEX
  8
LAYER-1
 10
2.658661
 20
7.628938
 30
0.000000
  0
VERTEX
  8
LAYER-1
 10
2.645208
 20
7.628938
 30
0.000000
  0
VERTEX
  8
LAYER-1
 10
2.645208
 20
7.546431
 30
0.000000
  0
VERTEX
  8
LAYER-1
 10
2.661351
 20
7.546431
 30
0.000000
  0
VERTEX
  8
LAYER-1
 10
2.661351
 20
7.539854
 30
0.000000
  0
VERTEX
  8
LAYER-1
 10
2.638632
 20
7.539854
 30
0.000000
  0
VERTEX
  8
LAYER-1
 10
2.638632
 20
7.635516
 30
0.000000
  0
SEQEND
  8
LAYER-1
  0
POLYLINE
  8
LAYER-1
 66
  1
 70
  1
 62
  0
 10
2.661903
 20
6.626675
 30
0.000000
  0
VERTEX
  8
LAYER-1
 10
2.661903
 20
6.626675
 30
0.000000
  0
VERTEX
  8
LAYER-1
 10
2.668479
 20
6.620097
 30
0.000000
  0
VERTEX
  8
LAYER-1
 10
2.801508
 20
6.620097
 30
0.000000
  0
VERTEX
  8
LAYER-1
 10
2.808086
 20
6.626674
 30
0.000000
  0
VERTEX
  8
LAYER-1
 10
2.830507
 20
6.626674
 30
0.000000
  0
VERTEX
  8
LAYER-1
 10
2.830507
 20
6.531011
 30
0.000000
  0
VERTEX
  8
LAYER-1
 10
2.808086
 20
6.531011
 30
0.000000
  0
VERTEX
  8
LAYER-1
 10
2.808086
 20
6.537587
 30
0.000000
  0
VERTEX
  8
LAYER-1
 10
2.823930
 20
6.537587
 30
0.000000
  0
VERTEX
  8
LAYER-1
 10
2.823930
 20
6.620097
 30
0.000000
  0
VERTEX
  8
LAYER-1
 10
2.811075
 20
6.620097
 30
0.000000
  0
VERTEX
  8
LAYER-1
 10
2.804200
 20
6.613222
 30
0.000000
  0
VERTEX
  8
LAYER-1
 10
2.666088
 20
6.613222
 30
0.000000
  0
VERTEX
  8
LAYER-1
 10
2.659212
 20
6.620097
 30
0.000000
  0
VERTEX
  8
LAYER-1
 10
2.645759
 20
6.620097
 30
0.000000
  0
VERTEX
  8
LAYER-1
 10
2.645759
 20
6.537587
 30
0.000000
  0
VERTEX
  8
LAYER-1
 10
2.661903
 20
6.537587
 30
0.000000
  0
VERTEX
  8
LAYER-1
 10
2.661903
 20
6.531011
 30
0.000000
  0
VERTEX
  8
LAYER-1
 10
2.639183
 20
6.531011
 30
0.000000
  0
VERTEX
  8
LAYER-1
 10
2.639183
 20
6.626675
 30
0.000000
  0
SEQEND
  8
LAYER-1
  0
POLYLINE
  8
LAYER-1
 66
  1
 70
  1
 62
  0
 10
1.573262
 20
5.611078
 30
0.000000
  0
VERTEX
  8
LAYER-1
 10
1.573262
 20
5.611078
 30
0.000000
  0
VERTEX
  8
LAYER-1
 10
1.566685
 20
5.617655
 30
0.000000
  0
VERTEX
  8
LAYER-1
 10
1.433656
 20
5.617655
 30
0.000000
  0
VERTEX
  8
LAYER-1
 10
1.427079
 20
5.611078
 30
0.000000
  0
VERTEX
  8
LAYER-1
 10
1.404658
 20
5.611078
 30
0.000000
  0
VERTEX
  8
LAYER-1
 10
1.404658
 20
5.706740
 30
0.000000
  0
VERTEX
  8
LAYER-1
 10
1.427079
 20
5.706740
 30
0.000000
  0
VERTEX
  8
LAYER-1
 10
1.427079
 20
5.700163
 30
0.000000
  0
VERTEX
  8
LAYER-1
 10
1.411235
 20
5.700163
 30
0.000000
  0
VERTEX
  8
LAYER-1
 10
1.411235
 20
5.617655
 30
0.000000
  0
VERTEX
  8
LAYER-1
 10
1.424090
 20
5.617654
 30
0.000000
  0
VERTEX
  8
LAYER-1
 10
1.430965
 20
5.624530
 30
0.000000
  0
VERTEX
  8
LAYER-1
 10
1.569077
 20
5.624530
 30
0.000000
  0
VERTEX
  8
LAYER-1
 10
1.575953
 20
5.617654
 30
0.000000
  0
VERTEX
  8
LAYER-1
 10
1.589405
 20
5.617655
 30
0.000000
  0
VERTEX
  8
LAYER-1
 10
1.589405
 20
5.700163
 30
0.000000
  0
VERTEX
  8
LAYER-1
 10
1.573262
 20
5.700163
 30
0.000000
  0
VERTEX
  8
LAYER-1
 10
1.573262
 20
5.706740
 30
0.000000
  0
VERTEX
  8
LAYER-1
 10
1.595982
 20
5.706740
 30
0.000000
  0
VERTEX
  8
LAYER-1
 10
1.595982
 20
5.611078
 30
0.000000
  0
SEQEND
  8
LAYER-1
  0
POLYLINE
  8
LAYER-1
 66
  1
 70
  1
 62
  0
 10
1.426864
 20
7.636127
 30
0.000000
  0
VERTEX
  8
LAYER-1
 10
1.426864
 20
7.636127
 30
0.000000
  0
VERTEX
  8
LAYER-1
 10
1.433442
 20
7.629550
 30
0.000000
  0
VERTEX
  8
LAYER-1
 10
1.566470
 20
7.629550
 30
0.000000
  0
VERTEX
  8
LAYER-1
 10
1.573047
 20
7.636126
 30
0.000000
  0
VERTEX
  8
LAYER-1
 10
1.595468
 20
7.636126
 30
0.000000
  0
VERTEX
  8
LAYER-1
 10
1.595468
 20
7.540465
 30
0.000000
  0
VERTEX
  8
LAYER-1
 10
1.573047
 20
7.540465
 30
0.000000
  0
VERTEX
  8
LAYER-1
 10
1.573047
 20
7.547042
 30
0.000000
  0
VERTEX
  8
LAYER-1
 10
1.588892
 20
7.547042
 30
0.000000
  0
VERTEX
  8
LAYER-1
 10
1.588892
 20
7.629550
 30
0.000000
  0
VERTEX
  8
LAYER-1
 10
1.576037
 20
7.629551
 30
0.000000
  0
VERTEX
  8
LAYER-1
 10
1.569161
 20
7.622675
 30
0.000000
  0
VERTEX
  8
LAYER-1
 10
1.431050
 20
7.622675
 30
0.000000
  0
VERTEX
  8
LAYER-1
 10
1.424174
 20
7.629551
 30
0.000000
  0
VERTEX
  8
LAYER-1
 10
1.410721
 20
7.629550
 30
0.000000
  0
VERTEX
  8
LAYER-1
 10
1.410721
 20
7.547042
 30
0.000000
  0
VERTEX
  8
LAYER-1
 10
1.426864
 20
7.547042
 30
0.000000
  0
VERTEX
  8
LAYER-1
 10
1.426864
 20
7.540465
 30
0.000000
  0
VERTEX
  8
LAYER-1
 10
1.404145
 20
7.540465
 30
0.000000
  0
VERTEX
  8
LAYER-1
 10
1.404145
 20
7.636127
 30
0.000000
  0
SEQEND
  8
LAYER-1
  0
POLYLINE
  8
LAYER-1
 66
  1
 70
  1
 62
  0
 10
1.426963
 20
6.626417
 30
0.000000
  0
VERTEX
  8
LAYER-1
 10
1.426963
 20
6.626417
 30
0.000000
  0
VERTEX
  8
LAYER-1
 10
1.433540
 20
6.619840
 30
0.000000
  0
VERTEX
  8
LAYER-1
 10
1.566568
 20
6.619840
 30
0.000000
  0
VERTEX
  8
LAYER-1
 10
1.573145
 20
6.626417
 30
0.000000
  0
VERTEX
  8
LAYER-1
 10
1.595567
 20
6.626417
 30
0.000000
  0
VERTEX
  8
LAYER-1
 10
1.595567
 20
6.530754
 30
0.000000
  0
VERTEX
  8
LAYER-1
 10
1.573145
 20
6.530754
 30
0.000000
  0
VERTEX
  8
LAYER-1
 10
1.573145
 20
6.537331
 30
0.000000
  0
VERTEX
  8
LAYER-1
 10
1.588989
 20
6.537331
 30
0.000000
  0
VERTEX
  8
LAYER-1
 10
1.588989
 20
6.619840
 30
0.000000
  0
VERTEX
  8
LAYER-1
 10
1.576135
 20
6.619841
 30
0.000000
  0
VERTEX
  8
LAYER-1
 10
1.569259
 20
6.612965
 30
0.000000
  0
VERTEX
  8
LAYER-1
 10
1.431148
 20
6.612965
 30
0.000000
  0
VERTEX
  8
LAYER-1
 10
1.424273
 20
6.619841
 30
0.000000
  0
VERTEX
  8
LAYER-1
 10
1.410820
 20
6.619840
 30
0.000000
  0
VERTEX
  8
LAYER-1
 10
1.410820
 20
6.537331
 30
0.000000
  0
VERTEX
  8
LAYER-1
 10
1.426963
 20
6.537331
 30
0.000000
  0
VERTEX
  8
LAYER-1
 10
1.426963
 20
6.530754
 30
0.000000
  0
VERTEX
  8
LAYER-1
 10
1.404243
 20
6.530754
 30
0.000000
  0
VERTEX
  8
LAYER-1
 10
1.404243
 20
6.626417
 30
0.000000
  0
SEQEND
  8
LAYER-1
  0
POLYLINE
  8
LAYER-1
 66
  1
 70
  1
 62
  0
 10
1.403441
 20
7.659619
 30
0.000000
  0
VERTEX
  8
LAYER-1
 10
1.403441
 20
7.659619
 30
0.000000
  0
VERTEX
  8
LAYER-1
 10
1.410018
 20
7.666197
 30
0.000000
  0
VERTEX
  8
LAYER-1
 10
1.410018
 20
7.799225
 30
0.000000
  0
VERTEX
  8
LAYER-1
 10
1.403442
 20
7.805803
 30
0.000000
  0
VERTEX
  8
LAYER-1
 10
1.403442
 20
7.828223
 30
0.000000
  0
VERTEX
  8
LAYER-1
 10
1.499104
 20
7.828223
 30
0.000000
  0
VERTEX
  8
LAYER-1
 10
1.499104
 20
7.805803
 30
0.000000
  0
VERTEX
  8
LAYER-1
 10
1.492526
 20
7.805803
 30
0.000000
  0
VERTEX
  8
LAYER-1
 10
1.492526
 20
7.821647
 30
0.000000
  0
VERTEX
  8
LAYER-1
 10
1.410018
 20
7.821647
 30
0.000000
  0
VERTEX
  8
LAYER-1
 10
1.410018
 20
7.808792
 30
0.000000
  0
VERTEX
  8
LAYER-1
 10
1.416893
 20
7.801916
 30
0.000000
  0
VERTEX
  8
LAYER-1
 10
1.416893
 20
7.663805
 30
0.000000
  0
VERTEX
  8
LAYER-1
 10
1.410018
 20
7.656929
 30
0.000000
  0
VERTEX
  8
LAYER-1
 10
1.410018
 20
7.643476
 30
0.000000
  0
VERTEX
  8
LAYER-1
 10
1.492526
 20
7.643476
 30
0.000000
  0
VERTEX
  8
LAYER-1
 10
1.492526
 20
7.659619
 30
0.000000
  0
VERTEX
  8
LAYER-1
 10
1.499104
 20
7.659619
 30
0.000000
  0
VERTEX
  8
LAYER-1
 10
1.499104
 20
7.636899
 30
0.000000
  0
VERTEX
  8
LAYER-1
 10
1.403441
 20
7.636899
 30
0.000000
  0
SEQEND
  8
LAYER-1
  0
POLYLINE
  8
LAYER-1
 66
  1
 70
  1
 62
  0
 10
2.829957
 20
7.805057
 30
0.000000
  0
VERTEX
  8
LAYER-1
 10
2.829957
 20
7.805057
 30
0.000000
  0
VERTEX
  8
LAYER-1
 10
2.823380
 20
7.798481
 30
0.000000
  0
VERTEX
  8
LAYER-1
 10
2.823380
 20
7.665451
 30
0.000000
  0
VERTEX
  8
LAYER-1
 10
2.829956
 20
7.658875
 30
0.000000
  0
VERTEX
  8
LAYER-1
 10
2.829956
 20
7.636453
 30
0.000000
  0
VERTEX
  8
LAYER-1
 10
2.734295
 20
7.636453
 30
0.000000
  0
VERTEX
  8
LAYER-1
 10
2.734295
 20
7.658875
 30
0.000000
  0
VERTEX
  8
LAYER-1
 10
2.740872
 20
7.658875
 30
0.000000
  0
VERTEX
  8
LAYER-1
 10
2.740872
 20
7.643030
 30
0.000000
  0
VERTEX
  8
LAYER-1
 10
2.823380
 20
7.643030
 30
0.000000
  0
VERTEX
  8
LAYER-1
 10
2.823380
 20
7.655885
 30
0.000000
  0
VERTEX
  8
LAYER-1
 10
2.816505
 20
7.662760
 30
0.000000
  0
VERTEX
  8
LAYER-1
 10
2.816505
 20
7.800873
 30
0.000000
  0
VERTEX
  8
LAYER-1
 10
2.823380
 20
7.807748
 30
0.000000
  0
VERTEX
  8
LAYER-1
 10
2.823380
 20
7.821201
 30
0.000000
  0
VERTEX
  8
LAYER-1
 10
2.740872
 20
7.821201
 30
0.000000
  0
VERTEX
  8
LAYER-1
 10
2.740872
 20
7.805057
 30
0.000000
  0
VERTEX
  8
LAYER-1
 10
2.734295
 20
7.805057
 30
0.000000
  0
VERTEX
  8
LAYER-1
 10
2.734295
 20
7.827777
 30
0.000000
  0
VERTEX
  8
LAYER-1
 10
2.829957
 20
7.827777
 30
0.000000
  0
SEQEND
  8
LAYER-1
  0
POLYLINE
  8
LAYER-1
 66
  1
 70
  0
 62
  0
 10
1.356142
 20
5.562312
 30
0.000000
  0
VERTEX
  8
LAYER-1
 10
1.356142
 20
5.562312
 30
0.000000
  0
VERTEX
  8
LAYER-1
 10
1.645421
 20
5.562312
 30
0.000000
  0
SEQEND
  8
LAYER-1
  0
TEXT
  8
LAYER-1
 62
  0
 10
1.993057
 20
8.194442
 30
0.000000
 40
0.197917
  1
A
 72
  5
 11
2.243057
 21
8.194442
 31
0.000000
  0
POLYLINE
  8
LAYER-1
  6
LTYPE01
 66
  1
 70
  0
 62
  0
  6
LTYPE01
 10
2.515348
 20
6.690019
 30
0.000000
  0
VERTEX
  8
LAYER-1
  6
LTYPE01
 10
2.515348
 20
6.690019
 30
0.000000
  0
VERTEX
  8
LAYER-1
  6
LTYPE01
 10
1.888217
 20
6.753303
 30
0.000000
  0
SEQEND
  8
LAYER-1
  0
POLYLINE
  8
LAYER-1
  6
LTYPE01
 66
  1
 70
  0
 62
  0
  6
LTYPE01
 10
1.888217
 20
6.753303
 30
0.000000
  0
VERTEX
  8
LAYER-1
  6
LTYPE01
 10
1.888217
 20
6.753303
 30
0.000000
  0
VERTEX
  8
LAYER-1
  6
LTYPE01
 10
2.515348
 20
6.816585
 30
0.000000
  0
SEQEND
  8
LAYER-1
  0
POLYLINE
  8
LAYER-1
  6
LTYPE01
 66
  1
 70
  0
 62
  0
  6
LTYPE01
 10
2.515348
 20
6.816585
 30
0.000000
  0
VERTEX
  8
LAYER-1
  6
LTYPE01
 10
2.515348
 20
6.816585
 30
0.000000
  0
VERTEX
  8
LAYER-1
  6
LTYPE01
 10
1.888213
 20
6.879868
 30
0.000000
  0
SEQEND
  8
LAYER-1
  0
POLYLINE
  8
LAYER-1
  6
LTYPE01
 66
  1
 70
  0
 62
  0
  6
LTYPE01
 10
1.888213
 20
6.879868
 30
0.000000
  0
VERTEX
  8
LAYER-1
  6
LTYPE01
 10
1.888213
 20
6.879868
 30
0.000000
  0
VERTEX
  8
LAYER-1
  6
LTYPE01
 10
2.515345
 20
6.943151
 30
0.000000
  0
SEQEND
  8
LAYER-1
  0
POLYLINE
  8
LAYER-1
  6
LTYPE01
 66
  1
 70
  0
 62
  0
  6
LTYPE01
 10
2.515345
 20
6.943151
 30
0.000000
  0
VERTEX
  8
LAYER-1
  6
LTYPE01
 10
2.515345
 20
6.943151
 30
0.000000
  0
VERTEX
  8
LAYER-1
  6
LTYPE01
 10
1.888213
 20
7.006434
 30
0.000000
  0
SEQEND
  8
LAYER-1
  0
POLYLINE
  8
LAYER-1
  6
LTYPE01
 66
  1
 70
  0
 62
  0
  6
LTYPE01
 10
1.888213
 20
7.006434
 30
0.000000
  0
VERTEX
  8
LAYER-1
  6
LTYPE01
 10
1.888213
 20
7.006434
 30
0.000000
  0
VERTEX
  8
LAYER-1
  6
LTYPE01
 10
2.515345
 20
7.069717
 30
0.000000
  0
SEQEND
  8
LAYER-1
  0
POLYLINE
  8
LAYER-1
  6
LTYPE01
 66
  1
 70
  0
 62
  0
  6
LTYPE01
 10
2.515345
 20
7.069717
 30
0.000000
  0
VERTEX
  8
LAYER-1
  6
LTYPE01
 10
2.515345
 20
7.069717
 30
0.000000
  0
VERTEX
  8
LAYER-1
  6
LTYPE01
 10
1.888213
 20
7.133000
 30
0.000000
  0
SEQEND
  8
LAYER-1
  0
POLYLINE
  8
LAYER-1
  6
LTYPE01
 66
  1
 70
  0
 62
  0
  6
LTYPE01
 10
1.888213
 20
7.133000
 30
0.000000
  0
VERTEX
  8
LAYER-1
  6
LTYPE01
 10
1.888213
 20
7.133000
 30
0.000000
  0
VERTEX
  8
LAYER-1
  6
LTYPE01
 10
2.515345
 20
7.196284
 30
0.000000
  0
SEQEND
  8
LAYER-1
  0
POLYLINE
  8
LAYER-1
  6
LTYPE01
 66
  1
 70
  0
 62
  0
  6
LTYPE01
 10
2.515345
 20
7.196284
 30
0.000000
  0
VERTEX
  8
LAYER-1
  6
LTYPE01
 10
2.515345
 20
7.196284
 30
0.000000
  0
VERTEX
  8
LAYER-1
  6
LTYPE01
 10
1.888213
 20
7.259567
 30
0.000000
  0
SEQEND
  8
LAYER-1
  0
POLYLINE
  8
LAYER-1
  6
LTYPE01
 66
  1
 70
  0
 62
  0
  6
LTYPE01
 10
1.888213
 20
7.259567
 30
0.000000
  0
VERTEX
  8
LAYER-1
  6
LTYPE01
 10
1.888213
 20
7.259567
 30
0.000000
  0
VERTEX
  8
LAYER-1
  6
LTYPE01
 10
2.515345
 20
7.322850
 30
0.000000
  0
SEQEND
  8
LAYER-1
  0
POLYLINE
  8
LAYER-1
  6
LTYPE01
 66
  1
 70
  0
 62
  0
  6
LTYPE01
 10
2.515345
 20
7.322850
 30
0.000000
  0
VERTEX
  8
LAYER-1
  6
LTYPE01
 10
2.515345
 20
7.322850
 30
0.000000
  0
VERTEX
  8
LAYER-1
  6
LTYPE01
 10
1.888208
 20
7.386796
 30
0.000000
  0
SEQEND
  8
LAYER-1
  0
POLYLINE
  8
LAYER-1
  6
LTYPE01
 66
  1
 70
  0
 62
  0
  6
LTYPE01
 10
1.888622
 20
7.387492
 30
0.000000
  0
VERTEX
  8
LAYER-1
  6
LTYPE01
 10
1.888622
 20
7.387492
 30
0.000000
  0
VERTEX
  8
LAYER-1
  6
LTYPE01
 10
2.209449
 20
7.419992
 30
0.000000
  0
SEQEND
  8
LAYER-1
  0
POLYLINE
  8
LAYER-1
  6
LTYPE01
 66
  1
 70
  0
 62
  0
  6
LTYPE01
 10
2.210354
 20
6.658062
 30
0.000000
  0
VERTEX
  8
LAYER-1
  6
LTYPE01
 10
2.210354
 20
6.658062
 30
0.000000
  0
VERTEX
  8
LAYER-1
  6
LTYPE01
 10
2.516660
 20
6.689084
 30
0.000000
  0
SEQEND
  8
LAYER-1
  0
POLYLINE
  8
LAYER-1
 66
  1
 70
  0
 62
  0
 10
2.162393
 20
7.444313
 30
0.000000
  0
VERTEX
  8
LAYER-1
 10
2.162393
 20
7.444313
 30
0.000000
  0
VERTEX
  8
LAYER-1
 10
2.162393
 20
7.560033
 30
0.000000
  0
SEQEND
  8
LAYER-1
  0
POLYLINE
  8
LAYER-1
 66
  1
 70
  0
 62
  0
 10
2.185524
 20
7.583164
 30
0.000000
  0
VERTEX
  8
LAYER-1
 10
2.185524
 20
7.583164
 30
0.000000
  0
VERTEX
  8
LAYER-1
 10
2.231785
 20
7.583164
 30
0.000000
  0
SEQEND
  8
LAYER-1
  0
POLYLINE
  8
LAYER-1
 66
  1
 70
  0
 62
  0
 10
2.254915
 20
7.560033
 30
0.000000
  0
VERTEX
  8
LAYER-1
 10
2.254915
 20
7.560033
 30
0.000000
  0
VERTEX
  8
LAYER-1
 10
2.254915
 20
7.444313
 30
0.000000
  0
SEQEND
  8
LAYER-1
  0
POLYLINE
  8
LAYER-1
 66
  1
 70
  0
 62
  0
 10
2.231785
 20
7.421182
 30
0.000000
  0
VERTEX
  8
LAYER-1
 10
2.231785
 20
7.421182
 30
0.000000
  0
VERTEX
  8
LAYER-1
 10
2.185524
 20
7.421182
 30
0.000000
  0
SEQEND
  8
LAYER-1
  0
ARC
  8
LAYER-1
 62
  0
 10
2.185524
 20
7.444313
 30
0.000000
 40
0.023130
 50
180.000000
 51
270.000000
  0
ARC
  8
LAYER-1
 62
  0
 10
2.231785
 20
7.444313
 30
0.000000
 40
0.023130
 50
270.000000
 51
0.000000
  0
ARC
  8
LAYER-1
 62
  0
 10
2.231785
 20
7.560033
 30
0.000000
 40
0.023130
 50
0.000000
 51
90.000000
  0
ARC
  8
LAYER-1
 62
  0
 10
2.185524
 20
7.560033
 30
0.000000
 40
0.023130
 50
90.000000
 51
180.000000
  0
POLYLINE
  8
LAYER-1
 66
  1
 70
  0
 62
  0
 10
2.164029
 20
6.518614
 30
0.000000
  0
VERTEX
  8
LAYER-1
 10
2.164029
 20
6.518614
 30
0.000000
  0
VERTEX
  8
LAYER-1
 10
2.164029
 20
6.634337
 30
0.000000
  0
SEQEND
  8
LAYER-1
  0
POLYLINE
  8
LAYER-1
 66
  1
 70
  0
 62
  0
 10
2.187160
 20
6.657467
 30
0.000000
  0
VERTEX
  8
LAYER-1
 10
2.187160
 20
6.657467
 30
0.000000
  0
VERTEX
  8
LAYER-1
 10
2.233421
 20
6.657467
 30
0.000000
  0
SEQEND
  8
LAYER-1
  0
POLYLINE
  8
LAYER-1
 66
  1
 70
  0
 62
  0
 10
2.256552
 20
6.634337
 30
0.000000
  0
VERTEX
  8
LAYER-1
 10
2.256552
 20
6.634337
 30
0.000000
  0
VERTEX
  8
LAYER-1
 10
2.256552
 20
6.518614
 30
0.000000
  0
SEQEND
  8
LAYER-1
  0
POLYLINE
  8
LAYER-1
 66
  1
 70
  0
 62
  0
 10
2.233421
 20
6.495484
 30
0.000000
  0
VERTEX
  8
LAYER-1
 10
2.233421
 20
6.495484
 30
0.000000
  0
VERTEX
  8
LAYER-1
 10
2.187160
 20
6.495484
 30
0.000000
  0
SEQEND
  8
LAYER-1
  0
ARC
  8
LAYER-1
 62
  0
 10
2.187160
 20
6.518614
 30
0.000000
 40
0.023130
 50
180.000000
 51
270.000000
  0
ARC
  8
LAYER-1
 62
  0
 10
2.233421
 20
6.518614
 30
0.000000
 40
0.023130
 50
270.000000
 51
0.000000
  0
ARC
  8
LAYER-1
 62
  0
 10
2.233421
 20
6.634337
 30
0.000000
 40
0.023130
 50
0.000000
 51
90.000000
  0
ARC
  8
LAYER-1
 62
  0
 10
2.187160
 20
6.634337
 30
0.000000
 40
0.023130
 50
90.000000
 51
180.000000
  0
POLYLINE
  8
LAYER-1
  6
LTYPE01
 66
  1
 70
  0
 62
  0
  6
LTYPE01
 10
2.439968
 20
5.647644
 30
0.000000
  0
VERTEX
  8
LAYER-1
  6
LTYPE01
 10
2.439968
 20
5.647644
 30
0.000000
  0
VERTEX
  8
LAYER-1
  6
LTYPE01
 10
1.862061
 20
5.880707
 30
0.000000
  0
SEQEND
  8
LAYER-1
  0
POLYLINE
  8
LAYER-1
  6
LTYPE01
 66
  1
 70
  0
 62
  0
  6
LTYPE01
 10
2.481030
 20
5.810389
 30
0.000000
  0
VERTEX
  8
LAYER-1
  6
LTYPE01
 10
2.481030
 20
5.810389
 30
0.000000
  0
VERTEX
  8
LAYER-1
  6
LTYPE01
 10
1.882394
 20
5.983376
 30
0.000000
  0
SEQEND
  8
LAYER-1
  0
POLYLINE
  8
LAYER-1
  6
LTYPE01
 66
  1
 70
  0
 62
  0
  6
LTYPE01
 10
2.505905
 20
5.976592
 30
0.000000
  0
VERTEX
  8
LAYER-1
  6
LTYPE01
 10
2.505905
 20
5.976592
 30
0.000000
  0
VERTEX
  8
LAYER-1
  6
LTYPE01
 10
1.892280
 20
6.087518
 30
0.000000
  0
SEQEND
  8
LAYER-1
  0
POLYLINE
  8
LAYER-1
  6
LTYPE01
 66
  1
 70
  0
 62
  0
  6
LTYPE01
 10
1.892436
 20
6.087895
 30
0.000000
  0
VERTEX
  8
LAYER-1
  6
LTYPE01
 10
1.892436
 20
6.087895
 30
0.000000
  0
VERTEX
  8
LAYER-1
  6
LTYPE01
 10
2.510782
 20
6.144528
 30
0.000000
  0
SEQEND
  8
LAYER-1
  0
POLYLINE
  8
LAYER-1
  6
LTYPE01
 66
  1
 70
  0
 62
  0
  6
LTYPE01
 10
1.891828
 20
6.209135
 30
0.000000
  0
VERTEX
  8
LAYER-1
  6
LTYPE01
 10
1.891828
 20
6.209135
 30
0.000000
  0
VERTEX
  8
LAYER-1
  6
LTYPE01
 10
2.511735
 20
6.272417
 30
0.000000
  0
SEQEND
  8
LAYER-1
  0
POLYLINE
  8
LAYER-1
  6
LTYPE01
 66
  1
 70
  0
 62
  0
  6
LTYPE01
 10
2.511735
 20
6.272417
 30
0.000000
  0
VERTEX
  8
LAYER-1
  6
LTYPE01
 10
2.511735
 20
6.272417
 30
0.000000
  0
VERTEX
  8
LAYER-1
  6
LTYPE01
 10
1.891822
 20
6.336363
 30
0.000000
  0
SEQEND
  8
LAYER-1
  0
POLYLINE
  8
LAYER-1
  6
LTYPE01
 66
  1
 70
  0
 62
  0
  6
LTYPE01
 10
1.892684
 20
6.464486
 30
0.000000
  0
VERTEX
  8
LAYER-1
  6
LTYPE01
 10
1.892684
 20
6.464486
 30
0.000000
  0
VERTEX
  8
LAYER-1
  6
LTYPE01
 10
2.211259
 20
6.495178
 30
0.000000
  0
SEQEND
  8
LAYER-1
  0
POLYLINE
  8
LAYER-1
  6
LTYPE01
 66
  1
 70
  0
 62
  0
  6
LTYPE01
 10
2.143606
 20
5.712492
 30
0.000000
  0
VERTEX
  8
LAYER-1
  6
LTYPE01
 10
2.143606
 20
5.712492
 30
0.000000
  0
VERTEX
  8
LAYER-1
  6
LTYPE01
 10
2.439677
 20
5.647243
 30
0.000000
  0
SEQEND
  8
LAYER-1
  0
POLYLINE
  8
LAYER-1
  6
LTYPE01
 66
  1
 70
  1
 62
  0
  6
LTYPE01
 10
0.703661
 20
4.624132
 30
0.000000
  0
VERTEX
  8
LAYER-1
  6
LTYPE01
 10
0.703661
 20
4.624132
 30
0.000000
  0
VERTEX
  8
LAYER-1
  6
LTYPE01
 10
1.355929
 20
5.561827
 30
0.000000
  0
VERTEX
  8
LAYER-1
  6
LTYPE01
 10
1.432576
 20
5.508476
 30
0.000000
  0
VERTEX
  8
LAYER-1
  6
LTYPE01
 10
0.783557
 20
4.575454
 30
0.000000
  0
SEQEND
  8
LAYER-1
  0
TEXT
  8
LAYER-1
 62
  0
 10
0.673612
 20
6.486109
 30
0.000000
 40
0.197917
  1
P
 72
  5
 11
0.923612
 21
6.486109
 31
0.000000
  0
POLYLINE
  8
LAYER-1
 66
  1
 70
  1
 62
  0
 10
1.405019
 20
4.198027
 30
0.000000
  0
VERTEX
  8
LAYER-1
 10
1.405019
 20
4.198027
 30
0.000000
  0
VERTEX
  8
LAYER-1
 10
1.411596
 20
4.204605
 30
0.000000
  0
VERTEX
  8
LAYER-1
 10
1.411596
 20
4.337633
 30
0.000000
  0
VERTEX
  8
LAYER-1
 10
1.405019
 20
4.344212
 30
0.000000
  0
VERTEX
  8
LAYER-1
 10
1.405019
 20
4.366632
 30
0.000000
  0
VERTEX
  8
LAYER-1
 10
1.500681
 20
4.366632
 30
0.000000
  0
VERTEX
  8
LAYER-1
 10
1.500681
 20
4.344212
 30
0.000000
  0
VERTEX
  8
LAYER-1
 10
1.494104
 20
4.344212
 30
0.000000
  0
VERTEX
  8
LAYER-1
 10
1.494104
 20
4.360055
 30
0.000000
  0
VERTEX
  8
LAYER-1
 10
1.411596
 20
4.360055
 30
0.000000
  0
VERTEX
  8
LAYER-1
 10
1.411595
 20
4.347200
 30
0.000000
  0
VERTEX
  8
LAYER-1
 10
1.418471
 20
4.340325
 30
0.000000
  0
VERTEX
  8
LAYER-1
 10
1.418471
 20
4.202213
 30
0.000000
  0
VERTEX
  8
LAYER-1
 10
1.411595
 20
4.195337
 30
0.000000
  0
VERTEX
  8
LAYER-1
 10
1.411596
 20
4.181885
 30
0.000000
  0
VERTEX
  8
LAYER-1
 10
1.494104
 20
4.181885
 30
0.000000
  0
VERTEX
  8
LAYER-1
 10
1.494104
 20
4.198027
 30
0.000000
  0
VERTEX
  8
LAYER-1
 10
1.500681
 20
4.198027
 30
0.000000
  0
VERTEX
  8
LAYER-1
 10
1.500681
 20
4.175308
 30
0.000000
  0
VERTEX
  8
LAYER-1
 10
1.405019
 20
4.175308
 30
0.000000
  0
SEQEND
  8
LAYER-1
  0
POLYLINE
  8
LAYER-1
 66
  1
 70
  1
 62
  0
 10
2.829954
 20
4.343685
 30
0.000000
  0
VERTEX
  8
LAYER-1
 10
2.829954
 20
4.343685
 30
0.000000
  0
VERTEX
  8
LAYER-1
 10
2.823378
 20
4.337108
 30
0.000000
  0
VERTEX
  8
LAYER-1
 10
2.823378
 20
4.204079
 30
0.000000
  0
VERTEX
  8
LAYER-1
 10
2.829954
 20
4.197501
 30
0.000000
  0
VERTEX
  8
LAYER-1
 10
2.829954
 20
4.175081
 30
0.000000
  0
VERTEX
  8
LAYER-1
 10
2.734293
 20
4.175081
 30
0.000000
  0
VERTEX
  8
LAYER-1
 10
2.734293
 20
4.197501
 30
0.000000
  0
VERTEX
  8
LAYER-1
 10
2.740870
 20
4.197501
 30
0.000000
  0
VERTEX
  8
LAYER-1
 10
2.740870
 20
4.181657
 30
0.000000
  0
VERTEX
  8
LAYER-1
 10
2.823378
 20
4.181657
 30
0.000000
  0
VERTEX
  8
LAYER-1
 10
2.823378
 20
4.194512
 30
0.000000
  0
VERTEX
  8
LAYER-1
 10
2.816503
 20
4.201388
 30
0.000000
  0
VERTEX
  8
LAYER-1
 10
2.816503
 20
4.339500
 30
0.000000
  0
VERTEX
  8
LAYER-1
 10
2.823378
 20
4.346375
 30
0.000000
  0
VERTEX
  8
LAYER-1
 10
2.823378
 20
4.359828
 30
0.000000
  0
VERTEX
  8
LAYER-1
 10
2.740870
 20
4.359828
 30
0.000000
  0
VERTEX
  8
LAYER-1
 10
2.740870
 20
4.343685
 30
0.000000
  0
VERTEX
  8
LAYER-1
 10
2.734293
 20
4.343685
 30
0.000000
  0
VERTEX
  8
LAYER-1
 10
2.734293
 20
4.366405
 30
0.000000
  0
VERTEX
  8
LAYER-1
 10
2.829954
 20
4.366405
 30
0.000000
  0
SEQEND
  8
LAYER-1
  0
POLYLINE
  8
LAYER-1
 66
  1
 70
  1
 62
  0
 10
2.808007
 20
4.367470
 30
0.000000
  0
VERTEX
  8
LAYER-1
 10
2.808007
 20
4.367470
 30
0.000000
  0
VERTEX
  8
LAYER-1
 10
2.801429
 20
4.374048
 30
0.000000
  0
VERTEX
  8
LAYER-1
 10
2.668401
 20
4.374048
 30
0.000000
  0
VERTEX
  8
LAYER-1
 10
2.661823
 20
4.367470
 30
0.000000
  0
VERTEX
  8
LAYER-1
 10
2.639402
 20
4.367470
 30
0.000000
  0
VERTEX
  8
LAYER-1
 10
2.639402
 20
4.463132
 30
0.000000
  0
VERTEX
  8
LAYER-1
 10
2.661823
 20
4.463132
 30
0.000000
  0
VERTEX
  8
LAYER-1
 10
2.661823
 20
4.456555
 30
0.000000
  0
VERTEX
  8
LAYER-1
 10
2.645980
 20
4.456555
 30
0.000000
  0
VERTEX
  8
LAYER-1
 10
2.645980
 20
4.374048
 30
0.000000
  0
VERTEX
  8
LAYER-1
 10
2.658834
 20
4.374047
 30
0.000000
  0
VERTEX
  8
LAYER-1
 10
2.665710
 20
4.380922
 30
0.000000
  0
VERTEX
  8
LAYER-1
 10
2.803821
 20
4.380922
 30
0.000000
  0
VERTEX
  8
LAYER-1
 10
2.810697
 20
4.374047
 30
0.000000
  0
VERTEX
  8
LAYER-1
 10
2.824149
 20
4.374048
 30
0.000000
  0
VERTEX
  8
LAYER-1
 10
2.824149
 20
4.456555
 30
0.000000
  0
VERTEX
  8
LAYER-1
 10
2.808007
 20
4.456555
 30
0.000000
  0
VERTEX
  8
LAYER-1
 10
2.808007
 20
4.463132
 30
0.000000
  0
VERTEX
  8
LAYER-1
 10
2.830727
 20
4.463132
 30
0.000000
  0
VERTEX
  8
LAYER-1
 10
2.830727
 20
4.367470
 30
0.000000
  0
SEQEND
  8
LAYER-1
  0
POLYLINE
  8
LAYER-1
  6
LTYPE06
 66
  1
 70
  0
 62
  0
  6
LTYPE06
 10
0.877429
 20
4.798438
 30
0.000000
  0
VERTEX
  8
LAYER-1
  6
LTYPE06
 10
0.877429
 20
4.798438
 30
0.000000
  0
VERTEX
  8
LAYER-1
  6
LTYPE06
 10
0.517278
 20
4.798482
 30
0.000000
  0
SEQEND
  8
LAYER-1
  0
TEXT
  8
LAYER-1
 62
  0
 10
0.201390
 20
4.972220
 30
0.000000
 40
0.197917
  1
B
 72
  5
 11
0.451390
 21
4.972220
 31
0.000000
  0
TEXT
  8
LAYER-1
 62
  0
 10
1.659723
 20
4.680553
 30
0.000000
 40
0.125000
  1
4" - 102mm
 72
  5
 11
2.618057
 21
4.680553
 31
0.000000
  0
TEXT
  8
LAYER-1
 62
  0
 10
1.659723
 20
4.486109
 30
0.000000
 40
0.125000
  1
minimun
 72
  5
 11
2.409723
 21
4.486109
 31
0.000000
  0
POLYLINE
  8
LAYER-1
 66
  1
 70
  0
 62
  0
 10
2.211278
 20
5.051145
 30
0.000000
  0
VERTEX
  8
LAYER-1
 10
2.211278
 20
5.051145
 30
0.000000
  0
VERTEX
  8
LAYER-1
 10
2.211259
 20
5.620135
 30
0.000000
  0
SEQEND
  8
LAYER-1
  0
POLYLINE
  8
LAYER-1
 66
  1
 70
  0
 62
  0
 10
2.211258
 20
5.192310
 30
0.000000
  0
VERTEX
  8
LAYER-1
 10
2.211258
 20
5.192310
 30
0.000000
  0
VERTEX
  8
LAYER-1
 10
2.591319
 20
5.193020
 30
0.000000
  0
SEQEND
  8
LAYER-1
  0
LINE
  8
LAYER-1
 62
  0
 10
2.240666
 20
5.221828
 30
0.000000
 11
2.181850
 21
5.162792
 31
0.000000
  0
LINE
  8
LAYER-1
 62
  0
 10
2.620726
 20
5.222538
 30
0.000000
 11
2.561911
 21
5.163503
 31
0.000000
  0
POLYLINE
  8
LAYER-1
 66
  1
 70
  0
 62
  0
 10
0.555649
 20
4.414878
 30
0.000000
  0
VERTEX
  8
LAYER-1
 10
0.555649
 20
4.414878
 30
0.000000
  0
VERTEX
  8
LAYER-1
 10
0.935342
 20
4.415863
 30
0.000000
  0
SEQEND
  8
LAYER-1
  0
POLYLINE
  8
LAYER-1
 66
  1
 70
  0
 62
  0
 10
1.380912
 20
4.416966
 30
0.000000
  0
VERTEX
  8
LAYER-1
 10
1.380912
 20
4.416966
 30
0.000000
  0
VERTEX
  8
LAYER-1
 10
1.380201
 20
4.797028
 30
0.000000
  0
SEQEND
  8
LAYER-1
  0
LINE
  8
LAYER-1
 62
  0
 10
1.351394
 20
4.446374
 30
0.000000
 11
1.410429
 21
4.387559
 31
0.000000
  0
LINE
  8
LAYER-1
 62
  0
 10
1.350683
 20
4.826436
 30
0.000000
 11
1.409719
 21
4.767620
 31
0.000000
  0
ARC
  8
LAYER-1
 62
  0
  6
LTYPE06
 10
0.877429
 20
6.132311
 30
0.000000
 40
1.333873
 50
270.000000
 51
0.182533
  0
POLYLINE
  8
LAYER-1
 66
  1
 70
  0
 62
  0
 10
2.049200
 20
5.600048
 30
0.000000
  0
VERTEX
  8
LAYER-1
 10
2.049200
 20
5.600048
 30
0.000000
  0
VERTEX
  8
LAYER-1
 10
2.091662
 20
5.707695
 30
0.000000
  0
SEQEND
  8
LAYER-1
  0
POLYLINE
  8
LAYER-1
 66
  1
 70
  0
 62
  0
 10
2.121667
 20
5.720725
 30
0.000000
  0
VERTEX
  8
LAYER-1
 10
2.121667
 20
5.720725
 30
0.000000
  0
VERTEX
  8
LAYER-1
 10
2.164701
 20
5.703749
 30
0.000000
  0
SEQEND
  8
LAYER-1
  0
POLYLINE
  8
LAYER-1
 66
  1
 70
  0
 62
  0
 10
2.177731
 20
5.673745
 30
0.000000
  0
VERTEX
  8
LAYER-1
 10
2.177731
 20
5.673745
 30
0.000000
  0
VERTEX
  8
LAYER-1
 10
2.135268
 20
5.566098
 30
0.000000
  0
SEQEND
  8
LAYER-1
  0
POLYLINE
  8
LAYER-1
 66
  1
 70
  0
 62
  0
 10
2.105264
 20
5.553068
 30
0.000000
  0
VERTEX
  8
LAYER-1
 10
2.105264
 20
5.553068
 30
0.000000
  0
VERTEX
  8
LAYER-1
 10
2.062229
 20
5.570044
 30
0.000000
  0
SEQEND
  8
LAYER-1
  0
ARC
  8
LAYER-1
 62
  0
 10
2.070717
 20
5.591560
 30
0.000000
 40
0.023130
 50
158.472778
 51
248.472778
  0
ARC
  8
LAYER-1
 62
  0
 10
2.113751
 20
5.574585
 30
0.000000
 40
0.023130
 50
248.472778
 51
338.472778
  0
ARC
  8
LAYER-1
 62
  0
 10
2.156214
 20
5.682233
 30
0.000000
 40
0.023130
 50
338.472778
 51
68.472778
  0
ARC
  8
LAYER-1
 62
  0
 10
2.113179
 20
5.699208
 30
0.000000
 40
0.023130
 50
68.472778
 51
158.472778
  0
ARC
  8
LAYER-1
 62
  0
  6
LTYPE01
 10
1.355929
 20
5.561827
 30
0.000000
 40
1.142248
 50
235.177231
 51
270.028290
  0
POLYLINE
  8
LAYER-1
 66
  1
 70
  0
 62
  0
 10
2.388620
 20
4.856396
 30
0.000000
  0
VERTEX
  8
LAYER-1
 10
2.388620
 20
4.856396
 30
0.000000
  0
VERTEX
  8
LAYER-1
 10
2.388620
 20
5.173335
 30
0.000000
  0
SEQEND
  8
LAYER-1
  0
POLYLINE
  8
LAYER-1
 66
  1
 70
  1
 62
  0
  0
VERTEX
  8
LAYER-1
 10
2.388620
 20
5.193020
 30
0.000000
  0
VERTEX
  8
LAYER-1
 10
2.430287
 20
5.123576
 30
0.000000
  0
VERTEX
  8
LAYER-1
 10
2.388620
 20
5.123576
 30
0.000000
  0
VERTEX
  8
LAYER-1
 10
2.346953
 20
5.123576
 30
0.000000
  0
VERTEX
  8
LAYER-1
 10
2.388620
 20
5.193020
 30
0.000000
  0
SEQEND
  8
LAYER-1
  0
POLYLINE
  8
LAYER-1
 66
  1
 70
  0
 62
  0
 10
1.614022
 20
4.613881
 30
0.000000
  0
VERTEX
  8
LAYER-1
 10
1.614022
 20
4.613881
 30
0.000000
  0
VERTEX
  8
LAYER-1
 10
1.398432
 20
4.613881
 30
0.000000
  0
SEQEND
  8
LAYER-1
  0
POLYLINE
  8
LAYER-1
 66
  1
 70
  1
 62
  0
  0
VERTEX
  8
LAYER-1
 10
1.378746
 20
4.613881
 30
0.000000
  0
VERTEX
  8
LAYER-1
 10
1.448191
 20
4.655548
 30
0.000000
  0
VERTEX
  8
LAYER-1
 10
1.448191
 20
4.613881
 30
0.000000
  0
VERTEX
  8
LAYER-1
 10
1.448191
 20
4.572215
 30
0.000000
  0
VERTEX
  8
LAYER-1
 10
1.378746
 20
4.613881
 30
0.000000
  0
SEQEND
  8
LAYER-1
  0
POLYLINE
  8
LAYER-1
 66
  1
 70
  0
 62
  0
 10
1.780525
 20
4.867255
 30
0.000000
  0
VERTEX
  8
LAYER-1
 10
1.780525
 20
4.867255
 30
0.000000
  0
VERTEX
  8
LAYER-1
 10
1.780525
 20
5.437568
 30
0.000000
  0
SEQEND
  8
LAYER-1
  0
POLYLINE
  8
LAYER-1
 66
  1
 70
  1
 62
  0
  0
VERTEX
  8
LAYER-1
 10
1.780525
 20
5.457253
 30
0.000000
  0
VERTEX
  8
LAYER-1
 10
1.822191
 20
5.387808
 30
0.000000
  0
VERTEX
  8
LAYER-1
 10
1.780524
 20
5.387808
 30
0.000000
  0
VERTEX
  8
LAYER-1
 10
1.738858
 20
5.387808
 30
0.000000
  0
VERTEX
  8
LAYER-1
 10
1.780525
 20
5.457253
 30
0.000000
  0
SEQEND
  8
LAYER-1
  0
POLYLINE
  8
LAYER-1
  6
LTYPE01
 66
  1
 70
  0
 62
  0
  6
LTYPE01
 10
1.861574
 20
5.881129
 30
0.000000
  0
VERTEX
  8
LAYER-1
  6
LTYPE01
 10
1.861574
 20
5.881129
 30
0.000000
  0
VERTEX
  8
LAYER-1
  6
LTYPE01
 10
2.481114
 20
5.809619
 30
0.000000
  0
SEQEND
  8
LAYER-1
  0
POLYLINE
  8
LAYER-1
  6
LTYPE01
 66
  1
 70
  0
 62
  0
  6
LTYPE01
 10
1.882548
 20
5.984103
 30
0.000000
  0
VERTEX
  8
LAYER-1
  6
LTYPE01
 10
1.882548
 20
5.984103
 30
0.000000
  0
VERTEX
  8
LAYER-1
  6
LTYPE01
 10
2.505630
 20
5.976409
 30
0.000000
  0
SEQEND
  8
LAYER-1
  0
POLYLINE
  8
LAYER-1
  6
LTYPE01
 66
  1
 70
  0
 62
  0
  6
LTYPE01
 10
2.511688
 20
6.144981
 30
0.000000
  0
VERTEX
  8
LAYER-1
  6
LTYPE01
 10
2.511688
 20
6.144981
 30
0.000000
  0
VERTEX
  8
LAYER-1
  6
LTYPE01
 10
1.891775
 20
6.208926
 30
0.000000
  0
SEQEND
  8
LAYER-1
  0
POLYLINE
  8
LAYER-1
  6
LTYPE01
 66
  1
 70
  0
 62
  0
  6
LTYPE01
 10
1.891828
 20
6.336522
 30
0.000000
  0
VERTEX
  8
LAYER-1
  6
LTYPE01
 10
1.891828
 20
6.336522
 30
0.000000
  0
VERTEX
  8
LAYER-1
  6
LTYPE01
 10
2.511735
 20
6.399805
 30
0.000000
  0
SEQEND
  8
LAYER-1
  0
POLYLINE
  8
LAYER-1
  6
LTYPE01
 66
  1
 70
  0
 62
  0
  6
LTYPE01
 10
2.511735
 20
6.399805
 30
0.000000
  0
VERTEX
  8
LAYER-1
  6
LTYPE01
 10
2.511735
 20
6.399805
 30
0.000000
  0
VERTEX
  8
LAYER-1
  6
LTYPE01
 10
1.891822
 20
6.463750
 30
0.000000
  0
SEQEND
  8
LAYER-1
  0
POLYLINE
  8
LAYER-1
 66
  1
 70
  0
 62
  0
 10
6.429050
 20
7.253596
 30
0.000000
  0
VERTEX
  8
LAYER-1
 10
6.429050
 20
7.253596
 30
0.000000
  0
VERTEX
  8
LAYER-1
 10
6.429050
 20
5.229867
 30
0.000000
  0
SEQEND
  8
LAYER-1
  0
LINE
  8
LAYER-1
 62
  0
 10
6.458513
 20
7.224133
 30
0.000000
 11
6.399587
 21
7.283059
 31
0.000000
  0
LINE
  8
LAYER-1
 62
  0
 10
6.458513
 20
5.200405
 30
0.000000
 11
6.399587
 21
5.259329
 31
0.000000
  0
POLYLINE
  8
LAYER-1
 66
  1
 70
  0
 62
  0
 10
6.280644
 20
7.253596
 30
0.000000
  0
VERTEX
  8
LAYER-1
 10
6.280644
 20
7.253596
 30
0.000000
  0
VERTEX
  8
LAYER-1
 10
6.491707
 20
7.253596
 30
0.000000
  0
SEQEND
  8
LAYER-1
  0
POLYLINE
  8
LAYER-1
 66
  1
 70
  0
 62
  0
 10
6.289009
 20
5.229867
 30
0.000000
  0
VERTEX
  8
LAYER-1
 10
6.289009
 20
5.229867
 30
0.000000
  0
VERTEX
  8
LAYER-1
 10
6.491707
 20
5.229867
 30
0.000000
  0
SEQEND
  8
LAYER-1
  0
POLYLINE
  8
LAYER-1
 66
  1
 70
  1
 62
  0
 10
4.912590
 20
5.196103
 30
0.000000
  0
VERTEX
  8
LAYER-1
 10
4.912590
 20
5.196103
 30
0.000000
  0
VERTEX
  8
LAYER-1
 10
4.865599
 20
5.196103
 30
0.000000
  0
VERTEX
  8
LAYER-1
 10
4.865518
 20
7.542297
 30
0.000000
  0
VERTEX
  8
LAYER-1
 10
6.206660
 20
7.542297
 30
0.000000
  0
VERTEX
  8
LAYER-1
 10
6.206388
 20
5.196004
 30
0.000000
  0
VERTEX
  8
LAYER-1
 10
6.157305
 20
5.196022
 30
0.000000
  0
VERTEX
  8
LAYER-1
 10
6.157305
 20
7.494809
 30
0.000000
  0
VERTEX
  8
LAYER-1
 10
4.912590
 20
7.494809
 30
0.000000
  0
SEQEND
  8
LAYER-1
  0
TEXT
  8
LAYER-1
 62
  0
 10
4.798612
 20
7.638886
 30
0.000000
 40
0.093750
  1
min.    8" (203mm)
 72
  5
 11
5.909723
 21
7.638886
 31
0.000000
  0
POLYLINE
  8
LAYER-1
 66
  1
 70
  1
 62
  0
  0
VERTEX
  8
LAYER-1
 10
1.355929
 20
5.610353
 30
0.000000
  0
VERTEX
  8
LAYER-1
 10
1.645421
 20
5.610353
 30
0.000000
  0
VERTEX
  8
LAYER-1
 10
1.645421
 20
5.561827
 30
0.000000
  0
VERTEX
  8
LAYER-1
 10
1.355929
 20
5.561827
 30
0.000000
  0
SEQEND
  8
LAYER-1
  0
POLYLINE
  8
LAYER-1
 66
  1
 70
  0
 62
  0
 10
1.948527
 20
5.337348
 30
0.000000
  0
VERTEX
  8
LAYER-1
 10
1.948527
 20
5.337348
 30
0.000000
  0
VERTEX
  8
LAYER-1
 10
1.645421
 20
5.562312
 30
0.000000
  0
SEQEND
  8
LAYER-1
  0
LINE
  8
LAYER-1
 62
  0
 10
1.907309
 20
5.331249
 30
0.000000
 11
1.989745
 21
5.343447
 31
0.000000
  0
LINE
  8
LAYER-1
 62
  0
 10
1.604203
 20
5.556212
 30
0.000000
 11
1.686639
 21
5.568411
 31
0.000000
  0
POLYLINE
  8
LAYER-1
 66
  1
 70
  0
 62
  0
 10
1.246629
 20
5.561802
 30
0.000000
  0
VERTEX
  8
LAYER-1
 10
1.246629
 20
5.561802
 30
0.000000
  0
VERTEX
  8
LAYER-1
 10
1.003566
 20
5.561802
 30
0.000000
  0
SEQEND
  8
LAYER-1
  0
POLYLINE
  8
LAYER-1
 66
  1
 70
  0
 62
  0
 10
4.434125
 20
3.689179
 30
0.000000
  0
VERTEX
  8
LAYER-1
 10
4.434125
 20
3.689179
 30
0.000000
  0
VERTEX
  8
LAYER-1
 10
7.191071
 20
3.689179
 30
0.000000
  0
SEQEND
  8
LAYER-1
  0
POLYLINE
  8
LAYER-1
 66
  1
 70
  0
 62
  0
 10
7.191071
 20
3.689179
 30
0.000000
  0
VERTEX
  8
LAYER-1
 10
7.191071
 20
3.689179
 30
0.000000
  0
VERTEX
  8
LAYER-1
 10
7.191071
 20
1.432231
 30
0.000000
  0
SEQEND
  8
LAYER-1
  0
POLYLINE
  8
LAYER-1
 66
  1
 70
  0
 62
  0
 10
4.434125
 20
1.432231
 30
0.000000
  0
VERTEX
  8
LAYER-1
 10
4.434125
 20
1.432231
 30
0.000000
  0
VERTEX
  8
LAYER-1
 10
4.434125
 20
3.689179
 30
0.000000
  0
SEQEND
  8
LAYER-1
  0
POLYLINE
  8
LAYER-1
 66
  1
 70
  0
 62
  0
 10
7.191071
 20
1.432231
 30
0.000000
  0
VERTEX
  8
LAYER-1
 10
7.191071
 20
1.432231
 30
0.000000
  0
VERTEX
  8
LAYER-1
 10
4.434125
 20
1.432231
 30
0.000000
  0
SEQEND
  8
LAYER-1
  0
ENDSEC
  0
EOF
