  0
SECTION
  2
HEADER
999
MacDraft 5.0\0
  9
$ACADVER
  1
AC1006
  9
$CLAYER
  8
MERGEDLAYER-1
  9
$EXTMIN
 10
0.000000
 20
0.000000
  9
$EXTMAX
 10
10.660908
 20
8.104756
  9
$FASTZOOM
 70
0
  9
$FILLMODE
 70
1
  0
ENDSEC
  0
SECTION
  2
TABLES
  0
TABLE
  2
LTYPE
 70
16
  0
LTYPE
  2
CONTINUOUS
 70
64
  3
Solid Line
 72
65
 73
0
 40
0.000000
  0
LTYPE
  2
LTYPE01
 70
64
  3
CUSTOM
 72
65
 73
2
 40
0.080000
 49
0.060000
 49
-0.020000
  0
LTYPE
  2
LTYPE02
 70
64
  3
CUSTOM
 72
65
 73
2
 40
0.140000
 49
0.120000
 49
-0.020000
  0
LTYPE
  2
LTYPE03
 70
64
  3
CUSTOM
 72
65
 73
2
 40
0.270000
 49
0.240000
 49
-0.030000
  0
LTYPE
  2
LTYPE04
 70
64
  3
CUSTOM
 72
65
 73
2
 40
0.520000
 49
0.480000
 49
-0.040000
  0
LTYPE
  2
LTYPE05
 70
64
  3
CUSTOM
 72
65
 73
4
 40
0.110000
 49
0.060000
 49
-0.020000
 49
0.010000
 49
-0.020000
  0
LTYPE
  2
LTYPE06
 70
64
  3
CUSTOM
 72
65
 73
4
 40
0.170000
 49
0.120000
 49
-0.020000
 49
0.010000
 49
-0.020000
  0
LTYPE
  2
LTYPE07
 70
64
  3
CUSTOM
 72
65
 73
4
 40
0.320000
 49
0.240000
 49
-0.030000
 49
0.020000
 49
-0.030000
  0
LTYPE
  2
LTYPE08
 70
64
  3
CUSTOM
 72
65
 73
4
 40
0.580000
 49
0.480000
 49
-0.040000
 49
0.020000
 49
-0.040000
  0
LTYPE
  2
LTYPE09
 70
64
  3
CUSTOM
 72
65
 73
6
 40
0.140000
 49
0.060000
 49
-0.020000
 49
0.010000
 49
-0.020000
 49
0.010000
 49
-0.020000
  0
LTYPE
  2
LTYPE10
 70
64
  3
CUSTOM
 72
65
 73
6
 40
0.200000
 49
0.120000
 49
-0.020000
 49
0.010000
 49
-0.020000
 49
0.010000
 49
-0.020000
  0
LTYPE
  2
LTYPE11
 70
64
  3
CUSTOM
 72
65
 73
6
 40
0.360000
 49
0.240000
 49
-0.030000
 49
0.020000
 49
-0.020000
 49
0.020000
 49
-0.030000
  0
LTYPE
  2
LTYPE12
 70
64
  3
CUSTOM
 72
65
 73
6
 40
0.620000
 49
0.480000
 49
-0.040000
 49
0.020000
 49
-0.020000
 49
0.020000
 49
-0.040000
  0
LTYPE
  2
LTYPE13
 70
64
  3
CUSTOM
 72
65
 73
8
 40
0.230000
 49
0.120000
 49
-0.020000
 49
0.010000
 49
-0.020000
 49
0.010000
 49
-0.020000
 49
0.010000
 49
-0.020000
  0
LTYPE
  2
LTYPE14
 70
64
  3
CUSTOM
 72
65
 73
8
 40
0.400000
 49
0.240000
 49
-0.030000
 49
0.020000
 49
-0.020000
 49
0.020000
 49
-0.020000
 49
0.020000
 49
-0.030000
  0
LTYPE
  2
LTYPE15
 70
64
  3
CUSTOM
 72
65
 73
8
 40
0.680000
 49
0.480000
 49
-0.040000
 49
0.020000
 49
-0.030000
 49
0.020000
 49
-0.030000
 49
0.020000
 49
-0.040000
  0
ENDTAB
  0
TABLE
  2
LAYER
 70
1
  0
LAYER
  2
MERGEDLAYER-1
 70
0
 62
7
  6
CONTINUOUS
  0
ENDTAB
  0
ENDSEC
  0
SECTION
  2
BLOCKS
  0
ENDSEC
  0
SECTION
  2
ENTITIES
  0
POLYLINE
  8
MERGEDLAYER-1
 66
  1
 70
  1
 62
  7
  0
VERTEX
  8
MERGEDLAYER-1
 10
3.493705
 20
6.397681
 30
0.000000
  0
VERTEX
  8
MERGEDLAYER-1
 10
3.577433
 20
6.397681
 30
0.000000
  0
VERTEX
  8
MERGEDLAYER-1
 10
3.577433
 20
4.486399
 30
0.000000
  0
VERTEX
  8
MERGEDLAYER-1
 10
3.493705
 20
4.486399
 30
0.000000
  0
SEQEND
  8
MERGEDLAYER-1
  0
POLYLINE
  8
MERGEDLAYER-1
 66
  1
 70
  1
 62
  7
  0
VERTEX
  8
MERGEDLAYER-1
 10
0.840412
 20
6.397681
 30
0.000000
  0
VERTEX
  8
MERGEDLAYER-1
 10
0.920020
 20
6.397681
 30
0.000000
  0
VERTEX
  8
MERGEDLAYER-1
 10
0.920020
 20
4.486736
 30
0.000000
  0
VERTEX
  8
MERGEDLAYER-1
 10
0.840412
 20
4.486736
 30
0.000000
  0
SEQEND
  8
MERGEDLAYER-1
  0
POLYLINE
  8
MERGEDLAYER-1
 66
  1
 70
  0
 62
  7
 10
0.920117
 20
4.611777
 30
0.000000
  0
VERTEX
  8
MERGEDLAYER-1
 10
0.920117
 20
4.611777
 30
0.000000
  0
VERTEX
  8
MERGEDLAYER-1
 10
3.493705
 20
4.611833
 30
0.000000
  0
SEQEND
  8
MERGEDLAYER-1
  0
POLYLINE
  8
MERGEDLAYER-1
 66
  1
 70
  0
 62
  7
 10
0.920117
 20
4.523796
 30
0.000000
  0
VERTEX
  8
MERGEDLAYER-1
 10
0.920117
 20
4.523796
 30
0.000000
  0
VERTEX
  8
MERGEDLAYER-1
 10
3.493707
 20
4.523796
 30
0.000000
  0
SEQEND
  8
MERGEDLAYER-1
  0
POLYLINE
  8
MERGEDLAYER-1
 66
  1
 70
  0
 62
  7
 10
0.920117
 20
4.511660
 30
0.000000
  0
VERTEX
  8
MERGEDLAYER-1
 10
0.920117
 20
4.511660
 30
0.000000
  0
VERTEX
  8
MERGEDLAYER-1
 10
3.493707
 20
4.511660
 30
0.000000
  0
SEQEND
  8
MERGEDLAYER-1
  0
POLYLINE
  8
MERGEDLAYER-1
 66
  1
 70
  0
 62
  7
 10
0.919920
 20
6.393083
 30
0.000000
  0
VERTEX
  8
MERGEDLAYER-1
 10
0.919920
 20
6.393083
 30
0.000000
  0
VERTEX
  8
MERGEDLAYER-1
 10
0.871041
 20
6.393124
 30
0.000000
  0
SEQEND
  8
MERGEDLAYER-1
  0
POLYLINE
  8
MERGEDLAYER-1
 66
  1
 70
  1
 62
  7
  0
VERTEX
  8
MERGEDLAYER-1
 10
0.927173
 20
6.371961
 30
0.000000
  0
VERTEX
  8
MERGEDLAYER-1
 10
0.965367
 20
6.371961
 30
0.000000
  0
VERTEX
  8
MERGEDLAYER-1
 10
0.965367
 20
6.334527
 30
0.000000
  0
VERTEX
  8
MERGEDLAYER-1
 10
0.927173
 20
6.334527
 30
0.000000
  0
SEQEND
  8
MERGEDLAYER-1
  0
POLYLINE
  8
MERGEDLAYER-1
 66
  1
 70
  1
 62
  7
  0
VERTEX
  8
MERGEDLAYER-1
 10
0.847104
 20
6.371961
 30
0.000000
  0
VERTEX
  8
MERGEDLAYER-1
 10
0.927173
 20
6.371961
 30
0.000000
  0
VERTEX
  8
MERGEDLAYER-1
 10
0.927173
 20
6.334527
 30
0.000000
  0
VERTEX
  8
MERGEDLAYER-1
 10
0.847104
 20
6.334527
 30
0.000000
  0
SEQEND
  8
MERGEDLAYER-1
  0
POLYLINE
  8
MERGEDLAYER-1
 66
  1
 70
  1
 62
  7
  0
VERTEX
  8
MERGEDLAYER-1
 10
3.490560
 20
6.334526
 30
0.000000
  0
VERTEX
  8
MERGEDLAYER-1
 10
3.452366
 20
6.334526
 30
0.000000
  0
VERTEX
  8
MERGEDLAYER-1
 10
3.452366
 20
6.371960
 30
0.000000
  0
VERTEX
  8
MERGEDLAYER-1
 10
3.490560
 20
6.371960
 30
0.000000
  0
SEQEND
  8
MERGEDLAYER-1
  0
POLYLINE
  8
MERGEDLAYER-1
 66
  1
 70
  1
 62
  7
  0
VERTEX
  8
MERGEDLAYER-1
 10
3.570629
 20
6.334526
 30
0.000000
  0
VERTEX
  8
MERGEDLAYER-1
 10
3.490560
 20
6.334526
 30
0.000000
  0
VERTEX
  8
MERGEDLAYER-1
 10
3.490560
 20
6.371960
 30
0.000000
  0
VERTEX
  8
MERGEDLAYER-1
 10
3.570629
 20
6.371960
 30
0.000000
  0
SEQEND
  8
MERGEDLAYER-1
  0
POLYLINE
  8
MERGEDLAYER-1
 66
  1
 70
  0
 62
  7
 10
0.870875
 20
6.397857
 30
0.000000
  0
VERTEX
  8
MERGEDLAYER-1
 10
0.870875
 20
6.397857
 30
0.000000
  0
VERTEX
  8
MERGEDLAYER-1
 10
0.870875
 20
6.372250
 30
0.000000
  0
SEQEND
  8
MERGEDLAYER-1
  0
POLYLINE
  8
MERGEDLAYER-1
 66
  1
 70
  0
 62
  7
 10
3.493705
 20
6.393083
 30
0.000000
  0
VERTEX
  8
MERGEDLAYER-1
 10
3.493705
 20
6.393083
 30
0.000000
  0
VERTEX
  8
MERGEDLAYER-1
 10
3.542584
 20
6.393124
 30
0.000000
  0
SEQEND
  8
MERGEDLAYER-1
  0
POLYLINE
  8
MERGEDLAYER-1
 66
  1
 70
  0
 62
  7
 10
3.542750
 20
6.397857
 30
0.000000
  0
VERTEX
  8
MERGEDLAYER-1
 10
3.542750
 20
6.397857
 30
0.000000
  0
VERTEX
  8
MERGEDLAYER-1
 10
3.542750
 20
6.372250
 30
0.000000
  0
SEQEND
  8
MERGEDLAYER-1
  0
POLYLINE
  8
MERGEDLAYER-1
  6
LTYPE02
 66
  1
 70
  0
 62
  7
  6
LTYPE02
 10
6.023864
 20
6.394979
 30
0.000000
  0
VERTEX
  8
MERGEDLAYER-1
  6
LTYPE02
 10
6.023864
 20
6.394979
 30
0.000000
  0
VERTEX
  8
MERGEDLAYER-1
  6
LTYPE02
 10
6.023864
 20
4.576605
 30
0.000000
  0
SEQEND
  8
MERGEDLAYER-1
  0
POLYLINE
  8
MERGEDLAYER-1
 66
  1
 70
  0
 62
  7
 10
5.993912
 20
4.485663
 30
0.000000
  0
VERTEX
  8
MERGEDLAYER-1
 10
5.993912
 20
4.485663
 30
0.000000
  0
VERTEX
  8
MERGEDLAYER-1
 10
5.993912
 20
6.395761
 30
0.000000
  0
SEQEND
  8
MERGEDLAYER-1
  0
POLYLINE
  8
MERGEDLAYER-1
 66
  1
 70
  0
 62
  7
 10
6.052231
 20
6.394979
 30
0.000000
  0
VERTEX
  8
MERGEDLAYER-1
 10
6.052231
 20
6.394979
 30
0.000000
  0
VERTEX
  8
MERGEDLAYER-1
 10
6.052231
 20
4.486980
 30
0.000000
  0
SEQEND
  8
MERGEDLAYER-1
  0
TEXT
  8
MERGEDLAYER-1
 62
  7
 10
7.473150
 20
4.754576
 30
0.000000
 40
0.090000
  1
HAUTEUR PLAFOND
 50
90.000000
 72
  5
 11
7.473150
 21
6.354576
 31
0.000000
  0
POLYLINE
  8
MERGEDLAYER-1
 66
  1
 70
  1
 62
  7
  0
VERTEX
  8
MERGEDLAYER-1
 10
6.139844
 20
6.310433
 30
0.000000
  0
VERTEX
  8
MERGEDLAYER-1
 10
7.467567
 20
6.310433
 30
0.000000
  0
VERTEX
  8
MERGEDLAYER-1
 10
7.467567
 20
6.284761
 30
0.000000
  0
VERTEX
  8
MERGEDLAYER-1
 10
6.139844
 20
6.284761
 30
0.000000
  0
SEQEND
  8
MERGEDLAYER-1
  0
POLYLINE
  8
MERGEDLAYER-1
  6
LTYPE04
 66
  1
 70
  0
 62
  7
  6
LTYPE04
 10
5.549399
 20
7.895687
 30
0.000000
  0
VERTEX
  8
MERGEDLAYER-1
  6
LTYPE04
 10
5.549399
 20
7.895687
 30
0.000000
  0
VERTEX
  8
MERGEDLAYER-1
  6
LTYPE04
 10
5.438149
 20
7.788048
 30
0.000000
  0
SEQEND
  8
MERGEDLAYER-1
  0
POLYLINE
  8
MERGEDLAYER-1
 66
  1
 70
  0
 62
  7
 10
5.795788
 20
7.423465
 30
0.000000
  0
VERTEX
  8
MERGEDLAYER-1
 10
5.795788
 20
7.423465
 30
0.000000
  0
VERTEX
  8
MERGEDLAYER-1
 10
5.394885
 20
7.020687
 30
0.000000
  0
SEQEND
  8
MERGEDLAYER-1
  0
POLYLINE
  8
MERGEDLAYER-1
 66
  1
 70
  0
 62
  7
 10
6.275093
 20
7.899159
 30
0.000000
  0
VERTEX
  8
MERGEDLAYER-1
 10
6.275093
 20
7.899159
 30
0.000000
  0
VERTEX
  8
MERGEDLAYER-1
 10
6.101482
 20
7.725548
 30
0.000000
  0
SEQEND
  8
MERGEDLAYER-1
  0
POLYLINE
  8
MERGEDLAYER-1
 66
  1
 70
  0
 62
  7
 10
7.469399
 20
6.913048
 30
0.000000
  0
VERTEX
  8
MERGEDLAYER-1
 10
7.469399
 20
6.913048
 30
0.000000
  0
VERTEX
  8
MERGEDLAYER-1
 10
7.108288
 20
6.555409
 30
0.000000
  0
SEQEND
  8
MERGEDLAYER-1
  0
POLYLINE
  8
MERGEDLAYER-1
 66
  1
 70
  0
 62
  7
 10
6.865233
 20
6.310618
 30
0.000000
  0
VERTEX
  8
MERGEDLAYER-1
 10
6.865233
 20
6.310618
 30
0.000000
  0
VERTEX
  8
MERGEDLAYER-1
 10
6.924260
 20
6.367909
 30
0.000000
  0
SEQEND
  8
MERGEDLAYER-1
  0
POLYLINE
  8
MERGEDLAYER-1
 66
  1
 70
  0
 62
  7
 10
5.450258
 20
6.310786
 30
0.000000
  0
VERTEX
  8
MERGEDLAYER-1
 10
5.450258
 20
6.310786
 30
0.000000
  0
VERTEX
  8
MERGEDLAYER-1
 10
5.514538
 20
6.375066
 30
0.000000
  0
SEQEND
  8
MERGEDLAYER-1
  0
POLYLINE
  8
MERGEDLAYER-1
 66
  1
 70
  0
 62
  7
 10
6.667316
 20
7.531104
 30
0.000000
  0
VERTEX
  8
MERGEDLAYER-1
 10
6.667316
 20
7.531104
 30
0.000000
  0
VERTEX
  8
MERGEDLAYER-1
 10
6.925996
 20
7.789784
 30
0.000000
  0
SEQEND
  8
MERGEDLAYER-1
  0
TEXT
  8
MERGEDLAYER-1
 62
  7
 10
4.653150
 20
5.224576
 30
0.000000
 40
0.090000
  1
HAUTEUR SUPPORT "HS"
 50
90.000000
 72
  5
 11
4.653150
 21
7.204576
 31
0.000000
  0
POLYLINE
  8
MERGEDLAYER-1
 66
  1
 70
  1
 62
  7
  0
VERTEX
  8
MERGEDLAYER-1
 10
1.393272
 20
2.519221
 30
0.000000
  0
VERTEX
  8
MERGEDLAYER-1
 10
1.422521
 20
2.519221
 30
0.000000
  0
VERTEX
  8
MERGEDLAYER-1
 10
1.422521
 20
0.386803
 30
0.000000
  0
VERTEX
  8
MERGEDLAYER-1
 10
1.393272
 20
0.386803
 30
0.000000
  0
SEQEND
  8
MERGEDLAYER-1
  0
TEXT
  8
MERGEDLAYER-1
 62
  7
 10
3.073150
 20
0.124576
 30
0.000000
 40
0.120000
  1
VUE EN PLAN
 72
  5
 11
4.613150
 21
0.124576
 31
0.000000
  0
POLYLINE
  8
MERGEDLAYER-1
 66
  1
 70
  1
 62
  7
  0
VERTEX
  8
MERGEDLAYER-1
 10
6.195126
 20
2.518349
 30
0.000000
  0
VERTEX
  8
MERGEDLAYER-1
 10
6.224375
 20
2.518349
 30
0.000000
  0
VERTEX
  8
MERGEDLAYER-1
 10
6.224375
 20
0.385932
 30
0.000000
  0
VERTEX
  8
MERGEDLAYER-1
 10
6.195126
 20
0.385932
 30
0.000000
  0
SEQEND
  8
MERGEDLAYER-1
  0
POLYLINE
  8
MERGEDLAYER-1
 66
  1
 70
  1
 62
  7
  0
VERTEX
  8
MERGEDLAYER-1
 10
0.151066
 20
7.958604
 30
0.000000
  0
VERTEX
  8
MERGEDLAYER-1
 10
4.256166
 20
7.958604
 30
0.000000
  0
VERTEX
  8
MERGEDLAYER-1
 10
4.256166
 20
7.899080
 30
0.000000
  0
VERTEX
  8
MERGEDLAYER-1
 10
0.151066
 20
7.899080
 30
0.000000
  0
SEQEND
  8
MERGEDLAYER-1
  0
TEXT
  8
MERGEDLAYER-1
 62
  7
 10
2.113150
 20
7.564576
 30
0.000000
 40
0.067500
  1
STRUCTURE
 72
  5
 11
2.913150
 21
7.564576
 31
0.000000
  0
POLYLINE
  8
MERGEDLAYER-1
 66
  1
 70
  0
 62
  7
 10
2.206106
 20
7.878458
 30
0.000000
  0
VERTEX
  8
MERGEDLAYER-1
 10
2.206106
 20
7.878458
 30
0.000000
  0
VERTEX
  8
MERGEDLAYER-1
 10
2.206107
 20
7.688073
 30
0.000000
  0
SEQEND
  8
MERGEDLAYER-1
  0
POLYLINE
  8
MERGEDLAYER-1
 66
  1
 70
  1
 62
  7
  0
VERTEX
  8
MERGEDLAYER-1
 10
2.206106
 20
7.898143
 30
0.000000
  0
VERTEX
  8
MERGEDLAYER-1
 10
2.176106
 20
7.848143
 30
0.000000
  0
VERTEX
  8
MERGEDLAYER-1
 10
2.206106
 20
7.848143
 30
0.000000
  0
VERTEX
  8
MERGEDLAYER-1
 10
2.236106
 20
7.848143
 30
0.000000
  0
VERTEX
  8
MERGEDLAYER-1
 10
2.206106
 20
7.898143
 30
0.000000
  0
SEQEND
  8
MERGEDLAYER-1
  0
LINE
  8
MERGEDLAYER-1
 62
  7
 10
4.873398
 20
4.507238
 30
0.000000
 11
4.873398
 21
7.879326
 31
0.000000
  0
LINE
  8
MERGEDLAYER-1
 62
  7
 10
5.329127
 20
4.487552
 30
0.000000
 11
4.748398
 21
4.487552
 31
0.000000
  0
LINE
  8
MERGEDLAYER-1
 62
  7
 10
5.169405
 20
7.899011
 30
0.000000
 11
4.748398
 21
7.899011
 31
0.000000
  0
LINE
  8
MERGEDLAYER-1
 62
  7
 10
4.873398
 20
5.948270
 30
0.000000
 11
4.873398
 21
4.487552
 31
0.000000
  0
POLYLINE
  8
MERGEDLAYER-1
 66
  1
 70
  1
 62
  7
  0
VERTEX
  8
MERGEDLAYER-1
 10
4.873398
 20
4.487552
 30
0.000000
  0
VERTEX
  8
MERGEDLAYER-1
 10
4.903398
 20
4.537552
 30
0.000000
  0
VERTEX
  8
MERGEDLAYER-1
 10
4.873398
 20
4.537552
 30
0.000000
  0
VERTEX
  8
MERGEDLAYER-1
 10
4.843398
 20
4.537552
 30
0.000000
  0
VERTEX
  8
MERGEDLAYER-1
 10
4.873398
 20
4.487552
 30
0.000000
  0
SEQEND
  8
MERGEDLAYER-1
  0
POLYLINE
  8
MERGEDLAYER-1
 66
  1
 70
  1
 62
  7
  0
VERTEX
  8
MERGEDLAYER-1
 10
4.873398
 20
7.899011
 30
0.000000
  0
VERTEX
  8
MERGEDLAYER-1
 10
4.903398
 20
7.849011
 30
0.000000
  0
VERTEX
  8
MERGEDLAYER-1
 10
4.873398
 20
7.849011
 30
0.000000
  0
VERTEX
  8
MERGEDLAYER-1
 10
4.843398
 20
7.849011
 30
0.000000
  0
VERTEX
  8
MERGEDLAYER-1
 10
4.873398
 20
7.899011
 30
0.000000
  0
SEQEND
  8
MERGEDLAYER-1
  0
TEXT
  8
MERGEDLAYER-1
 62
  7
 10
4.904809
 20
6.035266
 30
0.000000
 40
0.090000
  1
 
 50
90.000000
  0
POLYLINE
  8
MERGEDLAYER-1
 66
  1
 70
  1
 62
  7
  0
VERTEX
  8
MERGEDLAYER-1
 10
4.680171
 20
5.780446
 30
0.000000
  0
VERTEX
  8
MERGEDLAYER-1
 10
4.680171
 20
6.706371
 30
0.000000
  0
VERTEX
  8
MERGEDLAYER-1
 10
5.064972
 20
6.706371
 30
0.000000
  0
VERTEX
  8
MERGEDLAYER-1
 10
5.064972
 20
5.780446
 30
0.000000
  0
SEQEND
  8
MERGEDLAYER-1
  0
POLYLINE
  8
MERGEDLAYER-1
 66
  1
 70
  0
 62
  7
 40
0.030000
 41
0.030000
 10
5.040922
 20
6.700359
 30
0.000000
  0
VERTEX
  8
MERGEDLAYER-1
 10
5.040922
 20
6.700359
 30
0.000000
  0
VERTEX
  8
MERGEDLAYER-1
 10
5.040922
 20
5.780446
 30
0.000000
  0
SEQEND
  8
MERGEDLAYER-1
  0
TEXT
  8
MERGEDLAYER-1
 62
  7
 10
2.743150
 20
2.694576
 30
0.000000
 40
0.090000
  1
LARGEUR TOTALE AVEC GUIDES "W"
 72
  5
 11
5.643150
 21
2.694576
 31
0.000000
  0
LINE
  8
MERGEDLAYER-1
 62
  7
 10
5.953149
 20
5.132187
 30
0.000000
 11
6.021835
 21
5.132187
 31
0.000000
  0
LINE
  8
MERGEDLAYER-1
 62
  7
 10
5.953149
 20
5.332076
 30
0.000000
 11
5.953149
 21
5.007187
 31
0.000000
  0
LINE
  8
MERGEDLAYER-1
 62
  7
 10
6.021835
 20
5.132187
 30
0.000000
 11
6.419451
 21
5.132187
 31
0.000000
  0
LINE
  8
MERGEDLAYER-1
 62
  7
 10
5.974362
 20
5.153401
 30
0.000000
 11
5.931935
 21
5.110974
 31
0.000000
  0
LINE
  8
MERGEDLAYER-1
 62
  7
 10
6.043049
 20
5.153401
 30
0.000000
 11
6.000622
 21
5.110974
 31
0.000000
  0
TEXT
  8
MERGEDLAYER-1
 62
  7
 10
6.234409
 20
5.217647
 30
0.000000
 40
0.067500
  1
"Z"
  0
TEXT
  8
MERGEDLAYER-1
 62
  7
 10
6.183150
 20
5.024576
 30
0.000000
 40
0.067500
  1
RECUL
 72
  5
 11
6.653150
 21
5.024576
 31
0.000000
  0
TEXT
  8
MERGEDLAYER-1
 62
  7
 10
6.913150
 20
2.284576
 30
0.000000
 40
0.090000
  1
"Z"
 72
  5
 11
7.173150
 21
2.284576
 31
0.000000
  0
LINE
  8
MERGEDLAYER-1
 62
  7
 10
6.897947
 20
2.220745
 30
0.000000
 11
6.897947
 21
2.496744
 31
0.000000
  0
LINE
  8
MERGEDLAYER-1
 62
  7
 10
6.081176
 20
2.201060
 30
0.000000
 11
7.022947
 21
2.201060
 31
0.000000
  0
LINE
  8
MERGEDLAYER-1
 62
  7
 10
6.284728
 20
2.516429
 30
0.000000
 11
7.022947
 21
2.516429
 31
0.000000
  0
LINE
  8
MERGEDLAYER-1
 62
  7
 10
6.897947
 20
2.444185
 30
0.000000
 11
6.897947
 21
2.201060
 31
0.000000
  0
POLYLINE
  8
MERGEDLAYER-1
 66
  1
 70
  1
 62
  7
  0
VERTEX
  8
MERGEDLAYER-1
 10
6.897947
 20
2.201060
 30
0.000000
  0
VERTEX
  8
MERGEDLAYER-1
 10
6.927947
 20
2.251060
 30
0.000000
  0
VERTEX
  8
MERGEDLAYER-1
 10
6.897947
 20
2.251060
 30
0.000000
  0
VERTEX
  8
MERGEDLAYER-1
 10
6.867947
 20
2.251060
 30
0.000000
  0
VERTEX
  8
MERGEDLAYER-1
 10
6.897947
 20
2.201060
 30
0.000000
  0
SEQEND
  8
MERGEDLAYER-1
  0
POLYLINE
  8
MERGEDLAYER-1
 66
  1
 70
  1
 62
  7
  0
VERTEX
  8
MERGEDLAYER-1
 10
6.897947
 20
2.516429
 30
0.000000
  0
VERTEX
  8
MERGEDLAYER-1
 10
6.927947
 20
2.466429
 30
0.000000
  0
VERTEX
  8
MERGEDLAYER-1
 10
6.897947
 20
2.466429
 30
0.000000
  0
VERTEX
  8
MERGEDLAYER-1
 10
6.867947
 20
2.466429
 30
0.000000
  0
VERTEX
  8
MERGEDLAYER-1
 10
6.897947
 20
2.516429
 30
0.000000
  0
SEQEND
  8
MERGEDLAYER-1
  0
TEXT
  8
MERGEDLAYER-1
 62
  7
 10
7.016708
 20
2.354916
 30
0.000000
 40
0.067500
  1
 
 50
90.000000
  0
TEXT
  8
MERGEDLAYER-1
 62
  7
 10
5.373150
 20
6.164576
 30
0.000000
 40
0.067500
  1
PLAFOND
 72
  5
 11
5.983150
 21
6.164576
 31
0.000000
  0
TEXT
  8
MERGEDLAYER-1
 62
  7
 10
5.373150
 20
6.024576
 30
0.000000
 40
0.067500
  1
FINI
 72
  5
 11
5.643150
 21
6.024576
 31
0.000000
  0
POLYLINE
  8
MERGEDLAYER-1
 66
  1
 70
  1
 62
  7
  0
VERTEX
  8
MERGEDLAYER-1
 10
0.840412
 20
6.969126
 30
0.000000
  0
VERTEX
  8
MERGEDLAYER-1
 10
0.846835
 20
6.969126
 30
0.000000
  0
VERTEX
  8
MERGEDLAYER-1
 10
0.846835
 20
6.397681
 30
0.000000
  0
VERTEX
  8
MERGEDLAYER-1
 10
0.840412
 20
6.397681
 30
0.000000
  0
SEQEND
  8
MERGEDLAYER-1
  0
POLYLINE
  8
MERGEDLAYER-1
 66
  1
 70
  1
 62
  7
  0
VERTEX
  8
MERGEDLAYER-1
 10
3.571009
 20
6.969126
 30
0.000000
  0
VERTEX
  8
MERGEDLAYER-1
 10
3.577433
 20
6.969126
 30
0.000000
  0
VERTEX
  8
MERGEDLAYER-1
 10
3.577433
 20
6.397681
 30
0.000000
  0
VERTEX
  8
MERGEDLAYER-1
 10
3.571009
 20
6.397681
 30
0.000000
  0
SEQEND
  8
MERGEDLAYER-1
  0
POLYLINE
  8
MERGEDLAYER-1
 66
  1
 70
  0
 62
  7
 40
0.020000
 41
0.020000
 10
0.155840
 20
4.487253
 30
0.000000
  0
VERTEX
  8
MERGEDLAYER-1
 10
0.155840
 20
4.487253
 30
0.000000
  0
VERTEX
  8
MERGEDLAYER-1
 10
4.261066
 20
4.485965
 30
0.000000
  0
SEQEND
  8
MERGEDLAYER-1
  0
TEXT
  8
MERGEDLAYER-1
 62
  7
 10
2.913150
 20
0.494576
 30
0.000000
 40
0.097500
  1
INTƒRIEUR ( CïTƒ SƒCURE )
 72
  5
 11
5.503150
 21
0.494576
 31
0.000000
  0
TEXT
  8
MERGEDLAYER-1
 62
  7
 10
2.003150
 20
1.874576
 30
0.000000
 40
0.067500
  1
BARRE DU BAS
 72
  5
 11
2.933150
 21
1.874576
 31
0.000000
  0
TEXT
  8
MERGEDLAYER-1
 62
  7
 10
1.103150
 20
4.054576
 30
0.000000
 40
0.097500
  1
ƒLƒVATION CïTƒ BARIL
 72
  5
 11
3.333150
 21
4.054576
 31
0.000000
  0
TEXT
  8
MERGEDLAYER-1
 62
  7
 10
1.693150
 20
3.854576
 30
0.000000
 40
0.090000
  1
( INTƒRIEUR )
 72
  5
 11
2.733150
 21
3.854576
 31
0.000000
  0
TEXT
  8
MERGEDLAYER-1
 62
  7
 10
5.583150
 20
4.054576
 30
0.000000
 40
0.097500
  1
SECTION
 72
  5
 11
6.433150
 21
4.054576
 31
0.000000
  0
TEXT
  8
MERGEDLAYER-1
 62
  7
 10
0.233150
 20
0.284576
 30
0.000000
 40
0.067500
  1
3/16" (5mm)
 72
  5
 11
0.963150
 21
0.284576
 31
0.000000
  0
TEXT
  8
MERGEDLAYER-1
 62
  7
 10
0.233150
 20
0.144576
 30
0.000000
 40
0.067500
  1
PLAQUE D'EXTRƒMITƒ
 72
  5
 11
1.563150
 21
0.144576
 31
0.000000
  0
TEXT
  8
MERGEDLAYER-1
 62
  7
 10
3.063150
 20
4.374576
 30
0.000000
 40
0.067500
  1
BARRE
 72
  5
 11
3.523150
 21
4.374576
 31
0.000000
  0
TEXT
  8
MERGEDLAYER-1
 62
  7
 10
3.063150
 20
4.234576
 30
0.000000
 40
0.067500
  1
DU BAS
 72
  5
 11
3.553150
 21
4.234576
 31
0.000000
  0
POLYLINE
  8
MERGEDLAYER-1
 66
  1
 70
  0
 62
  7
 10
3.009330
 20
4.468016
 30
0.000000
  0
VERTEX
  8
MERGEDLAYER-1
 10
3.009330
 20
4.468016
 30
0.000000
  0
VERTEX
  8
MERGEDLAYER-1
 10
3.009330
 20
4.321034
 30
0.000000
  0
SEQEND
  8
MERGEDLAYER-1
  0
POLYLINE
  8
MERGEDLAYER-1
 66
  1
 70
  1
 62
  7
  0
VERTEX
  8
MERGEDLAYER-1
 10
3.009330
 20
4.487701
 30
0.000000
  0
VERTEX
  8
MERGEDLAYER-1
 10
2.979330
 20
4.437701
 30
0.000000
  0
VERTEX
  8
MERGEDLAYER-1
 10
3.009330
 20
4.437701
 30
0.000000
  0
VERTEX
  8
MERGEDLAYER-1
 10
3.039330
 20
4.437701
 30
0.000000
  0
VERTEX
  8
MERGEDLAYER-1
 10
3.009330
 20
4.487701
 30
0.000000
  0
SEQEND
  8
MERGEDLAYER-1
  0
TEXT
  8
MERGEDLAYER-1
 62
  7
 10
0.133150
 20
4.374576
 30
0.000000
 40
0.067500
  1
PLANCHER
 72
  5
 11
0.843150
 21
4.374576
 31
0.000000
  0
TEXT
  8
MERGEDLAYER-1
 62
  7
 10
0.133150
 20
4.234576
 30
0.000000
 40
0.067500
  1
NON FINI
 72
  5
 11
0.703150
 21
4.234576
 31
0.000000
  0
TEXT
  8
MERGEDLAYER-1
 62
  7
 10
0.133150
 20
4.094576
 30
0.000000
 40
0.067500
  1
*DOIT æTRE
 72
  5
 11
0.863150
 21
4.094576
 31
0.000000
  0
TEXT
  8
MERGEDLAYER-1
 62
  7
 10
0.983150
 20
4.334576
 30
0.000000
 40
0.067500
  1
GUIDE
 72
  5
 11
1.413150
 21
4.334576
 31
0.000000
  0
TEXT
  8
MERGEDLAYER-1
 62
  7
 10
0.983150
 20
4.194576
 30
0.000000
 40
0.067500
  1
D'ALUMINIUM
 72
  5
 11
1.793150
 21
4.194576
 31
0.000000
  0
POLYLINE
  8
MERGEDLAYER-1
 66
  1
 70
  0
 62
  7
 10
0.885987
 20
4.329715
 30
0.000000
  0
VERTEX
  8
MERGEDLAYER-1
 10
0.885987
 20
4.329715
 30
0.000000
  0
VERTEX
  8
MERGEDLAYER-1
 10
0.886131
 20
4.463883
 30
0.000000
  0
SEQEND
  8
MERGEDLAYER-1
  0
POLYLINE
  8
MERGEDLAYER-1
 66
  1
 70
  1
 62
  7
  0
VERTEX
  8
MERGEDLAYER-1
 10
0.886152
 20
4.483568
 30
0.000000
  0
VERTEX
  8
MERGEDLAYER-1
 10
0.916099
 20
4.433536
 30
0.000000
  0
VERTEX
  8
MERGEDLAYER-1
 10
0.886099
 20
4.433568
 30
0.000000
  0
VERTEX
  8
MERGEDLAYER-1
 10
0.856099
 20
4.433600
 30
0.000000
  0
VERTEX
  8
MERGEDLAYER-1
 10
0.886152
 20
4.483568
 30
0.000000
  0
SEQEND
  8
MERGEDLAYER-1
  0
POLYLINE
  8
MERGEDLAYER-1
 66
  1
 70
  0
 62
  7
 10
0.885987
 20
4.329715
 30
0.000000
  0
VERTEX
  8
MERGEDLAYER-1
 10
0.885987
 20
4.329715
 30
0.000000
  0
VERTEX
  8
MERGEDLAYER-1
 10
0.956761
 20
4.329715
 30
0.000000
  0
SEQEND
  8
MERGEDLAYER-1
  0
LINE
  8
MERGEDLAYER-1
 62
  7
 10
1.415869
 20
3.069754
 30
0.000000
 11
6.205944
 21
3.069754
 31
0.000000
  0
LINE
  8
MERGEDLAYER-1
 62
  7
 10
1.396183
 20
2.578677
 30
0.000000
 11
1.396183
 21
3.194754
 31
0.000000
  0
LINE
  8
MERGEDLAYER-1
 62
  7
 10
6.225629
 20
2.578404
 30
0.000000
 11
6.225629
 21
3.194754
 31
0.000000
  0
POLYLINE
  8
MERGEDLAYER-1
 66
  1
 70
  1
 62
  7
  0
VERTEX
  8
MERGEDLAYER-1
 10
1.396183
 20
3.069754
 30
0.000000
  0
VERTEX
  8
MERGEDLAYER-1
 10
1.446184
 20
3.039755
 30
0.000000
  0
VERTEX
  8
MERGEDLAYER-1
 10
1.446183
 20
3.069755
 30
0.000000
  0
VERTEX
  8
MERGEDLAYER-1
 10
1.446183
 20
3.099755
 30
0.000000
  0
VERTEX
  8
MERGEDLAYER-1
 10
1.396183
 20
3.069754
 30
0.000000
  0
SEQEND
  8
MERGEDLAYER-1
  0
POLYLINE
  8
MERGEDLAYER-1
 66
  1
 70
  1
 62
  7
  0
VERTEX
  8
MERGEDLAYER-1
 10
6.225629
 20
3.069754
 30
0.000000
  0
VERTEX
  8
MERGEDLAYER-1
 10
6.175629
 20
3.039753
 30
0.000000
  0
VERTEX
  8
MERGEDLAYER-1
 10
6.175629
 20
3.069753
 30
0.000000
  0
VERTEX
  8
MERGEDLAYER-1
 10
6.175629
 20
3.099753
 30
0.000000
  0
VERTEX
  8
MERGEDLAYER-1
 10
6.225629
 20
3.069754
 30
0.000000
  0
SEQEND
  8
MERGEDLAYER-1
  0
TEXT
  8
MERGEDLAYER-1
 62
  7
 10
3.801338
 20
3.154655
 30
0.000000
 40
0.075000
  1
 
  0
TEXT
  8
MERGEDLAYER-1
 62
  7
 10
6.163150
 20
4.554576
 30
0.000000
 40
0.067500
  1
COMMERCE OU
 72
  5
 11
7.083150
 21
4.554576
 31
0.000000
  0
TEXT
  8
MERGEDLAYER-1
 62
  7
 10
6.163150
 20
4.344576
 30
0.000000
 40
0.067500
  1
INTƒRIEUR
 72
  5
 11
6.803150
 21
4.344576
 31
0.000000
  0
TEXT
  8
MERGEDLAYER-1
 62
  7
 10
5.373150
 20
4.554576
 30
0.000000
 40
0.067500
  1
MAIL OU
 72
  5
 11
5.903150
 21
4.554576
 31
0.000000
  0
TEXT
  8
MERGEDLAYER-1
 62
  7
 10
5.373150
 20
4.344576
 30
0.000000
 40
0.067500
  1
EXTƒRIEUR
 72
  5
 11
6.053150
 21
4.344576
 31
0.000000
  0
POLYLINE
  8
MERGEDLAYER-1
 66
  1
 70
  1
 62
  7
  0
VERTEX
  8
MERGEDLAYER-1
 10
5.396621
 20
6.311320
 30
0.000000
  0
VERTEX
  8
MERGEDLAYER-1
 10
5.924260
 20
6.311320
 30
0.000000
  0
VERTEX
  8
MERGEDLAYER-1
 10
5.924260
 20
6.285931
 30
0.000000
  0
VERTEX
  8
MERGEDLAYER-1
 10
5.396621
 20
6.285931
 30
0.000000
  0
SEQEND
  8
MERGEDLAYER-1
  0
POLYLINE
  8
MERGEDLAYER-1
 66
  1
 70
  0
 62
  7
 40
0.020000
 41
0.020000
 10
6.924260
 20
4.484229
 30
0.000000
  0
VERTEX
  8
MERGEDLAYER-1
 10
6.924260
 20
4.484229
 30
0.000000
  0
VERTEX
  8
MERGEDLAYER-1
 10
5.394017
 20
4.485096
 30
0.000000
  0
SEQEND
  8
MERGEDLAYER-1
  0
TEXT
  8
MERGEDLAYER-1
 62
  7
 10
5.663150
 20
4.724576
 30
0.000000
 40
0.090000
  1
HAUTEUR SOUS
 50
90.000000
 72
  5
 11
5.663150
 21
6.014576
 31
0.000000
  0
TEXT
  8
MERGEDLAYER-1
 62
  7
 10
5.853150
 20
4.884576
 30
0.000000
 40
0.090000
  1
PLAQUE "H"
 50
90.000000
 72
  5
 11
5.853150
 21
5.854576
 31
0.000000
  0
POLYLINE
  8
MERGEDLAYER-1
 66
  1
 70
  0
 62
  7
 10
4.123046
 20
0.837528
 30
0.000000
  0
VERTEX
  8
MERGEDLAYER-1
 10
4.123046
 20
0.837528
 30
0.000000
  0
VERTEX
  8
MERGEDLAYER-1
 10
4.273219
 20
0.633535
 30
0.000000
  0
SEQEND
  8
MERGEDLAYER-1
  0
POLYLINE
  8
MERGEDLAYER-1
 66
  1
 70
  0
 62
  7
 10
4.123046
 20
0.837528
 30
0.000000
  0
VERTEX
  8
MERGEDLAYER-1
 10
4.123046
 20
0.837528
 30
0.000000
  0
VERTEX
  8
MERGEDLAYER-1
 10
4.026217
 20
0.820818
 30
0.000000
  0
SEQEND
  8
MERGEDLAYER-1
  0
POLYLINE
  8
MERGEDLAYER-1
 66
  1
 70
  0
 62
  7
 10
4.168247
 20
0.924774
 30
0.000000
  0
VERTEX
  8
MERGEDLAYER-1
 10
4.168247
 20
0.924774
 30
0.000000
  0
VERTEX
  8
MERGEDLAYER-1
 10
4.070672
 20
0.907935
 30
0.000000
  0
SEQEND
  8
MERGEDLAYER-1
  0
POLYLINE
  8
MERGEDLAYER-1
 66
  1
 70
  0
 62
  7
 10
4.026217
 20
0.820818
 30
0.000000
  0
VERTEX
  8
MERGEDLAYER-1
 10
4.026217
 20
0.820818
 30
0.000000
  0
VERTEX
  8
MERGEDLAYER-1
 10
4.168247
 20
0.924774
 30
0.000000
  0
SEQEND
  8
MERGEDLAYER-1
  0
POLYLINE
  8
MERGEDLAYER-1
 66
  1
 70
  0
 62
  7
 10
4.011066
 20
0.989437
 30
0.000000
  0
VERTEX
  8
MERGEDLAYER-1
 10
4.011066
 20
0.989437
 30
0.000000
  0
VERTEX
  8
MERGEDLAYER-1
 10
4.070672
 20
0.907935
 30
0.000000
  0
SEQEND
  8
MERGEDLAYER-1
  0
POLYLINE
  8
MERGEDLAYER-1
 66
  1
 70
  0
 62
  7
 10
3.499370
 20
1.689313
 30
0.000000
  0
VERTEX
  8
MERGEDLAYER-1
 10
3.499370
 20
1.689313
 30
0.000000
  0
VERTEX
  8
MERGEDLAYER-1
 10
3.353080
 20
1.890479
 30
0.000000
  0
SEQEND
  8
MERGEDLAYER-1
  0
POLYLINE
  8
MERGEDLAYER-1
 66
  1
 70
  0
 62
  7
 10
3.454168
 20
1.602067
 30
0.000000
  0
VERTEX
  8
MERGEDLAYER-1
 10
3.454168
 20
1.602067
 30
0.000000
  0
VERTEX
  8
MERGEDLAYER-1
 10
3.550925
 20
1.618765
 30
0.000000
  0
SEQEND
  8
MERGEDLAYER-1
  0
POLYLINE
  8
MERGEDLAYER-1
 66
  1
 70
  0
 62
  7
 10
3.499370
 20
1.689313
 30
0.000000
  0
VERTEX
  8
MERGEDLAYER-1
 10
3.499370
 20
1.689313
 30
0.000000
  0
VERTEX
  8
MERGEDLAYER-1
 10
3.596198
 20
1.706024
 30
0.000000
  0
SEQEND
  8
MERGEDLAYER-1
  0
POLYLINE
  8
MERGEDLAYER-1
 66
  1
 70
  0
 62
  7
 10
3.454168
 20
1.602067
 30
0.000000
  0
VERTEX
  8
MERGEDLAYER-1
 10
3.454168
 20
1.602067
 30
0.000000
  0
VERTEX
  8
MERGEDLAYER-1
 10
3.596198
 20
1.706024
 30
0.000000
  0
SEQEND
  8
MERGEDLAYER-1
  0
TEXT
  8
MERGEDLAYER-1
 62
  7
 10
6.163150
 20
4.744576
 30
0.000000
 40
0.067500
  1
CïTƒ BARIL
 72
  5
 11
6.893150
 21
4.744576
 31
0.000000
  0
POLYLINE
  8
MERGEDLAYER-1
 66
  1
 70
  0
 62
  7
 10
3.009330
 20
4.321034
 30
0.000000
  0
VERTEX
  8
MERGEDLAYER-1
 10
3.009330
 20
4.321034
 30
0.000000
  0
VERTEX
  8
MERGEDLAYER-1
 10
3.057941
 20
4.321034
 30
0.000000
  0
SEQEND
  8
MERGEDLAYER-1
  0
POLYLINE
  8
MERGEDLAYER-1
 66
  1
 70
  1
 62
  7
  0
VERTEX
  8
MERGEDLAYER-1
 10
2.724902
 20
3.270688
 30
0.000000
  0
VERTEX
  8
MERGEDLAYER-1
 10
3.415287
 20
3.270688
 30
0.000000
  0
VERTEX
  8
MERGEDLAYER-1
 10
3.415287
 20
2.866647
 30
0.000000
  0
VERTEX
  8
MERGEDLAYER-1
 10
2.724902
 20
2.866647
 30
0.000000
  0
SEQEND
  8
MERGEDLAYER-1
  0
POLYLINE
  8
MERGEDLAYER-1
 66
  1
 70
  0
 62
  7
 40
0.030000
 41
0.030000
 10
3.410804
 20
2.891900
 30
0.000000
  0
VERTEX
  8
MERGEDLAYER-1
 10
3.410804
 20
2.891900
 30
0.000000
  0
VERTEX
  8
MERGEDLAYER-1
 10
2.724902
 20
2.891900
 30
0.000000
  0
SEQEND
  8
MERGEDLAYER-1
  0
POLYLINE
  8
MERGEDLAYER-1
 66
  1
 70
  1
 62
  7
  0
VERTEX
  8
MERGEDLAYER-1
 10
3.449901
 20
3.270688
 30
0.000000
  0
VERTEX
  8
MERGEDLAYER-1
 10
4.140287
 20
3.270688
 30
0.000000
  0
VERTEX
  8
MERGEDLAYER-1
 10
4.140287
 20
2.866647
 30
0.000000
  0
VERTEX
  8
MERGEDLAYER-1
 10
3.449901
 20
2.866647
 30
0.000000
  0
SEQEND
  8
MERGEDLAYER-1
  0
POLYLINE
  8
MERGEDLAYER-1
 66
  1
 70
  0
 62
  7
 40
0.030000
 41
0.030000
 10
4.135804
 20
2.891900
 30
0.000000
  0
VERTEX
  8
MERGEDLAYER-1
 10
4.135804
 20
2.891900
 30
0.000000
  0
VERTEX
  8
MERGEDLAYER-1
 10
3.449901
 20
2.891900
 30
0.000000
  0
SEQEND
  8
MERGEDLAYER-1
  0
POLYLINE
  8
MERGEDLAYER-1
 66
  1
 70
  1
 62
  7
  0
VERTEX
  8
MERGEDLAYER-1
 10
4.174902
 20
3.270688
 30
0.000000
  0
VERTEX
  8
MERGEDLAYER-1
 10
4.865287
 20
3.270688
 30
0.000000
  0
VERTEX
  8
MERGEDLAYER-1
 10
4.865287
 20
2.866647
 30
0.000000
  0
VERTEX
  8
MERGEDLAYER-1
 10
4.174902
 20
2.866647
 30
0.000000
  0
SEQEND
  8
MERGEDLAYER-1
  0
POLYLINE
  8
MERGEDLAYER-1
 66
  1
 70
  0
 62
  7
 40
0.030000
 41
0.030000
 10
4.860804
 20
2.891900
 30
0.000000
  0
VERTEX
  8
MERGEDLAYER-1
 10
4.860804
 20
2.891900
 30
0.000000
  0
VERTEX
  8
MERGEDLAYER-1
 10
4.174902
 20
2.891900
 30
0.000000
  0
SEQEND
  8
MERGEDLAYER-1
  0
TEXT
  8
MERGEDLAYER-1
 62
  7
 10
3.363150
 20
3.294576
 30
0.000000
 40
0.060000
  1
"W" AU CENTRE:
 72
  5
 11
4.223150
 21
3.294576
 31
0.000000
  0
TEXT
  8
MERGEDLAYER-1
 62
  7
 10
2.643150
 20
3.294576
 30
0.000000
 40
0.060000
  1
"W" EN HAUT:
 72
  5
 11
3.373150
 21
3.294576
 31
0.000000
  0
TEXT
  8
MERGEDLAYER-1
 62
  7
 10
4.103150
 20
3.294576
 30
0.000000
 40
0.060000
  1
"W" PLANCHER:
 72
  5
 11
4.933150
 21
3.294576
 31
0.000000
  0
TEXT
  8
MERGEDLAYER-1
 62
  7
 10
0.083150
 20
4.004576
 30
0.000000
 40
0.067500
  1
 DE NIVEAU
 72
  5
 11
0.793150
 21
4.004576
 31
0.000000
  0
POLYLINE
  8
MERGEDLAYER-1
 66
  1
 70
  0
 62
  7
 10
6.201183
 20
1.338939
 30
0.000000
  0
VERTEX
  8
MERGEDLAYER-1
 10
6.201183
 20
1.338939
 30
0.000000
  0
VERTEX
  8
MERGEDLAYER-1
 10
5.820680
 20
1.338939
 30
0.000000
  0
SEQEND
  8
MERGEDLAYER-1
  0
POLYLINE
  8
MERGEDLAYER-1
 66
  1
 70
  0
 62
  7
 10
6.201183
 20
1.179726
 30
0.000000
  0
VERTEX
  8
MERGEDLAYER-1
 10
6.201183
 20
1.179726
 30
0.000000
  0
VERTEX
  8
MERGEDLAYER-1
 10
5.820680
 20
1.179726
 30
0.000000
  0
SEQEND
  8
MERGEDLAYER-1
  0
POLYLINE
  8
MERGEDLAYER-1
 66
  1
 70
  0
 62
  7
 10
1.812564
 20
1.340031
 30
0.000000
  0
VERTEX
  8
MERGEDLAYER-1
 10
1.812564
 20
1.340031
 30
0.000000
  0
VERTEX
  8
MERGEDLAYER-1
 10
1.429457
 20
1.340031
 30
0.000000
  0
SEQEND
  8
MERGEDLAYER-1
  0
POLYLINE
  8
MERGEDLAYER-1
 66
  1
 70
  0
 62
  7
 10
1.812564
 20
1.180818
 30
0.000000
  0
VERTEX
  8
MERGEDLAYER-1
 10
1.812564
 20
1.180818
 30
0.000000
  0
VERTEX
  8
MERGEDLAYER-1
 10
1.429457
 20
1.180818
 30
0.000000
  0
SEQEND
  8
MERGEDLAYER-1
  0
POLYLINE
  8
MERGEDLAYER-1
 66
  1
 70
  0
 62
  7
 10
6.232456
 20
1.340675
 30
0.000000
  0
VERTEX
  8
MERGEDLAYER-1
 10
6.232456
 20
1.340675
 30
0.000000
  0
VERTEX
  8
MERGEDLAYER-1
 10
6.692764
 20
1.340675
 30
0.000000
  0
SEQEND
  8
MERGEDLAYER-1
  0
POLYLINE
  8
MERGEDLAYER-1
 66
  1
 70
  0
 62
  7
 10
6.232456
 20
1.181399
 30
0.000000
  0
VERTEX
  8
MERGEDLAYER-1
 10
6.232456
 20
1.181399
 30
0.000000
  0
VERTEX
  8
MERGEDLAYER-1
 10
6.692764
 20
1.181399
 30
0.000000
  0
SEQEND
  8
MERGEDLAYER-1
  0
POLYLINE
  8
MERGEDLAYER-1
 66
  1
 70
  0
 62
  7
 10
6.692764
 20
1.340675
 30
0.000000
  0
VERTEX
  8
MERGEDLAYER-1
 10
6.692764
 20
1.340675
 30
0.000000
  0
VERTEX
  8
MERGEDLAYER-1
 10
6.692764
 20
1.181399
 30
0.000000
  0
SEQEND
  8
MERGEDLAYER-1
  0
POLYLINE
  8
MERGEDLAYER-1
 66
  1
 70
  1
 62
  7
  0
VERTEX
  8
MERGEDLAYER-1
 10
3.486466
 20
6.717087
 30
0.000000
  0
VERTEX
  8
MERGEDLAYER-1
 10
3.573798
 20
6.717087
 30
0.000000
  0
VERTEX
  8
MERGEDLAYER-1
 10
3.573798
 20
6.679164
 30
0.000000
  0
VERTEX
  8
MERGEDLAYER-1
 10
3.486466
 20
6.679164
 30
0.000000
  0
SEQEND
  8
MERGEDLAYER-1
  0
POLYLINE
  8
MERGEDLAYER-1
 66
  1
 70
  1
 62
  7
  0
VERTEX
  8
MERGEDLAYER-1
 10
0.849488
 20
6.718604
 30
0.000000
  0
VERTEX
  8
MERGEDLAYER-1
 10
0.937469
 20
6.718604
 30
0.000000
  0
VERTEX
  8
MERGEDLAYER-1
 10
0.937469
 20
6.680681
 30
0.000000
  0
VERTEX
  8
MERGEDLAYER-1
 10
0.849488
 20
6.680681
 30
0.000000
  0
SEQEND
  8
MERGEDLAYER-1
  0
POLYLINE
  8
MERGEDLAYER-1
 66
  1
 70
  0
 62
  7
 10
1.397602
 20
1.339392
 30
0.000000
  0
VERTEX
  8
MERGEDLAYER-1
 10
1.397602
 20
1.339392
 30
0.000000
  0
VERTEX
  8
MERGEDLAYER-1
 10
0.937294
 20
1.339392
 30
0.000000
  0
SEQEND
  8
MERGEDLAYER-1
  0
POLYLINE
  8
MERGEDLAYER-1
 66
  1
 70
  0
 62
  7
 10
1.397602
 20
1.180117
 30
0.000000
  0
VERTEX
  8
MERGEDLAYER-1
 10
1.397602
 20
1.180117
 30
0.000000
  0
VERTEX
  8
MERGEDLAYER-1
 10
0.937294
 20
1.180117
 30
0.000000
  0
SEQEND
  8
MERGEDLAYER-1
  0
POLYLINE
  8
MERGEDLAYER-1
 66
  1
 70
  0
 62
  7
 10
0.937294
 20
1.339392
 30
0.000000
  0
VERTEX
  8
MERGEDLAYER-1
 10
0.937294
 20
1.339392
 30
0.000000
  0
VERTEX
  8
MERGEDLAYER-1
 10
0.937294
 20
1.180117
 30
0.000000
  0
SEQEND
  8
MERGEDLAYER-1
  0
POLYLINE
  8
MERGEDLAYER-1
 66
  1
 70
  1
 62
  7
  0
VERTEX
  8
MERGEDLAYER-1
 10
0.741066
 20
6.718604
 30
0.000000
  0
VERTEX
  8
MERGEDLAYER-1
 10
0.843349
 20
6.718604
 30
0.000000
  0
VERTEX
  8
MERGEDLAYER-1
 10
0.843349
 20
6.680681
 30
0.000000
  0
VERTEX
  8
MERGEDLAYER-1
 10
0.741066
 20
6.680681
 30
0.000000
  0
SEQEND
  8
MERGEDLAYER-1
  0
POLYLINE
  8
MERGEDLAYER-1
 66
  1
 70
  1
 62
  7
  0
VERTEX
  8
MERGEDLAYER-1
 10
3.579904
 20
6.716902
 30
0.000000
  0
VERTEX
  8
MERGEDLAYER-1
 10
3.682291
 20
6.716902
 30
0.000000
  0
VERTEX
  8
MERGEDLAYER-1
 10
3.682291
 20
6.679164
 30
0.000000
  0
VERTEX
  8
MERGEDLAYER-1
 10
3.579904
 20
6.679164
 30
0.000000
  0
SEQEND
  8
MERGEDLAYER-1
  0
POLYLINE
  8
MERGEDLAYER-1
 66
  1
 70
  1
 62
  7
  0
VERTEX
  8
MERGEDLAYER-1
 10
0.935733
 20
6.818229
 30
0.000000
  0
VERTEX
  8
MERGEDLAYER-1
 10
3.487296
 20
6.818229
 30
0.000000
  0
VERTEX
  8
MERGEDLAYER-1
 10
3.487296
 20
6.583594
 30
0.000000
  0
VERTEX
  8
MERGEDLAYER-1
 10
0.935733
 20
6.583594
 30
0.000000
  0
SEQEND
  8
MERGEDLAYER-1
  0
POLYLINE
  8
MERGEDLAYER-1
 66
  1
 70
  0
 62
  7
 10
5.820728
 20
1.774221
 30
0.000000
  0
VERTEX
  8
MERGEDLAYER-1
 10
5.820728
 20
1.774221
 30
0.000000
  0
VERTEX
  8
MERGEDLAYER-1
 10
5.820728
 20
0.749232
 30
0.000000
  0
SEQEND
  8
MERGEDLAYER-1
  0
POLYLINE
  8
MERGEDLAYER-1
 66
  1
 70
  0
 62
  7
 10
1.811123
 20
0.749232
 30
0.000000
  0
VERTEX
  8
MERGEDLAYER-1
 10
1.811123
 20
0.749232
 30
0.000000
  0
VERTEX
  8
MERGEDLAYER-1
 10
1.811123
 20
1.774221
 30
0.000000
  0
SEQEND
  8
MERGEDLAYER-1
  0
TEXT
  8
MERGEDLAYER-1
 62
  7
 10
2.943150
 20
6.674576
 30
0.000000
 40
0.067500
  1
BARIL
 72
  5
 11
3.333150
 21
6.674576
 31
0.000000
  0
POLYLINE
  8
MERGEDLAYER-1
 66
  1
 70
  0
 62
  7
 10
1.811123
 20
1.774221
 30
0.000000
  0
VERTEX
  8
MERGEDLAYER-1
 10
1.811123
 20
1.774221
 30
0.000000
  0
VERTEX
  8
MERGEDLAYER-1
 10
3.392720
 20
1.774221
 30
0.000000
  0
SEQEND
  8
MERGEDLAYER-1
  0
POLYLINE
  8
MERGEDLAYER-1
 66
  1
 70
  0
 62
  7
 10
3.489943
 20
1.774221
 30
0.000000
  0
VERTEX
  8
MERGEDLAYER-1
 10
3.489943
 20
1.774221
 30
0.000000
  0
VERTEX
  8
MERGEDLAYER-1
 10
5.820728
 20
1.774221
 30
0.000000
  0
SEQEND
  8
MERGEDLAYER-1
  0
POLYLINE
  8
MERGEDLAYER-1
 66
  1
 70
  0
 62
  7
 10
1.811123
 20
0.749232
 30
0.000000
  0
VERTEX
  8
MERGEDLAYER-1
 10
1.811123
 20
0.749232
 30
0.000000
  0
VERTEX
  8
MERGEDLAYER-1
 10
4.125359
 20
0.749232
 30
0.000000
  0
SEQEND
  8
MERGEDLAYER-1
  0
POLYLINE
  8
MERGEDLAYER-1
 66
  1
 70
  0
 62
  7
 10
4.232998
 20
0.749232
 30
0.000000
  0
VERTEX
  8
MERGEDLAYER-1
 10
4.232998
 20
0.749232
 30
0.000000
  0
VERTEX
  8
MERGEDLAYER-1
 10
5.820728
 20
0.749232
 30
0.000000
  0
SEQEND
  8
MERGEDLAYER-1
  0
POLYLINE
  8
MERGEDLAYER-1
 66
  1
 70
  1
 62
  7
  0
VERTEX
  8
MERGEDLAYER-1
 10
0.151066
 20
6.308604
 30
0.000000
  0
VERTEX
  8
MERGEDLAYER-1
 10
4.258315
 20
6.308604
 30
0.000000
  0
VERTEX
  8
MERGEDLAYER-1
 10
4.258315
 20
6.285219
 30
0.000000
  0
VERTEX
  8
MERGEDLAYER-1
 10
0.151066
 20
6.285219
 30
0.000000
  0
SEQEND
  8
MERGEDLAYER-1
  0
TEXT
  8
MERGEDLAYER-1
 62
  7
 10
3.713150
 20
5.924576
 30
0.000000
 40
0.067500
  1
CONTRACTEUR
 72
  5
 11
4.683150
 21
5.924576
 31
0.000000
  0
TEXT
  8
MERGEDLAYER-1
 62
  7
 10
3.713150
 20
5.784576
 30
0.000000
 40
0.067500
  1
DOIT FOURNIR
 72
  5
 11
4.623150
 21
5.784576
 31
0.000000
  0
TEXT
  8
MERGEDLAYER-1
 62
  7
 10
3.713150
 20
5.644576
 30
0.000000
 40
0.067500
  1
UN PANNEAU
 72
  5
 11
4.543150
 21
5.644576
 31
0.000000
  0
TEXT
  8
MERGEDLAYER-1
 62
  7
 10
3.713150
 20
5.504576
 30
0.000000
 40
0.067500
  1
D'ACCéS AU
 72
  5
 11
4.473150
 21
5.504576
 31
0.000000
  0
TEXT
  8
MERGEDLAYER-1
 62
  7
 10
3.713150
 20
5.364576
 30
0.000000
 40
0.067500
  1
PLAFOND
 72
  5
 11
4.323150
 21
5.364576
 31
0.000000
  0
TEXT
  8
MERGEDLAYER-1
 62
  7
 10
3.713150
 20
5.224576
 30
0.000000
 40
0.067500
  1
SOUS ROUE DE
 72
  5
 11
4.683150
 21
5.224576
 31
0.000000
  0
TEXT
  8
MERGEDLAYER-1
 62
  7
 10
3.713150
 20
5.084576
 30
0.000000
 40
0.067500
  1
CHARGEMENT
 72
  5
 11
4.603150
 21
5.084576
 31
0.000000
  0
TEXT
  8
MERGEDLAYER-1
 62
  7
 10
3.713150
 20
4.944576
 30
0.000000
 40
0.067500
  1
(DROIT OU GAUCHE)
 72
  5
 11
4.963150
 21
4.944576
 31
0.000000
  0
POLYLINE
  8
MERGEDLAYER-1
 66
  1
 70
  0
 62
  7
 10
3.338185
 20
6.263945
 30
0.000000
  0
VERTEX
  8
MERGEDLAYER-1
 10
3.338185
 20
6.263945
 30
0.000000
  0
VERTEX
  8
MERGEDLAYER-1
 10
3.338705
 20
5.964186
 30
0.000000
  0
SEQEND
  8
MERGEDLAYER-1
  0
POLYLINE
  8
MERGEDLAYER-1
 66
  1
 70
  1
 62
  7
  0
VERTEX
  8
MERGEDLAYER-1
 10
3.338150
 20
6.283630
 30
0.000000
  0
VERTEX
  8
MERGEDLAYER-1
 10
3.308237
 20
6.233578
 30
0.000000
  0
VERTEX
  8
MERGEDLAYER-1
 10
3.338237
 20
6.233630
 30
0.000000
  0
VERTEX
  8
MERGEDLAYER-1
 10
3.368237
 20
6.233682
 30
0.000000
  0
VERTEX
  8
MERGEDLAYER-1
 10
3.338150
 20
6.283630
 30
0.000000
  0
SEQEND
  8
MERGEDLAYER-1
  0
POLYLINE
  8
MERGEDLAYER-1
 66
  1
 70
  0
 62
  7
 10
4.195719
 20
7.362380
 30
0.000000
  0
VERTEX
  8
MERGEDLAYER-1
 10
4.195719
 20
7.362380
 30
0.000000
  0
VERTEX
  8
MERGEDLAYER-1
 10
3.807316
 20
6.981547
 30
0.000000
  0
SEQEND
  8
MERGEDLAYER-1
  0
POLYLINE
  8
MERGEDLAYER-1
  6
LTYPE04
 66
  1
 70
  0
 62
  7
  6
LTYPE04
 10
0.872177
 20
7.538214
 30
0.000000
  0
VERTEX
  8
MERGEDLAYER-1
  6
LTYPE04
 10
0.872177
 20
7.538214
 30
0.000000
  0
VERTEX
  8
MERGEDLAYER-1
  6
LTYPE04
 10
1.213080
 20
7.879116
 30
0.000000
  0
SEQEND
  8
MERGEDLAYER-1
  0
POLYLINE
  8
MERGEDLAYER-1
 66
  1
 70
  0
 62
  7
 10
0.194226
 20
6.865471
 30
0.000000
  0
VERTEX
  8
MERGEDLAYER-1
 10
0.194226
 20
6.865471
 30
0.000000
  0
VERTEX
  8
MERGEDLAYER-1
 10
0.697455
 20
7.368699
 30
0.000000
  0
SEQEND
  8
MERGEDLAYER-1
  0
POLYLINE
  8
MERGEDLAYER-1
 66
  1
 70
  0
 62
  7
 10
0.656031
 20
6.615471
 30
0.000000
  0
VERTEX
  8
MERGEDLAYER-1
 10
0.656031
 20
6.615471
 30
0.000000
  0
VERTEX
  8
MERGEDLAYER-1
 10
0.356309
 20
6.315748
 30
0.000000
  0
SEQEND
  8
MERGEDLAYER-1
  0
POLYLINE
  8
MERGEDLAYER-1
 66
  1
 70
  0
 62
  7
 10
1.562906
 20
6.819221
 30
0.000000
  0
VERTEX
  8
MERGEDLAYER-1
 10
1.562906
 20
6.819221
 30
0.000000
  0
VERTEX
  8
MERGEDLAYER-1
 10
2.162733
 20
7.419047
 30
0.000000
  0
SEQEND
  8
MERGEDLAYER-1
  0
POLYLINE
  8
MERGEDLAYER-1
 66
  1
 70
  0
 62
  7
 10
2.407524
 20
7.660366
 30
0.000000
  0
VERTEX
  8
MERGEDLAYER-1
 10
2.407524
 20
7.660366
 30
0.000000
  0
VERTEX
  8
MERGEDLAYER-1
 10
2.621066
 20
7.873908
 30
0.000000
  0
SEQEND
  8
MERGEDLAYER-1
  0
POLYLINE
  8
MERGEDLAYER-1
 66
  1
 70
  0
 62
  7
 10
2.982691
 20
6.819575
 30
0.000000
  0
VERTEX
  8
MERGEDLAYER-1
 10
2.982691
 20
6.819575
 30
0.000000
  0
VERTEX
  8
MERGEDLAYER-1
 10
3.496823
 20
7.333706
 30
0.000000
  0
SEQEND
  8
MERGEDLAYER-1
  0
POLYLINE
  8
MERGEDLAYER-1
 66
  1
 70
  0
 62
  7
 10
0.897039
 20
6.858839
 30
0.000000
  0
VERTEX
  8
MERGEDLAYER-1
 10
0.897039
 20
6.858839
 30
0.000000
  0
VERTEX
  8
MERGEDLAYER-1
 10
1.231240
 20
7.193040
 30
0.000000
  0
SEQEND
  8
MERGEDLAYER-1
  0
POLYLINE
  8
MERGEDLAYER-1
 66
  1
 70
  0
 62
  7
 10
1.432941
 20
7.390644
 30
0.000000
  0
VERTEX
  8
MERGEDLAYER-1
 10
1.432941
 20
7.390644
 30
0.000000
  0
VERTEX
  8
MERGEDLAYER-1
 10
1.938774
 20
7.896477
 30
0.000000
  0
SEQEND
  8
MERGEDLAYER-1
  0
POLYLINE
  8
MERGEDLAYER-1
 66
  1
 70
  0
 62
  7
 10
2.275580
 20
6.820089
 30
0.000000
  0
VERTEX
  8
MERGEDLAYER-1
 10
2.275580
 20
6.820089
 30
0.000000
  0
VERTEX
  8
MERGEDLAYER-1
 10
2.640649
 20
7.182936
 30
0.000000
  0
SEQEND
  8
MERGEDLAYER-1
  0
POLYLINE
  8
MERGEDLAYER-1
 66
  1
 70
  0
 62
  7
 10
2.852455
 20
7.391269
 30
0.000000
  0
VERTEX
  8
MERGEDLAYER-1
 10
2.852455
 20
7.391269
 30
0.000000
  0
VERTEX
  8
MERGEDLAYER-1
 10
3.363882
 20
7.894796
 30
0.000000
  0
SEQEND
  8
MERGEDLAYER-1
  0
POLYLINE
  8
MERGEDLAYER-1
 66
  1
 70
  0
 62
  7
 10
3.338705
 20
5.964186
 30
0.000000
  0
VERTEX
  8
MERGEDLAYER-1
 10
3.338705
 20
5.964186
 30
0.000000
  0
VERTEX
  8
MERGEDLAYER-1
 10
3.656275
 20
5.964186
 30
0.000000
  0
SEQEND
  8
MERGEDLAYER-1
  0
POLYLINE
  8
MERGEDLAYER-1
 66
  1
 70
  1
 62
  7
  0
VERTEX
  8
MERGEDLAYER-1
 10
3.068011
 20
6.312276
 30
0.000000
  0
VERTEX
  8
MERGEDLAYER-1
 10
3.908402
 20
6.312276
 30
0.000000
  0
VERTEX
  8
MERGEDLAYER-1
 10
3.908402
 20
6.283905
 30
0.000000
  0
VERTEX
  8
MERGEDLAYER-1
 10
3.068011
 20
6.283905
 30
0.000000
  0
SEQEND
  8
MERGEDLAYER-1
  0
POLYLINE
  8
MERGEDLAYER-1
 66
  1
 70
  0
 62
  7
 10
3.067267
 20
6.345460
 30
0.000000
  0
VERTEX
  8
MERGEDLAYER-1
 10
3.067267
 20
6.345460
 30
0.000000
  0
VERTEX
  8
MERGEDLAYER-1
 10
3.067267
 20
6.272593
 30
0.000000
  0
SEQEND
  8
MERGEDLAYER-1
  0
POLYLINE
  8
MERGEDLAYER-1
 66
  1
 70
  0
 62
  7
 10
3.131931
 20
6.272593
 30
0.000000
  0
VERTEX
  8
MERGEDLAYER-1
 10
3.131931
 20
6.272593
 30
0.000000
  0
VERTEX
  8
MERGEDLAYER-1
 10
3.067267
 20
6.272593
 30
0.000000
  0
SEQEND
  8
MERGEDLAYER-1
  0
POLYLINE
  8
MERGEDLAYER-1
 66
  1
 70
  0
 62
  7
 10
3.909237
 20
6.344355
 30
0.000000
  0
VERTEX
  8
MERGEDLAYER-1
 10
3.909237
 20
6.344355
 30
0.000000
  0
VERTEX
  8
MERGEDLAYER-1
 10
3.909237
 20
6.272593
 30
0.000000
  0
SEQEND
  8
MERGEDLAYER-1
  0
POLYLINE
  8
MERGEDLAYER-1
 66
  1
 70
  0
 62
  7
 10
3.844572
 20
6.272593
 30
0.000000
  0
VERTEX
  8
MERGEDLAYER-1
 10
3.844572
 20
6.272593
 30
0.000000
  0
VERTEX
  8
MERGEDLAYER-1
 10
3.909237
 20
6.272593
 30
0.000000
  0
SEQEND
  8
MERGEDLAYER-1
  0
POLYLINE
  8
MERGEDLAYER-1
 66
  1
 70
  1
 62
  7
  0
VERTEX
  8
MERGEDLAYER-1
 10
3.096281
 20
6.304661
 30
0.000000
  0
VERTEX
  8
MERGEDLAYER-1
 10
3.877490
 20
6.304661
 30
0.000000
  0
VERTEX
  8
MERGEDLAYER-1
 10
3.877490
 20
6.290772
 30
0.000000
  0
VERTEX
  8
MERGEDLAYER-1
 10
3.096281
 20
6.290772
 30
0.000000
  0
SEQEND
  8
MERGEDLAYER-1
  0
LINE
  8
MERGEDLAYER-1
 62
  7
 10
1.712522
 20
1.385487
 30
0.000000
 11
5.905964
 21
1.385487
 31
0.000000
  0
LINE
  8
MERGEDLAYER-1
 62
  7
 10
1.692837
 20
2.014264
 30
0.000000
 11
1.692837
 21
1.260487
 31
0.000000
  0
LINE
  8
MERGEDLAYER-1
 62
  7
 10
5.925649
 20
2.007233
 30
0.000000
 11
5.925649
 21
1.260487
 31
0.000000
  0
POLYLINE
  8
MERGEDLAYER-1
 66
  1
 70
  1
 62
  7
  0
VERTEX
  8
MERGEDLAYER-1
 10
1.692837
 20
1.385487
 30
0.000000
  0
VERTEX
  8
MERGEDLAYER-1
 10
1.742837
 20
1.355488
 30
0.000000
  0
VERTEX
  8
MERGEDLAYER-1
 10
1.742837
 20
1.385488
 30
0.000000
  0
VERTEX
  8
MERGEDLAYER-1
 10
1.742837
 20
1.415488
 30
0.000000
  0
VERTEX
  8
MERGEDLAYER-1
 10
1.692837
 20
1.385487
 30
0.000000
  0
SEQEND
  8
MERGEDLAYER-1
  0
POLYLINE
  8
MERGEDLAYER-1
 66
  1
 70
  1
 62
  7
  0
VERTEX
  8
MERGEDLAYER-1
 10
5.925649
 20
1.385487
 30
0.000000
  0
VERTEX
  8
MERGEDLAYER-1
 10
5.875649
 20
1.355486
 30
0.000000
  0
VERTEX
  8
MERGEDLAYER-1
 10
5.875649
 20
1.385486
 30
0.000000
  0
VERTEX
  8
MERGEDLAYER-1
 10
5.875649
 20
1.415486
 30
0.000000
  0
VERTEX
  8
MERGEDLAYER-1
 10
5.925649
 20
1.385487
 30
0.000000
  0
SEQEND
  8
MERGEDLAYER-1
  0
TEXT
  8
MERGEDLAYER-1
 62
  7
 10
3.805275
 20
1.493237
 30
0.000000
 40
0.090000
  1
 
  0
TEXT
  8
MERGEDLAYER-1
 62
  7
 10
3.263150
 20
0.984576
 30
0.000000
 40
0.090000
  1
OUVERTURE LIBRE
 72
  5
 11
4.783150
 21
0.984576
 31
0.000000
  0
POLYLINE
  8
MERGEDLAYER-1
 66
  1
 70
  0
 62
  7
 10
0.887802
 20
0.267215
 30
0.000000
  0
VERTEX
  8
MERGEDLAYER-1
 10
0.887802
 20
0.267215
 30
0.000000
  0
VERTEX
  8
MERGEDLAYER-1
 10
1.378377
 20
0.476505
 30
0.000000
  0
SEQEND
  8
MERGEDLAYER-1
  0
POLYLINE
  8
MERGEDLAYER-1
 66
  1
 70
  1
 62
  7
  0
VERTEX
  8
MERGEDLAYER-1
 10
1.396483
 20
0.484229
 30
0.000000
  0
VERTEX
  8
MERGEDLAYER-1
 10
1.362266
 20
0.437015
 30
0.000000
  0
VERTEX
  8
MERGEDLAYER-1
 10
1.350493
 20
0.464609
 30
0.000000
  0
VERTEX
  8
MERGEDLAYER-1
 10
1.338721
 20
0.492203
 30
0.000000
  0
VERTEX
  8
MERGEDLAYER-1
 10
1.396483
 20
0.484229
 30
0.000000
  0
SEQEND
  8
MERGEDLAYER-1
  0
LINE
  8
MERGEDLAYER-1
 62
  7
 10
5.322712
 20
6.414871
 30
0.000000
 11
5.322712
 21
6.944700
 31
0.000000
  0
LINE
  8
MERGEDLAYER-1
 62
  7
 10
5.890273
 20
6.395186
 30
0.000000
 11
5.197712
 21
6.395186
 31
0.000000
  0
LINE
  8
MERGEDLAYER-1
 62
  7
 10
5.890002
 20
6.964385
 30
0.000000
 11
5.197712
 21
6.964385
 31
0.000000
  0
LINE
  8
MERGEDLAYER-1
 62
  7
 10
5.322712
 20
6.834727
 30
0.000000
 11
5.322712
 21
6.395186
 31
0.000000
  0
POLYLINE
  8
MERGEDLAYER-1
 66
  1
 70
  1
 62
  7
  0
VERTEX
  8
MERGEDLAYER-1
 10
5.322712
 20
6.395186
 30
0.000000
  0
VERTEX
  8
MERGEDLAYER-1
 10
5.352712
 20
6.445186
 30
0.000000
  0
VERTEX
  8
MERGEDLAYER-1
 10
5.322712
 20
6.445186
 30
0.000000
  0
VERTEX
  8
MERGEDLAYER-1
 10
5.292712
 20
6.445186
 30
0.000000
  0
VERTEX
  8
MERGEDLAYER-1
 10
5.322712
 20
6.395186
 30
0.000000
  0
SEQEND
  8
MERGEDLAYER-1
  0
POLYLINE
  8
MERGEDLAYER-1
 66
  1
 70
  1
 62
  7
  0
VERTEX
  8
MERGEDLAYER-1
 10
5.322712
 20
6.964385
 30
0.000000
  0
VERTEX
  8
MERGEDLAYER-1
 10
5.352712
 20
6.914385
 30
0.000000
  0
VERTEX
  8
MERGEDLAYER-1
 10
5.322712
 20
6.914385
 30
0.000000
  0
VERTEX
  8
MERGEDLAYER-1
 10
5.292712
 20
6.914385
 30
0.000000
  0
VERTEX
  8
MERGEDLAYER-1
 10
5.322712
 20
6.964385
 30
0.000000
  0
SEQEND
  8
MERGEDLAYER-1
  0
TEXT
  8
MERGEDLAYER-1
 62
  7
 10
5.236837
 20
6.653075
 30
0.000000
 40
0.067500
  1
"Y"
 50
90.000000
  0
TEXT
  8
MERGEDLAYER-1
 62
  7
 10
2.043150
 20
1.204576
 30
0.000000
 40
0.067500
  1
BARIL
 72
  5
 11
2.433150
 21
1.204576
 31
0.000000
  0
LINE
  8
MERGEDLAYER-1
 62
  7
 10
7.136571
 20
4.503631
 30
0.000000
 11
7.136571
 21
6.265076
 31
0.000000
  0
LINE
  8
MERGEDLAYER-1
 62
  7
 10
6.949174
 20
4.483946
 30
0.000000
 11
7.261571
 21
4.483946
 31
0.000000
  0
LINE
  8
MERGEDLAYER-1
 62
  7
 10
6.276998
 20
6.284761
 30
0.000000
 11
7.261571
 21
6.284761
 31
0.000000
  0
LINE
  8
MERGEDLAYER-1
 62
  7
 10
7.136571
 20
5.479284
 30
0.000000
 11
7.136571
 21
4.483946
 31
0.000000
  0
POLYLINE
  8
MERGEDLAYER-1
 66
  1
 70
  1
 62
  7
  0
VERTEX
  8
MERGEDLAYER-1
 10
7.136571
 20
4.483946
 30
0.000000
  0
VERTEX
  8
MERGEDLAYER-1
 10
7.166571
 20
4.533946
 30
0.000000
  0
VERTEX
  8
MERGEDLAYER-1
 10
7.136571
 20
4.533946
 30
0.000000
  0
VERTEX
  8
MERGEDLAYER-1
 10
7.106571
 20
4.533946
 30
0.000000
  0
VERTEX
  8
MERGEDLAYER-1
 10
7.136571
 20
4.483946
 30
0.000000
  0
SEQEND
  8
MERGEDLAYER-1
  0
POLYLINE
  8
MERGEDLAYER-1
 66
  1
 70
  1
 62
  7
  0
VERTEX
  8
MERGEDLAYER-1
 10
7.136571
 20
6.284761
 30
0.000000
  0
VERTEX
  8
MERGEDLAYER-1
 10
7.166571
 20
6.234761
 30
0.000000
  0
VERTEX
  8
MERGEDLAYER-1
 10
7.136571
 20
6.234761
 30
0.000000
  0
VERTEX
  8
MERGEDLAYER-1
 10
7.106571
 20
6.234761
 30
0.000000
  0
VERTEX
  8
MERGEDLAYER-1
 10
7.136571
 20
6.284761
 30
0.000000
  0
SEQEND
  8
MERGEDLAYER-1
  0
TEXT
  8
MERGEDLAYER-1
 62
  7
 10
7.050022
 20
5.387911
 30
0.000000
 40
0.075000
  1
 
 50
90.000000
  0
POLYLINE
  8
MERGEDLAYER-1
 66
  1
 70
  1
 62
  7
  0
VERTEX
  8
MERGEDLAYER-1
 10
6.934025
 20
4.907220
 30
0.000000
  0
VERTEX
  8
MERGEDLAYER-1
 10
6.934025
 20
5.833146
 30
0.000000
  0
VERTEX
  8
MERGEDLAYER-1
 10
7.318826
 20
5.833146
 30
0.000000
  0
VERTEX
  8
MERGEDLAYER-1
 10
7.318826
 20
4.907220
 30
0.000000
  0
SEQEND
  8
MERGEDLAYER-1
  0
POLYLINE
  8
MERGEDLAYER-1
 66
  1
 70
  0
 62
  7
 40
0.030000
 41
0.030000
 10
7.294775
 20
5.827133
 30
0.000000
  0
VERTEX
  8
MERGEDLAYER-1
 10
7.294775
 20
5.827133
 30
0.000000
  0
VERTEX
  8
MERGEDLAYER-1
 10
7.294775
 20
4.907220
 30
0.000000
  0
SEQEND
  8
MERGEDLAYER-1
  0
LINE
  8
MERGEDLAYER-1
 62
  7
 10
5.322660
 20
4.504261
 30
0.000000
 11
5.322660
 21
6.375482
 31
0.000000
  0
LINE
  8
MERGEDLAYER-1
 62
  7
 10
5.366760
 20
4.484576
 30
0.000000
 11
5.197660
 21
4.484576
 31
0.000000
  0
LINE
  8
MERGEDLAYER-1
 62
  7
 10
5.768669
 20
6.395166
 30
0.000000
 11
5.197660
 21
6.395166
 31
0.000000
  0
LINE
  8
MERGEDLAYER-1
 62
  7
 10
5.322660
 20
5.501902
 30
0.000000
 11
5.322660
 21
4.484576
 31
0.000000
  0
POLYLINE
  8
MERGEDLAYER-1
 66
  1
 70
  1
 62
  7
  0
VERTEX
  8
MERGEDLAYER-1
 10
5.322660
 20
4.484576
 30
0.000000
  0
VERTEX
  8
MERGEDLAYER-1
 10
5.352660
 20
4.534576
 30
0.000000
  0
VERTEX
  8
MERGEDLAYER-1
 10
5.322660
 20
4.534576
 30
0.000000
  0
VERTEX
  8
MERGEDLAYER-1
 10
5.292660
 20
4.534576
 30
0.000000
  0
VERTEX
  8
MERGEDLAYER-1
 10
5.322660
 20
4.484576
 30
0.000000
  0
SEQEND
  8
MERGEDLAYER-1
  0
POLYLINE
  8
MERGEDLAYER-1
 66
  1
 70
  1
 62
  7
  0
VERTEX
  8
MERGEDLAYER-1
 10
5.322660
 20
6.395166
 30
0.000000
  0
VERTEX
  8
MERGEDLAYER-1
 10
5.352660
 20
6.345166
 30
0.000000
  0
VERTEX
  8
MERGEDLAYER-1
 10
5.322660
 20
6.345166
 30
0.000000
  0
VERTEX
  8
MERGEDLAYER-1
 10
5.292660
 20
6.345167
 30
0.000000
  0
VERTEX
  8
MERGEDLAYER-1
 10
5.322660
 20
6.395166
 30
0.000000
  0
SEQEND
  8
MERGEDLAYER-1
  0
TEXT
  8
MERGEDLAYER-1
 62
  7
 10
5.309212
 20
5.568040
 30
0.000000
 40
0.090000
  1
 
  0
POLYLINE
  8
MERGEDLAYER-1
 66
  1
 70
  1
 62
  7
  0
VERTEX
  8
MERGEDLAYER-1
 10
5.129260
 20
4.914576
 30
0.000000
  0
VERTEX
  8
MERGEDLAYER-1
 10
5.129260
 20
5.840501
 30
0.000000
  0
VERTEX
  8
MERGEDLAYER-1
 10
5.514060
 20
5.840501
 30
0.000000
  0
VERTEX
  8
MERGEDLAYER-1
 10
5.514060
 20
4.914576
 30
0.000000
  0
SEQEND
  8
MERGEDLAYER-1
  0
POLYLINE
  8
MERGEDLAYER-1
 66
  1
 70
  0
 62
  7
 40
0.030000
 41
0.030000
 10
5.490010
 20
5.834489
 30
0.000000
  0
VERTEX
  8
MERGEDLAYER-1
 10
5.490010
 20
5.834489
 30
0.000000
  0
VERTEX
  8
MERGEDLAYER-1
 10
5.490010
 20
4.914576
 30
0.000000
  0
SEQEND
  8
MERGEDLAYER-1
  0
POLYLINE
  8
MERGEDLAYER-1
 66
  1
 70
  0
 62
  7
 10
1.993348
 20
2.727283
 30
0.000000
  0
VERTEX
  8
MERGEDLAYER-1
 10
1.993348
 20
2.727283
 30
0.000000
  0
VERTEX
  8
MERGEDLAYER-1
 10
1.944736
 20
2.727283
 30
0.000000
  0
SEQEND
  8
MERGEDLAYER-1
  0
TEXT
  8
MERGEDLAYER-1
 62
  7
 10
2.003150
 20
2.774576
 30
0.000000
 40
0.067500
  1
GUIDE
 72
  5
 11
2.433150
 21
2.774576
 31
0.000000
  0
TEXT
  8
MERGEDLAYER-1
 62
  7
 10
2.003150
 20
2.634576
 30
0.000000
 40
0.067500
  1
D'ALUMINIUM
 72
  5
 11
2.813150
 21
2.634576
 31
0.000000
  0
POLYLINE
  8
MERGEDLAYER-1
 66
  1
 70
  1
 62
  7
 10
6.048562
 20
4.519798
 30
0.000000
  0
VERTEX
  8
MERGEDLAYER-1
 10
6.048562
 20
4.519798
 30
0.000000
  0
VERTEX
  8
MERGEDLAYER-1
 10
6.048562
 20
4.607311
 30
0.000000
  0
VERTEX
  8
MERGEDLAYER-1
 10
5.997547
 20
4.607311
 30
0.000000
  0
VERTEX
  8
MERGEDLAYER-1
 10
5.997547
 20
4.519798
 30
0.000000
  0
VERTEX
  8
MERGEDLAYER-1
 10
5.974800
 20
4.506664
 30
0.000000
  0
VERTEX
  8
MERGEDLAYER-1
 10
5.974800
 20
4.485983
 30
0.000000
  0
VERTEX
  8
MERGEDLAYER-1
 10
6.071310
 20
4.485983
 30
0.000000
  0
VERTEX
  8
MERGEDLAYER-1
 10
6.071310
 20
4.506664
 30
0.000000
  0
SEQEND
  8
MERGEDLAYER-1
  0
TEXT
  8
MERGEDLAYER-1
 62
  7
 10
5.983150
 20
5.574576
 30
0.000000
 40
0.097500
  1
C
 72
  5
 11
6.163150
 21
5.574576
 31
0.000000
  0
TEXT
  8
MERGEDLAYER-1
 62
  7
 10
6.013150
 20
5.524576
 30
0.000000
 40
0.097500
  1
L
 72
  5
 11
6.163150
 21
5.524576
 31
0.000000
  0
POLYLINE
  8
MERGEDLAYER-1
 66
  1
 70
  1
 62
  7
  0
VERTEX
  8
MERGEDLAYER-1
 10
4.528428
 20
7.958187
 30
0.000000
  0
VERTEX
  8
MERGEDLAYER-1
 10
6.921722
 20
7.958187
 30
0.000000
  0
VERTEX
  8
MERGEDLAYER-1
 10
6.921722
 20
7.898663
 30
0.000000
  0
VERTEX
  8
MERGEDLAYER-1
 10
4.528428
 20
7.898663
 30
0.000000
  0
SEQEND
  8
MERGEDLAYER-1
  0
POLYLINE
  8
MERGEDLAYER-1
 66
  1
 70
  0
 62
  7
 10
3.550925
 20
1.618765
 30
0.000000
  0
VERTEX
  8
MERGEDLAYER-1
 10
3.550925
 20
1.618765
 30
0.000000
  0
VERTEX
  8
MERGEDLAYER-1
 10
3.604816
 20
1.544993
 30
0.000000
  0
SEQEND
  8
MERGEDLAYER-1
  0
POLYLINE
  8
MERGEDLAYER-1
 66
  1
 70
  1
 62
  7
  0
VERTEX
  8
MERGEDLAYER-1
 10
3.341501
 20
1.546181
 30
0.000000
  0
VERTEX
  8
MERGEDLAYER-1
 10
4.313804
 20
1.546181
 30
0.000000
  0
VERTEX
  8
MERGEDLAYER-1
 10
4.313804
 20
1.141910
 30
0.000000
  0
VERTEX
  8
MERGEDLAYER-1
 10
3.341501
 20
1.141910
 30
0.000000
  0
SEQEND
  8
MERGEDLAYER-1
  0
POLYLINE
  8
MERGEDLAYER-1
 66
  1
 70
  0
 62
  7
 40
0.030000
 41
0.030000
 10
4.307490
 20
1.167177
 30
0.000000
  0
VERTEX
  8
MERGEDLAYER-1
 10
4.307490
 20
1.167177
 30
0.000000
  0
VERTEX
  8
MERGEDLAYER-1
 10
3.341501
 20
1.167177
 30
0.000000
  0
SEQEND
  8
MERGEDLAYER-1
  0
POLYLINE
  8
MERGEDLAYER-1
 66
  1
 70
  1
 62
  7
  0
VERTEX
  8
MERGEDLAYER-1
 10
7.673190
 20
7.540033
 30
0.000000
  0
VERTEX
  8
MERGEDLAYER-1
 10
10.588781
 20
7.540033
 30
0.000000
  0
VERTEX
  8
MERGEDLAYER-1
 10
10.588781
 20
7.185729
 30
0.000000
  0
VERTEX
  8
MERGEDLAYER-1
 10
7.673190
 20
7.185729
 30
0.000000
  0
SEQEND
  8
MERGEDLAYER-1
  0
POLYLINE
  8
MERGEDLAYER-1
 66
  1
 70
  1
 62
  7
  0
VERTEX
  8
MERGEDLAYER-1
 10
9.305333
 20
4.742666
 30
0.000000
  0
VERTEX
  8
MERGEDLAYER-1
 10
9.502183
 20
4.742666
 30
0.000000
  0
VERTEX
  8
MERGEDLAYER-1
 10
9.502183
 20
4.640726
 30
0.000000
  0
VERTEX
  8
MERGEDLAYER-1
 10
9.305333
 20
4.640726
 30
0.000000
  0
SEQEND
  8
MERGEDLAYER-1
  0
TEXT
  8
MERGEDLAYER-1
 62
  7
 10
7.983150
 20
6.764576
 30
0.000000
 40
0.097500
  1
EN FA‚ADE 
 72
  5
 11
9.113150
 21
6.764576
 31
0.000000
  0
TEXT
  8
MERGEDLAYER-1
 62
  7
 10
9.113150
 20
6.764576
 30
0.000000
 40
0.067500
  1
(INTƒRIEUR)
 72
  5
 11
9.893150
 21
6.764576
 31
0.000000
  0
POLYLINE
  8
MERGEDLAYER-1
 66
  1
 70
  0
 62
  7
 10
0.010000
 20
8.094756
 30
0.000000
  0
VERTEX
  8
MERGEDLAYER-1
 10
0.010000
 20
8.094756
 30
0.000000
  0
VERTEX
  8
MERGEDLAYER-1
 10
0.010000
 20
0.010001
 30
0.000000
  0
SEQEND
  8
MERGEDLAYER-1
  0
TEXT
  8
MERGEDLAYER-1
 62
  7
 10
7.703150
 20
3.264576
 30
0.000000
 40
0.097500
  1
CLIENT:
 72
  5
 11
8.463150
 21
3.264576
 31
0.000000
  0
POLYLINE
  8
MERGEDLAYER-1
 66
  1
 70
  0
 62
  7
 10
8.540797
 20
3.201494
 30
0.000000
  0
VERTEX
  8
MERGEDLAYER-1
 10
8.540797
 20
3.201494
 30
0.000000
  0
VERTEX
  8
MERGEDLAYER-1
 10
10.632593
 20
3.201243
 30
0.000000
  0
SEQEND
  8
MERGEDLAYER-1
  0
TEXT
  8
MERGEDLAYER-1
 62
  7
 10
7.693150
 20
2.974576
 30
0.000000
 40
0.097500
  1
PROJET:
 72
  5
 11
8.523150
 21
2.974576
 31
0.000000
  0
POLYLINE
  8
MERGEDLAYER-1
 66
  1
 70
  0
 62
  7
 10
8.540797
 20
2.919526
 30
0.000000
  0
VERTEX
  8
MERGEDLAYER-1
 10
8.540797
 20
2.919526
 30
0.000000
  0
VERTEX
  8
MERGEDLAYER-1
 10
10.631075
 20
2.919526
 30
0.000000
  0
SEQEND
  8
MERGEDLAYER-1
  0
TEXT
  8
MERGEDLAYER-1
 62
  7
 10
7.703150
 20
2.704576
 30
0.000000
 40
0.097500
  1
ENDROIT:
 72
  5
 11
8.623150
 21
2.704576
 31
0.000000
  0
POLYLINE
  8
MERGEDLAYER-1
 66
  1
 70
  0
 62
  7
 10
8.540797
 20
2.639245
 30
0.000000
  0
VERTEX
  8
MERGEDLAYER-1
 10
8.540797
 20
2.639245
 30
0.000000
  0
VERTEX
  8
MERGEDLAYER-1
 10
10.631075
 20
2.639245
 30
0.000000
  0
SEQEND
  8
MERGEDLAYER-1
  0
TEXT
  8
MERGEDLAYER-1
 62
  7
 10
7.703150
 20
2.404576
 30
0.000000
 40
0.097500
  1
VILLE:
 72
  5
 11
8.323150
 21
2.404576
 31
0.000000
  0
POLYLINE
  8
MERGEDLAYER-1
 66
  1
 70
  0
 62
  7
 10
8.540797
 20
2.346714
 30
0.000000
  0
VERTEX
  8
MERGEDLAYER-1
 10
8.540797
 20
2.346714
 30
0.000000
  0
VERTEX
  8
MERGEDLAYER-1
 10
10.631075
 20
2.346714
 30
0.000000
  0
SEQEND
  8
MERGEDLAYER-1
  0
TEXT
  8
MERGEDLAYER-1
 62
  7
 10
7.703150
 20
2.114576
 30
0.000000
 40
0.097500
  1
MODéLE:
 72
  5
 11
8.583150
 21
2.114576
 31
0.000000
  0
POLYLINE
  8
MERGEDLAYER-1
 66
  1
 70
  0
 62
  7
 10
8.540797
 20
2.063339
 30
0.000000
  0
VERTEX
  8
MERGEDLAYER-1
 10
8.540797
 20
2.063339
 30
0.000000
  0
VERTEX
  8
MERGEDLAYER-1
 10
10.631075
 20
2.063339
 30
0.000000
  0
SEQEND
  8
MERGEDLAYER-1
  0
TEXT
  8
MERGEDLAYER-1
 62
  7
 10
7.703150
 20
1.834576
 30
0.000000
 40
0.097500
  1
FINI:
 72
  5
 11
8.153150
 21
1.834576
 31
0.000000
  0
POLYLINE
  8
MERGEDLAYER-1
 66
  1
 70
  0
 62
  7
 10
8.540797
 20
1.771652
 30
0.000000
  0
VERTEX
  8
MERGEDLAYER-1
 10
8.540797
 20
1.771652
 30
0.000000
  0
VERTEX
  8
MERGEDLAYER-1
 10
10.631075
 20
1.771652
 30
0.000000
  0
SEQEND
  8
MERGEDLAYER-1
  0
TEXT
  8
MERGEDLAYER-1
 62
  7
 10
7.703150
 20
1.564576
 30
0.000000
 40
0.097500
  1
DATE:
 72
  5
 11
8.303150
 21
1.564576
 31
0.000000
  0
TEXT
  8
MERGEDLAYER-1
 62
  7
 10
9.483150
 20
1.564576
 30
0.000000
 40
0.097500
  1
NO:
 72
  5
 11
9.863150
 21
1.564576
 31
0.000000
  0
POLYLINE
  8
MERGEDLAYER-1
 66
  1
 70
  0
 62
  7
 10
0.010000
 20
8.094756
 30
0.000000
  0
VERTEX
  8
MERGEDLAYER-1
 10
0.010000
 20
8.094756
 30
0.000000
  0
VERTEX
  8
MERGEDLAYER-1
 10
10.632889
 20
8.094756
 30
0.000000
  0
SEQEND
  8
MERGEDLAYER-1
  0
POLYLINE
  8
MERGEDLAYER-1
 66
  1
 70
  0
 62
  7
 10
10.632889
 20
8.094756
 30
0.000000
  0
VERTEX
  8
MERGEDLAYER-1
 10
10.632889
 20
8.094756
 30
0.000000
  0
VERTEX
  8
MERGEDLAYER-1
 10
10.632889
 20
0.010001
 30
0.000000
  0
SEQEND
  8
MERGEDLAYER-1
  0
POLYLINE
  8
MERGEDLAYER-1
 66
  1
 70
  0
 62
  7
 10
0.010000
 20
0.010001
 30
0.000000
  0
VERTEX
  8
MERGEDLAYER-1
 10
0.010000
 20
0.010001
 30
0.000000
  0
VERTEX
  8
MERGEDLAYER-1
 10
10.632889
 20
0.010001
 30
0.000000
  0
SEQEND
  8
MERGEDLAYER-1
  0
POLYLINE
  8
MERGEDLAYER-1
 66
  1
 70
  1
 62
  7
  0
VERTEX
  8
MERGEDLAYER-1
 10
7.715286
 20
7.843789
 30
0.000000
  0
VERTEX
  8
MERGEDLAYER-1
 10
7.912137
 20
7.843789
 30
0.000000
  0
VERTEX
  8
MERGEDLAYER-1
 10
7.912137
 20
7.741848
 30
0.000000
  0
VERTEX
  8
MERGEDLAYER-1
 10
7.715286
 20
7.741848
 30
0.000000
  0
SEQEND
  8
MERGEDLAYER-1
  0
POLYLINE
  8
MERGEDLAYER-1
 66
  1
 70
  1
 62
  7
  0
VERTEX
  8
MERGEDLAYER-1
 10
7.715286
 20
7.691050
 30
0.000000
  0
VERTEX
  8
MERGEDLAYER-1
 10
7.912137
 20
7.691050
 30
0.000000
  0
VERTEX
  8
MERGEDLAYER-1
 10
7.912137
 20
7.589110
 30
0.000000
  0
VERTEX
  8
MERGEDLAYER-1
 10
7.715286
 20
7.589110
 30
0.000000
  0
SEQEND
  8
MERGEDLAYER-1
  0
POLYLINE
  8
MERGEDLAYER-1
 66
  1
 70
  1
 62
  7
  0
VERTEX
  8
MERGEDLAYER-1
 10
7.715286
 20
7.490026
 30
0.000000
  0
VERTEX
  8
MERGEDLAYER-1
 10
7.912137
 20
7.490026
 30
0.000000
  0
VERTEX
  8
MERGEDLAYER-1
 10
7.912137
 20
7.388085
 30
0.000000
  0
VERTEX
  8
MERGEDLAYER-1
 10
7.715286
 20
7.388085
 30
0.000000
  0
SEQEND
  8
MERGEDLAYER-1
  0
POLYLINE
  8
MERGEDLAYER-1
 66
  1
 70
  1
 62
  7
  0
VERTEX
  8
MERGEDLAYER-1
 10
7.714708
 20
6.542570
 30
0.000000
  0
VERTEX
  8
MERGEDLAYER-1
 10
7.911560
 20
6.542570
 30
0.000000
  0
VERTEX
  8
MERGEDLAYER-1
 10
7.911560
 20
6.440629
 30
0.000000
  0
VERTEX
  8
MERGEDLAYER-1
 10
7.714708
 20
6.440629
 30
0.000000
  0
SEQEND
  8
MERGEDLAYER-1
  0
POLYLINE
  8
MERGEDLAYER-1
 66
  1
 70
  1
 62
  7
  0
VERTEX
  8
MERGEDLAYER-1
 10
7.715286
 20
5.277316
 30
0.000000
  0
VERTEX
  8
MERGEDLAYER-1
 10
7.912139
 20
5.277316
 30
0.000000
  0
VERTEX
  8
MERGEDLAYER-1
 10
7.912139
 20
5.175375
 30
0.000000
  0
VERTEX
  8
MERGEDLAYER-1
 10
7.715286
 20
5.175375
 30
0.000000
  0
SEQEND
  8
MERGEDLAYER-1
  0
POLYLINE
  8
MERGEDLAYER-1
 66
  1
 70
  1
 62
  7
  0
VERTEX
  8
MERGEDLAYER-1
 10
9.305852
 20
5.280831
 30
0.000000
  0
VERTEX
  8
MERGEDLAYER-1
 10
9.502704
 20
5.280831
 30
0.000000
  0
VERTEX
  8
MERGEDLAYER-1
 10
9.502704
 20
5.178890
 30
0.000000
  0
VERTEX
  8
MERGEDLAYER-1
 10
9.305852
 20
5.178890
 30
0.000000
  0
SEQEND
  8
MERGEDLAYER-1
  0
POLYLINE
  8
MERGEDLAYER-1
 66
  1
 70
  1
 62
  7
  0
VERTEX
  8
MERGEDLAYER-1
 10
7.715286
 20
5.123677
 30
0.000000
  0
VERTEX
  8
MERGEDLAYER-1
 10
7.912139
 20
5.123677
 30
0.000000
  0
VERTEX
  8
MERGEDLAYER-1
 10
7.912139
 20
5.021736
 30
0.000000
  0
VERTEX
  8
MERGEDLAYER-1
 10
7.715286
 20
5.021736
 30
0.000000
  0
SEQEND
  8
MERGEDLAYER-1
  0
POLYLINE
  8
MERGEDLAYER-1
 66
  1
 70
  1
 62
  7
  0
VERTEX
  8
MERGEDLAYER-1
 10
9.305853
 20
5.127192
 30
0.000000
  0
VERTEX
  8
MERGEDLAYER-1
 10
9.502705
 20
5.127192
 30
0.000000
  0
VERTEX
  8
MERGEDLAYER-1
 10
9.502705
 20
5.025252
 30
0.000000
  0
VERTEX
  8
MERGEDLAYER-1
 10
9.305853
 20
5.025252
 30
0.000000
  0
SEQEND
  8
MERGEDLAYER-1
  0
POLYLINE
  8
MERGEDLAYER-1
 66
  1
 70
  1
 62
  7
  0
VERTEX
  8
MERGEDLAYER-1
 10
7.715286
 20
5.952534
 30
0.000000
  0
VERTEX
  8
MERGEDLAYER-1
 10
7.912137
 20
5.952534
 30
0.000000
  0
VERTEX
  8
MERGEDLAYER-1
 10
7.912137
 20
5.850593
 30
0.000000
  0
VERTEX
  8
MERGEDLAYER-1
 10
7.715286
 20
5.850593
 30
0.000000
  0
SEQEND
  8
MERGEDLAYER-1
  0
POLYLINE
  8
MERGEDLAYER-1
 66
  1
 70
  1
 62
  7
  0
VERTEX
  8
MERGEDLAYER-1
 10
9.305851
 20
5.956049
 30
0.000000
  0
VERTEX
  8
MERGEDLAYER-1
 10
9.502703
 20
5.956049
 30
0.000000
  0
VERTEX
  8
MERGEDLAYER-1
 10
9.502703
 20
5.854109
 30
0.000000
  0
VERTEX
  8
MERGEDLAYER-1
 10
9.305851
 20
5.854109
 30
0.000000
  0
SEQEND
  8
MERGEDLAYER-1
  0
POLYLINE
  8
MERGEDLAYER-1
 66
  1
 70
  1
 62
  7
  0
VERTEX
  8
MERGEDLAYER-1
 10
7.715286
 20
6.848082
 30
0.000000
  0
VERTEX
  8
MERGEDLAYER-1
 10
7.912137
 20
6.848082
 30
0.000000
  0
VERTEX
  8
MERGEDLAYER-1
 10
7.912137
 20
6.746141
 30
0.000000
  0
VERTEX
  8
MERGEDLAYER-1
 10
7.715286
 20
6.746141
 30
0.000000
  0
SEQEND
  8
MERGEDLAYER-1
  0
POLYLINE
  8
MERGEDLAYER-1
 66
  1
 70
  1
 62
  7
  0
VERTEX
  8
MERGEDLAYER-1
 10
9.499141
 20
6.851529
 30
0.000000
  0
VERTEX
  8
MERGEDLAYER-1
 10
9.695994
 20
6.851529
 30
0.000000
  0
VERTEX
  8
MERGEDLAYER-1
 10
9.695994
 20
6.749588
 30
0.000000
  0
VERTEX
  8
MERGEDLAYER-1
 10
9.499141
 20
6.749588
 30
0.000000
  0
SEQEND
  8
MERGEDLAYER-1
  0
TEXT
  8
MERGEDLAYER-1
 62
  7
 10
8.033150
 20
5.154576
 30
0.000000
 40
0.097500
  1
EXTƒRIEURE
 72
  5
 11
9.233150
 21
5.154576
 31
0.000000
  0
POLYLINE
  8
MERGEDLAYER-1
 66
  1
 70
  0
 62
  7
 10
7.609831
 20
3.488313
 30
0.000000
  0
VERTEX
  8
MERGEDLAYER-1
 10
7.609831
 20
3.488313
 30
0.000000
  0
VERTEX
  8
MERGEDLAYER-1
 10
10.632891
 20
3.488313
 30
0.000000
  0
SEQEND
  8
MERGEDLAYER-1
  0
TEXT
  8
MERGEDLAYER-1
 62
  7
 10
7.733150
 20
4.614576
 30
0.000000
 40
0.097500
  1
CAPOT
 72
  5
 11
8.413150
 21
4.614576
 31
0.000000
  0
TEXT
  8
MERGEDLAYER-1
 62
  7
 10
7.743150
 20
7.894576
 30
0.000000
 40
0.097500
  1
OPƒRATION
 72
  5
 11
8.863150
 21
7.894576
 31
0.000000
  0
TEXT
  8
MERGEDLAYER-1
 62
  7
 10
7.733150
 20
6.904576
 30
0.000000
 40
0.097500
  1
POSITION DU MOTEUR
 72
  5
 11
9.783150
 21
6.904576
 31
0.000000
  0
TEXT
  8
MERGEDLAYER-1
 62
  7
 10
7.743150
 20
5.384576
 30
0.000000
 40
0.097500
  1
ROUE DE CHARGEMENT
 72
  5
 11
9.953150
 21
5.384576
 31
0.000000
  0
TEXT
  8
MERGEDLAYER-1
 62
  7
 10
7.733150
 20
6.154576
 30
0.000000
 40
0.097500
  1
POSITION MOTEUR OU MANIVELLE
 72
  5
 11
10.883150
 21
6.154576
 31
0.000000
  0
TEXT
  8
MERGEDLAYER-1
 62
  7
 10
8.033150
 20
4.284576
 30
0.000000
 40
0.097500
  1
EMBOUTS
 72
  5
 11
8.973150
 21
4.284576
 31
0.000000
  0
POLYLINE
  8
MERGEDLAYER-1
 66
  1
 70
  0
 62
  7
 10
7.609831
 20
1.499965
 30
0.000000
  0
VERTEX
  8
MERGEDLAYER-1
 10
7.609831
 20
1.499965
 30
0.000000
  0
VERTEX
  8
MERGEDLAYER-1
 10
10.632891
 20
1.499965
 30
0.000000
  0
SEQEND
  8
MERGEDLAYER-1
  0
POLYLINE
  8
MERGEDLAYER-1
 66
  1
 70
  0
 62
  7
 10
7.609831
 20
8.094756
 30
0.000000
  0
VERTEX
  8
MERGEDLAYER-1
 10
7.609831
 20
8.094756
 30
0.000000
  0
VERTEX
  8
MERGEDLAYER-1
 10
7.609831
 20
0.010001
 30
0.000000
  0
SEQEND
  8
MERGEDLAYER-1
  0
TEXT
  8
MERGEDLAYER-1
 62
  7
 10
8.033150
 20
7.714576
 30
0.000000
 40
0.097500
  1
MANUELLE AVEC TIGE DE TIRAGE
 72
  5
 11
11.083150
 21
7.714576
 31
0.000000
  0
POLYLINE
  8
MERGEDLAYER-1
 66
  1
 70
  0
 62
  7
 10
7.609831
 20
5.640009
 30
0.000000
  0
VERTEX
  8
MERGEDLAYER-1
 10
7.609831
 20
5.640009
 30
0.000000
  0
VERTEX
  8
MERGEDLAYER-1
 10
10.632891
 20
5.640009
 30
0.000000
  0
SEQEND
  8
MERGEDLAYER-1
  0
POLYLINE
  8
MERGEDLAYER-1
 66
  1
 70
  0
 62
  7
 10
7.609831
 20
7.110774
 30
0.000000
  0
VERTEX
  8
MERGEDLAYER-1
 10
7.609831
 20
7.110774
 30
0.000000
  0
VERTEX
  8
MERGEDLAYER-1
 10
10.632891
 20
7.110774
 30
0.000000
  0
SEQEND
  8
MERGEDLAYER-1
  0
POLYLINE
  8
MERGEDLAYER-1
 66
  1
 70
  0
 62
  7
 10
7.609831
 20
6.355206
 30
0.000000
  0
VERTEX
  8
MERGEDLAYER-1
 10
7.609831
 20
6.355206
 30
0.000000
  0
VERTEX
  8
MERGEDLAYER-1
 10
10.632891
 20
6.355206
 30
0.000000
  0
SEQEND
  8
MERGEDLAYER-1
  0
POLYLINE
  8
MERGEDLAYER-1
 66
  1
 70
  0
 62
  7
 10
7.609831
 20
4.814204
 30
0.000000
  0
VERTEX
  8
MERGEDLAYER-1
 10
7.609831
 20
4.814204
 30
0.000000
  0
VERTEX
  8
MERGEDLAYER-1
 10
10.632891
 20
4.814204
 30
0.000000
  0
SEQEND
  8
MERGEDLAYER-1
  0
POLYLINE
  8
MERGEDLAYER-1
 66
  1
 70
  1
 62
  7
  0
VERTEX
  8
MERGEDLAYER-1
 10
7.715927
 20
4.406033
 30
0.000000
  0
VERTEX
  8
MERGEDLAYER-1
 10
7.912780
 20
4.406033
 30
0.000000
  0
VERTEX
  8
MERGEDLAYER-1
 10
7.912780
 20
4.304092
 30
0.000000
  0
VERTEX
  8
MERGEDLAYER-1
 10
7.715927
 20
4.304092
 30
0.000000
  0
SEQEND
  8
MERGEDLAYER-1
  0
CIRCLE
  8
MERGEDLAYER-1
 62
  7
 10
7.812170
 20
4.511058
 30
0.000000
 40
0.054809
  0
CIRCLE
  8
MERGEDLAYER-1
 62
  7
 10
8.527987
 20
4.511086
 30
0.000000
 40
0.054809
  0
CIRCLE
  8
MERGEDLAYER-1
 62
  7
 10
9.407877
 20
4.511079
 30
0.000000
 40
0.054809
  0
POLYLINE
  8
MERGEDLAYER-1
 66
  1
 70
  1
 62
  7
  0
VERTEX
  8
MERGEDLAYER-1
 10
9.305623
 20
4.403472
 30
0.000000
  0
VERTEX
  8
MERGEDLAYER-1
 10
9.502476
 20
4.403472
 30
0.000000
  0
VERTEX
  8
MERGEDLAYER-1
 10
9.502476
 20
4.301532
 30
0.000000
  0
VERTEX
  8
MERGEDLAYER-1
 10
9.305623
 20
4.301532
 30
0.000000
  0
SEQEND
  8
MERGEDLAYER-1
  0
TEXT
  8
MERGEDLAYER-1
 62
  7
 10
7.993150
 20
4.474576
 30
0.000000
 40
0.097500
  1
2 ,
 72
  5
 11
8.243150
 21
4.474576
 31
0.000000
  0
TEXT
  8
MERGEDLAYER-1
 62
  7
 10
7.983150
 20
7.404576
 30
0.000000
 40
0.097500
  1
MOTEUR 1/2 FORCE - ARBRE 1" - 110V
 72
  5
 11
11.363150
 21
7.404576
 31
0.000000
  0
TEXT
  8
MERGEDLAYER-1
 62
  7
 10
7.993150
 20
5.744576
 30
0.000000
 40
0.067500
  1
VUE DU CïTƒ DU BARIL
 72
  5
 11
9.433150
 21
5.744576
 31
0.000000
  0
TEXT
  8
MERGEDLAYER-1
 62
  7
 10
7.993150
 20
4.914576
 30
0.000000
 40
0.067500
  1
VUE DU CïTƒ DU BARIL
 72
  5
 11
9.433150
 21
4.914576
 31
0.000000
  0
TEXT
  8
MERGEDLAYER-1
 62
  7
 10
7.053150
 20
7.884576
 30
0.000000
 40
0.082500
  1
AUCUNE
 72
  5
 11
7.703150
 21
7.884576
 31
0.000000
  0
TEXT
  8
MERGEDLAYER-1
 62
  7
 10
7.053150
 20
7.714576
 30
0.000000
 40
0.082500
  1
ƒCHELLE
 72
  5
 11
7.773150
 21
7.714576
 31
0.000000
  0
TEXT
  8
MERGEDLAYER-1
 62
  7
 10
9.483150
 20
4.614576
 30
0.000000
 40
0.097500
  1
AUCUN
 72
  5
 11
10.173150
 21
4.614576
 31
0.000000
  0
POLYLINE
  8
MERGEDLAYER-1
 66
  1
 70
  1
 62
  7
  0
VERTEX
  8
MERGEDLAYER-1
 10
7.715927
 20
6.102562
 30
0.000000
  0
VERTEX
  8
MERGEDLAYER-1
 10
7.912778
 20
6.102562
 30
0.000000
  0
VERTEX
  8
MERGEDLAYER-1
 10
7.912778
 20
6.000621
 30
0.000000
  0
VERTEX
  8
MERGEDLAYER-1
 10
7.715927
 20
6.000621
 30
0.000000
  0
SEQEND
  8
MERGEDLAYER-1
  0
POLYLINE
  8
MERGEDLAYER-1
 66
  1
 70
  1
 62
  7
  0
VERTEX
  8
MERGEDLAYER-1
 10
9.306492
 20
6.106077
 30
0.000000
  0
VERTEX
  8
MERGEDLAYER-1
 10
9.503344
 20
6.106077
 30
0.000000
  0
VERTEX
  8
MERGEDLAYER-1
 10
9.503344
 20
6.004137
 30
0.000000
  0
VERTEX
  8
MERGEDLAYER-1
 10
9.306492
 20
6.004137
 30
0.000000
  0
SEQEND
  8
MERGEDLAYER-1
  0
POLYLINE
  8
MERGEDLAYER-1
 66
  1
 70
  1
 62
  7
  0
VERTEX
  8
MERGEDLAYER-1
 10
7.202038
 20
0.246382
 30
0.000000
  0
VERTEX
  8
MERGEDLAYER-1
 10
7.609832
 20
0.246382
 30
0.000000
  0
VERTEX
  8
MERGEDLAYER-1
 10
7.609832
 20
0.010001
 30
0.000000
  0
VERTEX
  8
MERGEDLAYER-1
 10
7.202038
 20
0.010001
 30
0.000000
  0
SEQEND
  8
MERGEDLAYER-1
  0
TEXT
  8
MERGEDLAYER-1
 62
  7
 10
7.133150
 20
0.254576
 30
0.000000
 40
0.097500
  1
PAR:
 72
  5
 11
7.603150
 21
0.254576
 31
0.000000
  0
TEXT
  8
MERGEDLAYER-1
 62
  7
 10
9.473150
 20
5.384576
 30
0.000000
 40
0.097500
  1
TOURS:
 72
  5
 11
10.203150
 21
5.384576
 31
0.000000
  0
POLYLINE
  8
MERGEDLAYER-1
 66
  1
 70
  0
 62
  7
 10
9.577039
 20
5.378326
 30
0.000000
  0
VERTEX
  8
MERGEDLAYER-1
 10
9.577039
 20
5.378326
 30
0.000000
  0
VERTEX
  8
MERGEDLAYER-1
 10
10.632889
 20
5.379081
 30
0.000000
  0
SEQEND
  8
MERGEDLAYER-1
  0
TEXT
  8
MERGEDLAYER-1
 62
  7
 10
7.743150
 20
7.224576
 30
0.000000
 40
0.067500
  1
QTƒ:
 72
  5
 11
8.063150
 21
7.224576
 31
0.000000
  0
TEXT
  8
MERGEDLAYER-1
 62
  7
 10
8.683150
 20
6.414576
 30
0.000000
 40
0.067500
  1
CONNECTION ƒLECTRIQUE PAR AUTRES
 72
  5
 11
11.123150
 21
6.414576
 31
0.000000
  0
TEXT
  8
MERGEDLAYER-1
 62
  7
 10
6.963150
 20
6.604576
 30
0.000000
 40
0.067500
  1
OPTIONS CI-HAUT, NE PAS DƒPASSER Ë DROITE OU GAUCHE
 72
  5
 11
10.553150
 21
6.604576
 31
0.000000
  0
POLYLINE
  8
MERGEDLAYER-1
 66
  1
 70
  0
 62
  7
 10
7.611760
 20
4.229020
 30
0.000000
  0
VERTEX
  8
MERGEDLAYER-1
 10
7.611760
 20
4.229020
 30
0.000000
  0
VERTEX
  8
MERGEDLAYER-1
 10
10.632593
 20
4.229020
 30
0.000000
  0
SEQEND
  8
MERGEDLAYER-1
  0
TEXT
  8
MERGEDLAYER-1
 62
  7
 10
7.733150
 20
4.024576
 30
0.000000
 40
0.097500
  1
NOTES
 72
  5
 11
8.403150
 21
4.024576
 31
0.000000
  0
TEXT
  8
MERGEDLAYER-1
 62
  7
 10
8.983150
 20
1.064576
 30
0.000000
 40
0.232500
  1
MobilFlex
 72
  5
 11
11.073150
 21
1.064576
 31
0.000000
  0
POLYLINE
  8
MERGEDLAYER-1
 66
  1
 70
  1
 62
  7
  0
VERTEX
  8
MERGEDLAYER-1
 10
7.685323
 20
1.434335
 30
0.000000
  0
VERTEX
  8
MERGEDLAYER-1
 10
7.858513
 20
1.434335
 30
0.000000
  0
VERTEX
  8
MERGEDLAYER-1
 10
7.858513
 20
1.057921
 30
0.000000
  0
VERTEX
  8
MERGEDLAYER-1
 10
7.685323
 20
1.057921
 30
0.000000
  0
SEQEND
  8
MERGEDLAYER-1
  0
POLYLINE
  8
MERGEDLAYER-1
 66
  1
 70
  1
 62
  7
  0
VERTEX
  8
MERGEDLAYER-1
 10
7.912868
 20
1.434335
 30
0.000000
  0
VERTEX
  8
MERGEDLAYER-1
 10
8.086062
 20
1.434335
 30
0.000000
  0
VERTEX
  8
MERGEDLAYER-1
 10
8.086062
 20
1.057921
 30
0.000000
  0
VERTEX
  8
MERGEDLAYER-1
 10
7.912868
 20
1.057921
 30
0.000000
  0
SEQEND
  8
MERGEDLAYER-1
  0
POLYLINE
  8
MERGEDLAYER-1
 66
  1
 70
  1
 62
  7
  0
VERTEX
  8
MERGEDLAYER-1
 10
8.131570
 20
1.434335
 30
0.000000
  0
VERTEX
  8
MERGEDLAYER-1
 10
8.304752
 20
1.434335
 30
0.000000
  0
VERTEX
  8
MERGEDLAYER-1
 10
8.304752
 20
1.057921
 30
0.000000
  0
VERTEX
  8
MERGEDLAYER-1
 10
8.131570
 20
1.057921
 30
0.000000
  0
SEQEND
  8
MERGEDLAYER-1
  0
POLYLINE
  8
MERGEDLAYER-1
 66
  1
 70
  1
 62
  7
  0
VERTEX
  8
MERGEDLAYER-1
 10
8.352794
 20
1.434335
 30
0.000000
  0
VERTEX
  8
MERGEDLAYER-1
 10
8.525986
 20
1.434335
 30
0.000000
  0
VERTEX
  8
MERGEDLAYER-1
 10
8.525986
 20
1.057921
 30
0.000000
  0
VERTEX
  8
MERGEDLAYER-1
 10
8.352794
 20
1.057921
 30
0.000000
  0
SEQEND
  8
MERGEDLAYER-1
  0
POLYLINE
  8
MERGEDLAYER-1
 66
  1
 70
  1
 62
  7
  0
VERTEX
  8
MERGEDLAYER-1
 10
8.583502
 20
1.431486
 30
0.000000
  0
VERTEX
  8
MERGEDLAYER-1
 10
8.856885
 20
1.431486
 30
0.000000
  0
VERTEX
  8
MERGEDLAYER-1
 10
8.856885
 20
1.330986
 30
0.000000
  0
VERTEX
  8
MERGEDLAYER-1
 10
8.583502
 20
1.330986
 30
0.000000
  0
SEQEND
  8
MERGEDLAYER-1
  0
POLYLINE
  8
MERGEDLAYER-1
 66
  1
 70
  1
 62
  7
  0
VERTEX
  8
MERGEDLAYER-1
 10
8.583188
 20
1.265879
 30
0.000000
  0
VERTEX
  8
MERGEDLAYER-1
 10
8.807578
 20
1.265879
 30
0.000000
  0
VERTEX
  8
MERGEDLAYER-1
 10
8.807578
 20
1.168224
 30
0.000000
  0
VERTEX
  8
MERGEDLAYER-1
 10
8.583188
 20
1.168224
 30
0.000000
  0
SEQEND
  8
MERGEDLAYER-1
  0
POLYLINE
  8
MERGEDLAYER-1
 66
  1
 70
  1
 62
  7
  0
VERTEX
  8
MERGEDLAYER-1
 10
7.685323
 20
0.996297
 30
0.000000
  0
VERTEX
  8
MERGEDLAYER-1
 10
10.538538
 20
0.996297
 30
0.000000
  0
VERTEX
  8
MERGEDLAYER-1
 10
10.538538
 20
0.964695
 30
0.000000
  0
VERTEX
  8
MERGEDLAYER-1
 10
7.685323
 20
0.964695
 30
0.000000
  0
SEQEND
  8
MERGEDLAYER-1
  0
TEXT
  8
MERGEDLAYER-1
 62
  7
 10
7.673150
 20
0.824576
 30
0.000000
 40
0.082500
  1
NEW YORK . TORONTO . QUƒBEC . LONDRES . PARIS
 72
  5
 11
11.543150
 21
0.824576
 31
0.000000
  0
TEXT
  8
MERGEDLAYER-1
 62
  7
 10
7.673150
 20
0.494576
 30
0.000000
 40
0.097500
  1
TƒL.
 72
  5
 11
8.113150
 21
0.494576
 31
0.000000
  0
TEXT
  8
MERGEDLAYER-1
 62
  7
 10
7.673150
 20
0.074576
 30
0.000000
 40
0.097500
  1
FAX
 72
  5
 11
8.083150
 21
0.074576
 31
0.000000
  0
TEXT
  8
MERGEDLAYER-1
 62
  7
 10
8.003150
 20
0.464576
 30
0.000000
 40
0.097500
  1
:1.418.831.6652
 72
  5
 11
9.363150
 21
0.464576
 31
0.000000
  0
TEXT
  8
MERGEDLAYER-1
 62
  7
 10
8.003150
 20
0.044576
 30
0.000000
 40
0.097500
  1
:1.418.831.7817
 72
  5
 11
9.363150
 21
0.044576
 31
0.000000
  0
TEXT
  8
MERGEDLAYER-1
 62
  7
 10
9.553150
 20
0.464576
 30
0.000000
 40
0.097500
  1
:1.800.501.3539
 72
  5
 11
10.913150
 21
0.464576
 31
0.000000
  0
TEXT
  8
MERGEDLAYER-1
 62
  7
 10
9.553150
 20
0.044576
 30
0.000000
 40
0.097500
  1
:1.800.470.3539
 72
  5
 11
10.913150
 21
0.044576
 31
0.000000
  0
TEXT
  8
MERGEDLAYER-1
 62
  7
 10
9.223150
 20
0.494576
 30
0.000000
 40
0.097500
  1
TƒL.
 72
  5
 11
9.663150
 21
0.494576
 31
0.000000
  0
TEXT
  8
MERGEDLAYER-1
 62
  7
 10
9.223150
 20
0.074576
 30
0.000000
 40
0.097500
  1
FAX
 72
  5
 11
9.633150
 21
0.074576
 31
0.000000
  0
POLYLINE
  8
MERGEDLAYER-1
 66
  1
 70
  1
 62
  7
  0
VERTEX
  8
MERGEDLAYER-1
 10
7.997175
 20
7.333187
 30
0.000000
  0
VERTEX
  8
MERGEDLAYER-1
 10
8.097871
 20
7.333187
 30
0.000000
  0
VERTEX
  8
MERGEDLAYER-1
 10
8.097871
 20
7.230135
 30
0.000000
  0
VERTEX
  8
MERGEDLAYER-1
 10
7.997175
 20
7.230135
 30
0.000000
  0
SEQEND
  8
MERGEDLAYER-1
  0
POLYLINE
  8
MERGEDLAYER-1
 66
  1
 70
  1
 62
  7
  0
VERTEX
  8
MERGEDLAYER-1
 10
9.757588
 20
7.333187
 30
0.000000
  0
VERTEX
  8
MERGEDLAYER-1
 10
9.858284
 20
7.333187
 30
0.000000
  0
VERTEX
  8
MERGEDLAYER-1
 10
9.858284
 20
7.230135
 30
0.000000
  0
VERTEX
  8
MERGEDLAYER-1
 10
9.757588
 20
7.230135
 30
0.000000
  0
SEQEND
  8
MERGEDLAYER-1
  0
POLYLINE
  8
MERGEDLAYER-1
 66
  1
 70
  1
 62
  7
  0
VERTEX
  8
MERGEDLAYER-1
 10
5.889713
 20
2.244384
 30
0.000000
  0
VERTEX
  8
MERGEDLAYER-1
 10
6.053219
 20
2.244384
 30
0.000000
  0
VERTEX
  8
MERGEDLAYER-1
 10
6.053219
 20
2.157578
 30
0.000000
  0
VERTEX
  8
MERGEDLAYER-1
 10
5.889713
 20
2.157578
 30
0.000000
  0
SEQEND
  8
MERGEDLAYER-1
  0
POLYLINE
  8
MERGEDLAYER-1
 66
  1
 70
  1
 62
  7
  0
VERTEX
  8
MERGEDLAYER-1
 10
1.564752
 20
2.243973
 30
0.000000
  0
VERTEX
  8
MERGEDLAYER-1
 10
1.727824
 20
2.243973
 30
0.000000
  0
VERTEX
  8
MERGEDLAYER-1
 10
1.727824
 20
2.157168
 30
0.000000
  0
VERTEX
  8
MERGEDLAYER-1
 10
1.564752
 20
2.157168
 30
0.000000
  0
SEQEND
  8
MERGEDLAYER-1
  0
TEXT
  8
MERGEDLAYER-1
 62
  7
 10
3.413150
 20
2.574576
 30
0.000000
 40
0.097500
  1
EXTƒRIEUR
 72
  5
 11
4.493150
 21
2.574576
 31
0.000000
  0
POLYLINE
  8
MERGEDLAYER-1
 66
  1
 70
  1
 62
  7
  0
VERTEX
  8
MERGEDLAYER-1
 10
1.727549
 20
2.412700
 30
0.000000
  0
VERTEX
  8
MERGEDLAYER-1
 10
5.889075
 20
2.412700
 30
0.000000
  0
VERTEX
  8
MERGEDLAYER-1
 10
5.889075
 20
1.992210
 30
0.000000
  0
VERTEX
  8
MERGEDLAYER-1
 10
1.727549
 20
1.992210
 30
0.000000
  0
SEQEND
  8
MERGEDLAYER-1
  0
POLYLINE
  8
MERGEDLAYER-1
 66
  1
 70
  0
 62
  7
 10
1.727549
 20
2.313948
 30
0.000000
  0
VERTEX
  8
MERGEDLAYER-1
 10
1.727549
 20
2.313948
 30
0.000000
  0
VERTEX
  8
MERGEDLAYER-1
 10
5.889074
 20
2.313948
 30
0.000000
  0
SEQEND
  8
MERGEDLAYER-1
  0
POLYLINE
  8
MERGEDLAYER-1
 66
  1
 70
  0
 62
  7
 10
5.889074
 20
2.088892
 30
0.000000
  0
VERTEX
  8
MERGEDLAYER-1
 10
5.889074
 20
2.088892
 30
0.000000
  0
VERTEX
  8
MERGEDLAYER-1
 10
1.727549
 20
2.088892
 30
0.000000
  0
SEQEND
  8
MERGEDLAYER-1
  0
TEXT
  8
MERGEDLAYER-1
 62
  7
 10
3.643150
 20
2.114576
 30
0.000000
 40
0.060000
  1
DU RIDEAU
 72
  5
 11
4.233150
 21
2.114576
 31
0.000000
  0
POLYLINE
  8
MERGEDLAYER-1
 66
  1
 70
  0
 62
  7
 10
1.876147
 20
1.981364
 30
0.000000
  0
VERTEX
  8
MERGEDLAYER-1
 10
1.876147
 20
1.981364
 30
0.000000
  0
VERTEX
  8
MERGEDLAYER-1
 10
1.976705
 20
1.882330
 30
0.000000
  0
SEQEND
  8
MERGEDLAYER-1
  0
POLYLINE
  8
MERGEDLAYER-1
 66
  1
 70
  1
 62
  7
  0
VERTEX
  8
MERGEDLAYER-1
 10
1.862122
 20
1.995177
 30
0.000000
  0
VERTEX
  8
MERGEDLAYER-1
 10
1.876696
 20
1.938718
 30
0.000000
  0
VERTEX
  8
MERGEDLAYER-1
 10
1.897746
 20
1.960093
 30
0.000000
  0
VERTEX
  8
MERGEDLAYER-1
 10
1.918797
 20
1.981467
 30
0.000000
  0
VERTEX
  8
MERGEDLAYER-1
 10
1.862122
 20
1.995177
 30
0.000000
  0
SEQEND
  8
MERGEDLAYER-1
  0
LINE
  8
MERGEDLAYER-1
 62
  7
 10
5.492880
 20
2.127693
 30
0.000000
 11
5.492880
 21
2.275051
 31
0.000000
  0
LINE
  8
MERGEDLAYER-1
 62
  7
 10
5.853149
 20
2.108008
 30
0.000000
 11
5.367880
 21
2.108008
 31
0.000000
  0
LINE
  8
MERGEDLAYER-1
 62
  7
 10
5.853962
 20
2.294736
 30
0.000000
 11
5.367880
 21
2.294736
 31
0.000000
  0
LINE
  8
MERGEDLAYER-1
 62
  7
 10
5.492880
 20
2.542960
 30
0.000000
 11
5.492880
 21
2.108008
 31
0.000000
  0
POLYLINE
  8
MERGEDLAYER-1
 66
  1
 70
  1
 62
  7
  0
VERTEX
  8
MERGEDLAYER-1
 10
5.492880
 20
2.108008
 30
0.000000
  0
VERTEX
  8
MERGEDLAYER-1
 10
5.522880
 20
2.158008
 30
0.000000
  0
VERTEX
  8
MERGEDLAYER-1
 10
5.492880
 20
2.158008
 30
0.000000
  0
VERTEX
  8
MERGEDLAYER-1
 10
5.462880
 20
2.158008
 30
0.000000
  0
VERTEX
  8
MERGEDLAYER-1
 10
5.492880
 20
2.108008
 30
0.000000
  0
SEQEND
  8
MERGEDLAYER-1
  0
POLYLINE
  8
MERGEDLAYER-1
 66
  1
 70
  1
 62
  7
  0
VERTEX
  8
MERGEDLAYER-1
 10
5.492880
 20
2.294736
 30
0.000000
  0
VERTEX
  8
MERGEDLAYER-1
 10
5.522880
 20
2.244736
 30
0.000000
  0
VERTEX
  8
MERGEDLAYER-1
 10
5.492880
 20
2.244736
 30
0.000000
  0
VERTEX
  8
MERGEDLAYER-1
 10
5.462880
 20
2.244736
 30
0.000000
  0
VERTEX
  8
MERGEDLAYER-1
 10
5.492880
 20
2.294736
 30
0.000000
  0
SEQEND
  8
MERGEDLAYER-1
  0
TEXT
  8
MERGEDLAYER-1
 62
  7
 10
5.328897
 20
2.595599
 30
0.000000
 40
0.067500
  1
1 1/4" - 32mm
  0
POLYLINE
  8
MERGEDLAYER-1
 66
  1
 70
  0
 62
  7
 10
6.204935
 20
1.886885
 30
0.000000
  0
VERTEX
  8
MERGEDLAYER-1
 10
6.204935
 20
1.886885
 30
0.000000
  0
VERTEX
  8
MERGEDLAYER-1
 10
5.945176
 20
1.886685
 30
0.000000
  0
SEQEND
  8
MERGEDLAYER-1
  0
POLYLINE
  8
MERGEDLAYER-1
 66
  1
 70
  1
 62
  7
  0
VERTEX
  8
MERGEDLAYER-1
 10
6.224620
 20
1.886901
 30
0.000000
  0
VERTEX
  8
MERGEDLAYER-1
 10
6.174597
 20
1.916862
 30
0.000000
  0
VERTEX
  8
MERGEDLAYER-1
 10
6.174620
 20
1.886862
 30
0.000000
  0
VERTEX
  8
MERGEDLAYER-1
 10
6.174644
 20
1.856862
 30
0.000000
  0
VERTEX
  8
MERGEDLAYER-1
 10
6.224620
 20
1.886901
 30
0.000000
  0
SEQEND
  8
MERGEDLAYER-1
  0
POLYLINE
  8
MERGEDLAYER-1
 66
  1
 70
  1
 62
  7
  0
VERTEX
  8
MERGEDLAYER-1
 10
5.925491
 20
1.886670
 30
0.000000
  0
VERTEX
  8
MERGEDLAYER-1
 10
5.975468
 20
1.916709
 30
0.000000
  0
VERTEX
  8
MERGEDLAYER-1
 10
5.975491
 20
1.886709
 30
0.000000
  0
VERTEX
  8
MERGEDLAYER-1
 10
5.975515
 20
1.856709
 30
0.000000
  0
VERTEX
  8
MERGEDLAYER-1
 10
5.925491
 20
1.886670
 30
0.000000
  0
SEQEND
  8
MERGEDLAYER-1
  0
TEXT
  8
MERGEDLAYER-1
 62
  7
 10
5.283150
 20
1.824576
 30
0.000000
 40
0.090000
  1
2" - 51mm
 72
  5
 11
6.053150
 21
1.824576
 31
0.000000
  0
POLYLINE
  8
MERGEDLAYER-1
 66
  1
 70
  0
 62
  7
 40
0.020000
 41
0.020000
 10
5.997539
 20
2.201774
 30
0.000000
  0
VERTEX
  8
MERGEDLAYER-1
 10
5.997539
 20
2.201774
 30
0.000000
  0
VERTEX
  8
MERGEDLAYER-1
 10
6.025317
 20
2.201774
 30
0.000000
  0
SEQEND
  8
MERGEDLAYER-1
  0
POLYLINE
  8
MERGEDLAYER-1
 66
  1
 70
  0
 62
  7
 10
5.925491
 20
1.886901
 30
0.000000
  0
VERTEX
  8
MERGEDLAYER-1
 10
5.925491
 20
1.886901
 30
0.000000
  0
VERTEX
  8
MERGEDLAYER-1
 10
5.844761
 20
1.886901
 30
0.000000
  0
SEQEND
  8
MERGEDLAYER-1
  0
POLYLINE
  8
MERGEDLAYER-1
 66
  1
 70
  1
 62
  7
 10
5.943348
 20
2.263215
 30
0.000000
  0
VERTEX
  8
MERGEDLAYER-1
 10
5.943348
 20
2.263215
 30
0.000000
  0
VERTEX
  8
MERGEDLAYER-1
 10
5.943955
 20
2.263148
 30
0.000000
  0
VERTEX
  8
MERGEDLAYER-1
 10
5.944348
 20
2.263016
 30
0.000000
  0
VERTEX
  8
MERGEDLAYER-1
 10
5.944932
 20
2.262559
 30
0.000000
  0
VERTEX
  8
MERGEDLAYER-1
 10
5.945201
 20
2.262295
 30
0.000000
  0
VERTEX
  8
MERGEDLAYER-1
 10
5.945397
 20
2.261967
 30
0.000000
  0
VERTEX
  8
MERGEDLAYER-1
 10
5.945529
 20
2.261574
 30
0.000000
  0
VERTEX
  8
MERGEDLAYER-1
 10
5.945587
 20
2.260975
 30
0.000000
  0
VERTEX
  8
MERGEDLAYER-1
 10
5.945587
 20
2.259578
 30
0.000000
  0
VERTEX
  8
MERGEDLAYER-1
 10
5.945529
 20
2.259016
 30
0.000000
  0
VERTEX
  8
MERGEDLAYER-1
 10
5.945332
 20
2.258557
 30
0.000000
  0
VERTEX
  8
MERGEDLAYER-1
 10
5.945201
 20
2.258295
 30
0.000000
  0
VERTEX
  8
MERGEDLAYER-1
 10
5.944932
 20
2.257995
 30
0.000000
  0
VERTEX
  8
MERGEDLAYER-1
 10
5.944479
 20
2.257639
 30
0.000000
  0
VERTEX
  8
MERGEDLAYER-1
 10
5.943955
 20
2.257442
 30
0.000000
  0
VERTEX
  8
MERGEDLAYER-1
 10
5.943348
 20
2.257339
 30
0.000000
  0
VERTEX
  8
MERGEDLAYER-1
 10
5.933813
 20
2.257339
 30
0.000000
  0
VERTEX
  8
MERGEDLAYER-1
 10
5.932937
 20
2.257442
 30
0.000000
  0
VERTEX
  8
MERGEDLAYER-1
 10
5.932281
 20
2.257573
 30
0.000000
  0
VERTEX
  8
MERGEDLAYER-1
 10
5.931494
 20
2.257770
 30
0.000000
  0
VERTEX
  8
MERGEDLAYER-1
 10
5.930707
 20
2.258032
 30
0.000000
  0
VERTEX
  8
MERGEDLAYER-1
 10
5.929986
 20
2.258360
 30
0.000000
  0
VERTEX
  8
MERGEDLAYER-1
 10
5.929461
 20
2.258622
 30
0.000000
  0
VERTEX
  8
MERGEDLAYER-1
 10
5.928936
 20
2.258950
 30
0.000000
  0
VERTEX
  8
MERGEDLAYER-1
 10
5.928411
 20
2.259344
 30
0.000000
  0
VERTEX
  8
MERGEDLAYER-1
 10
5.928009
 20
2.259743
 30
0.000000
  0
VERTEX
  8
MERGEDLAYER-1
 10
5.927494
 20
2.260328
 30
0.000000
  0
VERTEX
  8
MERGEDLAYER-1
 10
5.926904
 20
2.261049
 30
0.000000
  0
VERTEX
  8
MERGEDLAYER-1
 10
5.926576
 20
2.261639
 30
0.000000
  0
VERTEX
  8
MERGEDLAYER-1
 10
5.926182
 20
2.262557
 30
0.000000
  0
VERTEX
  8
MERGEDLAYER-1
 10
5.925919
 20
2.263213
 30
0.000000
  0
VERTEX
  8
MERGEDLAYER-1
 10
5.925789
 20
2.263804
 30
0.000000
  0
VERTEX
  8
MERGEDLAYER-1
 10
5.925591
 20
2.264722
 30
0.000000
  0
VERTEX
  8
MERGEDLAYER-1
 10
5.925605
 20
2.276139
 30
0.000000
  0
VERTEX
  8
MERGEDLAYER-1
 10
5.925658
 20
2.277379
 30
0.000000
  0
VERTEX
  8
MERGEDLAYER-1
 10
5.925723
 20
2.278625
 30
0.000000
  0
VERTEX
  8
MERGEDLAYER-1
 10
5.925919
 20
2.279675
 30
0.000000
  0
VERTEX
  8
MERGEDLAYER-1
 10
5.926116
 20
2.280592
 30
0.000000
  0
VERTEX
  8
MERGEDLAYER-1
 10
5.926444
 20
2.281642
 30
0.000000
  0
VERTEX
  8
MERGEDLAYER-1
 10
5.926838
 20
2.282757
 30
0.000000
  0
VERTEX
  8
MERGEDLAYER-1
 10
5.927231
 20
2.283806
 30
0.000000
  0
VERTEX
  8
MERGEDLAYER-1
 10
5.927690
 20
2.284724
 30
0.000000
  0
VERTEX
  8
MERGEDLAYER-1
 10
5.928215
 20
2.285642
 30
0.000000
  0
VERTEX
  8
MERGEDLAYER-1
 10
5.928871
 20
2.286626
 30
0.000000
  0
VERTEX
  8
MERGEDLAYER-1
 10
5.929658
 20
2.287675
 30
0.000000
  0
VERTEX
  8
MERGEDLAYER-1
 10
5.930511
 20
2.288724
 30
0.000000
  0
VERTEX
  8
MERGEDLAYER-1
 10
5.931559
 20
2.289774
 30
0.000000
  0
VERTEX
  8
MERGEDLAYER-1
 10
5.932675
 20
2.290692
 30
0.000000
  0
VERTEX
  8
MERGEDLAYER-1
 10
5.933855
 20
2.291545
 30
0.000000
  0
VERTEX
  8
MERGEDLAYER-1
 10
5.934904
 20
2.292200
 30
0.000000
  0
VERTEX
  8
MERGEDLAYER-1
 10
5.936085
 20
2.292856
 30
0.000000
  0
VERTEX
  8
MERGEDLAYER-1
 10
5.937397
 20
2.293381
 30
0.000000
  0
VERTEX
  8
MERGEDLAYER-1
 10
5.938839
 20
2.293906
 30
0.000000
  0
VERTEX
  8
MERGEDLAYER-1
 10
5.940217
 20
2.294299
 30
0.000000
  0
VERTEX
  8
MERGEDLAYER-1
 10
5.941922
 20
2.294561
 30
0.000000
  0
VERTEX
  8
MERGEDLAYER-1
 10
5.943168
 20
2.294627
 30
0.000000
  0
VERTEX
  8
MERGEDLAYER-1
 10
6.011210
 20
2.294609
 30
0.000000
  0
VERTEX
  8
MERGEDLAYER-1
 10
6.011241
 20
2.294167
 30
0.000000
  0
VERTEX
  8
MERGEDLAYER-1
 10
6.011439
 20
2.293643
 30
0.000000
  0
VERTEX
  8
MERGEDLAYER-1
 10
6.011701
 20
2.293250
 30
0.000000
  0
VERTEX
  8
MERGEDLAYER-1
 10
6.012094
 20
2.292856
 30
0.000000
  0
VERTEX
  8
MERGEDLAYER-1
 10
6.012619
 20
2.292528
 30
0.000000
  0
VERTEX
  8
MERGEDLAYER-1
 10
6.013144
 20
2.292463
 30
0.000000
  0
VERTEX
  8
MERGEDLAYER-1
 10
6.013455
 20
2.292384
 30
0.000000
  0
VERTEX
  8
MERGEDLAYER-1
 10
6.013931
 20
2.292463
 30
0.000000
  0
VERTEX
  8
MERGEDLAYER-1
 10
6.014586
 20
2.292659
 30
0.000000
  0
VERTEX
  8
MERGEDLAYER-1
 10
6.014980
 20
2.292987
 30
0.000000
  0
VERTEX
  8
MERGEDLAYER-1
 10
6.015308
 20
2.293381
 30
0.000000
  0
VERTEX
  8
MERGEDLAYER-1
 10
6.015569
 20
2.293840
 30
0.000000
  0
VERTEX
  8
MERGEDLAYER-1
 10
6.015636
 20
2.294167
 30
0.000000
  0
VERTEX
  8
MERGEDLAYER-1
 10
6.015687
 20
2.294623
 30
0.000000
  0
VERTEX
  8
MERGEDLAYER-1
 10
6.073821
 20
2.294623
 30
0.000000
  0
VERTEX
  8
MERGEDLAYER-1
 10
6.073872
 20
2.294037
 30
0.000000
  0
VERTEX
  8
MERGEDLAYER-1
 10
6.074135
 20
2.293512
 30
0.000000
  0
VERTEX
  8
MERGEDLAYER-1
 10
6.074397
 20
2.293118
 30
0.000000
  0
VERTEX
  8
MERGEDLAYER-1
 10
6.074659
 20
2.292856
 30
0.000000
  0
VERTEX
  8
MERGEDLAYER-1
 10
6.075184
 20
2.292594
 30
0.000000
  0
VERTEX
  8
MERGEDLAYER-1
 10
6.075577
 20
2.292463
 30
0.000000
  0
VERTEX
  8
MERGEDLAYER-1
 10
6.076068
 20
2.292384
 30
0.000000
  0
VERTEX
  8
MERGEDLAYER-1
 10
6.076430
 20
2.292463
 30
0.000000
  0
VERTEX
  8
MERGEDLAYER-1
 10
6.076955
 20
2.292594
 30
0.000000
  0
VERTEX
  8
MERGEDLAYER-1
 10
6.077414
 20
2.292856
 30
0.000000
  0
VERTEX
  8
MERGEDLAYER-1
 10
6.077742
 20
2.293118
 30
0.000000
  0
VERTEX
  8
MERGEDLAYER-1
 10
6.078004
 20
2.293578
 30
0.000000
  0
VERTEX
  8
MERGEDLAYER-1
 10
6.078135
 20
2.293840
 30
0.000000
  0
VERTEX
  8
MERGEDLAYER-1
 10
6.078266
 20
2.294167
 30
0.000000
  0
VERTEX
  8
MERGEDLAYER-1
 10
6.078298
 20
2.294623
 30
0.000000
  0
VERTEX
  8
MERGEDLAYER-1
 10
6.136432
 20
2.294609
 30
0.000000
  0
VERTEX
  8
MERGEDLAYER-1
 10
6.136503
 20
2.294102
 30
0.000000
  0
VERTEX
  8
MERGEDLAYER-1
 10
6.136700
 20
2.293512
 30
0.000000
  0
VERTEX
  8
MERGEDLAYER-1
 10
6.136962
 20
2.293184
 30
0.000000
  0
VERTEX
  8
MERGEDLAYER-1
 10
6.137355
 20
2.292791
 30
0.000000
  0
VERTEX
  8
MERGEDLAYER-1
 10
6.137815
 20
2.292594
 30
0.000000
  0
VERTEX
  8
MERGEDLAYER-1
 10
6.138143
 20
2.292463
 30
0.000000
  0
VERTEX
  8
MERGEDLAYER-1
 10
6.138679
 20
2.292384
 30
0.000000
  0
VERTEX
  8
MERGEDLAYER-1
 10
6.139126
 20
2.292397
 30
0.000000
  0
VERTEX
  8
MERGEDLAYER-1
 10
6.139783
 20
2.292659
 30
0.000000
  0
VERTEX
  8
MERGEDLAYER-1
 10
6.140176
 20
2.292987
 30
0.000000
  0
VERTEX
  8
MERGEDLAYER-1
 10
6.140504
 20
2.293315
 30
0.000000
  0
VERTEX
  8
MERGEDLAYER-1
 10
6.140701
 20
2.293708
 30
0.000000
  0
VERTEX
  8
MERGEDLAYER-1
 10
6.140897
 20
2.294167
 30
0.000000
  0
VERTEX
  8
MERGEDLAYER-1
 10
6.140911
 20
2.294623
 30
0.000000
  0
VERTEX
  8
MERGEDLAYER-1
 10
6.221873
 20
2.294623
 30
0.000000
  0
VERTEX
  8
MERGEDLAYER-1
 10
6.222481
 20
2.294561
 30
0.000000
  0
VERTEX
  8
MERGEDLAYER-1
 10
6.222940
 20
2.294365
 30
0.000000
  0
VERTEX
  8
MERGEDLAYER-1
 10
6.223456
 20
2.293968
 30
0.000000
  0
VERTEX
  8
MERGEDLAYER-1
 10
6.223793
 20
2.293708
 30
0.000000
  0
VERTEX
  8
MERGEDLAYER-1
 10
6.223989
 20
2.293315
 30
0.000000
  0
VERTEX
  8
MERGEDLAYER-1
 10
6.224120
 20
2.292922
 30
0.000000
  0
VERTEX
  8
MERGEDLAYER-1
 10
6.224113
 20
2.292384
 30
0.000000
  0
VERTEX
  8
MERGEDLAYER-1
 10
6.224120
 20
2.281970
 30
0.000000
  0
VERTEX
  8
MERGEDLAYER-1
 10
6.212184
 20
2.281970
 30
0.000000
  0
VERTEX
  8
MERGEDLAYER-1
 10
6.212206
 20
2.283408
 30
0.000000
  0
VERTEX
  8
MERGEDLAYER-1
 10
6.212053
 20
2.284200
 30
0.000000
  0
VERTEX
  8
MERGEDLAYER-1
 10
6.211857
 20
2.284593
 30
0.000000
  0
VERTEX
  8
MERGEDLAYER-1
 10
6.211549
 20
2.284991
 30
0.000000
  0
VERTEX
  8
MERGEDLAYER-1
 10
6.211135
 20
2.285314
 30
0.000000
  0
VERTEX
  8
MERGEDLAYER-1
 10
6.210742
 20
2.285511
 30
0.000000
  0
VERTEX
  8
MERGEDLAYER-1
 10
6.210283
 20
2.285642
 30
0.000000
  0
VERTEX
  8
MERGEDLAYER-1
 10
6.209966
 20
2.285647
 30
0.000000
  0
VERTEX
  8
MERGEDLAYER-1
 10
6.202542
 20
2.285647
 30
0.000000
  0
VERTEX
  8
MERGEDLAYER-1
 10
6.201954
 20
2.285511
 30
0.000000
  0
VERTEX
  8
MERGEDLAYER-1
 10
6.201489
 20
2.285208
 30
0.000000
  0
VERTEX
  8
MERGEDLAYER-1
 10
6.201168
 20
2.284724
 30
0.000000
  0
VERTEX
  8
MERGEDLAYER-1
 10
6.201054
 20
2.284155
 30
0.000000
  0
VERTEX
  8
MERGEDLAYER-1
 10
6.201054
 20
2.278217
 30
0.000000
  0
VERTEX
  8
MERGEDLAYER-1
 10
6.200970
 20
2.277576
 30
0.000000
  0
VERTEX
  8
MERGEDLAYER-1
 10
6.200773
 20
2.277117
 30
0.000000
  0
VERTEX
  8
MERGEDLAYER-1
 10
6.200399
 20
2.276634
 30
0.000000
  0
VERTEX
  8
MERGEDLAYER-1
 10
6.200052
 20
2.276395
 30
0.000000
  0
VERTEX
  8
MERGEDLAYER-1
 10
6.199724
 20
2.276199
 30
0.000000
  0
VERTEX
  8
MERGEDLAYER-1
 10
6.199330
 20
2.276068
 30
0.000000
  0
VERTEX
  8
MERGEDLAYER-1
 10
6.198815
 20
2.275978
 30
0.000000
  0
VERTEX
  8
MERGEDLAYER-1
 10
6.188367
 20
2.275978
 30
0.000000
  0
VERTEX
  8
MERGEDLAYER-1
 10
6.187723
 20
2.276133
 30
0.000000
  0
VERTEX
  8
MERGEDLAYER-1
 10
6.187198
 20
2.276329
 30
0.000000
  0
VERTEX
  8
MERGEDLAYER-1
 10
6.186785
 20
2.276634
 30
0.000000
  0
VERTEX
  8
MERGEDLAYER-1
 10
6.186542
 20
2.276985
 30
0.000000
  0
VERTEX
  8
MERGEDLAYER-1
 10
6.186345
 20
2.277379
 30
0.000000
  0
VERTEX
  8
MERGEDLAYER-1
 10
6.186215
 20
2.277707
 30
0.000000
  0
VERTEX
  8
MERGEDLAYER-1
 10
6.186129
 20
2.278217
 30
0.000000
  0
VERTEX
  8
MERGEDLAYER-1
 10
6.186129
 20
2.283430
 30
0.000000
  0
VERTEX
  8
MERGEDLAYER-1
 10
6.185952
 20
2.284265
 30
0.000000
  0
VERTEX
  8
MERGEDLAYER-1
 10
6.185755
 20
2.284724
 30
0.000000
  0
VERTEX
  8
MERGEDLAYER-1
 10
6.185474
 20
2.285013
 30
0.000000
  0
VERTEX
  8
MERGEDLAYER-1
 10
6.185099
 20
2.285314
 30
0.000000
  0
VERTEX
  8
MERGEDLAYER-1
 10
6.184575
 20
2.285511
 30
0.000000
  0
VERTEX
  8
MERGEDLAYER-1
 10
6.183890
 20
2.285669
 30
0.000000
  0
VERTEX
  8
MERGEDLAYER-1
 10
6.177130
 20
2.285669
 30
0.000000
  0
VERTEX
  8
MERGEDLAYER-1
 10
6.176246
 20
2.285511
 30
0.000000
  0
VERTEX
  8
MERGEDLAYER-1
 10
6.175918
 20
2.285314
 30
0.000000
  0
VERTEX
  8
MERGEDLAYER-1
 10
6.175548
 20
2.285013
 30
0.000000
  0
VERTEX
  8
MERGEDLAYER-1
 10
6.175197
 20
2.284593
 30
0.000000
  0
VERTEX
  8
MERGEDLAYER-1
 10
6.175000
 20
2.284069
 30
0.000000
  0
VERTEX
  8
MERGEDLAYER-1
 10
6.174892
 20
2.283430
 30
0.000000
  0
VERTEX
  8
MERGEDLAYER-1
 10
6.174892
 20
2.259555
 30
0.000000
  0
VERTEX
  8
MERGEDLAYER-1
 10
6.174803
 20
2.259081
 30
0.000000
  0
VERTEX
  8
MERGEDLAYER-1
 10
6.174738
 20
2.258688
 30
0.000000
  0
VERTEX
  8
MERGEDLAYER-1
 10
6.174476
 20
2.258295
 30
0.000000
  0
VERTEX
  8
MERGEDLAYER-1
 10
6.174236
 20
2.257972
 30
0.000000
  0
VERTEX
  8
MERGEDLAYER-1
 10
6.173754
 20
2.257639
 30
0.000000
  0
VERTEX
  8
MERGEDLAYER-1
 10
6.172653
 20
2.257316
 30
0.000000
  0
VERTEX
  8
MERGEDLAYER-1
 10
6.165190
 20
2.257316
 30
0.000000
  0
VERTEX
  8
MERGEDLAYER-1
 10
6.164638
 20
2.257376
 30
0.000000
  0
VERTEX
  8
MERGEDLAYER-1
 10
6.164179
 20
2.257573
 30
0.000000
  0
VERTEX
  8
MERGEDLAYER-1
 10
6.163607
 20
2.257972
 30
0.000000
  0
VERTEX
  8
MERGEDLAYER-1
 10
6.163195
 20
2.258426
 30
0.000000
  0
VERTEX
  8
MERGEDLAYER-1
 10
6.163065
 20
2.258820
 30
0.000000
  0
VERTEX
  8
MERGEDLAYER-1
 10
6.162952
 20
2.259555
 30
0.000000
  0
VERTEX
  8
MERGEDLAYER-1
 10
6.162952
 20
2.278929
 30
0.000000
  0
VERTEX
  8
MERGEDLAYER-1
 10
6.162802
 20
2.279740
 30
0.000000
  0
VERTEX
  8
MERGEDLAYER-1
 10
6.162605
 20
2.280199
 30
0.000000
  0
VERTEX
  8
MERGEDLAYER-1
 10
6.162296
 20
2.280512
 30
0.000000
  0
VERTEX
  8
MERGEDLAYER-1
 10
6.161949
 20
2.280854
 30
0.000000
  0
VERTEX
  8
MERGEDLAYER-1
 10
6.161490
 20
2.281052
 30
0.000000
  0
VERTEX
  8
MERGEDLAYER-1
 10
6.160714
 20
2.281168
 30
0.000000
  0
VERTEX
  8
MERGEDLAYER-1
 10
6.125220
 20
2.281168
 30
0.000000
  0
VERTEX
  8
MERGEDLAYER-1
 10
6.124436
 20
2.281052
 30
0.000000
  0
VERTEX
  8
MERGEDLAYER-1
 10
6.123977
 20
2.280854
 30
0.000000
  0
VERTEX
  8
MERGEDLAYER-1
 10
6.123638
 20
2.280512
 30
0.000000
  0
VERTEX
  8
MERGEDLAYER-1
 10
6.123255
 20
2.280199
 30
0.000000
  0
VERTEX
  8
MERGEDLAYER-1
 10
6.123059
 20
2.279609
 30
0.000000
  0
VERTEX
  8
MERGEDLAYER-1
 10
6.122982
 20
2.278929
 30
0.000000
  0
VERTEX
  8
MERGEDLAYER-1
 10
6.122994
 20
2.273051
 30
0.000000
  0
VERTEX
  8
MERGEDLAYER-1
 10
6.111058
 20
2.273051
 30
0.000000
  0
VERTEX
  8
MERGEDLAYER-1
 10
6.111041
 20
2.278929
 30
0.000000
  0
VERTEX
  8
MERGEDLAYER-1
 10
6.110927
 20
2.279805
 30
0.000000
  0
VERTEX
  8
MERGEDLAYER-1
 10
6.110665
 20
2.280199
 30
0.000000
  0
VERTEX
  8
MERGEDLAYER-1
 10
6.110386
 20
2.280512
 30
0.000000
  0
VERTEX
  8
MERGEDLAYER-1
 10
6.110008
 20
2.280854
 30
0.000000
  0
VERTEX
  8
MERGEDLAYER-1
 10
6.109550
 20
2.281117
 30
0.000000
  0
VERTEX
  8
MERGEDLAYER-1
 10
6.108802
 20
2.281168
 30
0.000000
  0
VERTEX
  8
MERGEDLAYER-1
 10
6.000091
 20
2.281168
 30
0.000000
  0
VERTEX
  8
MERGEDLAYER-1
 10
5.999305
 20
2.281052
 30
0.000000
  0
VERTEX
  8
MERGEDLAYER-1
 10
5.998781
 20
2.280789
 30
0.000000
  0
VERTEX
  8
MERGEDLAYER-1
 10
5.998507
 20
2.280512
 30
0.000000
  0
VERTEX
  8
MERGEDLAYER-1
 10
5.998125
 20
2.280133
 30
0.000000
  0
VERTEX
  8
MERGEDLAYER-1
 10
5.997994
 20
2.279740
 30
0.000000
  0
VERTEX
  8
MERGEDLAYER-1
 10
5.997863
 20
2.279346
 30
0.000000
  0
VERTEX
  8
MERGEDLAYER-1
 10
5.997852
 20
2.278929
 30
0.000000
  0
VERTEX
  8
MERGEDLAYER-1
 10
5.997852
 20
2.265526
 30
0.000000
  0
VERTEX
  8
MERGEDLAYER-1
 10
5.997797
 20
2.264459
 30
0.000000
  0
VERTEX
  8
MERGEDLAYER-1
 10
5.997667
 20
2.263934
 30
0.000000
  0
VERTEX
  8
MERGEDLAYER-1
 10
5.997469
 20
2.263082
 30
0.000000
  0
VERTEX
  8
MERGEDLAYER-1
 10
5.997207
 20
2.262295
 30
0.000000
  0
VERTEX
  8
MERGEDLAYER-1
 10
5.996945
 20
2.261771
 30
0.000000
  0
VERTEX
  8
MERGEDLAYER-1
 10
5.996552
 20
2.261049
 30
0.000000
  0
VERTEX
  8
MERGEDLAYER-1
 10
5.996158
 20
2.260525
 30
0.000000
  0
VERTEX
  8
MERGEDLAYER-1
 10
5.995765
 20
2.260000
 30
0.000000
  0
VERTEX
  8
MERGEDLAYER-1
 10
5.995447
 20
2.259720
 30
0.000000
  0
VERTEX
  8
MERGEDLAYER-1
 10
5.994912
 20
2.259213
 30
0.000000
  0
VERTEX
  8
MERGEDLAYER-1
 10
5.994257
 20
2.258688
 30
0.000000
  0
VERTEX
  8
MERGEDLAYER-1
 10
5.993600
 20
2.258295
 30
0.000000
  0
VERTEX
  8
MERGEDLAYER-1
 10
5.992747
 20
2.257901
 30
0.000000
  0
VERTEX
  8
MERGEDLAYER-1
 10
5.991895
 20
2.257639
 30
0.000000
  0
VERTEX
  8
MERGEDLAYER-1
 10
5.991108
 20
2.257442
 30
0.000000
  0
VERTEX
  8
MERGEDLAYER-1
 10
5.990583
 20
2.257311
 30
0.000000
  0
VERTEX
  8
MERGEDLAYER-1
 10
5.989643
 20
2.257316
 30
0.000000
  0
VERTEX
  8
MERGEDLAYER-1
 10
5.980137
 20
2.257316
 30
0.000000
  0
VERTEX
  8
MERGEDLAYER-1
 10
5.979434
 20
2.257508
 30
0.000000
  0
VERTEX
  8
MERGEDLAYER-1
 10
5.978910
 20
2.257770
 30
0.000000
  0
VERTEX
  8
MERGEDLAYER-1
 10
5.978553
 20
2.257995
 30
0.000000
  0
VERTEX
  8
MERGEDLAYER-1
 10
5.978254
 20
2.258426
 30
0.000000
  0
VERTEX
  8
MERGEDLAYER-1
 10
5.978123
 20
2.258688
 30
0.000000
  0
VERTEX
  8
MERGEDLAYER-1
 10
5.977926
 20
2.259147
 30
0.000000
  0
VERTEX
  8
MERGEDLAYER-1
 10
5.977898
 20
2.259578
 30
0.000000
  0
VERTEX
  8
MERGEDLAYER-1
 10
5.977898
 20
2.260975
 30
0.000000
  0
VERTEX
  8
MERGEDLAYER-1
 10
5.977991
 20
2.261639
 30
0.000000
  0
VERTEX
  8
MERGEDLAYER-1
 10
5.978320
 20
2.262230
 30
0.000000
  0
VERTEX
  8
MERGEDLAYER-1
 10
5.978553
 20
2.262559
 30
0.000000
  0
VERTEX
  8
MERGEDLAYER-1
 10
5.978910
 20
2.262820
 30
0.000000
  0
VERTEX
  8
MERGEDLAYER-1
 10
5.979238
 20
2.263016
 30
0.000000
  0
VERTEX
  8
MERGEDLAYER-1
 10
5.979631
 20
2.263148
 30
0.000000
  0
VERTEX
  8
MERGEDLAYER-1
 10
5.980137
 20
2.263215
 30
0.000000
  0
VERTEX
  8
MERGEDLAYER-1
 10
5.987388
 20
2.263215
 30
0.000000
  0
VERTEX
  8
MERGEDLAYER-1
 10
5.988091
 20
2.263344
 30
0.000000
  0
VERTEX
  8
MERGEDLAYER-1
 10
5.988616
 20
2.263607
 30
0.000000
  0
VERTEX
  8
MERGEDLAYER-1
 10
5.988971
 20
2.263870
 30
0.000000
  0
VERTEX
  8
MERGEDLAYER-1
 10
5.989337
 20
2.264328
 30
0.000000
  0
VERTEX
  8
MERGEDLAYER-1
 10
5.989534
 20
2.264853
 30
0.000000
  0
VERTEX
  8
MERGEDLAYER-1
 10
5.989643
 20
2.265526
 30
0.000000
  0
VERTEX
  8
MERGEDLAYER-1
 10
5.989626
 20
2.273894
 30
0.000000
  0
VERTEX
  8
MERGEDLAYER-1
 10
5.989469
 20
2.274690
 30
0.000000
  0
VERTEX
  8
MERGEDLAYER-1
 10
5.989272
 20
2.275149
 30
0.000000
  0
VERTEX
  8
MERGEDLAYER-1
 10
5.988971
 20
2.275477
 30
0.000000
  0
VERTEX
  8
MERGEDLAYER-1
 10
5.988484
 20
2.275870
 30
0.000000
  0
VERTEX
  8
MERGEDLAYER-1
 10
5.988026
 20
2.276068
 30
0.000000
  0
VERTEX
  8
MERGEDLAYER-1
 10
5.987388
 20
2.276133
 30
0.000000
  0
VERTEX
  8
MERGEDLAYER-1
 10
5.980122
 20
2.276133
 30
0.000000
  0
VERTEX
  8
MERGEDLAYER-1
 10
5.979434
 20
2.276264
 30
0.000000
  0
VERTEX
  8
MERGEDLAYER-1
 10
5.978844
 20
2.276526
 30
0.000000
  0
VERTEX
  8
MERGEDLAYER-1
 10
5.978539
 20
2.276788
 30
0.000000
  0
VERTEX
  8
MERGEDLAYER-1
 10
5.978188
 20
2.277182
 30
0.000000
  0
VERTEX
  8
MERGEDLAYER-1
 10
5.977991
 20
2.277707
 30
0.000000
  0
VERTEX
  8
MERGEDLAYER-1
 10
5.977884
 20
2.278372
 30
0.000000
  0
VERTEX
  8
MERGEDLAYER-1
 10
5.977884
 20
2.284193
 30
0.000000
  0
VERTEX
  8
MERGEDLAYER-1
 10
5.977729
 20
2.284790
 30
0.000000
  0
VERTEX
  8
MERGEDLAYER-1
 10
5.977664
 20
2.285118
 30
0.000000
  0
VERTEX
  8
MERGEDLAYER-1
 10
5.977468
 20
2.285511
 30
0.000000
  0
VERTEX
  8
MERGEDLAYER-1
 10
5.977228
 20
2.285776
 30
0.000000
  0
VERTEX
  8
MERGEDLAYER-1
 10
5.976811
 20
2.286101
 30
0.000000
  0
VERTEX
  8
MERGEDLAYER-1
 10
5.976221
 20
2.286364
 30
0.000000
  0
VERTEX
  8
MERGEDLAYER-1
 10
5.975645
 20
2.286431
 30
0.000000
  0
VERTEX
  8
MERGEDLAYER-1
 10
5.947827
 20
2.286431
 30
0.000000
  0
VERTEX
  8
MERGEDLAYER-1
 10
5.947233
 20
2.286298
 30
0.000000
  0
VERTEX
  8
MERGEDLAYER-1
 10
5.946512
 20
2.286036
 30
0.000000
  0
VERTEX
  8
MERGEDLAYER-1
 10
5.946243
 20
2.285776
 30
0.000000
  0
VERTEX
  8
MERGEDLAYER-1
 10
5.945922
 20
2.285380
 30
0.000000
  0
VERTEX
  8
MERGEDLAYER-1
 10
5.945725
 20
2.285052
 30
0.000000
  0
VERTEX
  8
MERGEDLAYER-1
 10
5.945594
 20
2.284593
 30
0.000000
  0
VERTEX
  8
MERGEDLAYER-1
 10
5.945587
 20
2.284193
 30
0.000000
  0
VERTEX
  8
MERGEDLAYER-1
 10
5.945587
 20
2.278372
 30
0.000000
  0
VERTEX
  8
MERGEDLAYER-1
 10
5.945529
 20
2.277773
 30
0.000000
  0
VERTEX
  8
MERGEDLAYER-1
 10
5.945332
 20
2.277248
 30
0.000000
  0
VERTEX
  8
MERGEDLAYER-1
 10
5.944932
 20
2.276788
 30
0.000000
  0
VERTEX
  8
MERGEDLAYER-1
 10
5.944545
 20
2.276461
 30
0.000000
  0
VERTEX
  8
MERGEDLAYER-1
 10
5.944113
 20
2.276139
 30
0.000000
  0
VERTEX
  8
MERGEDLAYER-1
 10
5.943348
 20
2.276133
 30
0.000000
  0
VERTEX
  8
MERGEDLAYER-1
 10
5.936089
 20
2.276133
 30
0.000000
  0
VERTEX
  8
MERGEDLAYER-1
 10
5.935364
 20
2.276002
 30
0.000000
  0
VERTEX
  8
MERGEDLAYER-1
 10
5.934774
 20
2.275739
 30
0.000000
  0
VERTEX
  8
MERGEDLAYER-1
 10
5.934476
 20
2.275477
 30
0.000000
  0
VERTEX
  8
MERGEDLAYER-1
 10
5.934117
 20
2.275084
 30
0.000000
  0
VERTEX
  8
MERGEDLAYER-1
 10
5.933921
 20
2.274690
 30
0.000000
  0
VERTEX
  8
MERGEDLAYER-1
 10
5.933820
 20
2.273894
 30
0.000000
  0
VERTEX
  8
MERGEDLAYER-1
 10
5.933820
 20
2.265453
 30
0.000000
  0
VERTEX
  8
MERGEDLAYER-1
 10
5.933921
 20
2.264918
 30
0.000000
  0
VERTEX
  8
MERGEDLAYER-1
 10
5.934117
 20
2.264328
 30
0.000000
  0
VERTEX
  8
MERGEDLAYER-1
 10
5.934476
 20
2.263870
 30
0.000000
  0
VERTEX
  8
MERGEDLAYER-1
 10
5.934969
 20
2.263475
 30
0.000000
  0
VERTEX
  8
MERGEDLAYER-1
 10
5.935297
 20
2.263344
 30
0.000000
  0
VERTEX
  8
MERGEDLAYER-1
 10
5.936060
 20
2.263215
 30
0.000000
  0
SEQEND
  8
MERGEDLAYER-1
  0
POLYLINE
  8
MERGEDLAYER-1
 66
  1
 70
  1
 62
  7
 10
5.943348
 20
2.139459
 30
0.000000
  0
VERTEX
  8
MERGEDLAYER-1
 10
5.943348
 20
2.139459
 30
0.000000
  0
VERTEX
  8
MERGEDLAYER-1
 10
5.943955
 20
2.139526
 30
0.000000
  0
VERTEX
  8
MERGEDLAYER-1
 10
5.944348
 20
2.139658
 30
0.000000
  0
VERTEX
  8
MERGEDLAYER-1
 10
5.944932
 20
2.140115
 30
0.000000
  0
VERTEX
  8
MERGEDLAYER-1
 10
5.945201
 20
2.140378
 30
0.000000
  0
VERTEX
  8
MERGEDLAYER-1
 10
5.945397
 20
2.140707
 30
0.000000
  0
VERTEX
  8
MERGEDLAYER-1
 10
5.945529
 20
2.141100
 30
0.000000
  0
VERTEX
  8
MERGEDLAYER-1
 10
5.945587
 20
2.141699
 30
0.000000
  0
VERTEX
  8
MERGEDLAYER-1
 10
5.945587
 20
2.143096
 30
0.000000
  0
VERTEX
  8
MERGEDLAYER-1
 10
5.945529
 20
2.143658
 30
0.000000
  0
VERTEX
  8
MERGEDLAYER-1
 10
5.945332
 20
2.144117
 30
0.000000
  0
VERTEX
  8
MERGEDLAYER-1
 10
5.945201
 20
2.144379
 30
0.000000
  0
VERTEX
  8
MERGEDLAYER-1
 10
5.944932
 20
2.144679
 30
0.000000
  0
VERTEX
  8
MERGEDLAYER-1
 10
5.944479
 20
2.145035
 30
0.000000
  0
VERTEX
  8
MERGEDLAYER-1
 10
5.943955
 20
2.145232
 30
0.000000
  0
VERTEX
  8
MERGEDLAYER-1
 10
5.943348
 20
2.145335
 30
0.000000
  0
VERTEX
  8
MERGEDLAYER-1
 10
5.933813
 20
2.145335
 30
0.000000
  0
VERTEX
  8
MERGEDLAYER-1
 10
5.932937
 20
2.145232
 30
0.000000
  0
VERTEX
  8
MERGEDLAYER-1
 10
5.932281
 20
2.145101
 30
0.000000
  0
VERTEX
  8
MERGEDLAYER-1
 10
5.931494
 20
2.144904
 30
0.000000
  0
VERTEX
  8
MERGEDLAYER-1
 10
5.930707
 20
2.144642
 30
0.000000
  0
VERTEX
  8
MERGEDLAYER-1
 10
5.929986
 20
2.144314
 30
0.000000
  0
VERTEX
  8
MERGEDLAYER-1
 10
5.929461
 20
2.144052
 30
0.000000
  0
VERTEX
  8
MERGEDLAYER-1
 10
5.928936
 20
2.143724
 30
0.000000
  0
VERTEX
  8
MERGEDLAYER-1
 10
5.928411
 20
2.143330
 30
0.000000
  0
VERTEX
  8
MERGEDLAYER-1
 10
5.928009
 20
2.142931
 30
0.000000
  0
VERTEX
  8
MERGEDLAYER-1
 10
5.927494
 20
2.142346
 30
0.000000
  0
VERTEX
  8
MERGEDLAYER-1
 10
5.926904
 20
2.141625
 30
0.000000
  0
VERTEX
  8
MERGEDLAYER-1
 10
5.926576
 20
2.141034
 30
0.000000
  0
VERTEX
  8
MERGEDLAYER-1
 10
5.926182
 20
2.140117
 30
0.000000
  0
VERTEX
  8
MERGEDLAYER-1
 10
5.925919
 20
2.139461
 30
0.000000
  0
VERTEX
  8
MERGEDLAYER-1
 10
5.925789
 20
2.138870
 30
0.000000
  0
VERTEX
  8
MERGEDLAYER-1
 10
5.925591
 20
2.137952
 30
0.000000
  0
VERTEX
  8
MERGEDLAYER-1
 10
5.925605
 20
2.126535
 30
0.000000
  0
VERTEX
  8
MERGEDLAYER-1
 10
5.925658
 20
2.125295
 30
0.000000
  0
VERTEX
  8
MERGEDLAYER-1
 10
5.925723
 20
2.124048
 30
0.000000
  0
VERTEX
  8
MERGEDLAYER-1
 10
5.925919
 20
2.122999
 30
0.000000
  0
VERTEX
  8
MERGEDLAYER-1
 10
5.926116
 20
2.122082
 30
0.000000
  0
VERTEX
  8
MERGEDLAYER-1
 10
5.926444
 20
2.121032
 30
0.000000
  0
VERTEX
  8
MERGEDLAYER-1
 10
5.926838
 20
2.119917
 30
0.000000
  0
VERTEX
  8
MERGEDLAYER-1
 10
5.927231
 20
2.118868
 30
0.000000
  0
VERTEX
  8
MERGEDLAYER-1
 10
5.927690
 20
2.117950
 30
0.000000
  0
VERTEX
  8
MERGEDLAYER-1
 10
5.928215
 20
2.117032
 30
0.000000
  0
VERTEX
  8
MERGEDLAYER-1
 10
5.928871
 20
2.116048
 30
0.000000
  0
VERTEX
  8
MERGEDLAYER-1
 10
5.929658
 20
2.114999
 30
0.000000
  0
VERTEX
  8
MERGEDLAYER-1
 10
5.930511
 20
2.113950
 30
0.000000
  0
VERTEX
  8
MERGEDLAYER-1
 10
5.931559
 20
2.112900
 30
0.000000
  0
VERTEX
  8
MERGEDLAYER-1
 10
5.932675
 20
2.111982
 30
0.000000
  0
VERTEX
  8
MERGEDLAYER-1
 10
5.933855
 20
2.111129
 30
0.000000
  0
VERTEX
  8
MERGEDLAYER-1
 10
5.934904
 20
2.110474
 30
0.000000
  0
VERTEX
  8
MERGEDLAYER-1
 10
5.936085
 20
2.109818
 30
0.000000
  0
VERTEX
  8
MERGEDLAYER-1
 10
5.937397
 20
2.109293
 30
0.000000
  0
VERTEX
  8
MERGEDLAYER-1
 10
5.938839
 20
2.108768
 30
0.000000
  0
VERTEX
  8
MERGEDLAYER-1
 10
5.940217
 20
2.108375
 30
0.000000
  0
VERTEX
  8
MERGEDLAYER-1
 10
5.941922
 20
2.108113
 30
0.000000
  0
VERTEX
  8
MERGEDLAYER-1
 10
5.943168
 20
2.108047
 30
0.000000
  0
VERTEX
  8
MERGEDLAYER-1
 10
6.011210
 20
2.108065
 30
0.000000
  0
VERTEX
  8
MERGEDLAYER-1
 10
6.011241
 20
2.108506
 30
0.000000
  0
VERTEX
  8
MERGEDLAYER-1
 10
6.011439
 20
2.109031
 30
0.000000
  0
VERTEX
  8
MERGEDLAYER-1
 10
6.011701
 20
2.109424
 30
0.000000
  0
VERTEX
  8
MERGEDLAYER-1
 10
6.012094
 20
2.109818
 30
0.000000
  0
VERTEX
  8
MERGEDLAYER-1
 10
6.012619
 20
2.110146
 30
0.000000
  0
VERTEX
  8
MERGEDLAYER-1
 10
6.013144
 20
2.110211
 30
0.000000
  0
VERTEX
  8
MERGEDLAYER-1
 10
6.013455
 20
2.110290
 30
0.000000
  0
VERTEX
  8
MERGEDLAYER-1
 10
6.013931
 20
2.110211
 30
0.000000
  0
VERTEX
  8
MERGEDLAYER-1
 10
6.014586
 20
2.110015
 30
0.000000
  0
VERTEX
  8
MERGEDLAYER-1
 10
6.014980
 20
2.109687
 30
0.000000
  0
VERTEX
  8
MERGEDLAYER-1
 10
6.015308
 20
2.109293
 30
0.000000
  0
VERTEX
  8
MERGEDLAYER-1
 10
6.015569
 20
2.108834
 30
0.000000
  0
VERTEX
  8
MERGEDLAYER-1
 10
6.015636
 20
2.108506
 30
0.000000
  0
VERTEX
  8
MERGEDLAYER-1
 10
6.015687
 20
2.108051
 30
0.000000
  0
VERTEX
  8
MERGEDLAYER-1
 10
6.073821
 20
2.108051
 30
0.000000
  0
VERTEX
  8
MERGEDLAYER-1
 10
6.073872
 20
2.108637
 30
0.000000
  0
VERTEX
  8
MERGEDLAYER-1
 10
6.074135
 20
2.109162
 30
0.000000
  0
VERTEX
  8
MERGEDLAYER-1
 10
6.074397
 20
2.109556
 30
0.000000
  0
VERTEX
  8
MERGEDLAYER-1
 10
6.074659
 20
2.109818
 30
0.000000
  0
VERTEX
  8
MERGEDLAYER-1
 10
6.075184
 20
2.110080
 30
0.000000
  0
VERTEX
  8
MERGEDLAYER-1
 10
6.075577
 20
2.110211
 30
0.000000
  0
VERTEX
  8
MERGEDLAYER-1
 10
6.076068
 20
2.110290
 30
0.000000
  0
VERTEX
  8
MERGEDLAYER-1
 10
6.076430
 20
2.110211
 30
0.000000
  0
VERTEX
  8
MERGEDLAYER-1
 10
6.076955
 20
2.110080
 30
0.000000
  0
VERTEX
  8
MERGEDLAYER-1
 10
6.077414
 20
2.109818
 30
0.000000
  0
VERTEX
  8
MERGEDLAYER-1
 10
6.077742
 20
2.109556
 30
0.000000
  0
VERTEX
  8
MERGEDLAYER-1
 10
6.078004
 20
2.109096
 30
0.000000
  0
VERTEX
  8
MERGEDLAYER-1
 10
6.078135
 20
2.108834
 30
0.000000
  0
VERTEX
  8
MERGEDLAYER-1
 10
6.078266
 20
2.108506
 30
0.000000
  0
VERTEX
  8
MERGEDLAYER-1
 10
6.078298
 20
2.108051
 30
0.000000
  0
VERTEX
  8
MERGEDLAYER-1
 10
6.136432
 20
2.108065
 30
0.000000
  0
VERTEX
  8
MERGEDLAYER-1
 10
6.136503
 20
2.108572
 30
0.000000
  0
VERTEX
  8
MERGEDLAYER-1
 10
6.136700
 20
2.109162
 30
0.000000
  0
VERTEX
  8
MERGEDLAYER-1
 10
6.136962
 20
2.109490
 30
0.000000
  0
VERTEX
  8
MERGEDLAYER-1
 10
6.137355
 20
2.109883
 30
0.000000
  0
VERTEX
  8
MERGEDLAYER-1
 10
6.137815
 20
2.110080
 30
0.000000
  0
VERTEX
  8
MERGEDLAYER-1
 10
6.138143
 20
2.110211
 30
0.000000
  0
VERTEX
  8
MERGEDLAYER-1
 10
6.138679
 20
2.110290
 30
0.000000
  0
VERTEX
  8
MERGEDLAYER-1
 10
6.139126
 20
2.110277
 30
0.000000
  0
VERTEX
  8
MERGEDLAYER-1
 10
6.139783
 20
2.110015
 30
0.000000
  0
VERTEX
  8
MERGEDLAYER-1
 10
6.140176
 20
2.109687
 30
0.000000
  0
VERTEX
  8
MERGEDLAYER-1
 10
6.140504
 20
2.109359
 30
0.000000
  0
VERTEX
  8
MERGEDLAYER-1
 10
6.140701
 20
2.108965
 30
0.000000
  0
VERTEX
  8
MERGEDLAYER-1
 10
6.140897
 20
2.108506
 30
0.000000
  0
VERTEX
  8
MERGEDLAYER-1
 10
6.140911
 20
2.108051
 30
0.000000
  0
VERTEX
  8
MERGEDLAYER-1
 10
6.221873
 20
2.108051
 30
0.000000
  0
VERTEX
  8
MERGEDLAYER-1
 10
6.222481
 20
2.108113
 30
0.000000
  0
VERTEX
  8
MERGEDLAYER-1
 10
6.222940
 20
2.108309
 30
0.000000
  0
VERTEX
  8
MERGEDLAYER-1
 10
6.223456
 20
2.108706
 30
0.000000
  0
VERTEX
  8
MERGEDLAYER-1
 10
6.223793
 20
2.108965
 30
0.000000
  0
VERTEX
  8
MERGEDLAYER-1
 10
6.223989
 20
2.109359
 30
0.000000
  0
VERTEX
  8
MERGEDLAYER-1
 10
6.224120
 20
2.109752
 30
0.000000
  0
VERTEX
  8
MERGEDLAYER-1
 10
6.224113
 20
2.110290
 30
0.000000
  0
VERTEX
  8
MERGEDLAYER-1
 10
6.224120
 20
2.120704
 30
0.000000
  0
VERTEX
  8
MERGEDLAYER-1
 10
6.212184
 20
2.120704
 30
0.000000
  0
VERTEX
  8
MERGEDLAYER-1
 10
6.212206
 20
2.119266
 30
0.000000
  0
VERTEX
  8
MERGEDLAYER-1
 10
6.212053
 20
2.118474
 30
0.000000
  0
VERTEX
  8
MERGEDLAYER-1
 10
6.211857
 20
2.118081
 30
0.000000
  0
VERTEX
  8
MERGEDLAYER-1
 10
6.211549
 20
2.117682
 30
0.000000
  0
VERTEX
  8
MERGEDLAYER-1
 10
6.211135
 20
2.117360
 30
0.000000
  0
VERTEX
  8
MERGEDLAYER-1
 10
6.210742
 20
2.117162
 30
0.000000
  0
VERTEX
  8
MERGEDLAYER-1
 10
6.210283
 20
2.117032
 30
0.000000
  0
VERTEX
  8
MERGEDLAYER-1
 10
6.209966
 20
2.117027
 30
0.000000
  0
VERTEX
  8
MERGEDLAYER-1
 10
6.202542
 20
2.117027
 30
0.000000
  0
VERTEX
  8
MERGEDLAYER-1
 10
6.201954
 20
2.117162
 30
0.000000
  0
VERTEX
  8
MERGEDLAYER-1
 10
6.201489
 20
2.117466
 30
0.000000
  0
VERTEX
  8
MERGEDLAYER-1
 10
6.201168
 20
2.117950
 30
0.000000
  0
VERTEX
  8
MERGEDLAYER-1
 10
6.201054
 20
2.118519
 30
0.000000
  0
VERTEX
  8
MERGEDLAYER-1
 10
6.201054
 20
2.124457
 30
0.000000
  0
VERTEX
  8
MERGEDLAYER-1
 10
6.200970
 20
2.125098
 30
0.000000
  0
VERTEX
  8
MERGEDLAYER-1
 10
6.200773
 20
2.125557
 30
0.000000
  0
VERTEX
  8
MERGEDLAYER-1
 10
6.200399
 20
2.126040
 30
0.000000
  0
VERTEX
  8
MERGEDLAYER-1
 10
6.200052
 20
2.126279
 30
0.000000
  0
VERTEX
  8
MERGEDLAYER-1
 10
6.199724
 20
2.126475
 30
0.000000
  0
VERTEX
  8
MERGEDLAYER-1
 10
6.199330
 20
2.126607
 30
0.000000
  0
VERTEX
  8
MERGEDLAYER-1
 10
6.198815
 20
2.126696
 30
0.000000
  0
VERTEX
  8
MERGEDLAYER-1
 10
6.188367
 20
2.126696
 30
0.000000
  0
VERTEX
  8
MERGEDLAYER-1
 10
6.187723
 20
2.126541
 30
0.000000
  0
VERTEX
  8
MERGEDLAYER-1
 10
6.187198
 20
2.126345
 30
0.000000
  0
VERTEX
  8
MERGEDLAYER-1
 10
6.186785
 20
2.126040
 30
0.000000
  0
VERTEX
  8
MERGEDLAYER-1
 10
6.186542
 20
2.125688
 30
0.000000
  0
VERTEX
  8
MERGEDLAYER-1
 10
6.186345
 20
2.125295
 30
0.000000
  0
VERTEX
  8
MERGEDLAYER-1
 10
6.186215
 20
2.124967
 30
0.000000
  0
VERTEX
  8
MERGEDLAYER-1
 10
6.186129
 20
2.124457
 30
0.000000
  0
VERTEX
  8
MERGEDLAYER-1
 10
6.186129
 20
2.119244
 30
0.000000
  0
VERTEX
  8
MERGEDLAYER-1
 10
6.185952
 20
2.118409
 30
0.000000
  0
VERTEX
  8
MERGEDLAYER-1
 10
6.185755
 20
2.117950
 30
0.000000
  0
VERTEX
  8
MERGEDLAYER-1
 10
6.185474
 20
2.117661
 30
0.000000
  0
VERTEX
  8
MERGEDLAYER-1
 10
6.185099
 20
2.117360
 30
0.000000
  0
VERTEX
  8
MERGEDLAYER-1
 10
6.184575
 20
2.117162
 30
0.000000
  0
VERTEX
  8
MERGEDLAYER-1
 10
6.183890
 20
2.117005
 30
0.000000
  0
VERTEX
  8
MERGEDLAYER-1
 10
6.177130
 20
2.117005
 30
0.000000
  0
VERTEX
  8
MERGEDLAYER-1
 10
6.176246
 20
2.117162
 30
0.000000
  0
VERTEX
  8
MERGEDLAYER-1
 10
6.175918
 20
2.117360
 30
0.000000
  0
VERTEX
  8
MERGEDLAYER-1
 10
6.175548
 20
2.117661
 30
0.000000
  0
VERTEX
  8
MERGEDLAYER-1
 10
6.175197
 20
2.118081
 30
0.000000
  0
VERTEX
  8
MERGEDLAYER-1
 10
6.175000
 20
2.118605
 30
0.000000
  0
VERTEX
  8
MERGEDLAYER-1
 10
6.174892
 20
2.119244
 30
0.000000
  0
VERTEX
  8
MERGEDLAYER-1
 10
6.174892
 20
2.143119
 30
0.000000
  0
VERTEX
  8
MERGEDLAYER-1
 10
6.174803
 20
2.143593
 30
0.000000
  0
VERTEX
  8
MERGEDLAYER-1
 10
6.174738
 20
2.143986
 30
0.000000
  0
VERTEX
  8
MERGEDLAYER-1
 10
6.174476
 20
2.144379
 30
0.000000
  0
VERTEX
  8
MERGEDLAYER-1
 10
6.174236
 20
2.144702
 30
0.000000
  0
VERTEX
  8
MERGEDLAYER-1
 10
6.173754
 20
2.145035
 30
0.000000
  0
VERTEX
  8
MERGEDLAYER-1
 10
6.172653
 20
2.145358
 30
0.000000
  0
VERTEX
  8
MERGEDLAYER-1
 10
6.165190
 20
2.145358
 30
0.000000
  0
VERTEX
  8
MERGEDLAYER-1
 10
6.164638
 20
2.145298
 30
0.000000
  0
VERTEX
  8
MERGEDLAYER-1
 10
6.164179
 20
2.145101
 30
0.000000
  0
VERTEX
  8
MERGEDLAYER-1
 10
6.163607
 20
2.144702
 30
0.000000
  0
VERTEX
  8
MERGEDLAYER-1
 10
6.163195
 20
2.144248
 30
0.000000
  0
VERTEX
  8
MERGEDLAYER-1
 10
6.163065
 20
2.143854
 30
0.000000
  0
VERTEX
  8
MERGEDLAYER-1
 10
6.162952
 20
2.143119
 30
0.000000
  0
VERTEX
  8
MERGEDLAYER-1
 10
6.162952
 20
2.123745
 30
0.000000
  0
VERTEX
  8
MERGEDLAYER-1
 10
6.162802
 20
2.122934
 30
0.000000
  0
VERTEX
  8
MERGEDLAYER-1
 10
6.162605
 20
2.122475
 30
0.000000
  0
VERTEX
  8
MERGEDLAYER-1
 10
6.162296
 20
2.122162
 30
0.000000
  0
VERTEX
  8
MERGEDLAYER-1
 10
6.161949
 20
2.121819
 30
0.000000
  0
VERTEX
  8
MERGEDLAYER-1
 10
6.161490
 20
2.121622
 30
0.000000
  0
VERTEX
  8
MERGEDLAYER-1
 10
6.160714
 20
2.121506
 30
0.000000
  0
VERTEX
  8
MERGEDLAYER-1
 10
6.125220
 20
2.121506
 30
0.000000
  0
VERTEX
  8
MERGEDLAYER-1
 10
6.124436
 20
2.121622
 30
0.000000
  0
VERTEX
  8
MERGEDLAYER-1
 10
6.123977
 20
2.121819
 30
0.000000
  0
VERTEX
  8
MERGEDLAYER-1
 10
6.123638
 20
2.122162
 30
0.000000
  0
VERTEX
  8
MERGEDLAYER-1
 10
6.123255
 20
2.122475
 30
0.000000
  0
VERTEX
  8
MERGEDLAYER-1
 10
6.123059
 20
2.123065
 30
0.000000
  0
VERTEX
  8
MERGEDLAYER-1
 10
6.122982
 20
2.123745
 30
0.000000
  0
VERTEX
  8
MERGEDLAYER-1
 10
6.122994
 20
2.129623
 30
0.000000
  0
VERTEX
  8
MERGEDLAYER-1
 10
6.111058
 20
2.129623
 30
0.000000
  0
VERTEX
  8
MERGEDLAYER-1
 10
6.111041
 20
2.123745
 30
0.000000
  0
VERTEX
  8
MERGEDLAYER-1
 10
6.110927
 20
2.122868
 30
0.000000
  0
VERTEX
  8
MERGEDLAYER-1
 10
6.110665
 20
2.122475
 30
0.000000
  0
VERTEX
  8
MERGEDLAYER-1
 10
6.110386
 20
2.122162
 30
0.000000
  0
VERTEX
  8
MERGEDLAYER-1
 10
6.110008
 20
2.121819
 30
0.000000
  0
VERTEX
  8
MERGEDLAYER-1
 10
6.109550
 20
2.121557
 30
0.000000
  0
VERTEX
  8
MERGEDLAYER-1
 10
6.108802
 20
2.121506
 30
0.000000
  0
VERTEX
  8
MERGEDLAYER-1
 10
6.000091
 20
2.121506
 30
0.000000
  0
VERTEX
  8
MERGEDLAYER-1
 10
5.999305
 20
2.121622
 30
0.000000
  0
VERTEX
  8
MERGEDLAYER-1
 10
5.998781
 20
2.121885
 30
0.000000
  0
VERTEX
  8
MERGEDLAYER-1
 10
5.998507
 20
2.122162
 30
0.000000
  0
VERTEX
  8
MERGEDLAYER-1
 10
5.998125
 20
2.122540
 30
0.000000
  0
VERTEX
  8
MERGEDLAYER-1
 10
5.997994
 20
2.122934
 30
0.000000
  0
VERTEX
  8
MERGEDLAYER-1
 10
5.997863
 20
2.123327
 30
0.000000
  0
VERTEX
  8
MERGEDLAYER-1
 10
5.997852
 20
2.123745
 30
0.000000
  0
VERTEX
  8
MERGEDLAYER-1
 10
5.997852
 20
2.137148
 30
0.000000
  0
VERTEX
  8
MERGEDLAYER-1
 10
5.997797
 20
2.138215
 30
0.000000
  0
VERTEX
  8
MERGEDLAYER-1
 10
5.997667
 20
2.138740
 30
0.000000
  0
VERTEX
  8
MERGEDLAYER-1
 10
5.997469
 20
2.139592
 30
0.000000
  0
VERTEX
  8
MERGEDLAYER-1
 10
5.997207
 20
2.140378
 30
0.000000
  0
VERTEX
  8
MERGEDLAYER-1
 10
5.996945
 20
2.140903
 30
0.000000
  0
VERTEX
  8
MERGEDLAYER-1
 10
5.996552
 20
2.141625
 30
0.000000
  0
VERTEX
  8
MERGEDLAYER-1
 10
5.996158
 20
2.142149
 30
0.000000
  0
VERTEX
  8
MERGEDLAYER-1
 10
5.995765
 20
2.142674
 30
0.000000
  0
VERTEX
  8
MERGEDLAYER-1
 10
5.995447
 20
2.142953
 30
0.000000
  0
VERTEX
  8
MERGEDLAYER-1
 10
5.994912
 20
2.143461
 30
0.000000
  0
VERTEX
  8
MERGEDLAYER-1
 10
5.994257
 20
2.143986
 30
0.000000
  0
VERTEX
  8
MERGEDLAYER-1
 10
5.993600
 20
2.144379
 30
0.000000
  0
VERTEX
  8
MERGEDLAYER-1
 10
5.992747
 20
2.144773
 30
0.000000
  0
VERTEX
  8
MERGEDLAYER-1
 10
5.991895
 20
2.145035
 30
0.000000
  0
VERTEX
  8
MERGEDLAYER-1
 10
5.991108
 20
2.145232
 30
0.000000
  0
VERTEX
  8
MERGEDLAYER-1
 10
5.990583
 20
2.145363
 30
0.000000
  0
VERTEX
  8
MERGEDLAYER-1
 10
5.989643
 20
2.145358
 30
0.000000
  0
VERTEX
  8
MERGEDLAYER-1
 10
5.980137
 20
2.145358
 30
0.000000
  0
VERTEX
  8
MERGEDLAYER-1
 10
5.979434
 20
2.145167
 30
0.000000
  0
VERTEX
  8
MERGEDLAYER-1
 10
5.978910
 20
2.144904
 30
0.000000
  0
VERTEX
  8
MERGEDLAYER-1
 10
5.978553
 20
2.144679
 30
0.000000
  0
VERTEX
  8
MERGEDLAYER-1
 10
5.978254
 20
2.144248
 30
0.000000
  0
VERTEX
  8
MERGEDLAYER-1
 10
5.978123
 20
2.143986
 30
0.000000
  0
VERTEX
  8
MERGEDLAYER-1
 10
5.977926
 20
2.143527
 30
0.000000
  0
VERTEX
  8
MERGEDLAYER-1
 10
5.977898
 20
2.143096
 30
0.000000
  0
VERTEX
  8
MERGEDLAYER-1
 10
5.977898
 20
2.141699
 30
0.000000
  0
VERTEX
  8
MERGEDLAYER-1
 10
5.977991
 20
2.141034
 30
0.000000
  0
VERTEX
  8
MERGEDLAYER-1
 10
5.978320
 20
2.140444
 30
0.000000
  0
VERTEX
  8
MERGEDLAYER-1
 10
5.978553
 20
2.140115
 30
0.000000
  0
VERTEX
  8
MERGEDLAYER-1
 10
5.978910
 20
2.139854
 30
0.000000
  0
VERTEX
  8
MERGEDLAYER-1
 10
5.979238
 20
2.139658
 30
0.000000
  0
VERTEX
  8
MERGEDLAYER-1
 10
5.979631
 20
2.139526
 30
0.000000
  0
VERTEX
  8
MERGEDLAYER-1
 10
5.980137
 20
2.139459
 30
0.000000
  0
VERTEX
  8
MERGEDLAYER-1
 10
5.987388
 20
2.139459
 30
0.000000
  0
VERTEX
  8
MERGEDLAYER-1
 10
5.988091
 20
2.139330
 30
0.000000
  0
VERTEX
  8
MERGEDLAYER-1
 10
5.988616
 20
2.139067
 30
0.000000
  0
VERTEX
  8
MERGEDLAYER-1
 10
5.988971
 20
2.138804
 30
0.000000
  0
VERTEX
  8
MERGEDLAYER-1
 10
5.989337
 20
2.138346
 30
0.000000
  0
VERTEX
  8
MERGEDLAYER-1
 10
5.989534
 20
2.137821
 30
0.000000
  0
VERTEX
  8
MERGEDLAYER-1
 10
5.989643
 20
2.137148
 30
0.000000
  0
VERTEX
  8
MERGEDLAYER-1
 10
5.989626
 20
2.128780
 30
0.000000
  0
VERTEX
  8
MERGEDLAYER-1
 10
5.989469
 20
2.127984
 30
0.000000
  0
VERTEX
  8
MERGEDLAYER-1
 10
5.989272
 20
2.127525
 30
0.000000
  0
VERTEX
  8
MERGEDLAYER-1
 10
5.988971
 20
2.127197
 30
0.000000
  0
VERTEX
  8
MERGEDLAYER-1
 10
5.988484
 20
2.126804
 30
0.000000
  0
VERTEX
  8
MERGEDLAYER-1
 10
5.988026
 20
2.126607
 30
0.000000
  0
VERTEX
  8
MERGEDLAYER-1
 10
5.987388
 20
2.126541
 30
0.000000
  0
VERTEX
  8
MERGEDLAYER-1
 10
5.980122
 20
2.126541
 30
0.000000
  0
VERTEX
  8
MERGEDLAYER-1
 10
5.979434
 20
2.126410
 30
0.000000
  0
VERTEX
  8
MERGEDLAYER-1
 10
5.978844
 20
2.126147
 30
0.000000
  0
VERTEX
  8
MERGEDLAYER-1
 10
5.978539
 20
2.125886
 30
0.000000
  0
VERTEX
  8
MERGEDLAYER-1
 10
5.978188
 20
2.125492
 30
0.000000
  0
VERTEX
  8
MERGEDLAYER-1
 10
5.977991
 20
2.124967
 30
0.000000
  0
VERTEX
  8
MERGEDLAYER-1
 10
5.977884
 20
2.124302
 30
0.000000
  0
VERTEX
  8
MERGEDLAYER-1
 10
5.977884
 20
2.118481
 30
0.000000
  0
VERTEX
  8
MERGEDLAYER-1
 10
5.977729
 20
2.117884
 30
0.000000
  0
VERTEX
  8
MERGEDLAYER-1
 10
5.977664
 20
2.117556
 30
0.000000
  0
VERTEX
  8
MERGEDLAYER-1
 10
5.977468
 20
2.117162
 30
0.000000
  0
VERTEX
  8
MERGEDLAYER-1
 10
5.977228
 20
2.116898
 30
0.000000
  0
VERTEX
  8
MERGEDLAYER-1
 10
5.976811
 20
2.116573
 30
0.000000
  0
VERTEX
  8
MERGEDLAYER-1
 10
5.976221
 20
2.116310
 30
0.000000
  0
VERTEX
  8
MERGEDLAYER-1
 10
5.975645
 20
2.116243
 30
0.000000
  0
VERTEX
  8
MERGEDLAYER-1
 10
5.947827
 20
2.116243
 30
0.000000
  0
VERTEX
  8
MERGEDLAYER-1
 10
5.947233
 20
2.116376
 30
0.000000
  0
VERTEX
  8
MERGEDLAYER-1
 10
5.946512
 20
2.116638
 30
0.000000
  0
VERTEX
  8
MERGEDLAYER-1
 10
5.946243
 20
2.116898
 30
0.000000
  0
VERTEX
  8
MERGEDLAYER-1
 10
5.945922
 20
2.117294
 30
0.000000
  0
VERTEX
  8
MERGEDLAYER-1
 10
5.945725
 20
2.117621
 30
0.000000
  0
VERTEX
  8
MERGEDLAYER-1
 10
5.945594
 20
2.118081
 30
0.000000
  0
VERTEX
  8
MERGEDLAYER-1
 10
5.945587
 20
2.118481
 30
0.000000
  0
VERTEX
  8
MERGEDLAYER-1
 10
5.945587
 20
2.124302
 30
0.000000
  0
VERTEX
  8
MERGEDLAYER-1
 10
5.945529
 20
2.124901
 30
0.000000
  0
VERTEX
  8
MERGEDLAYER-1
 10
5.945332
 20
2.125426
 30
0.000000
  0
VERTEX
  8
MERGEDLAYER-1
 10
5.944932
 20
2.125886
 30
0.000000
  0
VERTEX
  8
MERGEDLAYER-1
 10
5.944545
 20
2.126213
 30
0.000000
  0
VERTEX
  8
MERGEDLAYER-1
 10
5.944113
 20
2.126535
 30
0.000000
  0
VERTEX
  8
MERGEDLAYER-1
 10
5.943348
 20
2.126541
 30
0.000000
  0
VERTEX
  8
MERGEDLAYER-1
 10
5.936089
 20
2.126541
 30
0.000000
  0
VERTEX
  8
MERGEDLAYER-1
 10
5.935364
 20
2.126672
 30
0.000000
  0
VERTEX
  8
MERGEDLAYER-1
 10
5.934774
 20
2.126935
 30
0.000000
  0
VERTEX
  8
MERGEDLAYER-1
 10
5.934476
 20
2.127197
 30
0.000000
  0
VERTEX
  8
MERGEDLAYER-1
 10
5.934117
 20
2.127590
 30
0.000000
  0
VERTEX
  8
MERGEDLAYER-1
 10
5.933921
 20
2.127984
 30
0.000000
  0
VERTEX
  8
MERGEDLAYER-1
 10
5.933820
 20
2.128780
 30
0.000000
  0
VERTEX
  8
MERGEDLAYER-1
 10
5.933820
 20
2.137220
 30
0.000000
  0
VERTEX
  8
MERGEDLAYER-1
 10
5.933921
 20
2.137756
 30
0.000000
  0
VERTEX
  8
MERGEDLAYER-1
 10
5.934117
 20
2.138346
 30
0.000000
  0
VERTEX
  8
MERGEDLAYER-1
 10
5.934476
 20
2.138804
 30
0.000000
  0
VERTEX
  8
MERGEDLAYER-1
 10
5.934969
 20
2.139199
 30
0.000000
  0
VERTEX
  8
MERGEDLAYER-1
 10
5.935297
 20
2.139330
 30
0.000000
  0
VERTEX
  8
MERGEDLAYER-1
 10
5.936060
 20
2.139459
 30
0.000000
  0
SEQEND
  8
MERGEDLAYER-1
  0
POLYLINE
  8
MERGEDLAYER-1
 66
  1
 70
  1
 62
  7
 10
6.111058
 20
2.273051
 30
0.000000
  0
VERTEX
  8
MERGEDLAYER-1
 10
6.111058
 20
2.273051
 30
0.000000
  0
VERTEX
  8
MERGEDLAYER-1
 10
6.122994
 20
2.273051
 30
0.000000
  0
VERTEX
  8
MERGEDLAYER-1
 10
6.122982
 20
2.246122
 30
0.000000
  0
VERTEX
  8
MERGEDLAYER-1
 10
6.123124
 20
2.245309
 30
0.000000
  0
VERTEX
  8
MERGEDLAYER-1
 10
6.123322
 20
2.244850
 30
0.000000
  0
VERTEX
  8
MERGEDLAYER-1
 10
6.123638
 20
2.244539
 30
0.000000
  0
VERTEX
  8
MERGEDLAYER-1
 10
6.124108
 20
2.244195
 30
0.000000
  0
VERTEX
  8
MERGEDLAYER-1
 10
6.124633
 20
2.243998
 30
0.000000
  0
VERTEX
  8
MERGEDLAYER-1
 10
6.125220
 20
2.243883
 30
0.000000
  0
VERTEX
  8
MERGEDLAYER-1
 10
6.127459
 20
2.243883
 30
0.000000
  0
VERTEX
  8
MERGEDLAYER-1
 10
6.128174
 20
2.243736
 30
0.000000
  0
VERTEX
  8
MERGEDLAYER-1
 10
6.128699
 20
2.243474
 30
0.000000
  0
VERTEX
  8
MERGEDLAYER-1
 10
6.129042
 20
2.243228
 30
0.000000
  0
VERTEX
  8
MERGEDLAYER-1
 10
6.129355
 20
2.242817
 30
0.000000
  0
VERTEX
  8
MERGEDLAYER-1
 10
6.129617
 20
2.242227
 30
0.000000
  0
VERTEX
  8
MERGEDLAYER-1
 10
6.129698
 20
2.241644
 30
0.000000
  0
VERTEX
  8
MERGEDLAYER-1
 10
6.129698
 20
2.161035
 30
0.000000
  0
VERTEX
  8
MERGEDLAYER-1
 10
6.129617
 20
2.160381
 30
0.000000
  0
VERTEX
  8
MERGEDLAYER-1
 10
6.129420
 20
2.159922
 30
0.000000
  0
VERTEX
  8
MERGEDLAYER-1
 10
6.129042
 20
2.159451
 30
0.000000
  0
VERTEX
  8
MERGEDLAYER-1
 10
6.128568
 20
2.159135
 30
0.000000
  0
VERTEX
  8
MERGEDLAYER-1
 10
6.128043
 20
2.158873
 30
0.000000
  0
VERTEX
  8
MERGEDLAYER-1
 10
6.127459
 20
2.158796
 30
0.000000
  0
VERTEX
  8
MERGEDLAYER-1
 10
6.125220
 20
2.158796
 30
0.000000
  0
VERTEX
  8
MERGEDLAYER-1
 10
6.124501
 20
2.158741
 30
0.000000
  0
VERTEX
  8
MERGEDLAYER-1
 10
6.124043
 20
2.158414
 30
0.000000
  0
VERTEX
  8
MERGEDLAYER-1
 10
6.123638
 20
2.158140
 30
0.000000
  0
VERTEX
  8
MERGEDLAYER-1
 10
6.123322
 20
2.157692
 30
0.000000
  0
VERTEX
  8
MERGEDLAYER-1
 10
6.123059
 20
2.157233
 30
0.000000
  0
VERTEX
  8
MERGEDLAYER-1
 10
6.122982
 20
2.156557
 30
0.000000
  0
VERTEX
  8
MERGEDLAYER-1
 10
6.122994
 20
2.129623
 30
0.000000
  0
VERTEX
  8
MERGEDLAYER-1
 10
6.111058
 20
2.129623
 30
0.000000
  0
VERTEX
  8
MERGEDLAYER-1
 10
6.111041
 20
2.196592
 30
0.000000
  0
VERTEX
  8
MERGEDLAYER-1
 10
6.115800
 20
2.201351
 30
0.000000
  0
VERTEX
  8
MERGEDLAYER-1
 10
6.111041
 20
2.206110
 30
0.000000
  0
SEQEND
  8
MERGEDLAYER-1
  0
POLYLINE
  8
MERGEDLAYER-1
 66
  1
 70
  1
 62
  7
 10
6.212184
 20
2.281970
 30
0.000000
  0
VERTEX
  8
MERGEDLAYER-1
 10
6.212184
 20
2.281970
 30
0.000000
  0
VERTEX
  8
MERGEDLAYER-1
 10
6.224120
 20
2.281970
 30
0.000000
  0
VERTEX
  8
MERGEDLAYER-1
 10
6.224120
 20
2.120704
 30
0.000000
  0
VERTEX
  8
MERGEDLAYER-1
 10
6.212184
 20
2.120704
 30
0.000000
  0
SEQEND
  8
MERGEDLAYER-1
  0
ARC
  8
MERGEDLAYER-1
 62
  7
 10
5.962213
 20
2.285476
 30
0.000000
 40
0.040284
 50
225.173035
 51
314.770905
  0
ARC
  8
MERGEDLAYER-1
 62
  7
 10
5.963221
 20
2.114018
 30
0.000000
 40
0.042644
 50
44.570343
 51
133.597229
  0
POLYLINE
  8
MERGEDLAYER-1
 66
  1
 70
  1
 62
  7
 10
1.674622
 20
2.262804
 30
0.000000
  0
VERTEX
  8
MERGEDLAYER-1
 10
1.674622
 20
2.262804
 30
0.000000
  0
VERTEX
  8
MERGEDLAYER-1
 10
1.674016
 20
2.262737
 30
0.000000
  0
VERTEX
  8
MERGEDLAYER-1
 10
1.673622
 20
2.262606
 30
0.000000
  0
VERTEX
  8
MERGEDLAYER-1
 10
1.673039
 20
2.262148
 30
0.000000
  0
VERTEX
  8
MERGEDLAYER-1
 10
1.672770
 20
2.261885
 30
0.000000
  0
VERTEX
  8
MERGEDLAYER-1
 10
1.672573
 20
2.261556
 30
0.000000
  0
VERTEX
  8
MERGEDLAYER-1
 10
1.672442
 20
2.261163
 30
0.000000
  0
VERTEX
  8
MERGEDLAYER-1
 10
1.672383
 20
2.260565
 30
0.000000
  0
VERTEX
  8
MERGEDLAYER-1
 10
1.672383
 20
2.259167
 30
0.000000
  0
VERTEX
  8
MERGEDLAYER-1
 10
1.672442
 20
2.258606
 30
0.000000
  0
VERTEX
  8
MERGEDLAYER-1
 10
1.672638
 20
2.258147
 30
0.000000
  0
VERTEX
  8
MERGEDLAYER-1
 10
1.672770
 20
2.257885
 30
0.000000
  0
VERTEX
  8
MERGEDLAYER-1
 10
1.673039
 20
2.257584
 30
0.000000
  0
VERTEX
  8
MERGEDLAYER-1
 10
1.673491
 20
2.257228
 30
0.000000
  0
VERTEX
  8
MERGEDLAYER-1
 10
1.674016
 20
2.257032
 30
0.000000
  0
VERTEX
  8
MERGEDLAYER-1
 10
1.674622
 20
2.256929
 30
0.000000
  0
VERTEX
  8
MERGEDLAYER-1
 10
1.684157
 20
2.256929
 30
0.000000
  0
VERTEX
  8
MERGEDLAYER-1
 10
1.685034
 20
2.257032
 30
0.000000
  0
VERTEX
  8
MERGEDLAYER-1
 10
1.685690
 20
2.257163
 30
0.000000
  0
VERTEX
  8
MERGEDLAYER-1
 10
1.686476
 20
2.257360
 30
0.000000
  0
VERTEX
  8
MERGEDLAYER-1
 10
1.687263
 20
2.257622
 30
0.000000
  0
VERTEX
  8
MERGEDLAYER-1
 10
1.687985
 20
2.257950
 30
0.000000
  0
VERTEX
  8
MERGEDLAYER-1
 10
1.688509
 20
2.258212
 30
0.000000
  0
VERTEX
  8
MERGEDLAYER-1
 10
1.689034
 20
2.258540
 30
0.000000
  0
VERTEX
  8
MERGEDLAYER-1
 10
1.689559
 20
2.258934
 30
0.000000
  0
VERTEX
  8
MERGEDLAYER-1
 10
1.689962
 20
2.259333
 30
0.000000
  0
VERTEX
  8
MERGEDLAYER-1
 10
1.690477
 20
2.259917
 30
0.000000
  0
VERTEX
  8
MERGEDLAYER-1
 10
1.691067
 20
2.260638
 30
0.000000
  0
VERTEX
  8
MERGEDLAYER-1
 10
1.691395
 20
2.261229
 30
0.000000
  0
VERTEX
  8
MERGEDLAYER-1
 10
1.691789
 20
2.262147
 30
0.000000
  0
VERTEX
  8
MERGEDLAYER-1
 10
1.692051
 20
2.262803
 30
0.000000
  0
VERTEX
  8
MERGEDLAYER-1
 10
1.692182
 20
2.263394
 30
0.000000
  0
VERTEX
  8
MERGEDLAYER-1
 10
1.692379
 20
2.264312
 30
0.000000
  0
VERTEX
  8
MERGEDLAYER-1
 10
1.692366
 20
2.275728
 30
0.000000
  0
VERTEX
  8
MERGEDLAYER-1
 10
1.692313
 20
2.276968
 30
0.000000
  0
VERTEX
  8
MERGEDLAYER-1
 10
1.692248
 20
2.278215
 30
0.000000
  0
VERTEX
  8
MERGEDLAYER-1
 10
1.692051
 20
2.279264
 30
0.000000
  0
VERTEX
  8
MERGEDLAYER-1
 10
1.691854
 20
2.280182
 30
0.000000
  0
VERTEX
  8
MERGEDLAYER-1
 10
1.691526
 20
2.281232
 30
0.000000
  0
VERTEX
  8
MERGEDLAYER-1
 10
1.691133
 20
2.282346
 30
0.000000
  0
VERTEX
  8
MERGEDLAYER-1
 10
1.690739
 20
2.283395
 30
0.000000
  0
VERTEX
  8
MERGEDLAYER-1
 10
1.690280
 20
2.284313
 30
0.000000
  0
VERTEX
  8
MERGEDLAYER-1
 10
1.689755
 20
2.285232
 30
0.000000
  0
VERTEX
  8
MERGEDLAYER-1
 10
1.689100
 20
2.286216
 30
0.000000
  0
VERTEX
  8
MERGEDLAYER-1
 10
1.688313
 20
2.287265
 30
0.000000
  0
VERTEX
  8
MERGEDLAYER-1
 10
1.687460
 20
2.288314
 30
0.000000
  0
VERTEX
  8
MERGEDLAYER-1
 10
1.686411
 20
2.289363
 30
0.000000
  0
VERTEX
  8
MERGEDLAYER-1
 10
1.685296
 20
2.290281
 30
0.000000
  0
VERTEX
  8
MERGEDLAYER-1
 10
1.684116
 20
2.291134
 30
0.000000
  0
VERTEX
  8
MERGEDLAYER-1
 10
1.683067
 20
2.291790
 30
0.000000
  0
VERTEX
  8
MERGEDLAYER-1
 10
1.681886
 20
2.292446
 30
0.000000
  0
VERTEX
  8
MERGEDLAYER-1
 10
1.680574
 20
2.292971
 30
0.000000
  0
VERTEX
  8
MERGEDLAYER-1
 10
1.679131
 20
2.293495
 30
0.000000
  0
VERTEX
  8
MERGEDLAYER-1
 10
1.677754
 20
2.293889
 30
0.000000
  0
VERTEX
  8
MERGEDLAYER-1
 10
1.676049
 20
2.294151
 30
0.000000
  0
VERTEX
  8
MERGEDLAYER-1
 10
1.674803
 20
2.294216
 30
0.000000
  0
VERTEX
  8
MERGEDLAYER-1
 10
1.606761
 20
2.294199
 30
0.000000
  0
VERTEX
  8
MERGEDLAYER-1
 10
1.606729
 20
2.293757
 30
0.000000
  0
VERTEX
  8
MERGEDLAYER-1
 10
1.606533
 20
2.293233
 30
0.000000
  0
VERTEX
  8
MERGEDLAYER-1
 10
1.606270
 20
2.292839
 30
0.000000
  0
VERTEX
  8
MERGEDLAYER-1
 10
1.605877
 20
2.292446
 30
0.000000
  0
VERTEX
  8
MERGEDLAYER-1
 10
1.605352
 20
2.292118
 30
0.000000
  0
VERTEX
  8
MERGEDLAYER-1
 10
1.604828
 20
2.292053
 30
0.000000
  0
VERTEX
  8
MERGEDLAYER-1
 10
1.604516
 20
2.291974
 30
0.000000
  0
VERTEX
  8
MERGEDLAYER-1
 10
1.604040
 20
2.292053
 30
0.000000
  0
VERTEX
  8
MERGEDLAYER-1
 10
1.603384
 20
2.292249
 30
0.000000
  0
VERTEX
  8
MERGEDLAYER-1
 10
1.602991
 20
2.292577
 30
0.000000
  0
VERTEX
  8
MERGEDLAYER-1
 10
1.602663
 20
2.292971
 30
0.000000
  0
VERTEX
  8
MERGEDLAYER-1
 10
1.602401
 20
2.293430
 30
0.000000
  0
VERTEX
  8
MERGEDLAYER-1
 10
1.602335
 20
2.293757
 30
0.000000
  0
VERTEX
  8
MERGEDLAYER-1
 10
1.602284
 20
2.294213
 30
0.000000
  0
VERTEX
  8
MERGEDLAYER-1
 10
1.544150
 20
2.294213
 30
0.000000
  0
VERTEX
  8
MERGEDLAYER-1
 10
1.544099
 20
2.293627
 30
0.000000
  0
VERTEX
  8
MERGEDLAYER-1
 10
1.543837
 20
2.293102
 30
0.000000
  0
VERTEX
  8
MERGEDLAYER-1
 10
1.543574
 20
2.292708
 30
0.000000
  0
VERTEX
  8
MERGEDLAYER-1
 10
1.543311
 20
2.292446
 30
0.000000
  0
VERTEX
  8
MERGEDLAYER-1
 10
1.542787
 20
2.292184
 30
0.000000
  0
VERTEX
  8
MERGEDLAYER-1
 10
1.542393
 20
2.292053
 30
0.000000
  0
VERTEX
  8
MERGEDLAYER-1
 10
1.541904
 20
2.291974
 30
0.000000
  0
VERTEX
  8
MERGEDLAYER-1
 10
1.541541
 20
2.292053
 30
0.000000
  0
VERTEX
  8
MERGEDLAYER-1
 10
1.541016
 20
2.292184
 30
0.000000
  0
VERTEX
  8
MERGEDLAYER-1
 10
1.540557
 20
2.292446
 30
0.000000
  0
VERTEX
  8
MERGEDLAYER-1
 10
1.540229
 20
2.292708
 30
0.000000
  0
VERTEX
  8
MERGEDLAYER-1
 10
1.539967
 20
2.293168
 30
0.000000
  0
VERTEX
  8
MERGEDLAYER-1
 10
1.539836
 20
2.293430
 30
0.000000
  0
VERTEX
  8
MERGEDLAYER-1
 10
1.539705
 20
2.293757
 30
0.000000
  0
VERTEX
  8
MERGEDLAYER-1
 10
1.539672
 20
2.294213
 30
0.000000
  0
VERTEX
  8
MERGEDLAYER-1
 10
1.481538
 20
2.294199
 30
0.000000
  0
VERTEX
  8
MERGEDLAYER-1
 10
1.481468
 20
2.293692
 30
0.000000
  0
VERTEX
  8
MERGEDLAYER-1
 10
1.481271
 20
2.293102
 30
0.000000
  0
VERTEX
  8
MERGEDLAYER-1
 10
1.481009
 20
2.292774
 30
0.000000
  0
VERTEX
  8
MERGEDLAYER-1
 10
1.480615
 20
2.292380
 30
0.000000
  0
VERTEX
  8
MERGEDLAYER-1
 10
1.480156
 20
2.292184
 30
0.000000
  0
VERTEX
  8
MERGEDLAYER-1
 10
1.479828
 20
2.292053
 30
0.000000
  0
VERTEX
  8
MERGEDLAYER-1
 10
1.479292
 20
2.291974
 30
0.000000
  0
VERTEX
  8
MERGEDLAYER-1
 10
1.478845
 20
2.291987
 30
0.000000
  0
VERTEX
  8
MERGEDLAYER-1
 10
1.478189
 20
2.292249
 30
0.000000
  0
VERTEX
  8
MERGEDLAYER-1
 10
1.477795
 20
2.292577
 30
0.000000
  0
VERTEX
  8
MERGEDLAYER-1
 10
1.477467
 20
2.292905
 30
0.000000
  0
VERTEX
  8
MERGEDLAYER-1
 10
1.477271
 20
2.293298
 30
0.000000
  0
VERTEX
  8
MERGEDLAYER-1
 10
1.477074
 20
2.293757
 30
0.000000
  0
VERTEX
  8
MERGEDLAYER-1
 10
1.477060
 20
2.294213
 30
0.000000
  0
VERTEX
  8
MERGEDLAYER-1
 10
1.396097
 20
2.294213
 30
0.000000
  0
VERTEX
  8
MERGEDLAYER-1
 10
1.395490
 20
2.294151
 30
0.000000
  0
VERTEX
  8
MERGEDLAYER-1
 10
1.395030
 20
2.293954
 30
0.000000
  0
VERTEX
  8
MERGEDLAYER-1
 10
1.394514
 20
2.293557
 30
0.000000
  0
VERTEX
  8
MERGEDLAYER-1
 10
1.394178
 20
2.293298
 30
0.000000
  0
VERTEX
  8
MERGEDLAYER-1
 10
1.393982
 20
2.292905
 30
0.000000
  0
VERTEX
  8
MERGEDLAYER-1
 10
1.393850
 20
2.292512
 30
0.000000
  0
VERTEX
  8
MERGEDLAYER-1
 10
1.393858
 20
2.291974
 30
0.000000
  0
VERTEX
  8
MERGEDLAYER-1
 10
1.393850
 20
2.281559
 30
0.000000
  0
VERTEX
  8
MERGEDLAYER-1
 10
1.405786
 20
2.281559
 30
0.000000
  0
VERTEX
  8
MERGEDLAYER-1
 10
1.405765
 20
2.282997
 30
0.000000
  0
VERTEX
  8
MERGEDLAYER-1
 10
1.405918
 20
2.283789
 30
0.000000
  0
VERTEX
  8
MERGEDLAYER-1
 10
1.406114
 20
2.284182
 30
0.000000
  0
VERTEX
  8
MERGEDLAYER-1
 10
1.406421
 20
2.284581
 30
0.000000
  0
VERTEX
  8
MERGEDLAYER-1
 10
1.406836
 20
2.284904
 30
0.000000
  0
VERTEX
  8
MERGEDLAYER-1
 10
1.407229
 20
2.285101
 30
0.000000
  0
VERTEX
  8
MERGEDLAYER-1
 10
1.407688
 20
2.285232
 30
0.000000
  0
VERTEX
  8
MERGEDLAYER-1
 10
1.408004
 20
2.285237
 30
0.000000
  0
VERTEX
  8
MERGEDLAYER-1
 10
1.415429
 20
2.285237
 30
0.000000
  0
VERTEX
  8
MERGEDLAYER-1
 10
1.416017
 20
2.285101
 30
0.000000
  0
VERTEX
  8
MERGEDLAYER-1
 10
1.416481
 20
2.284798
 30
0.000000
  0
VERTEX
  8
MERGEDLAYER-1
 10
1.416804
 20
2.284313
 30
0.000000
  0
VERTEX
  8
MERGEDLAYER-1
 10
1.416917
 20
2.283744
 30
0.000000
  0
VERTEX
  8
MERGEDLAYER-1
 10
1.416917
 20
2.277807
 30
0.000000
  0
VERTEX
  8
MERGEDLAYER-1
 10
1.417001
 20
2.277165
 30
0.000000
  0
VERTEX
  8
MERGEDLAYER-1
 10
1.417197
 20
2.276707
 30
0.000000
  0
VERTEX
  8
MERGEDLAYER-1
 10
1.417572
 20
2.276223
 30
0.000000
  0
VERTEX
  8
MERGEDLAYER-1
 10
1.417919
 20
2.275985
 30
0.000000
  0
VERTEX
  8
MERGEDLAYER-1
 10
1.418247
 20
2.275789
 30
0.000000
  0
VERTEX
  8
MERGEDLAYER-1
 10
1.418640
 20
2.275657
 30
0.000000
  0
VERTEX
  8
MERGEDLAYER-1
 10
1.419156
 20
2.275568
 30
0.000000
  0
VERTEX
  8
MERGEDLAYER-1
 10
1.429603
 20
2.275568
 30
0.000000
  0
VERTEX
  8
MERGEDLAYER-1
 10
1.430248
 20
2.275723
 30
0.000000
  0
VERTEX
  8
MERGEDLAYER-1
 10
1.430773
 20
2.275919
 30
0.000000
  0
VERTEX
  8
MERGEDLAYER-1
 10
1.431186
 20
2.276223
 30
0.000000
  0
VERTEX
  8
MERGEDLAYER-1
 10
1.431429
 20
2.276575
 30
0.000000
  0
VERTEX
  8
MERGEDLAYER-1
 10
1.431626
 20
2.276968
 30
0.000000
  0
VERTEX
  8
MERGEDLAYER-1
 10
1.431756
 20
2.277296
 30
0.000000
  0
VERTEX
  8
MERGEDLAYER-1
 10
1.431842
 20
2.277807
 30
0.000000
  0
VERTEX
  8
MERGEDLAYER-1
 10
1.431842
 20
2.283019
 30
0.000000
  0
VERTEX
  8
MERGEDLAYER-1
 10
1.432019
 20
2.283854
 30
0.000000
  0
VERTEX
  8
MERGEDLAYER-1
 10
1.432216
 20
2.284313
 30
0.000000
  0
VERTEX
  8
MERGEDLAYER-1
 10
1.432498
 20
2.284603
 30
0.000000
  0
VERTEX
  8
MERGEDLAYER-1
 10
1.432871
 20
2.284904
 30
0.000000
  0
VERTEX
  8
MERGEDLAYER-1
 10
1.433396
 20
2.285101
 30
0.000000
  0
VERTEX
  8
MERGEDLAYER-1
 10
1.434081
 20
2.285258
 30
0.000000
  0
VERTEX
  8
MERGEDLAYER-1
 10
1.440840
 20
2.285258
 30
0.000000
  0
VERTEX
  8
MERGEDLAYER-1
 10
1.441725
 20
2.285101
 30
0.000000
  0
VERTEX
  8
MERGEDLAYER-1
 10
1.442053
 20
2.284904
 30
0.000000
  0
VERTEX
  8
MERGEDLAYER-1
 10
1.442423
 20
2.284603
 30
0.000000
  0
VERTEX
  8
MERGEDLAYER-1
 10
1.442774
 20
2.284182
 30
0.000000
  0
VERTEX
  8
MERGEDLAYER-1
 10
1.442971
 20
2.283658
 30
0.000000
  0
VERTEX
  8
MERGEDLAYER-1
 10
1.443079
 20
2.283019
 30
0.000000
  0
VERTEX
  8
MERGEDLAYER-1
 10
1.443079
 20
2.259144
 30
0.000000
  0
VERTEX
  8
MERGEDLAYER-1
 10
1.443168
 20
2.258671
 30
0.000000
  0
VERTEX
  8
MERGEDLAYER-1
 10
1.443233
 20
2.258278
 30
0.000000
  0
VERTEX
  8
MERGEDLAYER-1
 10
1.443496
 20
2.257885
 30
0.000000
  0
VERTEX
  8
MERGEDLAYER-1
 10
1.443735
 20
2.257562
 30
0.000000
  0
VERTEX
  8
MERGEDLAYER-1
 10
1.444218
 20
2.257228
 30
0.000000
  0
VERTEX
  8
MERGEDLAYER-1
 10
1.445318
 20
2.256906
 30
0.000000
  0
VERTEX
  8
MERGEDLAYER-1
 10
1.452781
 20
2.256906
 30
0.000000
  0
VERTEX
  8
MERGEDLAYER-1
 10
1.453333
 20
2.256966
 30
0.000000
  0
VERTEX
  8
MERGEDLAYER-1
 10
1.453792
 20
2.257163
 30
0.000000
  0
VERTEX
  8
MERGEDLAYER-1
 10
1.454364
 20
2.257562
 30
0.000000
  0
VERTEX
  8
MERGEDLAYER-1
 10
1.454776
 20
2.258016
 30
0.000000
  0
VERTEX
  8
MERGEDLAYER-1
 10
1.454907
 20
2.258409
 30
0.000000
  0
VERTEX
  8
MERGEDLAYER-1
 10
1.455019
 20
2.259144
 30
0.000000
  0
VERTEX
  8
MERGEDLAYER-1
 10
1.455019
 20
2.278519
 30
0.000000
  0
VERTEX
  8
MERGEDLAYER-1
 10
1.455169
 20
2.279329
 30
0.000000
  0
VERTEX
  8
MERGEDLAYER-1
 10
1.455366
 20
2.279789
 30
0.000000
  0
VERTEX
  8
MERGEDLAYER-1
 10
1.455675
 20
2.280102
 30
0.000000
  0
VERTEX
  8
MERGEDLAYER-1
 10
1.456022
 20
2.280444
 30
0.000000
  0
VERTEX
  8
MERGEDLAYER-1
 10
1.456481
 20
2.280641
 30
0.000000
  0
VERTEX
  8
MERGEDLAYER-1
 10
1.457258
 20
2.280757
 30
0.000000
  0
VERTEX
  8
MERGEDLAYER-1
 10
1.492750
 20
2.280757
 30
0.000000
  0
VERTEX
  8
MERGEDLAYER-1
 10
1.493535
 20
2.280641
 30
0.000000
  0
VERTEX
  8
MERGEDLAYER-1
 10
1.493994
 20
2.280444
 30
0.000000
  0
VERTEX
  8
MERGEDLAYER-1
 10
1.494333
 20
2.280102
 30
0.000000
  0
VERTEX
  8
MERGEDLAYER-1
 10
1.494716
 20
2.279789
 30
0.000000
  0
VERTEX
  8
MERGEDLAYER-1
 10
1.494912
 20
2.279198
 30
0.000000
  0
VERTEX
  8
MERGEDLAYER-1
 10
1.494989
 20
2.278519
 30
0.000000
  0
VERTEX
  8
MERGEDLAYER-1
 10
1.494978
 20
2.272640
 30
0.000000
  0
VERTEX
  8
MERGEDLAYER-1
 10
1.506914
 20
2.272640
 30
0.000000
  0
VERTEX
  8
MERGEDLAYER-1
 10
1.506930
 20
2.278519
 30
0.000000
  0
VERTEX
  8
MERGEDLAYER-1
 10
1.507045
 20
2.279395
 30
0.000000
  0
VERTEX
  8
MERGEDLAYER-1
 10
1.507307
 20
2.279789
 30
0.000000
  0
VERTEX
  8
MERGEDLAYER-1
 10
1.507585
 20
2.280102
 30
0.000000
  0
VERTEX
  8
MERGEDLAYER-1
 10
1.507963
 20
2.280444
 30
0.000000
  0
VERTEX
  8
MERGEDLAYER-1
 10
1.508422
 20
2.280707
 30
0.000000
  0
VERTEX
  8
MERGEDLAYER-1
 10
1.509169
 20
2.280757
 30
0.000000
  0
VERTEX
  8
MERGEDLAYER-1
 10
1.617881
 20
2.280757
 30
0.000000
  0
VERTEX
  8
MERGEDLAYER-1
 10
1.618665
 20
2.280641
 30
0.000000
  0
VERTEX
  8
MERGEDLAYER-1
 10
1.619190
 20
2.280379
 30
0.000000
  0
VERTEX
  8
MERGEDLAYER-1
 10
1.619464
 20
2.280102
 30
0.000000
  0
VERTEX
  8
MERGEDLAYER-1
 10
1.619846
 20
2.279723
 30
0.000000
  0
VERTEX
  8
MERGEDLAYER-1
 10
1.619977
 20
2.279329
 30
0.000000
  0
VERTEX
  8
MERGEDLAYER-1
 10
1.620108
 20
2.278936
 30
0.000000
  0
VERTEX
  8
MERGEDLAYER-1
 10
1.620120
 20
2.278519
 30
0.000000
  0
VERTEX
  8
MERGEDLAYER-1
 10
1.620120
 20
2.265115
 30
0.000000
  0
VERTEX
  8
MERGEDLAYER-1
 10
1.620174
 20
2.264049
 30
0.000000
  0
VERTEX
  8
MERGEDLAYER-1
 10
1.620305
 20
2.263524
 30
0.000000
  0
VERTEX
  8
MERGEDLAYER-1
 10
1.620502
 20
2.262672
 30
0.000000
  0
VERTEX
  8
MERGEDLAYER-1
 10
1.620764
 20
2.261885
 30
0.000000
  0
VERTEX
  8
MERGEDLAYER-1
 10
1.621026
 20
2.261360
 30
0.000000
  0
VERTEX
  8
MERGEDLAYER-1
 10
1.621420
 20
2.260638
 30
0.000000
  0
VERTEX
  8
MERGEDLAYER-1
 10
1.621813
 20
2.260114
 30
0.000000
  0
VERTEX
  8
MERGEDLAYER-1
 10
1.622207
 20
2.259589
 30
0.000000
  0
VERTEX
  8
MERGEDLAYER-1
 10
1.622524
 20
2.259310
 30
0.000000
  0
VERTEX
  8
MERGEDLAYER-1
 10
1.623059
 20
2.258802
 30
0.000000
  0
VERTEX
  8
MERGEDLAYER-1
 10
1.623715
 20
2.258278
 30
0.000000
  0
VERTEX
  8
MERGEDLAYER-1
 10
1.624371
 20
2.257885
 30
0.000000
  0
VERTEX
  8
MERGEDLAYER-1
 10
1.625224
 20
2.257491
 30
0.000000
  0
VERTEX
  8
MERGEDLAYER-1
 10
1.626076
 20
2.257228
 30
0.000000
  0
VERTEX
  8
MERGEDLAYER-1
 10
1.626863
 20
2.257032
 30
0.000000
  0
VERTEX
  8
MERGEDLAYER-1
 10
1.627388
 20
2.256901
 30
0.000000
  0
VERTEX
  8
MERGEDLAYER-1
 10
1.628329
 20
2.256906
 30
0.000000
  0
VERTEX
  8
MERGEDLAYER-1
 10
1.637835
 20
2.256906
 30
0.000000
  0
VERTEX
  8
MERGEDLAYER-1
 10
1.638537
 20
2.257098
 30
0.000000
  0
VERTEX
  8
MERGEDLAYER-1
 10
1.639061
 20
2.257360
 30
0.000000
  0
VERTEX
  8
MERGEDLAYER-1
 10
1.639418
 20
2.257584
 30
0.000000
  0
VERTEX
  8
MERGEDLAYER-1
 10
1.639717
 20
2.258016
 30
0.000000
  0
VERTEX
  8
MERGEDLAYER-1
 10
1.639848
 20
2.258278
 30
0.000000
  0
VERTEX
  8
MERGEDLAYER-1
 10
1.640045
 20
2.258737
 30
0.000000
  0
VERTEX
  8
MERGEDLAYER-1
 10
1.640073
 20
2.259167
 30
0.000000
  0
VERTEX
  8
MERGEDLAYER-1
 10
1.640073
 20
2.260565
 30
0.000000
  0
VERTEX
  8
MERGEDLAYER-1
 10
1.639980
 20
2.261229
 30
0.000000
  0
VERTEX
  8
MERGEDLAYER-1
 10
1.639651
 20
2.261819
 30
0.000000
  0
VERTEX
  8
MERGEDLAYER-1
 10
1.639418
 20
2.262148
 30
0.000000
  0
VERTEX
  8
MERGEDLAYER-1
 10
1.639061
 20
2.262409
 30
0.000000
  0
VERTEX
  8
MERGEDLAYER-1
 10
1.638733
 20
2.262606
 30
0.000000
  0
VERTEX
  8
MERGEDLAYER-1
 10
1.638340
 20
2.262737
 30
0.000000
  0
VERTEX
  8
MERGEDLAYER-1
 10
1.637835
 20
2.262804
 30
0.000000
  0
VERTEX
  8
MERGEDLAYER-1
 10
1.630583
 20
2.262804
 30
0.000000
  0
VERTEX
  8
MERGEDLAYER-1
 10
1.629880
 20
2.262934
 30
0.000000
  0
VERTEX
  8
MERGEDLAYER-1
 10
1.629355
 20
2.263196
 30
0.000000
  0
VERTEX
  8
MERGEDLAYER-1
 10
1.629000
 20
2.263459
 30
0.000000
  0
VERTEX
  8
MERGEDLAYER-1
 10
1.628634
 20
2.263918
 30
0.000000
  0
VERTEX
  8
MERGEDLAYER-1
 10
1.628437
 20
2.264443
 30
0.000000
  0
VERTEX
  8
MERGEDLAYER-1
 10
1.628329
 20
2.265115
 30
0.000000
  0
VERTEX
  8
MERGEDLAYER-1
 10
1.628345
 20
2.273484
 30
0.000000
  0
VERTEX
  8
MERGEDLAYER-1
 10
1.628503
 20
2.274280
 30
0.000000
  0
VERTEX
  8
MERGEDLAYER-1
 10
1.628700
 20
2.274739
 30
0.000000
  0
VERTEX
  8
MERGEDLAYER-1
 10
1.629000
 20
2.275067
 30
0.000000
  0
VERTEX
  8
MERGEDLAYER-1
 10
1.629486
 20
2.275460
 30
0.000000
  0
VERTEX
  8
MERGEDLAYER-1
 10
1.629945
 20
2.275657
 30
0.000000
  0
VERTEX
  8
MERGEDLAYER-1
 10
1.630583
 20
2.275723
 30
0.000000
  0
VERTEX
  8
MERGEDLAYER-1
 10
1.637849
 20
2.275723
 30
0.000000
  0
VERTEX
  8
MERGEDLAYER-1
 10
1.638537
 20
2.275854
 30
0.000000
  0
VERTEX
  8
MERGEDLAYER-1
 10
1.639127
 20
2.276116
 30
0.000000
  0
VERTEX
  8
MERGEDLAYER-1
 10
1.639432
 20
2.276378
 30
0.000000
  0
VERTEX
  8
MERGEDLAYER-1
 10
1.639783
 20
2.276772
 30
0.000000
  0
VERTEX
  8
MERGEDLAYER-1
 10
1.639980
 20
2.277296
 30
0.000000
  0
VERTEX
  8
MERGEDLAYER-1
 10
1.640088
 20
2.277961
 30
0.000000
  0
VERTEX
  8
MERGEDLAYER-1
 10
1.640088
 20
2.283782
 30
0.000000
  0
VERTEX
  8
MERGEDLAYER-1
 10
1.640242
 20
2.284379
 30
0.000000
  0
VERTEX
  8
MERGEDLAYER-1
 10
1.640307
 20
2.284707
 30
0.000000
  0
VERTEX
  8
MERGEDLAYER-1
 10
1.640504
 20
2.285101
 30
0.000000
  0
VERTEX
  8
MERGEDLAYER-1
 10
1.640743
 20
2.285365
 30
0.000000
  0
VERTEX
  8
MERGEDLAYER-1
 10
1.641160
 20
2.285691
 30
0.000000
  0
VERTEX
  8
MERGEDLAYER-1
 10
1.641750
 20
2.285953
 30
0.000000
  0
VERTEX
  8
MERGEDLAYER-1
 10
1.642326
 20
2.286021
 30
0.000000
  0
VERTEX
  8
MERGEDLAYER-1
 10
1.670144
 20
2.286021
 30
0.000000
  0
VERTEX
  8
MERGEDLAYER-1
 10
1.670737
 20
2.285887
 30
0.000000
  0
VERTEX
  8
MERGEDLAYER-1
 10
1.671458
 20
2.285626
 30
0.000000
  0
VERTEX
  8
MERGEDLAYER-1
 10
1.671728
 20
2.285365
 30
0.000000
  0
VERTEX
  8
MERGEDLAYER-1
 10
1.672048
 20
2.284969
 30
0.000000
  0
VERTEX
  8
MERGEDLAYER-1
 10
1.672245
 20
2.284642
 30
0.000000
  0
VERTEX
  8
MERGEDLAYER-1
 10
1.672376
 20
2.284182
 30
0.000000
  0
VERTEX
  8
MERGEDLAYER-1
 10
1.672383
 20
2.283782
 30
0.000000
  0
VERTEX
  8
MERGEDLAYER-1
 10
1.672383
 20
2.277961
 30
0.000000
  0
VERTEX
  8
MERGEDLAYER-1
 10
1.672442
 20
2.277362
 30
0.000000
  0
VERTEX
  8
MERGEDLAYER-1
 10
1.672638
 20
2.276837
 30
0.000000
  0
VERTEX
  8
MERGEDLAYER-1
 10
1.673039
 20
2.276378
 30
0.000000
  0
VERTEX
  8
MERGEDLAYER-1
 10
1.673426
 20
2.276050
 30
0.000000
  0
VERTEX
  8
MERGEDLAYER-1
 10
1.673858
 20
2.275728
 30
0.000000
  0
VERTEX
  8
MERGEDLAYER-1
 10
1.674622
 20
2.275723
 30
0.000000
  0
VERTEX
  8
MERGEDLAYER-1
 10
1.681881
 20
2.275723
 30
0.000000
  0
VERTEX
  8
MERGEDLAYER-1
 10
1.682607
 20
2.275591
 30
0.000000
  0
VERTEX
  8
MERGEDLAYER-1
 10
1.683197
 20
2.275329
 30
0.000000
  0
VERTEX
  8
MERGEDLAYER-1
 10
1.683494
 20
2.275067
 30
0.000000
  0
VERTEX
  8
MERGEDLAYER-1
 10
1.683853
 20
2.274673
 30
0.000000
  0
VERTEX
  8
MERGEDLAYER-1
 10
1.684050
 20
2.274280
 30
0.000000
  0
VERTEX
  8
MERGEDLAYER-1
 10
1.684150
 20
2.273484
 30
0.000000
  0
VERTEX
  8
MERGEDLAYER-1
 10
1.684150
 20
2.265043
 30
0.000000
  0
VERTEX
  8
MERGEDLAYER-1
 10
1.684050
 20
2.264508
 30
0.000000
  0
VERTEX
  8
MERGEDLAYER-1
 10
1.683853
 20
2.263918
 30
0.000000
  0
VERTEX
  8
MERGEDLAYER-1
 10
1.683494
 20
2.263459
 30
0.000000
  0
VERTEX
  8
MERGEDLAYER-1
 10
1.683001
 20
2.263065
 30
0.000000
  0
VERTEX
  8
MERGEDLAYER-1
 10
1.682673
 20
2.262934
 30
0.000000
  0
VERTEX
  8
MERGEDLAYER-1
 10
1.681911
 20
2.262804
 30
0.000000
  0
SEQEND
  8
MERGEDLAYER-1
  0
POLYLINE
  8
MERGEDLAYER-1
 66
  1
 70
  1
 62
  7
 10
1.674622
 20
2.139049
 30
0.000000
  0
VERTEX
  8
MERGEDLAYER-1
 10
1.674622
 20
2.139049
 30
0.000000
  0
VERTEX
  8
MERGEDLAYER-1
 10
1.674016
 20
2.139116
 30
0.000000
  0
VERTEX
  8
MERGEDLAYER-1
 10
1.673622
 20
2.139247
 30
0.000000
  0
VERTEX
  8
MERGEDLAYER-1
 10
1.673039
 20
2.139705
 30
0.000000
  0
VERTEX
  8
MERGEDLAYER-1
 10
1.672770
 20
2.139968
 30
0.000000
  0
VERTEX
  8
MERGEDLAYER-1
 10
1.672573
 20
2.140297
 30
0.000000
  0
VERTEX
  8
MERGEDLAYER-1
 10
1.672442
 20
2.140690
 30
0.000000
  0
VERTEX
  8
MERGEDLAYER-1
 10
1.672383
 20
2.141288
 30
0.000000
  0
VERTEX
  8
MERGEDLAYER-1
 10
1.672383
 20
2.142686
 30
0.000000
  0
VERTEX
  8
MERGEDLAYER-1
 10
1.672442
 20
2.143247
 30
0.000000
  0
VERTEX
  8
MERGEDLAYER-1
 10
1.672638
 20
2.143706
 30
0.000000
  0
VERTEX
  8
MERGEDLAYER-1
 10
1.672770
 20
2.143969
 30
0.000000
  0
VERTEX
  8
MERGEDLAYER-1
 10
1.673039
 20
2.144269
 30
0.000000
  0
VERTEX
  8
MERGEDLAYER-1
 10
1.673491
 20
2.144625
 30
0.000000
  0
VERTEX
  8
MERGEDLAYER-1
 10
1.674016
 20
2.144821
 30
0.000000
  0
VERTEX
  8
MERGEDLAYER-1
 10
1.674622
 20
2.144925
 30
0.000000
  0
VERTEX
  8
MERGEDLAYER-1
 10
1.684157
 20
2.144925
 30
0.000000
  0
VERTEX
  8
MERGEDLAYER-1
 10
1.685034
 20
2.144821
 30
0.000000
  0
VERTEX
  8
MERGEDLAYER-1
 10
1.685690
 20
2.144690
 30
0.000000
  0
VERTEX
  8
MERGEDLAYER-1
 10
1.686476
 20
2.144493
 30
0.000000
  0
VERTEX
  8
MERGEDLAYER-1
 10
1.687263
 20
2.144231
 30
0.000000
  0
VERTEX
  8
MERGEDLAYER-1
 10
1.687985
 20
2.143903
 30
0.000000
  0
VERTEX
  8
MERGEDLAYER-1
 10
1.688509
 20
2.143641
 30
0.000000
  0
VERTEX
  8
MERGEDLAYER-1
 10
1.689034
 20
2.143313
 30
0.000000
  0
VERTEX
  8
MERGEDLAYER-1
 10
1.689559
 20
2.142919
 30
0.000000
  0
VERTEX
  8
MERGEDLAYER-1
 10
1.689962
 20
2.142520
 30
0.000000
  0
VERTEX
  8
MERGEDLAYER-1
 10
1.690477
 20
2.141936
 30
0.000000
  0
VERTEX
  8
MERGEDLAYER-1
 10
1.691067
 20
2.141215
 30
0.000000
  0
VERTEX
  8
MERGEDLAYER-1
 10
1.691395
 20
2.140624
 30
0.000000
  0
VERTEX
  8
MERGEDLAYER-1
 10
1.691789
 20
2.139706
 30
0.000000
  0
VERTEX
  8
MERGEDLAYER-1
 10
1.692051
 20
2.139050
 30
0.000000
  0
VERTEX
  8
MERGEDLAYER-1
 10
1.692182
 20
2.138459
 30
0.000000
  0
VERTEX
  8
MERGEDLAYER-1
 10
1.692379
 20
2.137542
 30
0.000000
  0
VERTEX
  8
MERGEDLAYER-1
 10
1.692366
 20
2.126125
 30
0.000000
  0
VERTEX
  8
MERGEDLAYER-1
 10
1.692313
 20
2.124885
 30
0.000000
  0
VERTEX
  8
MERGEDLAYER-1
 10
1.692248
 20
2.123638
 30
0.000000
  0
VERTEX
  8
MERGEDLAYER-1
 10
1.692051
 20
2.122589
 30
0.000000
  0
VERTEX
  8
MERGEDLAYER-1
 10
1.691854
 20
2.121671
 30
0.000000
  0
VERTEX
  8
MERGEDLAYER-1
 10
1.691526
 20
2.120621
 30
0.000000
  0
VERTEX
  8
MERGEDLAYER-1
 10
1.691133
 20
2.119507
 30
0.000000
  0
VERTEX
  8
MERGEDLAYER-1
 10
1.690739
 20
2.118458
 30
0.000000
  0
VERTEX
  8
MERGEDLAYER-1
 10
1.690280
 20
2.117540
 30
0.000000
  0
VERTEX
  8
MERGEDLAYER-1
 10
1.689755
 20
2.116621
 30
0.000000
  0
VERTEX
  8
MERGEDLAYER-1
 10
1.689100
 20
2.115637
 30
0.000000
  0
VERTEX
  8
MERGEDLAYER-1
 10
1.688313
 20
2.114588
 30
0.000000
  0
VERTEX
  8
MERGEDLAYER-1
 10
1.687460
 20
2.113539
 30
0.000000
  0
VERTEX
  8
MERGEDLAYER-1
 10
1.686411
 20
2.112490
 30
0.000000
  0
VERTEX
  8
MERGEDLAYER-1
 10
1.685296
 20
2.111572
 30
0.000000
  0
VERTEX
  8
MERGEDLAYER-1
 10
1.684116
 20
2.110719
 30
0.000000
  0
VERTEX
  8
MERGEDLAYER-1
 10
1.683067
 20
2.110063
 30
0.000000
  0
VERTEX
  8
MERGEDLAYER-1
 10
1.681886
 20
2.109407
 30
0.000000
  0
VERTEX
  8
MERGEDLAYER-1
 10
1.680574
 20
2.108882
 30
0.000000
  0
VERTEX
  8
MERGEDLAYER-1
 10
1.679131
 20
2.108358
 30
0.000000
  0
VERTEX
  8
MERGEDLAYER-1
 10
1.677754
 20
2.107964
 30
0.000000
  0
VERTEX
  8
MERGEDLAYER-1
 10
1.676049
 20
2.107702
 30
0.000000
  0
VERTEX
  8
MERGEDLAYER-1
 10
1.674803
 20
2.107637
 30
0.000000
  0
VERTEX
  8
MERGEDLAYER-1
 10
1.606761
 20
2.107655
 30
0.000000
  0
VERTEX
  8
MERGEDLAYER-1
 10
1.606729
 20
2.108096
 30
0.000000
  0
VERTEX
  8
MERGEDLAYER-1
 10
1.606533
 20
2.108620
 30
0.000000
  0
VERTEX
  8
MERGEDLAYER-1
 10
1.606270
 20
2.109014
 30
0.000000
  0
VERTEX
  8
MERGEDLAYER-1
 10
1.605877
 20
2.109407
 30
0.000000
  0
VERTEX
  8
MERGEDLAYER-1
 10
1.605352
 20
2.109735
 30
0.000000
  0
VERTEX
  8
MERGEDLAYER-1
 10
1.604828
 20
2.109800
 30
0.000000
  0
VERTEX
  8
MERGEDLAYER-1
 10
1.604516
 20
2.109879
 30
0.000000
  0
VERTEX
  8
MERGEDLAYER-1
 10
1.604040
 20
2.109800
 30
0.000000
  0
VERTEX
  8
MERGEDLAYER-1
 10
1.603384
 20
2.109604
 30
0.000000
  0
VERTEX
  8
MERGEDLAYER-1
 10
1.602991
 20
2.109276
 30
0.000000
  0
VERTEX
  8
MERGEDLAYER-1
 10
1.602663
 20
2.108882
 30
0.000000
  0
VERTEX
  8
MERGEDLAYER-1
 10
1.602401
 20
2.108423
 30
0.000000
  0
VERTEX
  8
MERGEDLAYER-1
 10
1.602335
 20
2.108096
 30
0.000000
  0
VERTEX
  8
MERGEDLAYER-1
 10
1.602284
 20
2.107640
 30
0.000000
  0
VERTEX
  8
MERGEDLAYER-1
 10
1.544150
 20
2.107640
 30
0.000000
  0
VERTEX
  8
MERGEDLAYER-1
 10
1.544099
 20
2.108227
 30
0.000000
  0
VERTEX
  8
MERGEDLAYER-1
 10
1.543837
 20
2.108751
 30
0.000000
  0
VERTEX
  8
MERGEDLAYER-1
 10
1.543574
 20
2.109145
 30
0.000000
  0
VERTEX
  8
MERGEDLAYER-1
 10
1.543311
 20
2.109407
 30
0.000000
  0
VERTEX
  8
MERGEDLAYER-1
 10
1.542787
 20
2.109669
 30
0.000000
  0
VERTEX
  8
MERGEDLAYER-1
 10
1.542393
 20
2.109800
 30
0.000000
  0
VERTEX
  8
MERGEDLAYER-1
 10
1.541904
 20
2.109879
 30
0.000000
  0
VERTEX
  8
MERGEDLAYER-1
 10
1.541541
 20
2.109800
 30
0.000000
  0
VERTEX
  8
MERGEDLAYER-1
 10
1.541016
 20
2.109669
 30
0.000000
  0
VERTEX
  8
MERGEDLAYER-1
 10
1.540557
 20
2.109407
 30
0.000000
  0
VERTEX
  8
MERGEDLAYER-1
 10
1.540229
 20
2.109145
 30
0.000000
  0
VERTEX
  8
MERGEDLAYER-1
 10
1.539967
 20
2.108685
 30
0.000000
  0
VERTEX
  8
MERGEDLAYER-1
 10
1.539836
 20
2.108423
 30
0.000000
  0
VERTEX
  8
MERGEDLAYER-1
 10
1.539705
 20
2.108096
 30
0.000000
  0
VERTEX
  8
MERGEDLAYER-1
 10
1.539672
 20
2.107640
 30
0.000000
  0
VERTEX
  8
MERGEDLAYER-1
 10
1.481538
 20
2.107655
 30
0.000000
  0
VERTEX
  8
MERGEDLAYER-1
 10
1.481468
 20
2.108161
 30
0.000000
  0
VERTEX
  8
MERGEDLAYER-1
 10
1.481271
 20
2.108751
 30
0.000000
  0
VERTEX
  8
MERGEDLAYER-1
 10
1.481009
 20
2.109079
 30
0.000000
  0
VERTEX
  8
MERGEDLAYER-1
 10
1.480615
 20
2.109473
 30
0.000000
  0
VERTEX
  8
MERGEDLAYER-1
 10
1.480156
 20
2.109669
 30
0.000000
  0
VERTEX
  8
MERGEDLAYER-1
 10
1.479828
 20
2.109800
 30
0.000000
  0
VERTEX
  8
MERGEDLAYER-1
 10
1.479292
 20
2.109879
 30
0.000000
  0
VERTEX
  8
MERGEDLAYER-1
 10
1.478845
 20
2.109866
 30
0.000000
  0
VERTEX
  8
MERGEDLAYER-1
 10
1.478189
 20
2.109604
 30
0.000000
  0
VERTEX
  8
MERGEDLAYER-1
 10
1.477795
 20
2.109276
 30
0.000000
  0
VERTEX
  8
MERGEDLAYER-1
 10
1.477467
 20
2.108948
 30
0.000000
  0
VERTEX
  8
MERGEDLAYER-1
 10
1.477271
 20
2.108555
 30
0.000000
  0
VERTEX
  8
MERGEDLAYER-1
 10
1.477074
 20
2.108096
 30
0.000000
  0
VERTEX
  8
MERGEDLAYER-1
 10
1.477060
 20
2.107640
 30
0.000000
  0
VERTEX
  8
MERGEDLAYER-1
 10
1.396097
 20
2.107640
 30
0.000000
  0
VERTEX
  8
MERGEDLAYER-1
 10
1.395490
 20
2.107702
 30
0.000000
  0
VERTEX
  8
MERGEDLAYER-1
 10
1.395030
 20
2.107899
 30
0.000000
  0
VERTEX
  8
MERGEDLAYER-1
 10
1.394514
 20
2.108296
 30
0.000000
  0
VERTEX
  8
MERGEDLAYER-1
 10
1.394178
 20
2.108555
 30
0.000000
  0
VERTEX
  8
MERGEDLAYER-1
 10
1.393982
 20
2.108948
 30
0.000000
  0
VERTEX
  8
MERGEDLAYER-1
 10
1.393850
 20
2.109341
 30
0.000000
  0
VERTEX
  8
MERGEDLAYER-1
 10
1.393858
 20
2.109879
 30
0.000000
  0
VERTEX
  8
MERGEDLAYER-1
 10
1.393850
 20
2.120294
 30
0.000000
  0
VERTEX
  8
MERGEDLAYER-1
 10
1.405786
 20
2.120294
 30
0.000000
  0
VERTEX
  8
MERGEDLAYER-1
 10
1.405765
 20
2.118856
 30
0.000000
  0
VERTEX
  8
MERGEDLAYER-1
 10
1.405918
 20
2.118064
 30
0.000000
  0
VERTEX
  8
MERGEDLAYER-1
 10
1.406114
 20
2.117671
 30
0.000000
  0
VERTEX
  8
MERGEDLAYER-1
 10
1.406421
 20
2.117272
 30
0.000000
  0
VERTEX
  8
MERGEDLAYER-1
 10
1.406836
 20
2.116949
 30
0.000000
  0
VERTEX
  8
MERGEDLAYER-1
 10
1.407229
 20
2.116752
 30
0.000000
  0
VERTEX
  8
MERGEDLAYER-1
 10
1.407688
 20
2.116621
 30
0.000000
  0
VERTEX
  8
MERGEDLAYER-1
 10
1.408004
 20
2.116616
 30
0.000000
  0
VERTEX
  8
MERGEDLAYER-1
 10
1.415429
 20
2.116616
 30
0.000000
  0
VERTEX
  8
MERGEDLAYER-1
 10
1.416017
 20
2.116752
 30
0.000000
  0
VERTEX
  8
MERGEDLAYER-1
 10
1.416481
 20
2.117055
 30
0.000000
  0
VERTEX
  8
MERGEDLAYER-1
 10
1.416804
 20
2.117540
 30
0.000000
  0
VERTEX
  8
MERGEDLAYER-1
 10
1.416917
 20
2.118109
 30
0.000000
  0
VERTEX
  8
MERGEDLAYER-1
 10
1.416917
 20
2.124046
 30
0.000000
  0
VERTEX
  8
MERGEDLAYER-1
 10
1.417001
 20
2.124688
 30
0.000000
  0
VERTEX
  8
MERGEDLAYER-1
 10
1.417197
 20
2.125147
 30
0.000000
  0
VERTEX
  8
MERGEDLAYER-1
 10
1.417572
 20
2.125630
 30
0.000000
  0
VERTEX
  8
MERGEDLAYER-1
 10
1.417919
 20
2.125868
 30
0.000000
  0
VERTEX
  8
MERGEDLAYER-1
 10
1.418247
 20
2.126065
 30
0.000000
  0
VERTEX
  8
MERGEDLAYER-1
 10
1.418640
 20
2.126196
 30
0.000000
  0
VERTEX
  8
MERGEDLAYER-1
 10
1.419156
 20
2.126285
 30
0.000000
  0
VERTEX
  8
MERGEDLAYER-1
 10
1.429603
 20
2.126285
 30
0.000000
  0
VERTEX
  8
MERGEDLAYER-1
 10
1.430248
 20
2.126130
 30
0.000000
  0
VERTEX
  8
MERGEDLAYER-1
 10
1.430773
 20
2.125934
 30
0.000000
  0
VERTEX
  8
MERGEDLAYER-1
 10
1.431186
 20
2.125630
 30
0.000000
  0
VERTEX
  8
MERGEDLAYER-1
 10
1.431429
 20
2.125278
 30
0.000000
  0
VERTEX
  8
MERGEDLAYER-1
 10
1.431626
 20
2.124885
 30
0.000000
  0
VERTEX
  8
MERGEDLAYER-1
 10
1.431756
 20
2.124557
 30
0.000000
  0
VERTEX
  8
MERGEDLAYER-1
 10
1.431842
 20
2.124046
 30
0.000000
  0
VERTEX
  8
MERGEDLAYER-1
 10
1.431842
 20
2.118834
 30
0.000000
  0
VERTEX
  8
MERGEDLAYER-1
 10
1.432019
 20
2.117999
 30
0.000000
  0
VERTEX
  8
MERGEDLAYER-1
 10
1.432216
 20
2.117540
 30
0.000000
  0
VERTEX
  8
MERGEDLAYER-1
 10
1.432498
 20
2.117251
 30
0.000000
  0
VERTEX
  8
MERGEDLAYER-1
 10
1.432871
 20
2.116949
 30
0.000000
  0
VERTEX
  8
MERGEDLAYER-1
 10
1.433396
 20
2.116752
 30
0.000000
  0
VERTEX
  8
MERGEDLAYER-1
 10
1.434081
 20
2.116595
 30
0.000000
  0
VERTEX
  8
MERGEDLAYER-1
 10
1.440840
 20
2.116595
 30
0.000000
  0
VERTEX
  8
MERGEDLAYER-1
 10
1.441725
 20
2.116752
 30
0.000000
  0
VERTEX
  8
MERGEDLAYER-1
 10
1.442053
 20
2.116949
 30
0.000000
  0
VERTEX
  8
MERGEDLAYER-1
 10
1.442423
 20
2.117251
 30
0.000000
  0
VERTEX
  8
MERGEDLAYER-1
 10
1.442774
 20
2.117671
 30
0.000000
  0
VERTEX
  8
MERGEDLAYER-1
 10
1.442971
 20
2.118195
 30
0.000000
  0
VERTEX
  8
MERGEDLAYER-1
 10
1.443079
 20
2.118834
 30
0.000000
  0
VERTEX
  8
MERGEDLAYER-1
 10
1.443079
 20
2.142709
 30
0.000000
  0
VERTEX
  8
MERGEDLAYER-1
 10
1.443168
 20
2.143182
 30
0.000000
  0
VERTEX
  8
MERGEDLAYER-1
 10
1.443233
 20
2.143575
 30
0.000000
  0
VERTEX
  8
MERGEDLAYER-1
 10
1.443496
 20
2.143969
 30
0.000000
  0
VERTEX
  8
MERGEDLAYER-1
 10
1.443735
 20
2.144291
 30
0.000000
  0
VERTEX
  8
MERGEDLAYER-1
 10
1.444218
 20
2.144625
 30
0.000000
  0
VERTEX
  8
MERGEDLAYER-1
 10
1.445318
 20
2.144948
 30
0.000000
  0
VERTEX
  8
MERGEDLAYER-1
 10
1.452781
 20
2.144948
 30
0.000000
  0
VERTEX
  8
MERGEDLAYER-1
 10
1.453333
 20
2.144887
 30
0.000000
  0
VERTEX
  8
MERGEDLAYER-1
 10
1.453792
 20
2.144690
 30
0.000000
  0
VERTEX
  8
MERGEDLAYER-1
 10
1.454364
 20
2.144291
 30
0.000000
  0
VERTEX
  8
MERGEDLAYER-1
 10
1.454776
 20
2.143837
 30
0.000000
  0
VERTEX
  8
MERGEDLAYER-1
 10
1.454907
 20
2.143444
 30
0.000000
  0
VERTEX
  8
MERGEDLAYER-1
 10
1.455019
 20
2.142709
 30
0.000000
  0
VERTEX
  8
MERGEDLAYER-1
 10
1.455019
 20
2.123334
 30
0.000000
  0
VERTEX
  8
MERGEDLAYER-1
 10
1.455169
 20
2.122524
 30
0.000000
  0
VERTEX
  8
MERGEDLAYER-1
 10
1.455366
 20
2.122064
 30
0.000000
  0
VERTEX
  8
MERGEDLAYER-1
 10
1.455675
 20
2.121752
 30
0.000000
  0
VERTEX
  8
MERGEDLAYER-1
 10
1.456022
 20
2.121409
 30
0.000000
  0
VERTEX
  8
MERGEDLAYER-1
 10
1.456481
 20
2.121212
 30
0.000000
  0
VERTEX
  8
MERGEDLAYER-1
 10
1.457258
 20
2.121096
 30
0.000000
  0
VERTEX
  8
MERGEDLAYER-1
 10
1.492750
 20
2.121096
 30
0.000000
  0
VERTEX
  8
MERGEDLAYER-1
 10
1.493535
 20
2.121212
 30
0.000000
  0
VERTEX
  8
MERGEDLAYER-1
 10
1.493994
 20
2.121409
 30
0.000000
  0
VERTEX
  8
MERGEDLAYER-1
 10
1.494333
 20
2.121752
 30
0.000000
  0
VERTEX
  8
MERGEDLAYER-1
 10
1.494716
 20
2.122064
 30
0.000000
  0
VERTEX
  8
MERGEDLAYER-1
 10
1.494912
 20
2.122655
 30
0.000000
  0
VERTEX
  8
MERGEDLAYER-1
 10
1.494989
 20
2.123334
 30
0.000000
  0
VERTEX
  8
MERGEDLAYER-1
 10
1.494978
 20
2.129213
 30
0.000000
  0
VERTEX
  8
MERGEDLAYER-1
 10
1.506914
 20
2.129213
 30
0.000000
  0
VERTEX
  8
MERGEDLAYER-1
 10
1.506930
 20
2.123334
 30
0.000000
  0
VERTEX
  8
MERGEDLAYER-1
 10
1.507045
 20
2.122458
 30
0.000000
  0
VERTEX
  8
MERGEDLAYER-1
 10
1.507307
 20
2.122064
 30
0.000000
  0
VERTEX
  8
MERGEDLAYER-1
 10
1.507585
 20
2.121752
 30
0.000000
  0
VERTEX
  8
MERGEDLAYER-1
 10
1.507963
 20
2.121409
 30
0.000000
  0
VERTEX
  8
MERGEDLAYER-1
 10
1.508422
 20
2.121146
 30
0.000000
  0
VERTEX
  8
MERGEDLAYER-1
 10
1.509169
 20
2.121096
 30
0.000000
  0
VERTEX
  8
MERGEDLAYER-1
 10
1.617881
 20
2.121096
 30
0.000000
  0
VERTEX
  8
MERGEDLAYER-1
 10
1.618665
 20
2.121212
 30
0.000000
  0
VERTEX
  8
MERGEDLAYER-1
 10
1.619190
 20
2.121474
 30
0.000000
  0
VERTEX
  8
MERGEDLAYER-1
 10
1.619464
 20
2.121752
 30
0.000000
  0
VERTEX
  8
MERGEDLAYER-1
 10
1.619846
 20
2.122130
 30
0.000000
  0
VERTEX
  8
MERGEDLAYER-1
 10
1.619977
 20
2.122524
 30
0.000000
  0
VERTEX
  8
MERGEDLAYER-1
 10
1.620108
 20
2.122917
 30
0.000000
  0
VERTEX
  8
MERGEDLAYER-1
 10
1.620120
 20
2.123334
 30
0.000000
  0
VERTEX
  8
MERGEDLAYER-1
 10
1.620120
 20
2.136738
 30
0.000000
  0
VERTEX
  8
MERGEDLAYER-1
 10
1.620174
 20
2.137804
 30
0.000000
  0
VERTEX
  8
MERGEDLAYER-1
 10
1.620305
 20
2.138329
 30
0.000000
  0
VERTEX
  8
MERGEDLAYER-1
 10
1.620502
 20
2.139182
 30
0.000000
  0
VERTEX
  8
MERGEDLAYER-1
 10
1.620764
 20
2.139968
 30
0.000000
  0
VERTEX
  8
MERGEDLAYER-1
 10
1.621026
 20
2.140493
 30
0.000000
  0
VERTEX
  8
MERGEDLAYER-1
 10
1.621420
 20
2.141215
 30
0.000000
  0
VERTEX
  8
MERGEDLAYER-1
 10
1.621813
 20
2.141739
 30
0.000000
  0
VERTEX
  8
MERGEDLAYER-1
 10
1.622207
 20
2.142264
 30
0.000000
  0
VERTEX
  8
MERGEDLAYER-1
 10
1.622524
 20
2.142543
 30
0.000000
  0
VERTEX
  8
MERGEDLAYER-1
 10
1.623059
 20
2.143051
 30
0.000000
  0
VERTEX
  8
MERGEDLAYER-1
 10
1.623715
 20
2.143575
 30
0.000000
  0
VERTEX
  8
MERGEDLAYER-1
 10
1.624371
 20
2.143969
 30
0.000000
  0
VERTEX
  8
MERGEDLAYER-1
 10
1.625224
 20
2.144362
 30
0.000000
  0
VERTEX
  8
MERGEDLAYER-1
 10
1.626076
 20
2.144625
 30
0.000000
  0
VERTEX
  8
MERGEDLAYER-1
 10
1.626863
 20
2.144821
 30
0.000000
  0
VERTEX
  8
MERGEDLAYER-1
 10
1.627388
 20
2.144952
 30
0.000000
  0
VERTEX
  8
MERGEDLAYER-1
 10
1.628329
 20
2.144948
 30
0.000000
  0
VERTEX
  8
MERGEDLAYER-1
 10
1.637835
 20
2.144948
 30
0.000000
  0
VERTEX
  8
MERGEDLAYER-1
 10
1.638537
 20
2.144756
 30
0.000000
  0
VERTEX
  8
MERGEDLAYER-1
 10
1.639061
 20
2.144493
 30
0.000000
  0
VERTEX
  8
MERGEDLAYER-1
 10
1.639418
 20
2.144269
 30
0.000000
  0
VERTEX
  8
MERGEDLAYER-1
 10
1.639717
 20
2.143837
 30
0.000000
  0
VERTEX
  8
MERGEDLAYER-1
 10
1.639848
 20
2.143575
 30
0.000000
  0
VERTEX
  8
MERGEDLAYER-1
 10
1.640045
 20
2.143116
 30
0.000000
  0
VERTEX
  8
MERGEDLAYER-1
 10
1.640073
 20
2.142686
 30
0.000000
  0
VERTEX
  8
MERGEDLAYER-1
 10
1.640073
 20
2.141288
 30
0.000000
  0
VERTEX
  8
MERGEDLAYER-1
 10
1.639980
 20
2.140624
 30
0.000000
  0
VERTEX
  8
MERGEDLAYER-1
 10
1.639651
 20
2.140034
 30
0.000000
  0
VERTEX
  8
MERGEDLAYER-1
 10
1.639418
 20
2.139705
 30
0.000000
  0
VERTEX
  8
MERGEDLAYER-1
 10
1.639061
 20
2.139444
 30
0.000000
  0
VERTEX
  8
MERGEDLAYER-1
 10
1.638733
 20
2.139247
 30
0.000000
  0
VERTEX
  8
MERGEDLAYER-1
 10
1.638340
 20
2.139116
 30
0.000000
  0
VERTEX
  8
MERGEDLAYER-1
 10
1.637835
 20
2.139049
 30
0.000000
  0
VERTEX
  8
MERGEDLAYER-1
 10
1.630583
 20
2.139049
 30
0.000000
  0
VERTEX
  8
MERGEDLAYER-1
 10
1.629880
 20
2.138919
 30
0.000000
  0
VERTEX
  8
MERGEDLAYER-1
 10
1.629355
 20
2.138657
 30
0.000000
  0
VERTEX
  8
MERGEDLAYER-1
 10
1.629000
 20
2.138394
 30
0.000000
  0
VERTEX
  8
MERGEDLAYER-1
 10
1.628634
 20
2.137935
 30
0.000000
  0
VERTEX
  8
MERGEDLAYER-1
 10
1.628437
 20
2.137410
 30
0.000000
  0
VERTEX
  8
MERGEDLAYER-1
 10
1.628329
 20
2.136738
 30
0.000000
  0
VERTEX
  8
MERGEDLAYER-1
 10
1.628345
 20
2.128369
 30
0.000000
  0
VERTEX
  8
MERGEDLAYER-1
 10
1.628503
 20
2.127573
 30
0.000000
  0
VERTEX
  8
MERGEDLAYER-1
 10
1.628700
 20
2.127114
 30
0.000000
  0
VERTEX
  8
MERGEDLAYER-1
 10
1.629000
 20
2.126786
 30
0.000000
  0
VERTEX
  8
MERGEDLAYER-1
 10
1.629486
 20
2.126393
 30
0.000000
  0
VERTEX
  8
MERGEDLAYER-1
 10
1.629945
 20
2.126196
 30
0.000000
  0
VERTEX
  8
MERGEDLAYER-1
 10
1.630583
 20
2.126130
 30
0.000000
  0
VERTEX
  8
MERGEDLAYER-1
 10
1.637849
 20
2.126130
 30
0.000000
  0
VERTEX
  8
MERGEDLAYER-1
 10
1.638537
 20
2.125999
 30
0.000000
  0
VERTEX
  8
MERGEDLAYER-1
 10
1.639127
 20
2.125737
 30
0.000000
  0
VERTEX
  8
MERGEDLAYER-1
 10
1.639432
 20
2.125475
 30
0.000000
  0
VERTEX
  8
MERGEDLAYER-1
 10
1.639783
 20
2.125081
 30
0.000000
  0
VERTEX
  8
MERGEDLAYER-1
 10
1.639980
 20
2.124557
 30
0.000000
  0
VERTEX
  8
MERGEDLAYER-1
 10
1.640088
 20
2.123892
 30
0.000000
  0
VERTEX
  8
MERGEDLAYER-1
 10
1.640088
 20
2.118071
 30
0.000000
  0
VERTEX
  8
MERGEDLAYER-1
 10
1.640242
 20
2.117474
 30
0.000000
  0
VERTEX
  8
MERGEDLAYER-1
 10
1.640307
 20
2.117146
 30
0.000000
  0
VERTEX
  8
MERGEDLAYER-1
 10
1.640504
 20
2.116752
 30
0.000000
  0
VERTEX
  8
MERGEDLAYER-1
 10
1.640743
 20
2.116488
 30
0.000000
  0
VERTEX
  8
MERGEDLAYER-1
 10
1.641160
 20
2.116162
 30
0.000000
  0
VERTEX
  8
MERGEDLAYER-1
 10
1.641750
 20
2.115900
 30
0.000000
  0
VERTEX
  8
MERGEDLAYER-1
 10
1.642326
 20
2.115833
 30
0.000000
  0
VERTEX
  8
MERGEDLAYER-1
 10
1.670144
 20
2.115833
 30
0.000000
  0
VERTEX
  8
MERGEDLAYER-1
 10
1.670737
 20
2.115966
 30
0.000000
  0
VERTEX
  8
MERGEDLAYER-1
 10
1.671458
 20
2.116227
 30
0.000000
  0
VERTEX
  8
MERGEDLAYER-1
 10
1.671728
 20
2.116488
 30
0.000000
  0
VERTEX
  8
MERGEDLAYER-1
 10
1.672048
 20
2.116884
 30
0.000000
  0
VERTEX
  8
MERGEDLAYER-1
 10
1.672245
 20
2.117211
 30
0.000000
  0
VERTEX
  8
MERGEDLAYER-1
 10
1.672376
 20
2.117671
 30
0.000000
  0
VERTEX
  8
MERGEDLAYER-1
 10
1.672383
 20
2.118071
 30
0.000000
  0
VERTEX
  8
MERGEDLAYER-1
 10
1.672383
 20
2.123892
 30
0.000000
  0
VERTEX
  8
MERGEDLAYER-1
 10
1.672442
 20
2.124491
 30
0.000000
  0
VERTEX
  8
MERGEDLAYER-1
 10
1.672638
 20
2.125016
 30
0.000000
  0
VERTEX
  8
MERGEDLAYER-1
 10
1.673039
 20
2.125475
 30
0.000000
  0
VERTEX
  8
MERGEDLAYER-1
 10
1.673426
 20
2.125803
 30
0.000000
  0
VERTEX
  8
MERGEDLAYER-1
 10
1.673858
 20
2.126125
 30
0.000000
  0
VERTEX
  8
MERGEDLAYER-1
 10
1.674622
 20
2.126130
 30
0.000000
  0
VERTEX
  8
MERGEDLAYER-1
 10
1.681881
 20
2.126130
 30
0.000000
  0
VERTEX
  8
MERGEDLAYER-1
 10
1.682607
 20
2.126262
 30
0.000000
  0
VERTEX
  8
MERGEDLAYER-1
 10
1.683197
 20
2.126524
 30
0.000000
  0
VERTEX
  8
MERGEDLAYER-1
 10
1.683494
 20
2.126786
 30
0.000000
  0
VERTEX
  8
MERGEDLAYER-1
 10
1.683853
 20
2.127180
 30
0.000000
  0
VERTEX
  8
MERGEDLAYER-1
 10
1.684050
 20
2.127573
 30
0.000000
  0
VERTEX
  8
MERGEDLAYER-1
 10
1.684150
 20
2.128369
 30
0.000000
  0
VERTEX
  8
MERGEDLAYER-1
 10
1.684150
 20
2.136810
 30
0.000000
  0
VERTEX
  8
MERGEDLAYER-1
 10
1.684050
 20
2.137345
 30
0.000000
  0
VERTEX
  8
MERGEDLAYER-1
 10
1.683853
 20
2.137935
 30
0.000000
  0
VERTEX
  8
MERGEDLAYER-1
 10
1.683494
 20
2.138394
 30
0.000000
  0
VERTEX
  8
MERGEDLAYER-1
 10
1.683001
 20
2.138788
 30
0.000000
  0
VERTEX
  8
MERGEDLAYER-1
 10
1.682673
 20
2.138919
 30
0.000000
  0
VERTEX
  8
MERGEDLAYER-1
 10
1.681911
 20
2.139049
 30
0.000000
  0
SEQEND
  8
MERGEDLAYER-1
  0
POLYLINE
  8
MERGEDLAYER-1
 66
  1
 70
  1
 62
  7
 10
1.506914
 20
2.272640
 30
0.000000
  0
VERTEX
  8
MERGEDLAYER-1
 10
1.506914
 20
2.272640
 30
0.000000
  0
VERTEX
  8
MERGEDLAYER-1
 10
1.494978
 20
2.272640
 30
0.000000
  0
VERTEX
  8
MERGEDLAYER-1
 10
1.494989
 20
2.245712
 30
0.000000
  0
VERTEX
  8
MERGEDLAYER-1
 10
1.494846
 20
2.244899
 30
0.000000
  0
VERTEX
  8
MERGEDLAYER-1
 10
1.494649
 20
2.244440
 30
0.000000
  0
VERTEX
  8
MERGEDLAYER-1
 10
1.494333
 20
2.244128
 30
0.000000
  0
VERTEX
  8
MERGEDLAYER-1
 10
1.493863
 20
2.243784
 30
0.000000
  0
VERTEX
  8
MERGEDLAYER-1
 10
1.493338
 20
2.243588
 30
0.000000
  0
VERTEX
  8
MERGEDLAYER-1
 10
1.492750
 20
2.243473
 30
0.000000
  0
VERTEX
  8
MERGEDLAYER-1
 10
1.490511
 20
2.243473
 30
0.000000
  0
VERTEX
  8
MERGEDLAYER-1
 10
1.489796
 20
2.243325
 30
0.000000
  0
VERTEX
  8
MERGEDLAYER-1
 10
1.489272
 20
2.243063
 30
0.000000
  0
VERTEX
  8
MERGEDLAYER-1
 10
1.488928
 20
2.242817
 30
0.000000
  0
VERTEX
  8
MERGEDLAYER-1
 10
1.488616
 20
2.242407
 30
0.000000
  0
VERTEX
  8
MERGEDLAYER-1
 10
1.488354
 20
2.241817
 30
0.000000
  0
VERTEX
  8
MERGEDLAYER-1
 10
1.488273
 20
2.241234
 30
0.000000
  0
VERTEX
  8
MERGEDLAYER-1
 10
1.488273
 20
2.160624
 30
0.000000
  0
VERTEX
  8
MERGEDLAYER-1
 10
1.488354
 20
2.159971
 30
0.000000
  0
VERTEX
  8
MERGEDLAYER-1
 10
1.488551
 20
2.159512
 30
0.000000
  0
VERTEX
  8
MERGEDLAYER-1
 10
1.488928
 20
2.159041
 30
0.000000
  0
VERTEX
  8
MERGEDLAYER-1
 10
1.489403
 20
2.158725
 30
0.000000
  0
VERTEX
  8
MERGEDLAYER-1
 10
1.489928
 20
2.158463
 30
0.000000
  0
VERTEX
  8
MERGEDLAYER-1
 10
1.490511
 20
2.158386
 30
0.000000
  0
VERTEX
  8
MERGEDLAYER-1
 10
1.492750
 20
2.158386
 30
0.000000
  0
VERTEX
  8
MERGEDLAYER-1
 10
1.493469
 20
2.158331
 30
0.000000
  0
VERTEX
  8
MERGEDLAYER-1
 10
1.493928
 20
2.158004
 30
0.000000
  0
VERTEX
  8
MERGEDLAYER-1
 10
1.494333
 20
2.157729
 30
0.000000
  0
VERTEX
  8
MERGEDLAYER-1
 10
1.494649
 20
2.157282
 30
0.000000
  0
VERTEX
  8
MERGEDLAYER-1
 10
1.494912
 20
2.156823
 30
0.000000
  0
VERTEX
  8
MERGEDLAYER-1
 10
1.494989
 20
2.156146
 30
0.000000
  0
VERTEX
  8
MERGEDLAYER-1
 10
1.494978
 20
2.129213
 30
0.000000
  0
VERTEX
  8
MERGEDLAYER-1
 10
1.506914
 20
2.129213
 30
0.000000
  0
VERTEX
  8
MERGEDLAYER-1
 10
1.506930
 20
2.196182
 30
0.000000
  0
VERTEX
  8
MERGEDLAYER-1
 10
1.502171
 20
2.200941
 30
0.000000
  0
VERTEX
  8
MERGEDLAYER-1
 10
1.506930
 20
2.205699
 30
0.000000
  0
SEQEND
  8
MERGEDLAYER-1
  0
POLYLINE
  8
MERGEDLAYER-1
 66
  1
 70
  1
 62
  7
 10
1.405786
 20
2.281559
 30
0.000000
  0
VERTEX
  8
MERGEDLAYER-1
 10
1.405786
 20
2.281559
 30
0.000000
  0
VERTEX
  8
MERGEDLAYER-1
 10
1.393850
 20
2.281559
 30
0.000000
  0
VERTEX
  8
MERGEDLAYER-1
 10
1.393850
 20
2.120294
 30
0.000000
  0
VERTEX
  8
MERGEDLAYER-1
 10
1.405786
 20
2.120294
 30
0.000000
  0
SEQEND
  8
MERGEDLAYER-1
  0
ARC
  8
MERGEDLAYER-1
 62
  7
 10
1.655758
 20
2.285801
 30
0.000000
 40
0.040498
 50
225.529343
 51
314.526917
  0
ARC
  8
MERGEDLAYER-1
 62
  7
 10
1.655567
 20
2.113166
 30
0.000000
 40
0.042732
 50
48.005707
 51
132.200989
  0
POLYLINE
  8
MERGEDLAYER-1
  6
LTYPE06
 66
  1
 70
  0
 62
  7
 40
0.020000
 41
0.020000
  6
LTYPE06
 10
1.580408
 20
2.201774
 30
0.000000
  0
VERTEX
  8
MERGEDLAYER-1
  6
LTYPE06
 10
1.580408
 20
2.201774
 30
0.000000
  0
VERTEX
  8
MERGEDLAYER-1
  6
LTYPE06
 10
6.029254
 20
2.201774
 30
0.000000
  0
SEQEND
  8
MERGEDLAYER-1
  0
POLYLINE
  8
MERGEDLAYER-1
 66
  1
 70
  1
 62
  7
  0
VERTEX
  8
MERGEDLAYER-1
 10
3.504484
 20
2.226080
 30
0.000000
  0
VERTEX
  8
MERGEDLAYER-1
 10
3.639901
 20
2.226080
 30
0.000000
  0
VERTEX
  8
MERGEDLAYER-1
 10
3.639901
 20
2.180941
 30
0.000000
  0
VERTEX
  8
MERGEDLAYER-1
 10
3.504484
 20
2.180941
 30
0.000000
  0
SEQEND
  8
MERGEDLAYER-1
  0
TEXT
  8
MERGEDLAYER-1
 62
  7
 10
3.513150
 20
2.194576
 30
0.000000
 40
0.097500
  1
C
 72
  5
 11
3.693150
 21
2.194576
 31
0.000000
  0
TEXT
  8
MERGEDLAYER-1
 62
  7
 10
3.543150
 20
2.154576
 30
0.000000
 40
0.097500
  1
L
 72
  5
 11
3.693150
 21
2.154576
 31
0.000000
  0
POLYLINE
  8
MERGEDLAYER-1
 66
  1
 70
  0
 62
  7
 10
1.483857
 20
2.301407
 30
0.000000
  0
VERTEX
  8
MERGEDLAYER-1
 10
1.483857
 20
2.301407
 30
0.000000
  0
VERTEX
  8
MERGEDLAYER-1
 10
1.944736
 20
2.727283
 30
0.000000
  0
SEQEND
  8
MERGEDLAYER-1
  0
POLYLINE
  8
MERGEDLAYER-1
 66
  1
 70
  1
 62
  7
  0
VERTEX
  8
MERGEDLAYER-1
 10
1.469399
 20
2.288047
 30
0.000000
  0
VERTEX
  8
MERGEDLAYER-1
 10
1.526482
 20
2.299948
 30
0.000000
  0
VERTEX
  8
MERGEDLAYER-1
 10
1.506122
 20
2.321981
 30
0.000000
  0
VERTEX
  8
MERGEDLAYER-1
 10
1.485761
 20
2.344014
 30
0.000000
  0
VERTEX
  8
MERGEDLAYER-1
 10
1.469399
 20
2.288047
 30
0.000000
  0
SEQEND
  8
MERGEDLAYER-1
  0
POLYLINE
  8
MERGEDLAYER-1
  6
LTYPE04
 66
  1
 70
  0
 62
  7
  6
LTYPE04
 10
6.750649
 20
6.913048
 30
0.000000
  0
VERTEX
  8
MERGEDLAYER-1
  6
LTYPE04
 10
6.750649
 20
6.913048
 30
0.000000
  0
VERTEX
  8
MERGEDLAYER-1
  6
LTYPE04
 10
6.148354
 20
6.310109
 30
0.000000
  0
SEQEND
  8
MERGEDLAYER-1
  0
POLYLINE
  8
MERGEDLAYER-1
 66
  1
 70
  1
 62
  7
  0
VERTEX
  8
MERGEDLAYER-1
 10
5.954720
 20
6.965029
 30
0.000000
  0
VERTEX
  8
MERGEDLAYER-1
 10
6.452752
 20
6.965029
 30
0.000000
  0
VERTEX
  8
MERGEDLAYER-1
 10
6.452752
 20
6.395850
 30
0.000000
  0
VERTEX
  8
MERGEDLAYER-1
 10
5.954720
 20
6.395850
 30
0.000000
  0
SEQEND
  8
MERGEDLAYER-1
  0
CIRCLE
  8
MERGEDLAYER-1
 62
  7
 10
6.008081
 20
6.911669
 30
0.000000
 40
0.010005
  0
CIRCLE
  8
MERGEDLAYER-1
 62
  7
 10
5.990295
 20
6.680439
 30
0.000000
 40
0.007115
  0
CIRCLE
  8
MERGEDLAYER-1
 62
  7
 10
5.990295
 20
6.431423
 30
0.000000
 40
0.007115
  0
CIRCLE
  8
MERGEDLAYER-1
 62
  7
 10
6.201082
 20
6.702964
 30
0.000000
 40
0.115575
  0
POLYLINE
  8
MERGEDLAYER-1
 66
  1
 70
  0
 62
  7
 10
6.231897
 20
6.702964
 30
0.000000
  0
VERTEX
  8
MERGEDLAYER-1
 10
6.231897
 20
6.702964
 30
0.000000
  0
VERTEX
  8
MERGEDLAYER-1
 10
6.170266
 20
6.702964
 30
0.000000
  0
SEQEND
  8
MERGEDLAYER-1
  0
POLYLINE
  8
MERGEDLAYER-1
 66
  1
 70
  0
 62
  7
 10
6.201082
 20
6.733782
 30
0.000000
  0
VERTEX
  8
MERGEDLAYER-1
 10
6.201082
 20
6.733782
 30
0.000000
  0
VERTEX
  8
MERGEDLAYER-1
 10
6.201082
 20
6.672145
 30
0.000000
  0
SEQEND
  8
MERGEDLAYER-1
  0
POLYLINE
  8
MERGEDLAYER-1
  6
LTYPE02
 66
  1
 70
  0
 62
  7
  6
LTYPE02
 10
6.285650
 20
6.787533
 30
0.000000
  0
VERTEX
  8
MERGEDLAYER-1
  6
LTYPE02
 10
6.285650
 20
6.787533
 30
0.000000
  0
VERTEX
  8
MERGEDLAYER-1
  6
LTYPE02
 10
6.244881
 20
6.815427
 30
0.000000
  0
VERTEX
  8
MERGEDLAYER-1
  6
LTYPE02
 10
6.199113
 20
6.824531
 30
0.000000
  0
VERTEX
  8
MERGEDLAYER-1
  6
LTYPE02
 10
6.153345
 20
6.815427
 30
0.000000
  0
VERTEX
  8
MERGEDLAYER-1
  6
LTYPE02
 10
6.114544
 20
6.789501
 30
0.000000
  0
VERTEX
  8
MERGEDLAYER-1
  6
LTYPE02
 10
6.088619
 20
6.750701
 30
0.000000
  0
VERTEX
  8
MERGEDLAYER-1
  6
LTYPE02
 10
6.085086
 20
6.732100
 30
0.000000
  0
SEQEND
  8
MERGEDLAYER-1
  0
POLYLINE
  8
MERGEDLAYER-1
  6
LTYPE02
 66
  1
 70
  0
 62
  7
  6
LTYPE02
 10
6.085086
 20
6.732100
 30
0.000000
  0
VERTEX
  8
MERGEDLAYER-1
  6
LTYPE02
 10
6.085086
 20
6.732100
 30
0.000000
  0
VERTEX
  8
MERGEDLAYER-1
  6
LTYPE02
 10
6.049678
 20
6.608532
 30
0.000000
  0
VERTEX
  8
MERGEDLAYER-1
  6
LTYPE02
 10
6.028703
 20
6.480323
 30
0.000000
  0
VERTEX
  8
MERGEDLAYER-1
  6
LTYPE02
 10
6.023864
 20
6.394979
 30
0.000000
  0
SEQEND
  8
MERGEDLAYER-1
  0
TEXT
  8
MERGEDLAYER-1
 62
  7
 10
6.823150
 20
6.584576
 30
0.000000
 40
0.090000
  1
MIN
 50
90.000000
 72
  5
 11
6.823150
 21
6.904576
 31
0.000000
  0
TEXT
  8
MERGEDLAYER-1
 62
  7
 10
7.003150
 20
6.364576
 30
0.000000
 40
0.090000
  1
76mm
 50
90.000000
 72
  5
 11
7.003150
 21
6.854576
 31
0.000000
  0
POLYLINE
  8
MERGEDLAYER-1
 66
  1
 70
  0
 62
  7
 10
5.768010
 20
6.628326
 30
0.000000
  0
VERTEX
  8
MERGEDLAYER-1
 10
5.768010
 20
6.628326
 30
0.000000
  0
VERTEX
  8
MERGEDLAYER-1
 10
5.938149
 20
6.798465
 30
0.000000
  0
SEQEND
  8
MERGEDLAYER-1
  0
POLYLINE
  8
MERGEDLAYER-1
 66
  1
 70
  0
 62
  7
 10
6.332246
 20
7.196035
 30
0.000000
  0
VERTEX
  8
MERGEDLAYER-1
 10
6.332246
 20
7.196035
 30
0.000000
  0
VERTEX
  8
MERGEDLAYER-1
 10
6.472871
 20
7.336659
 30
0.000000
  0
SEQEND
  8
MERGEDLAYER-1
  0
TEXT
  8
MERGEDLAYER-1
 62
  7
 10
6.063150
 20
7.174576
 30
0.000000
 40
0.090000
  1
"X"
 72
  5
 11
6.343150
 21
7.174576
 31
0.000000
  0
TEXT
  8
MERGEDLAYER-1
 62
  7
 10
6.073150
 20
5.984576
 30
0.000000
 40
0.090000
  1
152mm
 72
  5
 11
6.653150
 21
5.984576
 31
0.000000
  0
TEXT
  8
MERGEDLAYER-1
 62
  7
 10
6.133150
 20
6.124576
 30
0.000000
 40
0.090000
  1
6" MIN
 72
  5
 11
6.643150
 21
6.124576
 31
0.000000
  0
LINE
  8
MERGEDLAYER-1
 62
  7
 10
6.842130
 20
6.395850
 30
0.000000
 11
6.842130
 21
6.284576
 31
0.000000
  0
LINE
  8
MERGEDLAYER-1
 62
  7
 10
6.515252
 20
6.395850
 30
0.000000
 11
6.967130
 21
6.395850
 31
0.000000
  0
LINE
  8
MERGEDLAYER-1
 62
  7
 10
6.990372
 20
6.284576
 30
0.000000
 11
6.717130
 21
6.284576
 31
0.000000
  0
LINE
  8
MERGEDLAYER-1
 62
  7
 10
6.842130
 20
6.602548
 30
0.000000
 11
6.842130
 21
6.395850
 31
0.000000
  0
LINE
  8
MERGEDLAYER-1
 62
  7
 10
6.863344
 20
6.374636
 30
0.000000
 11
6.820917
 21
6.417063
 31
0.000000
  0
LINE
  8
MERGEDLAYER-1
 62
  7
 10
6.863344
 20
6.263363
 30
0.000000
 11
6.820917
 21
6.305789
 31
0.000000
  0
TEXT
  8
MERGEDLAYER-1
 62
  7
 10
6.756579
 20
6.464690
 30
0.000000
 40
0.067500
  1
5"
 50
90.000000
  0
LINE
  8
MERGEDLAYER-1
 62
  7
 10
5.972187
 20
7.158055
 30
0.000000
 11
6.433067
 21
7.158055
 31
0.000000
  0
LINE
  8
MERGEDLAYER-1
 62
  7
 10
5.952502
 20
7.026885
 30
0.000000
 11
5.952502
 21
7.283055
 31
0.000000
  0
LINE
  8
MERGEDLAYER-1
 62
  7
 10
6.452752
 20
7.027529
 30
0.000000
 11
6.452752
 21
7.283055
 31
0.000000
  0
POLYLINE
  8
MERGEDLAYER-1
 66
  1
 70
  1
 62
  7
  0
VERTEX
  8
MERGEDLAYER-1
 10
5.952502
 20
7.158055
 30
0.000000
  0
VERTEX
  8
MERGEDLAYER-1
 10
6.002502
 20
7.128055
 30
0.000000
  0
VERTEX
  8
MERGEDLAYER-1
 10
6.002502
 20
7.158055
 30
0.000000
  0
VERTEX
  8
MERGEDLAYER-1
 10
6.002502
 20
7.188055
 30
0.000000
  0
VERTEX
  8
MERGEDLAYER-1
 10
5.952502
 20
7.158055
 30
0.000000
  0
SEQEND
  8
MERGEDLAYER-1
  0
POLYLINE
  8
MERGEDLAYER-1
 66
  1
 70
  1
 62
  7
  0
VERTEX
  8
MERGEDLAYER-1
 10
6.452752
 20
7.158055
 30
0.000000
  0
VERTEX
  8
MERGEDLAYER-1
 10
6.402752
 20
7.128055
 30
0.000000
  0
VERTEX
  8
MERGEDLAYER-1
 10
6.402752
 20
7.158055
 30
0.000000
  0
VERTEX
  8
MERGEDLAYER-1
 10
6.402752
 20
7.188055
 30
0.000000
  0
VERTEX
  8
MERGEDLAYER-1
 10
6.452752
 20
7.158055
 30
0.000000
  0
SEQEND
  8
MERGEDLAYER-1
  0
TEXT
  8
MERGEDLAYER-1
 62
  7
 10
6.206850
 20
7.241269
 30
0.000000
 40
0.067500
  1
 
  0
POLYLINE
  8
MERGEDLAYER-1
 66
  1
 70
  0
 62
  7
 10
5.925129
 20
6.125721
 30
0.000000
  0
VERTEX
  8
MERGEDLAYER-1
 10
5.925129
 20
6.125721
 30
0.000000
  0
VERTEX
  8
MERGEDLAYER-1
 10
6.139538
 20
6.125721
 30
0.000000
  0
SEQEND
  8
MERGEDLAYER-1
  0
LINE
  8
MERGEDLAYER-1
 62
  7
 10
5.946342
 20
6.146935
 30
0.000000
 11
5.903915
 21
6.104509
 31
0.000000
  0
LINE
  8
MERGEDLAYER-1
 62
  7
 10
6.160751
 20
6.146935
 30
0.000000
 11
6.118325
 21
6.104509
 31
0.000000
  0
POLYLINE
  8
MERGEDLAYER-1
 66
  1
 70
  0
 62
  7
 10
6.139538
 20
6.258534
 30
0.000000
  0
VERTEX
  8
MERGEDLAYER-1
 10
6.139538
 20
6.258534
 30
0.000000
  0
VERTEX
  8
MERGEDLAYER-1
 10
6.139538
 20
6.018083
 30
0.000000
  0
SEQEND
  8
MERGEDLAYER-1
  0
POLYLINE
  8
MERGEDLAYER-1
 66
  1
 70
  0
 62
  7
 10
5.925129
 20
6.258534
 30
0.000000
  0
VERTEX
  8
MERGEDLAYER-1
 10
5.925129
 20
6.258534
 30
0.000000
  0
VERTEX
  8
MERGEDLAYER-1
 10
5.925129
 20
6.018083
 30
0.000000
  0
SEQEND
  8
MERGEDLAYER-1
  0
POLYLINE
  8
MERGEDLAYER-1
 66
  1
 70
  0
 62
  7
 10
6.139538
 20
6.125721
 30
0.000000
  0
VERTEX
  8
MERGEDLAYER-1
 10
6.139538
 20
6.125721
 30
0.000000
  0
VERTEX
  8
MERGEDLAYER-1
 10
6.568878
 20
6.125721
 30
0.000000
  0
SEQEND
  8
MERGEDLAYER-1
  0
POLYLINE
  8
MERGEDLAYER-1
 66
  1
 70
  1
 62
  7
  0
VERTEX
  8
MERGEDLAYER-1
 10
6.038411
 20
6.372422
 30
0.000000
  0
VERTEX
  8
MERGEDLAYER-1
 10
6.053809
 20
6.372422
 30
0.000000
  0
VERTEX
  8
MERGEDLAYER-1
 10
6.053809
 20
6.334988
 30
0.000000
  0
VERTEX
  8
MERGEDLAYER-1
 10
6.038411
 20
6.334988
 30
0.000000
  0
SEQEND
  8
MERGEDLAYER-1
  0
TEXT
  8
MERGEDLAYER-1
 62
  7
 10
3.773150
 20
6.584576
 30
0.000000
 40
0.067500
  1
ARRæT
 72
  5
 11
4.223150
 21
6.584576
 31
0.000000
  0
TEXT
  8
MERGEDLAYER-1
 62
  7
 10
3.773150
 20
6.444576
 30
0.000000
 40
0.067500
  1
DU HAUT
 72
  5
 11
4.353150
 21
6.444576
 31
0.000000
  0
POLYLINE
  8
MERGEDLAYER-1
 66
  1
 70
  0
 62
  7
 10
3.769066
 20
6.567330
 30
0.000000
  0
VERTEX
  8
MERGEDLAYER-1
 10
3.769066
 20
6.567330
 30
0.000000
  0
VERTEX
  8
MERGEDLAYER-1
 10
3.549572
 20
6.385150
 30
0.000000
  0
SEQEND
  8
MERGEDLAYER-1
  0
POLYLINE
  8
MERGEDLAYER-1
 66
  1
 70
  1
 62
  7
  0
VERTEX
  8
MERGEDLAYER-1
 10
3.534425
 20
6.372578
 30
0.000000
  0
VERTEX
  8
MERGEDLAYER-1
 10
3.553739
 20
6.427596
 30
0.000000
  0
VERTEX
  8
MERGEDLAYER-1
 10
3.572899
 20
6.404512
 30
0.000000
  0
VERTEX
  8
MERGEDLAYER-1
 10
3.592059
 20
6.381427
 30
0.000000
  0
VERTEX
  8
MERGEDLAYER-1
 10
3.534425
 20
6.372578
 30
0.000000
  0
SEQEND
  8
MERGEDLAYER-1
  0
TEXT
  8
MERGEDLAYER-1
 62
  7
 10
8.363150
 20
1.814576
 30
0.000000
 40
0.120000
  1
AnodisŽ Naturel
 72
  5
 11
9.963150
 21
1.814576
 31
0.000000
  0
ARC
  8
MERGEDLAYER-1
 62
  7
 10
6.072006
 20
6.377304
 30
0.000000
 40
0.018840
 50
99.153259
 51
195.016785
  0
TEXT
  8
MERGEDLAYER-1
 62
  7
 10
8.033150
 20
7.574576
 30
0.000000
 40
0.097500
  1
MANIVELLE
 72
  5
 11
9.093150
 21
7.574576
 31
0.000000
  0
TEXT
  8
MERGEDLAYER-1
 62
  7
 10
8.113150
 20
7.244576
 30
0.000000
 40
0.097500
  1
INTERRUPTEUR Ë CLƒ
 72
  5
 11
10.143150
 21
7.244576
 31
0.000000
  0
TEXT
  8
MERGEDLAYER-1
 62
  7
 10
9.883150
 20
7.244576
 30
0.000000
 40
0.097500
  1
BOUTONS
 72
  5
 11
10.823150
 21
7.244576
 31
0.000000
  0
TEXT
  8
MERGEDLAYER-1
 62
  7
 10
9.763150
 20
6.764576
 30
0.000000
 40
0.097500
  1
AU-DESSUS
 72
  5
 11
10.863150
 21
6.764576
 31
0.000000
  0
TEXT
  8
MERGEDLAYER-1
 62
  7
 10
7.983150
 20
6.454576
 30
0.000000
 40
0.097500
  1
MURAL
 72
  5
 11
8.663150
 21
6.454576
 31
0.000000
  0
TEXT
  8
MERGEDLAYER-1
 62
  7
 10
8.033150
 20
5.984576
 30
0.000000
 40
0.097500
  1
DROITE
 72
  5
 11
8.763150
 21
5.984576
 31
0.000000
  0
TEXT
  8
MERGEDLAYER-1
 62
  7
 10
9.593150
 20
5.984576
 30
0.000000
 40
0.097500
  1
GAUCHE
 72
  5
 11
10.413150
 21
5.984576
 31
0.000000
  0
TEXT
  8
MERGEDLAYER-1
 62
  7
 10
8.033150
 20
5.834576
 30
0.000000
 40
0.097500
  1
EXTƒRIEURE
 72
  5
 11
9.233150
 21
5.834576
 31
0.000000
  0
TEXT
  8
MERGEDLAYER-1
 62
  7
 10
9.613150
 20
5.834576
 30
0.000000
 40
0.097500
  1
INTƒRIEURE
 72
  5
 11
10.753150
 21
5.834576
 31
0.000000
  0
TEXT
  8
MERGEDLAYER-1
 62
  7
 10
9.613150
 20
5.154576
 30
0.000000
 40
0.097500
  1
INTƒRIEURE
 72
  5
 11
10.753150
 21
5.154576
 31
0.000000
  0
TEXT
  8
MERGEDLAYER-1
 62
  7
 10
8.033150
 20
5.004576
 30
0.000000
 40
0.097500
  1
DROITE
 72
  5
 11
8.763150
 21
5.004576
 31
0.000000
  0
TEXT
  8
MERGEDLAYER-1
 62
  7
 10
9.593150
 20
5.004576
 30
0.000000
 40
0.097500
  1
GAUCHE
 72
  5
 11
10.413150
 21
5.004576
 31
0.000000
  0
TEXT
  8
MERGEDLAYER-1
 62
  7
 10
9.603150
 20
4.284576
 30
0.000000
 40
0.097500
  1
FACIA (1 CïTƒ)
 72
  5
 11
11.003150
 21
4.284576
 31
0.000000
  0
TEXT
  8
MERGEDLAYER-1
 62
  7
 10
8.683150
 20
4.474576
 30
0.000000
 40
0.097500
  1
3
 72
  5
 11
8.833150
 21
4.474576
 31
0.000000
  0
TEXT
  8
MERGEDLAYER-1
 62
  7
 10
8.923150
 20
4.474576
 30
0.000000
 40
0.097500
  1
OU
 72
  5
 11
9.243150
 21
4.474576
 31
0.000000
  0
TEXT
  8
MERGEDLAYER-1
 62
  7
 10
9.553150
 20
4.474576
 30
0.000000
 40
0.097500
  1
4  CïTƒS 
 72
  5
 11
10.473150
 21
4.474576
 31
0.000000
  0
ENDSEC
  0
EOF
