  0
SECTION
  2
HEADER
999
MacDraft 5.0\0
  9
$ACADVER
  1
AC1006
  9
$CLAYER
  8
LAYER-2
  9
$EXTMIN
 10
0.000000
 20
0.000000
  9
$EXTMAX
 10
7.976888
 20
10.170033
  9
$FASTZOOM
 70
0
  9
$FILLMODE
 70
1
  0
ENDSEC
  0
SECTION
  2
TABLES
  0
TABLE
  2
LTYPE
 70
16
  0
LTYPE
  2
CONTINUOUS
 70
64
  3
Solid Line
 72
65
 73
0
 40
0.000000
  0
LTYPE
  2
LTYPE01
 70
64
  3
CUSTOM
 72
65
 73
2
 40
0.076923
 49
0.057692
 49
-0.019231
  0
LTYPE
  2
LTYPE02
 70
64
  3
CUSTOM
 72
65
 73
2
 40
0.134615
 49
0.115385
 49
-0.019231
  0
LTYPE
  2
LTYPE03
 70
64
  3
CUSTOM
 72
65
 73
2
 40
0.259615
 49
0.230769
 49
-0.028846
  0
LTYPE
  2
LTYPE04
 70
64
  3
CUSTOM
 72
65
 73
2
 40
0.500000
 49
0.461538
 49
-0.038462
  0
LTYPE
  2
LTYPE05
 70
64
  3
CUSTOM
 72
65
 73
4
 40
0.105769
 49
0.057692
 49
-0.019231
 49
0.009615
 49
-0.019231
  0
LTYPE
  2
LTYPE06
 70
64
  3
CUSTOM
 72
65
 73
4
 40
0.163462
 49
0.115385
 49
-0.019231
 49
0.009615
 49
-0.019231
  0
LTYPE
  2
LTYPE07
 70
64
  3
CUSTOM
 72
65
 73
4
 40
0.307692
 49
0.230769
 49
-0.028846
 49
0.019231
 49
-0.028846
  0
LTYPE
  2
LTYPE08
 70
64
  3
CUSTOM
 72
65
 73
4
 40
0.557692
 49
0.461538
 49
-0.038462
 49
0.019231
 49
-0.038462
  0
LTYPE
  2
LTYPE09
 70
64
  3
CUSTOM
 72
65
 73
6
 40
0.134615
 49
0.057692
 49
-0.019231
 49
0.009615
 49
-0.019231
 49
0.009615
 49
-0.019231
  0
LTYPE
  2
LTYPE10
 70
64
  3
CUSTOM
 72
65
 73
6
 40
0.192308
 49
0.115385
 49
-0.019231
 49
0.009615
 49
-0.019231
 49
0.009615
 49
-0.019231
  0
LTYPE
  2
LTYPE11
 70
64
  3
CUSTOM
 72
65
 73
6
 40
0.346154
 49
0.230769
 49
-0.028846
 49
0.019231
 49
-0.019231
 49
0.019231
 49
-0.028846
  0
LTYPE
  2
LTYPE12
 70
64
  3
CUSTOM
 72
65
 73
6
 40
0.596154
 49
0.461538
 49
-0.038462
 49
0.019231
 49
-0.019231
 49
0.019231
 49
-0.038462
  0
LTYPE
  2
LTYPE13
 70
64
  3
CUSTOM
 72
65
 73
8
 40
0.221154
 49
0.115385
 49
-0.019231
 49
0.009615
 49
-0.019231
 49
0.009615
 49
-0.019231
 49
0.009615
 49
-0.019231
  0
LTYPE
  2
LTYPE14
 70
64
  3
CUSTOM
 72
65
 73
8
 40
0.384615
 49
0.230769
 49
-0.028846
 49
0.019231
 49
-0.019231
 49
0.019231
 49
-0.019231
 49
0.019231
 49
-0.028846
  0
LTYPE
  2
LTYPE15
 70
64
  3
CUSTOM
 72
65
 73
8
 40
0.653846
 49
0.461538
 49
-0.038462
 49
0.019231
 49
-0.028846
 49
0.019231
 49
-0.028846
 49
0.019231
 49
-0.038462
  0
ENDTAB
  0
TABLE
  2
LAYER
 70
2
  0
LAYER
  2
LAYER-2
 70
0
 62
7
  6
CONTINUOUS
  0
LAYER
  2
LAYER-1
 70
0
 62
7
  6
CONTINUOUS
  0
ENDTAB
  0
ENDSEC
  0
SECTION
  2
BLOCKS
  0
ENDSEC
  0
SECTION
  2
ENTITIES
  0
ARC
  8
LAYER-2
 62
  7
 10
44.946505
 20
72.988971
 30
0.000000
 40
1.991465
 50
270.000000
 51
90.000000
  0
POLYLINE
  8
LAYER-2
 66
  1
 70
  0
 62
  7
 10
44.946505
 20
74.980436
 30
0.000000
  0
VERTEX
  8
LAYER-2
 10
44.946505
 20
74.980436
 30
0.000000
  0
VERTEX
  8
LAYER-2
 10
16.260043
 20
74.980436
 30
0.000000
  0
SEQEND
  8
LAYER-2
  0
POLYLINE
  8
LAYER-2
 66
  1
 70
  0
 62
  7
 10
16.260043
 20
74.980436
 30
0.000000
  0
VERTEX
  8
LAYER-2
 10
16.260043
 20
74.980436
 30
0.000000
  0
VERTEX
  8
LAYER-2
 10
16.260043
 20
70.997502
 30
0.000000
  0
SEQEND
  8
LAYER-2
  0
POLYLINE
  8
LAYER-2
 66
  1
 70
  0
 62
  7
 10
44.946505
 20
70.997502
 30
0.000000
  0
VERTEX
  8
LAYER-2
 10
44.946505
 20
70.997502
 30
0.000000
  0
VERTEX
  8
LAYER-2
 10
16.260043
 20
70.997502
 30
0.000000
  0
SEQEND
  8
LAYER-2
  0
TEXT
  8
LAYER-2
 62
  7
 10
32.183216
 20
75.590201
 30
0.000000
 40
2.538462
  1
MobilFlex
 72
  5
 11
55.490908
 21
75.590201
 31
0.000000
  0
POLYLINE
  8
LAYER-2
 66
  1
 70
  1
 62
  7
  0
VERTEX
  8
LAYER-2
 10
16.271808
 20
81.351037
 30
0.000000
  0
VERTEX
  8
LAYER-2
 10
18.133512
 20
81.351037
 30
0.000000
  0
VERTEX
  8
LAYER-2
 10
18.133512
 20
77.304744
 30
0.000000
  0
VERTEX
  8
LAYER-2
 10
16.271808
 20
77.304744
 30
0.000000
  0
SEQEND
  8
LAYER-2
  0
POLYLINE
  8
LAYER-2
 66
  1
 70
  1
 62
  7
  0
VERTEX
  8
LAYER-2
 10
18.717851
 20
81.351037
 30
0.000000
  0
VERTEX
  8
LAYER-2
 10
20.579548
 20
81.351037
 30
0.000000
  0
VERTEX
  8
LAYER-2
 10
20.579548
 20
77.304744
 30
0.000000
  0
VERTEX
  8
LAYER-2
 10
18.717851
 20
77.304744
 30
0.000000
  0
SEQEND
  8
LAYER-2
  0
POLYLINE
  8
LAYER-2
 66
  1
 70
  1
 62
  7
  0
VERTEX
  8
LAYER-2
 10
21.068751
 20
81.351037
 30
0.000000
  0
VERTEX
  8
LAYER-2
 10
22.930457
 20
81.351037
 30
0.000000
  0
VERTEX
  8
LAYER-2
 10
22.930457
 20
77.304744
 30
0.000000
  0
VERTEX
  8
LAYER-2
 10
21.068751
 20
77.304744
 30
0.000000
  0
SEQEND
  8
LAYER-2
  0
POLYLINE
  8
LAYER-2
 66
  1
 70
  1
 62
  7
  0
VERTEX
  8
LAYER-2
 10
23.446836
 20
81.351037
 30
0.000000
  0
VERTEX
  8
LAYER-2
 10
25.308540
 20
81.351037
 30
0.000000
  0
VERTEX
  8
LAYER-2
 10
25.308540
 20
77.304744
 30
0.000000
  0
VERTEX
  8
LAYER-2
 10
23.446836
 20
77.304744
 30
0.000000
  0
SEQEND
  8
LAYER-2
  0
POLYLINE
  8
LAYER-2
 66
  1
 70
  1
 62
  7
  0
VERTEX
  8
LAYER-2
 10
25.926852
 20
81.320388
 30
0.000000
  0
VERTEX
  8
LAYER-2
 10
28.865490
 20
81.320388
 30
0.000000
  0
VERTEX
  8
LAYER-2
 10
28.865490
 20
80.240056
 30
0.000000
  0
VERTEX
  8
LAYER-2
 10
25.926852
 20
80.240056
 30
0.000000
  0
SEQEND
  8
LAYER-2
  0
POLYLINE
  8
LAYER-2
 66
  1
 70
  1
 62
  7
  0
VERTEX
  8
LAYER-2
 10
25.923445
 20
79.540227
 30
0.000000
  0
VERTEX
  8
LAYER-2
 10
28.335501
 20
79.540227
 30
0.000000
  0
VERTEX
  8
LAYER-2
 10
28.335501
 20
78.490474
 30
0.000000
  0
VERTEX
  8
LAYER-2
 10
25.923445
 20
78.490474
 30
0.000000
  0
SEQEND
  8
LAYER-2
  0
POLYLINE
  8
LAYER-2
 66
  1
 70
  1
 62
  7
  0
VERTEX
  8
LAYER-2
 10
16.271808
 20
76.642343
 30
0.000000
  0
VERTEX
  8
LAYER-2
 10
46.942369
 20
76.642343
 30
0.000000
  0
VERTEX
  8
LAYER-2
 10
46.942369
 20
76.302612
 30
0.000000
  0
VERTEX
  8
LAYER-2
 10
16.271808
 20
76.302612
 30
0.000000
  0
SEQEND
  8
LAYER-2
  0
TEXT
  8
LAYER-2
 62
  7
 10
19.798600
 20
70.282508
 30
0.000000
 40
1.500000
  1
Palan ê chaöne
 72
  5
 11
40.183216
 21
70.282508
 31
0.000000
  0
TEXT
  8
LAYER-2
 62
  7
 10
40.183216
 20
70.282508
 30
0.000000
 40
1.153846
  1
 (fixÄ sur arbre)
 72
  5
 11
56.413985
 21
70.282508
 31
0.000000
  0
TEXT
  8
LAYER-2
 62
  7
 10
2.106293
 20
64.590201
 30
0.000000
 40
1.326923
  1
Notes importantes:
 72
  5
 11
23.183216
 21
64.590201
 31
0.000000
  0
TEXT
  8
LAYER-2
 62
  7
 10
2.106293
 20
59.282508
 30
0.000000
 40
1.153846
  1
A. Pour la stabilisation du palan ê chaöne (point 4),
 72
  5
 11
51.490908
 21
59.282508
 31
0.000000
  0
TEXT
  8
LAYER-2
 62
  7
 10
2.106293
 20
56.744047
 30
0.000000
 40
1.153846
  1
    prÄvoir d'
 72
  5
 11
13.798600
 21
56.744047
 31
0.000000
  0
TEXT
  8
LAYER-2
 62
  7
 10
13.798600
 20
56.744047
 30
0.000000
 40
1.153846
  1
insÄrer les boulons
 72
  5
 11
34.183216
 21
56.744047
 31
0.000000
  0
TEXT
  8
LAYER-2
 62
  7
 10
34.183216
 20
56.744047
 30
0.000000
 40
1.153846
  1
 dans la plaque
 72
  5
 11
49.490908
 21
56.744047
 31
0.000000
  0
TEXT
  8
LAYER-2
 62
  7
 10
2.106293
 20
54.205585
 30
0.000000
 40
1.153846
  1
    d'extrÄmitÄ 
 72
  5
 11
16.106293
 21
54.205585
 31
0.000000
  0
TEXT
  8
LAYER-2
 62
  7
 10
16.106293
 20
54.205585
 30
0.000000
 40
1.153846
  1
avant d'insÄrer la plaque sur l'arbre.
 72
  5
 11
53.875523
 21
54.205585
 31
0.000000
  0
TEXT
  8
LAYER-2
 62
  7
 10
2.106293
 20
51.667124
 30
0.000000
 40
1.153846
  1
B. Si l'espace latÄral du cÖtÄ du palan est restreint,
 72
  5
 11
51.721677
 21
51.667124
 31
0.000000
  0
TEXT
  8
LAYER-2
 62
  7
 10
2.106293
 20
49.128662
 30
0.000000
 40
1.153846
  1
    prÄvoir l'
 72
  5
 11
13.029370
 21
49.128662
 31
0.000000
  0
TEXT
  8
LAYER-2
 62
  7
 10
13.029370
 20
49.128662
 30
0.000000
 40
1.153846
  1
installation du palan
 72
  5
 11
34.413985
 21
49.128662
 31
0.000000
  0
TEXT
  8
LAYER-2
 62
  7
 10
34.413985
 20
49.128662
 30
0.000000
 40
1.153846
  1
 ê chaöne sur l'arbre
 72
  5
 11
54.029370
 21
49.128662
 31
0.000000
  0
TEXT
  8
LAYER-2
 62
  7
 10
2.106293
 20
46.590201
 30
0.000000
 40
1.153846
  1
    
 72
  5
 11
4.952446
 21
46.590201
 31
0.000000
  0
TEXT
  8
LAYER-2
 62
  7
 10
4.952446
 20
46.590201
 30
0.000000
 40
1.153846
  1
avant de fixer les plaques avec le baril au support.
 72
  5
 11
57.567831
 21
46.590201
 31
0.000000
  0
TEXT
  8
LAYER-2
 62
  7
 10
2.106293
 20
41.282508
 30
0.000000
 40
1.326923
  1
Instructions d'installation:
 72
  5
 11
30.106293
 21
41.282508
 31
0.000000
  0
TEXT
  8
LAYER-2
 62
  7
 10
2.106293
 20
35.974816
 30
0.000000
 40
1.153846
  1
1. Lorsque le baril est installÄ centrÄ entre
 72
  5
 11
43.106293
 21
35.974816
 31
0.000000
  0
TEXT
  8
LAYER-2
 62
  7
 10
2.106293
 20
33.436354
 30
0.000000
 40
1.153846
  1
    les plaques d'extrÄmitÄ, l'arbre doit dÄpasser
 72
  5
 11
48.106293
 21
33.436354
 31
0.000000
  0
TEXT
  8
LAYER-2
 62
  7
 10
2.106293
 20
30.897893
 30
0.000000
 40
1.153846
  1
    la plaque d'extrÄmitÄ du cÖtÄ du palan
 72
  5
 11
41.952446
 21
30.897893
 31
0.000000
  0
TEXT
  8
LAYER-2
 62
  7
 10
2.106293
 20
28.359431
 30
0.000000
 40
1.153846
  1
    de 5 1/2" - 140mm.
 72
  5
 11
23.490908
 21
28.359431
 31
0.000000
  0
TEXT
  8
LAYER-2
 62
  7
 10
2.106293
 20
23.282508
 30
0.000000
 40
1.153846
  1
2. PrÄparation du palan ê chaöne:
 72
  5
 11
35.029370
 21
23.282508
 31
0.000000
  0
TEXT
  8
LAYER-2
 62
  7
 10
2.106293
 20
20.744047
 30
0.000000
 40
1.153846
  1
    a) InsÄrer la chaöne dans le boötier du palan
 72
  5
 11
47.260139
 21
20.744047
 31
0.000000
  0
TEXT
  8
LAYER-2
 62
  7
 10
2.106293
 20
18.205585
 30
0.000000
 40
1.153846
  1
        et l'enrouler autour de la roue d'engrenage.
 72
  5
 11
49.337062
 21
18.205585
 31
0.000000
  0
TEXT
  8
LAYER-2
 62
  7
 10
2.106293
 20
15.667124
 30
0.000000
 40
1.153846
  1
    b) Ouvrir un maillon de la chaine ê l'aide
 72
  5
 11
43.798600
 21
15.667124
 31
0.000000
  0
TEXT
  8
LAYER-2
 62
  7
 10
2.106293
 20
13.128662
 30
0.000000
 40
1.153846
  1
        d'une pince-Ätau pour fermer la boucle
 72
  5
 11
44.798600
 21
13.128662
 31
0.000000
  0
TEXT
  8
LAYER-2
 62
  7
 10
2.106293
 20
10.590201
 30
0.000000
 40
1.153846
  1
        de la chaöne. Refermer le maillon de chaöne.
 72
  5
 11
50.337062
 21
10.590201
 31
0.000000
  0
TEXT
  8
LAYER-2
 62
  7
 10
2.106293
 20
5.513277
 30
0.000000
 40
1.153846
  1
3. Assemblage du palan ê chaöne sur l'arbre:
 72
  5
 11
45.875523
 21
5.513277
 31
0.000000
  0
TEXT
  8
LAYER-2
 62
  7
 10
2.106293
 20
2.974816
 30
0.000000
 40
1.153846
  1
    a) Glisser sur l'arbre le premier collet et serrer
 72
  5
 11
48.952446
 21
2.974816
 31
0.000000
  0
TEXT
  8
LAYER-2
 62
  7
 10
2.106293
 20
0.436354
 30
0.000000
 40
1.153846
  1
        la vis de pression dans le chemin de clÄ de l'arbre.
 72
  5
 11
56.260139
 21
0.436354
 31
0.000000
  0
TEXT
  8
LAYER-2
 62
  7
 10
2.106293
 20
-2.102107
 30
0.000000
 40
1.153846
  1
    b) Glisser le palan ê chaöne sur l'arbre.
 72
  5
 11
42.337062
 21
-2.102107
 31
0.000000
  0
TEXT
  8
LAYER-2
 62
  7
 10
2.106293
 20
-4.640569
 30
0.000000
 40
1.153846
  1
    c) Glisser sur l'arbre le deuxiÅme collet et serrer
 72
  5
 11
50.952446
 21
-4.640569
 31
0.000000
  0
TEXT
  8
LAYER-2
 62
  7
 10
2.106293
 20
-7.179030
 30
0.000000
 40
1.153846
  1
        la vis de pression dans le chemin de clÄ de l'arbre.
 72
  5
 11
56.260139
 21
-7.179030
 31
0.000000
  0
TEXT
  8
LAYER-2
 62
  7
 10
2.106293
 20
-12.255953
 30
0.000000
 40
1.153846
  1
4. Stabilisation du palan ê chaöne:
 72
  5
 11
35.490908
 21
-12.255953
 31
0.000000
  0
TEXT
  8
LAYER-2
 62
  7
 10
2.106293
 20
-14.794415
 30
0.000000
 40
1.153846
  1
    Utiliser l'une ou l'autre des options suivantes:
 72
  5
 11
48.490908
 21
-14.794415
 31
0.000000
  0
TEXT
  8
LAYER-2
 62
  7
 10
2.106293
 20
-17.332876
 30
0.000000
 40
1.153846
  1
   a) Fixer le palan ê la plaque d'extrÄmitÄ avec
 72
  5
 11
47.721677
 21
-17.332876
 31
0.000000
  0
TEXT
  8
LAYER-2
 62
  7
 10
2.106293
 20
-19.871338
 30
0.000000
 40
1.153846
  1
        2x boulons 1/4" x 6" (6 x 152mm),
 72
  5
 11
40.183216
 21
-19.871338
 31
0.000000
  0
TEXT
  8
LAYER-2
 62
  7
 10
2.106293
 20
-22.409799
 30
0.000000
 40
1.153846
  1
        rondelles et Äcrous.
 72
  5
 11
26.490908
 21
-22.409799
 31
0.000000
  0
TEXT
  8
LAYER-2
 62
  7
 10
2.106293
 20
-24.948261
 30
0.000000
 40
1.153846
  1
   ou
 72
  5
 11
6.798600
 21
-24.948261
 31
0.000000
  0
TEXT
  8
LAYER-2
 62
  7
 10
2.106293
 20
-27.486723
 30
0.000000
 40
1.153846
  1
   b) Fixer le palan au mur avec l'attache en "L".
 72
  5
 11
48.337062
 21
-27.486723
 31
0.000000
  0
TEXT
  8
LAYER-2
 62
  7
 10
2.106293
 20
-30.025184
 30
0.000000
 40
1.153846
  1
       
 72
  5
 11
6.798600
 21
-30.025184
 31
0.000000
  0
POLYLINE
  8
LAYER-1
 66
  1
 70
  1
 62
  7
  0
VERTEX
  8
LAYER-1
 10
39.233467
 20
25.012038
 30
0.000000
  0
VERTEX
  8
LAYER-1
 10
53.233455
 20
25.012038
 30
0.000000
  0
VERTEX
  8
LAYER-1
 10
53.233455
 20
9.012033
 30
0.000000
  0
VERTEX
  8
LAYER-1
 10
39.233467
 20
9.012033
 30
0.000000
  0
SEQEND
  8
LAYER-1
  0
POLYLINE
  8
LAYER-1
 66
  1
 70
  1
 62
  7
  0
VERTEX
  8
LAYER-1
 10
42.858464
 20
21.134634
 30
0.000000
  0
VERTEX
  8
LAYER-1
 10
49.608464
 20
21.134634
 30
0.000000
  0
VERTEX
  8
LAYER-1
 10
49.608464
 20
11.434631
 30
0.000000
  0
VERTEX
  8
LAYER-1
 10
42.858464
 20
11.434631
 30
0.000000
  0
SEQEND
  8
LAYER-1
  0
POLYLINE
  8
LAYER-1
 66
  1
 70
  1
 62
255
  0
VERTEX
  8
LAYER-1
 10
53.233455
 20
28.090191
 30
0.000000
  0
VERTEX
  8
LAYER-1
 10
59.308476
 20
28.090191
 30
0.000000
  0
VERTEX
  8
LAYER-1
 10
59.308476
 20
2.974816
 30
0.000000
  0
VERTEX
  8
LAYER-1
 10
53.233455
 20
2.974816
 30
0.000000
  0
SEQEND
  8
LAYER-1
  0
CIRCLE
  8
LAYER-1
 62
  7
 10
51.983455
 20
23.512033
 30
0.000000
 40
0.281250
  0
CIRCLE
  8
LAYER-1
 62
  7
 10
52.233455
 20
17.012038
 30
0.000000
 40
0.195300
  0
CIRCLE
  8
LAYER-1
 62
  7
 10
52.233455
 20
10.387033
 30
0.000000
 40
0.195300
  0
CIRCLE
  8
LAYER-1
 62
  7
 10
49.103450
 20
20.062880
 30
0.000000
 40
0.153330
  0
CIRCLE
  8
LAYER-1
 62
  7
 10
43.360891
 20
20.062880
 30
0.000000
 40
0.153330
  0
CIRCLE
  8
LAYER-1
 62
  7
 10
49.102248
 20
15.634296
 30
0.000000
 40
0.153330
  0
CIRCLE
  8
LAYER-1
 62
  7
 10
43.361694
 20
15.634296
 30
0.000000
 40
0.153330
  0
CIRCLE
  8
LAYER-1
 62
  7
 10
49.229957
 20
13.723586
 30
0.000000
 40
0.153330
  0
CIRCLE
  8
LAYER-1
 62
  7
 10
43.231431
 20
13.723586
 30
0.000000
 40
0.153330
  0
CIRCLE
  8
LAYER-1
 62
  7
 10
49.271203
 20
12.581759
 30
0.000000
 40
0.153330
  0
CIRCLE
  8
LAYER-1
 62
  7
 10
48.422992
 20
11.662114
 30
0.000000
 40
0.153330
  0
CIRCLE
  8
LAYER-1
 62
  7
 10
43.220713
 20
12.581759
 30
0.000000
 40
0.153330
  0
CIRCLE
  8
LAYER-1
 62
  7
 10
44.068923
 20
11.662114
 30
0.000000
 40
0.153330
  0
CIRCLE
  8
LAYER-1
 62
  7
 10
46.230849
 20
18.012625
 30
0.000000
 40
0.554220
  0
ARC
  8
LAYER-1
 62
  7
 10
46.230849
 20
18.012625
 30
0.000000
 40
0.990294
 50
113.871765
 51
97.109253
  0
CIRCLE
  8
LAYER-1
 62
  7
 10
46.233586
 20
14.388277
 30
0.000000
 40
0.317187
  0
CIRCLE
  8
LAYER-1
 62
  7
 10
46.233586
 20
14.388277
 30
0.000000
 40
0.417984
  0
CIRCLE
  8
LAYER-1
 62
  7
 10
46.233586
 20
14.388277
 30
0.000000
 40
0.448154
  0
CIRCLE
  8
LAYER-1
 62
  7
 10
46.233586
 20
14.388277
 30
0.000000
 40
0.625991
  0
POLYLINE
  8
LAYER-1
 66
  1
 70
  1
 62
  7
 10
46.549345
 20
14.386968
 30
0.000000
  0
VERTEX
  8
LAYER-1
 10
46.549345
 20
14.386968
 30
0.000000
  0
VERTEX
  8
LAYER-1
 10
46.392606
 20
14.661067
 30
0.000000
  0
VERTEX
  8
LAYER-1
 10
46.076843
 20
14.662377
 30
0.000000
  0
VERTEX
  8
LAYER-1
 10
45.917842
 20
14.389583
 30
0.000000
  0
VERTEX
  8
LAYER-1
 10
46.074585
 20
14.115469
 30
0.000000
  0
VERTEX
  8
LAYER-1
 10
46.390343
 20
14.114164
 30
0.000000
  0
SEQEND
  8
LAYER-1
  0
CIRCLE
  8
LAYER-1
 62
  7
 10
46.233586
 20
14.388277
 30
0.000000
 40
0.246503
  0
POLYLINE
  8
LAYER-1
 66
  1
 70
  1
 62
255
 10
46.058617
 20
19.431087
 30
0.000000
  0
VERTEX
  8
LAYER-1
 10
46.058617
 20
19.431087
 30
0.000000
  0
VERTEX
  8
LAYER-1
 10
46.107089
 20
19.237201
 30
0.000000
  0
VERTEX
  8
LAYER-1
 10
46.051410
 20
19.169410
 30
0.000000
  0
VERTEX
  8
LAYER-1
 10
46.093820
 20
19.149325
 30
0.000000
  0
VERTEX
  8
LAYER-1
 10
46.069266
 20
19.115845
 30
0.000000
  0
VERTEX
  8
LAYER-1
 10
46.109957
 20
19.094041
 30
0.000000
  0
VERTEX
  8
LAYER-1
 10
46.085407
 20
19.060542
 30
0.000000
  0
VERTEX
  8
LAYER-1
 10
46.126784
 20
19.037537
 30
0.000000
  0
VERTEX
  8
LAYER-1
 10
46.099994
 20
19.001136
 30
0.000000
  0
VERTEX
  8
LAYER-1
 10
46.142400
 20
18.981051
 30
0.000000
  0
VERTEX
  8
LAYER-1
 10
46.117849
 20
18.947571
 30
0.000000
  0
VERTEX
  8
LAYER-1
 10
46.158034
 20
18.924565
 30
0.000000
  0
VERTEX
  8
LAYER-1
 10
46.128845
 20
18.888160
 30
0.000000
  0
VERTEX
  8
LAYER-1
 10
46.171251
 20
18.868075
 30
0.000000
  0
VERTEX
  8
LAYER-1
 10
46.148067
 20
18.831674
 30
0.000000
  0
VERTEX
  8
LAYER-1
 10
46.190481
 20
18.811575
 30
0.000000
  0
VERTEX
  8
LAYER-1
 10
46.172626
 20
18.788922
 30
0.000000
  0
VERTEX
  8
LAYER-1
 10
46.242342
 20
18.565359
 30
0.000000
  0
VERTEX
  8
LAYER-1
 10
46.235126
 20
18.555744
 30
0.000000
  0
VERTEX
  8
LAYER-1
 10
46.276513
 20
18.533940
 30
0.000000
  0
VERTEX
  8
LAYER-1
 10
46.251958
 20
18.500460
 30
0.000000
  0
VERTEX
  8
LAYER-1
 10
46.263972
 20
18.466792
 30
0.000000
  0
VERTEX
  8
LAYER-1
 10
46.038016
 20
18.416321
 30
0.000000
  0
VERTEX
  8
LAYER-1
 10
46.013118
 20
18.460276
 30
0.000000
  0
VERTEX
  8
LAYER-1
 10
45.975168
 20
18.478131
 30
0.000000
  0
VERTEX
  8
LAYER-1
 10
45.989934
 20
18.500460
 30
0.000000
  0
VERTEX
  8
LAYER-1
 10
45.922626
 20
18.726422
 30
0.000000
  0
VERTEX
  8
LAYER-1
 10
45.929171
 20
18.738065
 30
0.000000
  0
VERTEX
  8
LAYER-1
 10
45.889141
 20
18.755780
 30
0.000000
  0
VERTEX
  8
LAYER-1
 10
45.907856
 20
18.794410
 30
0.000000
  0
VERTEX
  8
LAYER-1
 10
45.869911
 20
18.812265
 30
0.000000
  0
VERTEX
  8
LAYER-1
 10
45.894639
 20
18.850901
 30
0.000000
  0
VERTEX
  8
LAYER-1
 10
45.856689
 20
18.868756
 30
0.000000
  0
VERTEX
  8
LAYER-1
 10
45.879014
 20
18.907386
 30
0.000000
  0
VERTEX
  8
LAYER-1
 10
45.841064
 20
18.925241
 30
0.000000
  0
VERTEX
  8
LAYER-1
 10
45.863389
 20
18.963872
 30
0.000000
  0
VERTEX
  8
LAYER-1
 10
45.825439
 20
18.981741
 30
0.000000
  0
VERTEX
  8
LAYER-1
 10
45.846562
 20
19.020376
 30
0.000000
  0
VERTEX
  8
LAYER-1
 10
45.808617
 20
19.038231
 30
0.000000
  0
VERTEX
  8
LAYER-1
 10
45.830426
 20
19.075660
 30
0.000000
  0
VERTEX
  8
LAYER-1
 10
45.792476
 20
19.093515
 30
0.000000
  0
VERTEX
  8
LAYER-1
 10
45.808101
 20
19.124765
 30
0.000000
  0
VERTEX
  8
LAYER-1
 10
45.732727
 20
19.118587
 30
0.000000
  0
VERTEX
  8
LAYER-1
 10
45.674687
 20
19.288231
 30
0.000000
  0
VERTEX
  8
LAYER-1
 10
45.779602
 20
19.366356
 30
0.000000
  0
VERTEX
  8
LAYER-1
 10
45.828876
 20
19.387470
 30
0.000000
  0
VERTEX
  8
LAYER-1
 10
45.891376
 20
19.409109
 30
0.000000
  0
VERTEX
  8
LAYER-1
 10
45.941857
 20
19.421133
 30
0.000000
  0
VERTEX
  8
LAYER-1
 10
45.992342
 20
19.428345
 30
0.000000
  0
SEQEND
  8
LAYER-1
  0
CIRCLE
  8
LAYER-1
 62
  7
 10
46.241662
 20
18.009212
 30
0.000000
 40
0.783094
  0
CIRCLE
  8
LAYER-1
 62
  7
 10
46.241657
 20
18.009212
 30
0.000000
 40
0.554220
  0
POLYLINE
  8
LAYER-1
 66
  1
 70
  1
 62
255
 10
46.242342
 20
18.565359
 30
0.000000
  0
VERTEX
  8
LAYER-1
 10
46.242342
 20
18.565359
 30
0.000000
  0
VERTEX
  8
LAYER-1
 10
46.235126
 20
18.555744
 30
0.000000
  0
VERTEX
  8
LAYER-1
 10
46.276513
 20
18.533940
 30
0.000000
  0
VERTEX
  8
LAYER-1
 10
46.251958
 20
18.500460
 30
0.000000
  0
VERTEX
  8
LAYER-1
 10
46.263972
 20
18.466792
 30
0.000000
  0
VERTEX
  8
LAYER-1
 10
46.038016
 20
18.416321
 30
0.000000
  0
VERTEX
  8
LAYER-1
 10
46.013118
 20
18.460276
 30
0.000000
  0
VERTEX
  8
LAYER-1
 10
45.975168
 20
18.478131
 30
0.000000
  0
VERTEX
  8
LAYER-1
 10
45.989934
 20
18.500460
 30
0.000000
  0
VERTEX
  8
LAYER-1
 10
46.025996
 20
18.519681
 30
0.000000
  0
VERTEX
  8
LAYER-1
 10
46.117342
 20
18.550931
 30
0.000000
  0
VERTEX
  8
LAYER-1
 10
46.177434
 20
18.562960
 30
0.000000
  0
SEQEND
  8
LAYER-1
  0
POLYLINE
  8
LAYER-1
 66
  1
 70
  0
 62
  7
 10
46.058617
 20
19.431087
 30
0.000000
  0
VERTEX
  8
LAYER-1
 10
46.058617
 20
19.431087
 30
0.000000
  0
VERTEX
  8
LAYER-1
 10
46.107089
 20
19.237201
 30
0.000000
  0
SEQEND
  8
LAYER-1
  0
POLYLINE
  8
LAYER-1
 66
  1
 70
  0
 62
  7
 10
45.835407
 20
19.183312
 30
0.000000
  0
VERTEX
  8
LAYER-1
 10
45.835407
 20
19.183312
 30
0.000000
  0
VERTEX
  8
LAYER-1
 10
46.107089
 20
19.237201
 30
0.000000
  0
SEQEND
  8
LAYER-1
  0
POLYLINE
  8
LAYER-1
 66
  1
 70
  0
 62
  7
 10
45.835407
 20
19.183312
 30
0.000000
  0
VERTEX
  8
LAYER-1
 10
45.835407
 20
19.183312
 30
0.000000
  0
VERTEX
  8
LAYER-1
 10
45.779602
 20
19.366356
 30
0.000000
  0
SEQEND
  8
LAYER-1
  0
POLYLINE
  8
LAYER-1
 66
  1
 70
  0
 62
  7
 10
45.779602
 20
19.366356
 30
0.000000
  0
VERTEX
  8
LAYER-1
 10
45.779602
 20
19.366356
 30
0.000000
  0
VERTEX
  8
LAYER-1
 10
45.674687
 20
19.288231
 30
0.000000
  0
SEQEND
  8
LAYER-1
  0
POLYLINE
  8
LAYER-1
 66
  1
 70
  0
 62
  7
 10
45.674687
 20
19.288231
 30
0.000000
  0
VERTEX
  8
LAYER-1
 10
45.674687
 20
19.288231
 30
0.000000
  0
VERTEX
  8
LAYER-1
 10
45.732727
 20
19.118587
 30
0.000000
  0
SEQEND
  8
LAYER-1
  0
POLYLINE
  8
LAYER-1
 66
  1
 70
  0
 62
  7
 10
45.732727
 20
19.118587
 30
0.000000
  0
VERTEX
  8
LAYER-1
 10
45.732727
 20
19.118587
 30
0.000000
  0
VERTEX
  8
LAYER-1
 10
45.835407
 20
19.183312
 30
0.000000
  0
SEQEND
  8
LAYER-1
  0
ARC
  8
LAYER-1
 62
  7
 10
46.053753
 20
18.818341
 30
0.000000
 40
0.612755
 50
89.545227
 51
116.577271
  0
POLYLINE
  8
LAYER-1
 66
  1
 70
  0
 62
  7
 10
46.102224
 20
19.004056
 30
0.000000
  0
VERTEX
  8
LAYER-1
 10
46.102224
 20
19.004056
 30
0.000000
  0
VERTEX
  8
LAYER-1
 10
46.126784
 20
19.037537
 30
0.000000
  0
SEQEND
  8
LAYER-1
  0
POLYLINE
  8
LAYER-1
 66
  1
 70
  0
 62
  7
 10
46.126784
 20
19.037537
 30
0.000000
  0
VERTEX
  8
LAYER-1
 10
46.126784
 20
19.037537
 30
0.000000
  0
VERTEX
  8
LAYER-1
 10
46.084369
 20
19.057622
 30
0.000000
  0
SEQEND
  8
LAYER-1
  0
POLYLINE
  8
LAYER-1
 66
  1
 70
  0
 62
  7
 10
45.846562
 20
19.020376
 30
0.000000
  0
VERTEX
  8
LAYER-1
 10
45.846562
 20
19.020376
 30
0.000000
  0
VERTEX
  8
LAYER-1
 10
45.825439
 20
18.981741
 30
0.000000
  0
SEQEND
  8
LAYER-1
  0
POLYLINE
  8
LAYER-1
 66
  1
 70
  0
 62
  7
 10
45.825439
 20
18.981741
 30
0.000000
  0
VERTEX
  8
LAYER-1
 10
45.825439
 20
18.981741
 30
0.000000
  0
VERTEX
  8
LAYER-1
 10
45.863389
 20
18.963872
 30
0.000000
  0
SEQEND
  8
LAYER-1
  0
ARC
  8
LAYER-1
 62
  7
 10
46.087980
 20
18.405461
 30
0.000000
 40
0.633264
 50
86.486847
 51
114.492737
  0
ARC
  8
LAYER-1
 62
  7
 10
46.073247
 20
18.446341
 30
0.000000
 40
0.558460
 50
87.025665
 51
112.072357
  0
POLYLINE
  8
LAYER-1
 66
  1
 70
  0
 62
  7
 10
46.117849
 20
18.947571
 30
0.000000
  0
VERTEX
  8
LAYER-1
 10
46.117849
 20
18.947571
 30
0.000000
  0
VERTEX
  8
LAYER-1
 10
46.142400
 20
18.981051
 30
0.000000
  0
SEQEND
  8
LAYER-1
  0
POLYLINE
  8
LAYER-1
 66
  1
 70
  0
 62
  7
 10
46.142400
 20
18.981051
 30
0.000000
  0
VERTEX
  8
LAYER-1
 10
46.142400
 20
18.981051
 30
0.000000
  0
VERTEX
  8
LAYER-1
 10
46.099994
 20
19.001136
 30
0.000000
  0
SEQEND
  8
LAYER-1
  0
POLYLINE
  8
LAYER-1
 66
  1
 70
  0
 62
  7
 10
45.863389
 20
18.963872
 30
0.000000
  0
VERTEX
  8
LAYER-1
 10
45.863389
 20
18.963872
 30
0.000000
  0
VERTEX
  8
LAYER-1
 10
45.841064
 20
18.925241
 30
0.000000
  0
SEQEND
  8
LAYER-1
  0
POLYLINE
  8
LAYER-1
 66
  1
 70
  0
 62
  7
 10
45.841064
 20
18.925241
 30
0.000000
  0
VERTEX
  8
LAYER-1
 10
45.841064
 20
18.925241
 30
0.000000
  0
VERTEX
  8
LAYER-1
 10
45.879014
 20
18.907386
 30
0.000000
  0
SEQEND
  8
LAYER-1
  0
ARC
  8
LAYER-1
 62
  7
 10
46.103595
 20
18.349084
 30
0.000000
 40
0.633148
 50
86.486206
 51
114.496735
  0
ARC
  8
LAYER-1
 62
  7
 10
46.088924
 20
18.389545
 30
0.000000
 40
0.558771
 50
87.032867
 51
112.065308
  0
POLYLINE
  8
LAYER-1
 66
  1
 70
  0
 62
  7
 10
46.146700
 20
18.834581
 30
0.000000
  0
VERTEX
  8
LAYER-1
 10
46.146700
 20
18.834581
 30
0.000000
  0
VERTEX
  8
LAYER-1
 10
46.171251
 20
18.868075
 30
0.000000
  0
SEQEND
  8
LAYER-1
  0
POLYLINE
  8
LAYER-1
 66
  1
 70
  0
 62
  7
 10
46.171251
 20
18.868075
 30
0.000000
  0
VERTEX
  8
LAYER-1
 10
46.171251
 20
18.868075
 30
0.000000
  0
VERTEX
  8
LAYER-1
 10
46.128845
 20
18.888160
 30
0.000000
  0
SEQEND
  8
LAYER-1
  0
POLYLINE
  8
LAYER-1
 66
  1
 70
  0
 62
  7
 10
45.894639
 20
18.850901
 30
0.000000
  0
VERTEX
  8
LAYER-1
 10
45.894639
 20
18.850901
 30
0.000000
  0
VERTEX
  8
LAYER-1
 10
45.869911
 20
18.812265
 30
0.000000
  0
SEQEND
  8
LAYER-1
  0
POLYLINE
  8
LAYER-1
 66
  1
 70
  0
 62
  7
 10
45.869911
 20
18.812265
 30
0.000000
  0
VERTEX
  8
LAYER-1
 10
45.869911
 20
18.812265
 30
0.000000
  0
VERTEX
  8
LAYER-1
 10
45.907856
 20
18.794410
 30
0.000000
  0
SEQEND
  8
LAYER-1
  0
ARC
  8
LAYER-1
 62
  7
 10
46.132531
 20
18.235708
 30
0.000000
 40
0.633552
 50
86.496094
 51
114.489319
  0
ARC
  8
LAYER-1
 62
  7
 10
46.117723
 20
18.276818
 30
0.000000
 40
0.558521
 50
87.026398
 51
112.071075
  0
POLYLINE
  8
LAYER-1
 66
  1
 70
  0
 62
  7
 10
46.172626
 20
18.788922
 30
0.000000
  0
VERTEX
  8
LAYER-1
 10
46.172626
 20
18.788922
 30
0.000000
  0
VERTEX
  8
LAYER-1
 10
46.190481
 20
18.811575
 30
0.000000
  0
SEQEND
  8
LAYER-1
  0
POLYLINE
  8
LAYER-1
 66
  1
 70
  0
 62
  7
 10
46.190481
 20
18.811575
 30
0.000000
  0
VERTEX
  8
LAYER-1
 10
46.190481
 20
18.811575
 30
0.000000
  0
VERTEX
  8
LAYER-1
 10
46.148067
 20
18.831674
 30
0.000000
  0
SEQEND
  8
LAYER-1
  0
POLYLINE
  8
LAYER-1
 66
  1
 70
  0
 62
  7
 10
45.907856
 20
18.794410
 30
0.000000
  0
VERTEX
  8
LAYER-1
 10
45.907856
 20
18.794410
 30
0.000000
  0
VERTEX
  8
LAYER-1
 10
45.889141
 20
18.755780
 30
0.000000
  0
SEQEND
  8
LAYER-1
  0
POLYLINE
  8
LAYER-1
 66
  1
 70
  0
 62
  7
 10
45.889141
 20
18.755780
 30
0.000000
  0
VERTEX
  8
LAYER-1
 10
45.889141
 20
18.755780
 30
0.000000
  0
VERTEX
  8
LAYER-1
 10
45.927086
 20
18.737924
 30
0.000000
  0
SEQEND
  8
LAYER-1
  0
ARC
  8
LAYER-1
 62
  7
 10
46.151719
 20
18.179364
 30
0.000000
 40
0.633408
 50
86.491486
 51
114.491028
  0
ARC
  8
LAYER-1
 62
  7
 10
46.169246
 20
18.107004
 30
0.000000
 40
0.675793
 50
96.759918
 51
110.997528
  0
POLYLINE
  8
LAYER-1
 66
  1
 70
  0
 62
  7
 10
46.085407
 20
19.060542
 30
0.000000
  0
VERTEX
  8
LAYER-1
 10
46.085407
 20
19.060542
 30
0.000000
  0
VERTEX
  8
LAYER-1
 10
46.109957
 20
19.094041
 30
0.000000
  0
SEQEND
  8
LAYER-1
  0
POLYLINE
  8
LAYER-1
 66
  1
 70
  0
 62
  7
 10
46.109957
 20
19.094041
 30
0.000000
  0
VERTEX
  8
LAYER-1
 10
46.109957
 20
19.094041
 30
0.000000
  0
VERTEX
  8
LAYER-1
 10
46.067542
 20
19.114126
 30
0.000000
  0
SEQEND
  8
LAYER-1
  0
POLYLINE
  8
LAYER-1
 66
  1
 70
  0
 62
  7
 10
45.830426
 20
19.075660
 30
0.000000
  0
VERTEX
  8
LAYER-1
 10
45.830426
 20
19.075660
 30
0.000000
  0
VERTEX
  8
LAYER-1
 10
45.808617
 20
19.038231
 30
0.000000
  0
SEQEND
  8
LAYER-1
  0
POLYLINE
  8
LAYER-1
 66
  1
 70
  0
 62
  7
 10
45.808617
 20
19.038231
 30
0.000000
  0
VERTEX
  8
LAYER-1
 10
45.808617
 20
19.038231
 30
0.000000
  0
VERTEX
  8
LAYER-1
 10
45.846562
 20
19.020376
 30
0.000000
  0
SEQEND
  8
LAYER-1
  0
ARC
  8
LAYER-1
 62
  7
 10
46.071237
 20
18.461675
 30
0.000000
 40
0.633552
 50
86.496094
 51
114.489319
  0
ARC
  8
LAYER-1
 62
  7
 10
46.056434
 20
18.502779
 30
0.000000
 40
0.558521
 50
87.026398
 51
112.071075
  0
POLYLINE
  8
LAYER-1
 66
  1
 70
  0
 62
  7
 10
46.069266
 20
19.115845
 30
0.000000
  0
VERTEX
  8
LAYER-1
 10
46.069266
 20
19.115845
 30
0.000000
  0
VERTEX
  8
LAYER-1
 10
46.093820
 20
19.149325
 30
0.000000
  0
SEQEND
  8
LAYER-1
  0
POLYLINE
  8
LAYER-1
 66
  1
 70
  0
 62
  7
 10
46.093820
 20
19.149325
 30
0.000000
  0
VERTEX
  8
LAYER-1
 10
46.093820
 20
19.149325
 30
0.000000
  0
VERTEX
  8
LAYER-1
 10
46.051410
 20
19.169410
 30
0.000000
  0
SEQEND
  8
LAYER-1
  0
POLYLINE
  8
LAYER-1
 66
  1
 70
  0
 62
  7
 10
45.808101
 20
19.124765
 30
0.000000
  0
VERTEX
  8
LAYER-1
 10
45.808101
 20
19.124765
 30
0.000000
  0
VERTEX
  8
LAYER-1
 10
45.792476
 20
19.093515
 30
0.000000
  0
SEQEND
  8
LAYER-1
  0
POLYLINE
  8
LAYER-1
 66
  1
 70
  0
 62
  7
 10
45.792476
 20
19.093515
 30
0.000000
  0
VERTEX
  8
LAYER-1
 10
45.792476
 20
19.093515
 30
0.000000
  0
VERTEX
  8
LAYER-1
 10
45.830426
 20
19.075660
 30
0.000000
  0
SEQEND
  8
LAYER-1
  0
ARC
  8
LAYER-1
 62
  7
 10
46.055096
 20
18.516958
 30
0.000000
 40
0.633552
 50
86.496094
 51
114.489319
  0
ARC
  8
LAYER-1
 62
  7
 10
46.040335
 20
18.557913
 30
0.000000
 40
0.558680
 50
87.031586
 51
112.069183
  0
POLYLINE
  8
LAYER-1
 66
  1
 70
  0
 62
  7
 10
46.051410
 20
19.169410
 30
0.000000
  0
VERTEX
  8
LAYER-1
 10
46.051410
 20
19.169410
 30
0.000000
  0
VERTEX
  8
LAYER-1
 10
46.107089
 20
19.237201
 30
0.000000
  0
SEQEND
  8
LAYER-1
  0
POLYLINE
  8
LAYER-1
 66
  1
 70
  0
 62
  7
 10
45.808101
 20
19.124765
 30
0.000000
  0
VERTEX
  8
LAYER-1
 10
45.808101
 20
19.124765
 30
0.000000
  0
VERTEX
  8
LAYER-1
 10
45.732727
 20
19.118587
 30
0.000000
  0
SEQEND
  8
LAYER-1
  0
ARC
  8
LAYER-1
 62
  7
 10
46.030363
 20
18.598778
 30
0.000000
 40
0.571020
 50
87.887787
 51
112.907104
  0
POLYLINE
  8
LAYER-1
 66
  1
 70
  0
 62
  7
 10
46.133479
 20
18.891085
 30
0.000000
  0
VERTEX
  8
LAYER-1
 10
46.133479
 20
18.891085
 30
0.000000
  0
VERTEX
  8
LAYER-1
 10
46.158034
 20
18.924565
 30
0.000000
  0
SEQEND
  8
LAYER-1
  0
POLYLINE
  8
LAYER-1
 66
  1
 70
  0
 62
  7
 10
46.158034
 20
18.924565
 30
0.000000
  0
VERTEX
  8
LAYER-1
 10
46.158034
 20
18.924565
 30
0.000000
  0
VERTEX
  8
LAYER-1
 10
46.115619
 20
18.944651
 30
0.000000
  0
SEQEND
  8
LAYER-1
  0
POLYLINE
  8
LAYER-1
 66
  1
 70
  0
 62
  7
 10
45.879014
 20
18.907386
 30
0.000000
  0
VERTEX
  8
LAYER-1
 10
45.879014
 20
18.907386
 30
0.000000
  0
VERTEX
  8
LAYER-1
 10
45.856689
 20
18.868756
 30
0.000000
  0
SEQEND
  8
LAYER-1
  0
POLYLINE
  8
LAYER-1
 66
  1
 70
  0
 62
  7
 10
45.856689
 20
18.868756
 30
0.000000
  0
VERTEX
  8
LAYER-1
 10
45.856689
 20
18.868756
 30
0.000000
  0
VERTEX
  8
LAYER-1
 10
45.894639
 20
18.850901
 30
0.000000
  0
SEQEND
  8
LAYER-1
  0
ARC
  8
LAYER-1
 62
  7
 10
46.119263
 20
18.292443
 30
0.000000
 40
0.633301
 50
86.490173
 51
114.494751
  0
ARC
  8
LAYER-1
 62
  7
 10
46.104549
 20
18.333153
 30
0.000000
 40
0.558680
 50
87.031586
 51
112.069183
  0
POLYLINE
  8
LAYER-1
 66
  1
 70
  0
 62
  7
 10
45.929171
 20
18.738065
 30
0.000000
  0
VERTEX
  8
LAYER-1
 10
45.929171
 20
18.738065
 30
0.000000
  0
VERTEX
  8
LAYER-1
 10
45.922626
 20
18.726422
 30
0.000000
  0
SEQEND
  8
LAYER-1
  0
ARC
  8
LAYER-1
 62
  7
 10
46.212290
 20
17.644761
 30
0.000000
 40
0.911270
 50
88.563934
 51
95.297668
  0
ARC
  8
LAYER-1
 62
  7
 10
46.237699
 20
17.901973
 30
0.000000
 40
0.633157
 50
86.485565
 51
114.496460
  0
ARC
  8
LAYER-1
 62
  7
 10
46.223041
 20
17.942373
 30
0.000000
 40
0.558833
 50
87.033569
 51
112.064056
  0
POLYLINE
  8
LAYER-1
 66
  1
 70
  0
 62
  7
 10
46.251958
 20
18.500460
 30
0.000000
  0
VERTEX
  8
LAYER-1
 10
46.251958
 20
18.500460
 30
0.000000
  0
VERTEX
  8
LAYER-1
 10
46.276513
 20
18.533940
 30
0.000000
  0
SEQEND
  8
LAYER-1
  0
POLYLINE
  8
LAYER-1
 66
  1
 70
  0
 62
  7
 10
46.276513
 20
18.533940
 30
0.000000
  0
VERTEX
  8
LAYER-1
 10
46.276513
 20
18.533940
 30
0.000000
  0
VERTEX
  8
LAYER-1
 10
46.234098
 20
18.554026
 30
0.000000
  0
SEQEND
  8
LAYER-1
  0
POLYLINE
  8
LAYER-1
 66
  1
 70
  0
 62
  7
 10
45.989934
 20
18.500460
 30
0.000000
  0
VERTEX
  8
LAYER-1
 10
45.989934
 20
18.500460
 30
0.000000
  0
VERTEX
  8
LAYER-1
 10
45.975168
 20
18.478131
 30
0.000000
  0
SEQEND
  8
LAYER-1
  0
POLYLINE
  8
LAYER-1
 66
  1
 70
  0
 62
  7
 10
45.975168
 20
18.478131
 30
0.000000
  0
VERTEX
  8
LAYER-1
 10
45.975168
 20
18.478131
 30
0.000000
  0
VERTEX
  8
LAYER-1
 10
46.013118
 20
18.460276
 30
0.000000
  0
SEQEND
  8
LAYER-1
  0
POLYLINE
  8
LAYER-1
 66
  1
 70
  0
 62
  7
 10
46.235126
 20
18.555744
 30
0.000000
  0
VERTEX
  8
LAYER-1
 10
46.235126
 20
18.555744
 30
0.000000
  0
VERTEX
  8
LAYER-1
 10
46.242342
 20
18.565359
 30
0.000000
  0
SEQEND
  8
LAYER-1
  0
POLYLINE
  8
LAYER-1
 66
  1
 70
  0
 62
  7
 10
46.251958
 20
18.500460
 30
0.000000
  0
VERTEX
  8
LAYER-1
 10
46.251958
 20
18.500460
 30
0.000000
  0
VERTEX
  8
LAYER-1
 10
46.263972
 20
18.466792
 30
0.000000
  0
SEQEND
  8
LAYER-1
  0
POLYLINE
  8
LAYER-1
 66
  1
 70
  0
 62
  7
 10
46.263972
 20
18.466792
 30
0.000000
  0
VERTEX
  8
LAYER-1
 10
46.263972
 20
18.466792
 30
0.000000
  0
VERTEX
  8
LAYER-1
 10
46.038016
 20
18.416321
 30
0.000000
  0
SEQEND
  8
LAYER-1
  0
POLYLINE
  8
LAYER-1
 66
  1
 70
  0
 62
  7
 10
46.038016
 20
18.416321
 30
0.000000
  0
VERTEX
  8
LAYER-1
 10
46.038016
 20
18.416321
 30
0.000000
  0
VERTEX
  8
LAYER-1
 10
46.013118
 20
18.460276
 30
0.000000
  0
SEQEND
  8
LAYER-1
  0
POLYLINE
  8
LAYER-1
 66
  1
 70
  1
 62
255
  0
VERTEX
  8
LAYER-1
 10
50.231558
 20
28.090191
 30
0.000000
  0
VERTEX
  8
LAYER-1
 10
53.231558
 20
28.090191
 30
0.000000
  0
VERTEX
  8
LAYER-1
 10
53.231558
 20
1.340191
 30
0.000000
  0
VERTEX
  8
LAYER-1
 10
50.231558
 20
1.340191
 30
0.000000
  0
SEQEND
  8
LAYER-1
  0
POLYLINE
  8
LAYER-1
 66
  1
 70
  0
 62
  7
 10
53.231558
 20
28.090191
 30
0.000000
  0
VERTEX
  8
LAYER-1
 10
53.231558
 20
28.090191
 30
0.000000
  0
VERTEX
  8
LAYER-1
 10
53.231558
 20
1.340191
 30
0.000000
  0
SEQEND
  8
LAYER-1
  0
POLYLINE
  8
LAYER-1
 66
  1
 70
  0
 62
  7
 10
50.231558
 20
28.090191
 30
0.000000
  0
VERTEX
  8
LAYER-1
 10
50.231558
 20
28.090191
 30
0.000000
  0
VERTEX
  8
LAYER-1
 10
50.231558
 20
1.340191
 30
0.000000
  0
SEQEND
  8
LAYER-1
  0
POLYLINE
  8
LAYER-1
 66
  1
 70
  0
 62
  7
 10
44.604370
 20
6.927133
 30
0.000000
  0
VERTEX
  8
LAYER-1
 10
44.604370
 20
6.927133
 30
0.000000
  0
VERTEX
  8
LAYER-1
 10
44.604408
 20
6.927133
 30
0.000000
  0
SEQEND
  8
LAYER-1
  0
POLYLINE
  8
LAYER-1
 66
  1
 70
  0
 62
  7
 10
44.934406
 20
6.597130
 30
0.000000
  0
VERTEX
  8
LAYER-1
 10
44.934406
 20
6.597130
 30
0.000000
  0
VERTEX
  8
LAYER-1
 10
44.934406
 20
5.697153
 30
0.000000
  0
SEQEND
  8
LAYER-1
  0
POLYLINE
  8
LAYER-1
 66
  1
 70
  0
 62
  7
 10
44.604408
 20
5.367150
 30
0.000000
  0
VERTEX
  8
LAYER-1
 10
44.604408
 20
5.367150
 30
0.000000
  0
VERTEX
  8
LAYER-1
 10
44.604370
 20
5.367150
 30
0.000000
  0
SEQEND
  8
LAYER-1
  0
POLYLINE
  8
LAYER-1
 66
  1
 70
  0
 62
  7
 10
44.274372
 20
5.697153
 30
0.000000
  0
VERTEX
  8
LAYER-1
 10
44.274372
 20
5.697153
 30
0.000000
  0
VERTEX
  8
LAYER-1
 10
44.274372
 20
6.597130
 30
0.000000
  0
SEQEND
  8
LAYER-1
  0
ARC
  8
LAYER-1
 62
  7
 10
44.604370
 20
6.597130
 30
0.000000
 40
0.329999
 50
90.000000
 51
180.000000
  0
ARC
  8
LAYER-1
 62
  7
 10
44.604370
 20
5.697153
 30
0.000000
 40
0.329999
 50
180.000000
 51
270.000000
  0
ARC
  8
LAYER-1
 62
  7
 10
44.604408
 20
5.697153
 30
0.000000
 40
0.329999
 50
270.000000
 51
0.000000
  0
ARC
  8
LAYER-1
 62
  7
 10
44.604408
 20
6.597130
 30
0.000000
 40
0.329999
 50
0.000000
 51
90.000000
  0
POLYLINE
  8
LAYER-1
 66
  1
 70
  0
 62
  7
 10
44.604370
 20
6.717116
 30
0.000000
  0
VERTEX
  8
LAYER-1
 10
44.604370
 20
6.717116
 30
0.000000
  0
VERTEX
  8
LAYER-1
 10
44.604408
 20
6.717116
 30
0.000000
  0
SEQEND
  8
LAYER-1
  0
POLYLINE
  8
LAYER-1
 66
  1
 70
  0
 62
  7
 10
44.799406
 20
6.522118
 30
0.000000
  0
VERTEX
  8
LAYER-1
 10
44.799406
 20
6.522118
 30
0.000000
  0
VERTEX
  8
LAYER-1
 10
44.799406
 20
5.727135
 30
0.000000
  0
SEQEND
  8
LAYER-1
  0
POLYLINE
  8
LAYER-1
 66
  1
 70
  0
 62
  7
 10
44.604408
 20
5.532137
 30
0.000000
  0
VERTEX
  8
LAYER-1
 10
44.604408
 20
5.532137
 30
0.000000
  0
VERTEX
  8
LAYER-1
 10
44.604370
 20
5.532137
 30
0.000000
  0
SEQEND
  8
LAYER-1
  0
POLYLINE
  8
LAYER-1
 66
  1
 70
  0
 62
  7
 10
44.409367
 20
5.727135
 30
0.000000
  0
VERTEX
  8
LAYER-1
 10
44.409367
 20
5.727135
 30
0.000000
  0
VERTEX
  8
LAYER-1
 10
44.409367
 20
6.522118
 30
0.000000
  0
SEQEND
  8
LAYER-1
  0
ARC
  8
LAYER-1
 62
  7
 10
44.604370
 20
6.522118
 30
0.000000
 40
0.195000
 50
90.000000
 51
180.000000
  0
ARC
  8
LAYER-1
 62
  7
 10
44.604370
 20
5.727135
 30
0.000000
 40
0.195000
 50
180.000000
 51
270.000000
  0
ARC
  8
LAYER-1
 62
  7
 10
44.604408
 20
5.727135
 30
0.000000
 40
0.195000
 50
270.000000
 51
0.000000
  0
ARC
  8
LAYER-1
 62
  7
 10
44.604408
 20
6.522118
 30
0.000000
 40
0.195000
 50
0.000000
 51
90.000000
  0
POLYLINE
  8
LAYER-1
 66
  1
 70
  0
 62
  7
 10
44.604370
 20
9.112032
 30
0.000000
  0
VERTEX
  8
LAYER-1
 10
44.604370
 20
9.112032
 30
0.000000
  0
VERTEX
  8
LAYER-1
 10
44.604408
 20
9.112032
 30
0.000000
  0
SEQEND
  8
LAYER-1
  0
POLYLINE
  8
LAYER-1
 66
  1
 70
  0
 62
  7
 10
44.934406
 20
8.782029
 30
0.000000
  0
VERTEX
  8
LAYER-1
 10
44.934406
 20
8.782029
 30
0.000000
  0
VERTEX
  8
LAYER-1
 10
44.934406
 20
7.882057
 30
0.000000
  0
SEQEND
  8
LAYER-1
  0
POLYLINE
  8
LAYER-1
 66
  1
 70
  0
 62
  7
 10
44.604408
 20
7.552054
 30
0.000000
  0
VERTEX
  8
LAYER-1
 10
44.604408
 20
7.552054
 30
0.000000
  0
VERTEX
  8
LAYER-1
 10
44.604370
 20
7.552054
 30
0.000000
  0
SEQEND
  8
LAYER-1
  0
POLYLINE
  8
LAYER-1
 66
  1
 70
  0
 62
  7
 10
44.274372
 20
7.882057
 30
0.000000
  0
VERTEX
  8
LAYER-1
 10
44.274372
 20
7.882057
 30
0.000000
  0
VERTEX
  8
LAYER-1
 10
44.274372
 20
8.782029
 30
0.000000
  0
SEQEND
  8
LAYER-1
  0
ARC
  8
LAYER-1
 62
  7
 10
44.604370
 20
8.782029
 30
0.000000
 40
0.329999
 50
90.000000
 51
180.000000
  0
ARC
  8
LAYER-1
 62
  7
 10
44.604370
 20
7.882057
 30
0.000000
 40
0.329999
 50
180.000000
 51
270.000000
  0
ARC
  8
LAYER-1
 62
  7
 10
44.604408
 20
7.882057
 30
0.000000
 40
0.329999
 50
270.000000
 51
0.000000
  0
ARC
  8
LAYER-1
 62
  7
 10
44.604408
 20
8.782029
 30
0.000000
 40
0.329999
 50
0.000000
 51
90.000000
  0
POLYLINE
  8
LAYER-1
 66
  1
 70
  0
 62
  7
 10
44.604370
 20
8.902062
 30
0.000000
  0
VERTEX
  8
LAYER-1
 10
44.604370
 20
8.902062
 30
0.000000
  0
VERTEX
  8
LAYER-1
 10
44.604408
 20
8.902062
 30
0.000000
  0
SEQEND
  8
LAYER-1
  0
POLYLINE
  8
LAYER-1
 66
  1
 70
  0
 62
  7
 10
44.799406
 20
8.707069
 30
0.000000
  0
VERTEX
  8
LAYER-1
 10
44.799406
 20
8.707069
 30
0.000000
  0
VERTEX
  8
LAYER-1
 10
44.799406
 20
7.912039
 30
0.000000
  0
SEQEND
  8
LAYER-1
  0
POLYLINE
  8
LAYER-1
 66
  1
 70
  0
 62
  7
 10
44.604408
 20
7.717041
 30
0.000000
  0
VERTEX
  8
LAYER-1
 10
44.604408
 20
7.717041
 30
0.000000
  0
VERTEX
  8
LAYER-1
 10
44.604370
 20
7.717041
 30
0.000000
  0
SEQEND
  8
LAYER-1
  0
POLYLINE
  8
LAYER-1
 66
  1
 70
  0
 62
  7
 10
44.409367
 20
7.912039
 30
0.000000
  0
VERTEX
  8
LAYER-1
 10
44.409367
 20
7.912039
 30
0.000000
  0
VERTEX
  8
LAYER-1
 10
44.409367
 20
8.707069
 30
0.000000
  0
SEQEND
  8
LAYER-1
  0
ARC
  8
LAYER-1
 62
  7
 10
44.604370
 20
8.707069
 30
0.000000
 40
0.195000
 50
90.000000
 51
180.000000
  0
ARC
  8
LAYER-1
 62
  7
 10
44.604370
 20
7.912039
 30
0.000000
 40
0.195000
 50
180.000000
 51
270.000000
  0
ARC
  8
LAYER-1
 62
  7
 10
44.604408
 20
7.912039
 30
0.000000
 40
0.195000
 50
270.000000
 51
0.000000
  0
ARC
  8
LAYER-1
 62
  7
 10
44.604408
 20
8.707069
 30
0.000000
 40
0.195000
 50
0.000000
 51
90.000000
  0
POLYLINE
  8
LAYER-1
 66
  1
 70
  1
 62
  7
  0
VERTEX
  8
LAYER-1
 10
44.529367
 20
7.807054
 30
0.000000
  0
VERTEX
  8
LAYER-1
 10
44.679406
 20
7.807054
 30
0.000000
  0
VERTEX
  8
LAYER-1
 10
44.679406
 20
6.517066
 30
0.000000
  0
VERTEX
  8
LAYER-1
 10
44.529367
 20
6.517066
 30
0.000000
  0
SEQEND
  8
LAYER-1
  0
POLYLINE
  8
LAYER-1
 66
  1
 70
  0
 62
  7
 10
44.585191
 20
11.229018
 30
0.000000
  0
VERTEX
  8
LAYER-1
 10
44.585191
 20
11.229018
 30
0.000000
  0
VERTEX
  8
LAYER-1
 10
44.623582
 20
11.229018
 30
0.000000
  0
SEQEND
  8
LAYER-1
  0
POLYLINE
  8
LAYER-1
 66
  1
 70
  0
 62
  7
 10
44.934406
 20
10.918199
 30
0.000000
  0
VERTEX
  8
LAYER-1
 10
44.934406
 20
10.918199
 30
0.000000
  0
VERTEX
  8
LAYER-1
 10
44.934406
 20
10.155926
 30
0.000000
  0
SEQEND
  8
LAYER-1
  0
POLYLINE
  8
LAYER-1
 66
  1
 70
  0
 62
  7
 10
44.623582
 20
9.845102
 30
0.000000
  0
VERTEX
  8
LAYER-1
 10
44.623582
 20
9.845102
 30
0.000000
  0
VERTEX
  8
LAYER-1
 10
44.585191
 20
9.845102
 30
0.000000
  0
SEQEND
  8
LAYER-1
  0
POLYLINE
  8
LAYER-1
 66
  1
 70
  0
 62
  7
 10
44.274372
 20
10.155926
 30
0.000000
  0
VERTEX
  8
LAYER-1
 10
44.274372
 20
10.155926
 30
0.000000
  0
VERTEX
  8
LAYER-1
 10
44.274372
 20
10.918199
 30
0.000000
  0
SEQEND
  8
LAYER-1
  0
ARC
  8
LAYER-1
 62
  7
 10
44.585191
 20
10.918199
 30
0.000000
 40
0.310821
 50
90.000000
 51
180.000000
  0
ARC
  8
LAYER-1
 62
  7
 10
44.585191
 20
10.155926
 30
0.000000
 40
0.310821
 50
180.000000
 51
270.000000
  0
ARC
  8
LAYER-1
 62
  7
 10
44.623582
 20
10.155926
 30
0.000000
 40
0.310821
 50
270.000000
 51
0.000000
  0
ARC
  8
LAYER-1
 62
  7
 10
44.623582
 20
10.918199
 30
0.000000
 40
0.310821
 50
0.000000
 51
90.000000
  0
POLYLINE
  8
LAYER-1
 66
  1
 70
  0
 62
  7
 10
44.593036
 20
11.042720
 30
0.000000
  0
VERTEX
  8
LAYER-1
 10
44.593036
 20
11.042720
 30
0.000000
  0
VERTEX
  8
LAYER-1
 10
44.615741
 20
11.042720
 30
0.000000
  0
SEQEND
  8
LAYER-1
  0
POLYLINE
  8
LAYER-1
 66
  1
 70
  0
 62
  7
 10
44.799406
 20
10.859051
 30
0.000000
  0
VERTEX
  8
LAYER-1
 10
44.799406
 20
10.859051
 30
0.000000
  0
VERTEX
  8
LAYER-1
 10
44.799406
 20
10.175119
 30
0.000000
  0
SEQEND
  8
LAYER-1
  0
POLYLINE
  8
LAYER-1
 66
  1
 70
  0
 62
  7
 10
44.615741
 20
9.991446
 30
0.000000
  0
VERTEX
  8
LAYER-1
 10
44.615741
 20
9.991446
 30
0.000000
  0
VERTEX
  8
LAYER-1
 10
44.593036
 20
9.991446
 30
0.000000
  0
SEQEND
  8
LAYER-1
  0
POLYLINE
  8
LAYER-1
 66
  1
 70
  0
 62
  7
 10
44.409367
 20
10.175119
 30
0.000000
  0
VERTEX
  8
LAYER-1
 10
44.409367
 20
10.175119
 30
0.000000
  0
VERTEX
  8
LAYER-1
 10
44.409367
 20
10.859051
 30
0.000000
  0
SEQEND
  8
LAYER-1
  0
ARC
  8
LAYER-1
 62
  7
 10
44.593036
 20
10.859051
 30
0.000000
 40
0.183667
 50
90.000000
 51
180.000000
  0
ARC
  8
LAYER-1
 62
  7
 10
44.593036
 20
10.175119
 30
0.000000
 40
0.183667
 50
180.000000
 51
270.000000
  0
ARC
  8
LAYER-1
 62
  7
 10
44.615741
 20
10.175119
 30
0.000000
 40
0.183667
 50
270.000000
 51
0.000000
  0
ARC
  8
LAYER-1
 62
  7
 10
44.615741
 20
10.859051
 30
0.000000
 40
0.183667
 50
0.000000
 51
90.000000
  0
POLYLINE
  8
LAYER-1
 66
  1
 70
  1
 62
  7
  0
VERTEX
  8
LAYER-1
 10
44.529367
 20
10.102037
 30
0.000000
  0
VERTEX
  8
LAYER-1
 10
44.679406
 20
10.102037
 30
0.000000
  0
VERTEX
  8
LAYER-1
 10
44.679406
 20
8.812049
 30
0.000000
  0
VERTEX
  8
LAYER-1
 10
44.529367
 20
8.812049
 30
0.000000
  0
SEQEND
  8
LAYER-1
  0
POLYLINE
  8
LAYER-1
 66
  1
 70
  1
 62
  7
  0
VERTEX
  8
LAYER-1
 10
44.529367
 20
11.442125
 30
0.000000
  0
VERTEX
  8
LAYER-1
 10
44.679406
 20
11.442125
 30
0.000000
  0
VERTEX
  8
LAYER-1
 10
44.679406
 20
10.872108
 30
0.000000
  0
VERTEX
  8
LAYER-1
 10
44.529367
 20
10.872108
 30
0.000000
  0
SEQEND
  8
LAYER-1
  0
POLYLINE
  8
LAYER-1
 66
  1
 70
  0
 62
  7
 10
44.585191
 20
4.749014
 30
0.000000
  0
VERTEX
  8
LAYER-1
 10
44.585191
 20
4.749014
 30
0.000000
  0
VERTEX
  8
LAYER-1
 10
44.623582
 20
4.749014
 30
0.000000
  0
SEQEND
  8
LAYER-1
  0
POLYLINE
  8
LAYER-1
 66
  1
 70
  0
 62
  7
 10
44.934406
 20
4.438185
 30
0.000000
  0
VERTEX
  8
LAYER-1
 10
44.934406
 20
4.438185
 30
0.000000
  0
VERTEX
  8
LAYER-1
 10
44.934406
 20
3.675913
 30
0.000000
  0
SEQEND
  8
LAYER-1
  0
POLYLINE
  8
LAYER-1
 66
  1
 70
  0
 62
  7
 10
44.623582
 20
3.365094
 30
0.000000
  0
VERTEX
  8
LAYER-1
 10
44.623582
 20
3.365094
 30
0.000000
  0
VERTEX
  8
LAYER-1
 10
44.585191
 20
3.365094
 30
0.000000
  0
SEQEND
  8
LAYER-1
  0
POLYLINE
  8
LAYER-1
 66
  1
 70
  0
 62
  7
 10
44.274372
 20
3.675913
 30
0.000000
  0
VERTEX
  8
LAYER-1
 10
44.274372
 20
3.675913
 30
0.000000
  0
VERTEX
  8
LAYER-1
 10
44.274372
 20
4.438185
 30
0.000000
  0
SEQEND
  8
LAYER-1
  0
ARC
  8
LAYER-1
 62
  7
 10
44.585191
 20
4.438185
 30
0.000000
 40
0.310821
 50
90.000000
 51
180.000000
  0
ARC
  8
LAYER-1
 62
  7
 10
44.585191
 20
3.675913
 30
0.000000
 40
0.310821
 50
180.000000
 51
270.000000
  0
ARC
  8
LAYER-1
 62
  7
 10
44.623582
 20
3.675913
 30
0.000000
 40
0.310821
 50
270.000000
 51
0.000000
  0
ARC
  8
LAYER-1
 62
  7
 10
44.623582
 20
4.438185
 30
0.000000
 40
0.310821
 50
0.000000
 51
90.000000
  0
POLYLINE
  8
LAYER-1
 66
  1
 70
  0
 62
  7
 10
44.593036
 20
4.562716
 30
0.000000
  0
VERTEX
  8
LAYER-1
 10
44.593036
 20
4.562716
 30
0.000000
  0
VERTEX
  8
LAYER-1
 10
44.615741
 20
4.562716
 30
0.000000
  0
SEQEND
  8
LAYER-1
  0
POLYLINE
  8
LAYER-1
 66
  1
 70
  0
 62
  7
 10
44.799406
 20
4.379038
 30
0.000000
  0
VERTEX
  8
LAYER-1
 10
44.799406
 20
4.379038
 30
0.000000
  0
VERTEX
  8
LAYER-1
 10
44.799406
 20
3.695106
 30
0.000000
  0
SEQEND
  8
LAYER-1
  0
POLYLINE
  8
LAYER-1
 66
  1
 70
  0
 62
  7
 10
44.615741
 20
3.511437
 30
0.000000
  0
VERTEX
  8
LAYER-1
 10
44.615741
 20
3.511437
 30
0.000000
  0
VERTEX
  8
LAYER-1
 10
44.593036
 20
3.511437
 30
0.000000
  0
SEQEND
  8
LAYER-1
  0
POLYLINE
  8
LAYER-1
 66
  1
 70
  0
 62
  7
 10
44.409367
 20
3.695106
 30
0.000000
  0
VERTEX
  8
LAYER-1
 10
44.409367
 20
3.695106
 30
0.000000
  0
VERTEX
  8
LAYER-1
 10
44.409367
 20
4.379038
 30
0.000000
  0
SEQEND
  8
LAYER-1
  0
ARC
  8
LAYER-1
 62
  7
 10
44.593036
 20
4.379038
 30
0.000000
 40
0.183667
 50
90.000000
 51
180.000000
  0
ARC
  8
LAYER-1
 62
  7
 10
44.593036
 20
3.695106
 30
0.000000
 40
0.183667
 50
180.000000
 51
270.000000
  0
ARC
  8
LAYER-1
 62
  7
 10
44.615741
 20
3.695106
 30
0.000000
 40
0.183667
 50
270.000000
 51
0.000000
  0
ARC
  8
LAYER-1
 62
  7
 10
44.615741
 20
4.379038
 30
0.000000
 40
0.183667
 50
0.000000
 51
90.000000
  0
POLYLINE
  8
LAYER-1
 66
  1
 70
  1
 62
  7
  0
VERTEX
  8
LAYER-1
 10
44.679406
 20
4.357037
 30
0.000000
  0
VERTEX
  8
LAYER-1
 10
44.529367
 20
4.357037
 30
0.000000
  0
VERTEX
  8
LAYER-1
 10
44.529367
 20
5.647067
 30
0.000000
  0
VERTEX
  8
LAYER-1
 10
44.679406
 20
5.647067
 30
0.000000
  0
SEQEND
  8
LAYER-1
  0
POLYLINE
  8
LAYER-1
 66
  1
 70
  0
 62
  7
 10
44.585191
 20
2.911508
 30
0.000000
  0
VERTEX
  8
LAYER-1
 10
44.585191
 20
2.911508
 30
0.000000
  0
VERTEX
  8
LAYER-1
 10
44.623582
 20
2.911508
 30
0.000000
  0
SEQEND
  8
LAYER-1
  0
POLYLINE
  8
LAYER-1
 66
  1
 70
  0
 62
  7
 10
44.934406
 20
2.600680
 30
0.000000
  0
VERTEX
  8
LAYER-1
 10
44.934406
 20
2.600680
 30
0.000000
  0
VERTEX
  8
LAYER-1
 10
44.934406
 20
1.838407
 30
0.000000
  0
SEQEND
  8
LAYER-1
  0
POLYLINE
  8
LAYER-1
 66
  1
 70
  0
 62
  7
 10
44.623582
 20
1.527588
 30
0.000000
  0
VERTEX
  8
LAYER-1
 10
44.623582
 20
1.527588
 30
0.000000
  0
VERTEX
  8
LAYER-1
 10
44.585191
 20
1.527588
 30
0.000000
  0
SEQEND
  8
LAYER-1
  0
POLYLINE
  8
LAYER-1
 66
  1
 70
  0
 62
  7
 10
44.274372
 20
1.838407
 30
0.000000
  0
VERTEX
  8
LAYER-1
 10
44.274372
 20
1.838407
 30
0.000000
  0
VERTEX
  8
LAYER-1
 10
44.274372
 20
2.600680
 30
0.000000
  0
SEQEND
  8
LAYER-1
  0
ARC
  8
LAYER-1
 62
  7
 10
44.585191
 20
2.600680
 30
0.000000
 40
0.310821
 50
90.000000
 51
180.000000
  0
ARC
  8
LAYER-1
 62
  7
 10
44.585191
 20
1.838407
 30
0.000000
 40
0.310821
 50
180.000000
 51
270.000000
  0
ARC
  8
LAYER-1
 62
  7
 10
44.623582
 20
1.838407
 30
0.000000
 40
0.310821
 50
270.000000
 51
0.000000
  0
ARC
  8
LAYER-1
 62
  7
 10
44.623582
 20
2.600680
 30
0.000000
 40
0.310821
 50
0.000000
 51
90.000000
  0
POLYLINE
  8
LAYER-1
 66
  1
 70
  0
 62
  7
 10
44.593036
 20
2.725210
 30
0.000000
  0
VERTEX
  8
LAYER-1
 10
44.593036
 20
2.725210
 30
0.000000
  0
VERTEX
  8
LAYER-1
 10
44.615741
 20
2.725210
 30
0.000000
  0
SEQEND
  8
LAYER-1
  0
POLYLINE
  8
LAYER-1
 66
  1
 70
  0
 62
  7
 10
44.799406
 20
2.541532
 30
0.000000
  0
VERTEX
  8
LAYER-1
 10
44.799406
 20
2.541532
 30
0.000000
  0
VERTEX
  8
LAYER-1
 10
44.799406
 20
1.857600
 30
0.000000
  0
SEQEND
  8
LAYER-1
  0
POLYLINE
  8
LAYER-1
 66
  1
 70
  0
 62
  7
 10
44.615741
 20
1.673931
 30
0.000000
  0
VERTEX
  8
LAYER-1
 10
44.615741
 20
1.673931
 30
0.000000
  0
VERTEX
  8
LAYER-1
 10
44.593036
 20
1.673931
 30
0.000000
  0
SEQEND
  8
LAYER-1
  0
POLYLINE
  8
LAYER-1
 66
  1
 70
  0
 62
  7
 10
44.409367
 20
1.857600
 30
0.000000
  0
VERTEX
  8
LAYER-1
 10
44.409367
 20
1.857600
 30
0.000000
  0
VERTEX
  8
LAYER-1
 10
44.409367
 20
2.541532
 30
0.000000
  0
SEQEND
  8
LAYER-1
  0
ARC
  8
LAYER-1
 62
  7
 10
44.593036
 20
2.541532
 30
0.000000
 40
0.183667
 50
90.000000
 51
180.000000
  0
ARC
  8
LAYER-1
 62
  7
 10
44.593036
 20
1.857600
 30
0.000000
 40
0.183667
 50
180.000000
 51
270.000000
  0
ARC
  8
LAYER-1
 62
  7
 10
44.615741
 20
1.857600
 30
0.000000
 40
0.183667
 50
270.000000
 51
0.000000
  0
ARC
  8
LAYER-1
 62
  7
 10
44.615741
 20
2.541532
 30
0.000000
 40
0.183667
 50
0.000000
 51
90.000000
  0
POLYLINE
  8
LAYER-1
 66
  1
 70
  1
 62
  7
  0
VERTEX
  8
LAYER-1
 10
44.679406
 20
2.519531
 30
0.000000
  0
VERTEX
  8
LAYER-1
 10
44.529367
 20
2.519531
 30
0.000000
  0
VERTEX
  8
LAYER-1
 10
44.529367
 20
3.809561
 30
0.000000
  0
VERTEX
  8
LAYER-1
 10
44.679406
 20
3.809561
 30
0.000000
  0
SEQEND
  8
LAYER-1
  0
POLYLINE
  8
LAYER-1
 66
  1
 70
  0
 62
  7
 10
47.835139
 20
6.927133
 30
0.000000
  0
VERTEX
  8
LAYER-1
 10
47.835139
 20
6.927133
 30
0.000000
  0
VERTEX
  8
LAYER-1
 10
47.835177
 20
6.927133
 30
0.000000
  0
SEQEND
  8
LAYER-1
  0
POLYLINE
  8
LAYER-1
 66
  1
 70
  0
 62
  7
 10
48.165175
 20
6.597130
 30
0.000000
  0
VERTEX
  8
LAYER-1
 10
48.165175
 20
6.597130
 30
0.000000
  0
VERTEX
  8
LAYER-1
 10
48.165175
 20
5.697153
 30
0.000000
  0
SEQEND
  8
LAYER-1
  0
POLYLINE
  8
LAYER-1
 66
  1
 70
  0
 62
  7
 10
47.835177
 20
5.367150
 30
0.000000
  0
VERTEX
  8
LAYER-1
 10
47.835177
 20
5.367150
 30
0.000000
  0
VERTEX
  8
LAYER-1
 10
47.835139
 20
5.367150
 30
0.000000
  0
SEQEND
  8
LAYER-1
  0
POLYLINE
  8
LAYER-1
 66
  1
 70
  0
 62
  7
 10
47.505141
 20
5.697153
 30
0.000000
  0
VERTEX
  8
LAYER-1
 10
47.505141
 20
5.697153
 30
0.000000
  0
VERTEX
  8
LAYER-1
 10
47.505141
 20
6.597130
 30
0.000000
  0
SEQEND
  8
LAYER-1
  0
ARC
  8
LAYER-1
 62
  7
 10
47.835139
 20
6.597130
 30
0.000000
 40
0.329999
 50
90.000000
 51
180.000000
  0
ARC
  8
LAYER-1
 62
  7
 10
47.835139
 20
5.697153
 30
0.000000
 40
0.329999
 50
180.000000
 51
270.000000
  0
ARC
  8
LAYER-1
 62
  7
 10
47.835177
 20
5.697153
 30
0.000000
 40
0.329999
 50
270.000000
 51
0.000000
  0
ARC
  8
LAYER-1
 62
  7
 10
47.835177
 20
6.597130
 30
0.000000
 40
0.329999
 50
0.000000
 51
90.000000
  0
POLYLINE
  8
LAYER-1
 66
  1
 70
  0
 62
  7
 10
47.835139
 20
6.717116
 30
0.000000
  0
VERTEX
  8
LAYER-1
 10
47.835139
 20
6.717116
 30
0.000000
  0
VERTEX
  8
LAYER-1
 10
47.835177
 20
6.717116
 30
0.000000
  0
SEQEND
  8
LAYER-1
  0
POLYLINE
  8
LAYER-1
 66
  1
 70
  0
 62
  7
 10
48.030175
 20
6.522118
 30
0.000000
  0
VERTEX
  8
LAYER-1
 10
48.030175
 20
6.522118
 30
0.000000
  0
VERTEX
  8
LAYER-1
 10
48.030175
 20
5.727135
 30
0.000000
  0
SEQEND
  8
LAYER-1
  0
POLYLINE
  8
LAYER-1
 66
  1
 70
  0
 62
  7
 10
47.835177
 20
5.532137
 30
0.000000
  0
VERTEX
  8
LAYER-1
 10
47.835177
 20
5.532137
 30
0.000000
  0
VERTEX
  8
LAYER-1
 10
47.835139
 20
5.532137
 30
0.000000
  0
SEQEND
  8
LAYER-1
  0
POLYLINE
  8
LAYER-1
 66
  1
 70
  0
 62
  7
 10
47.640137
 20
5.727135
 30
0.000000
  0
VERTEX
  8
LAYER-1
 10
47.640137
 20
5.727135
 30
0.000000
  0
VERTEX
  8
LAYER-1
 10
47.640137
 20
6.522118
 30
0.000000
  0
SEQEND
  8
LAYER-1
  0
ARC
  8
LAYER-1
 62
  7
 10
47.835139
 20
6.522118
 30
0.000000
 40
0.195000
 50
90.000000
 51
180.000000
  0
ARC
  8
LAYER-1
 62
  7
 10
47.835139
 20
5.727135
 30
0.000000
 40
0.195000
 50
180.000000
 51
270.000000
  0
ARC
  8
LAYER-1
 62
  7
 10
47.835177
 20
5.727135
 30
0.000000
 40
0.195000
 50
270.000000
 51
0.000000
  0
ARC
  8
LAYER-1
 62
  7
 10
47.835177
 20
6.522118
 30
0.000000
 40
0.195000
 50
0.000000
 51
90.000000
  0
POLYLINE
  8
LAYER-1
 66
  1
 70
  0
 62
  7
 10
47.835139
 20
9.112032
 30
0.000000
  0
VERTEX
  8
LAYER-1
 10
47.835139
 20
9.112032
 30
0.000000
  0
VERTEX
  8
LAYER-1
 10
47.835177
 20
9.112032
 30
0.000000
  0
SEQEND
  8
LAYER-1
  0
POLYLINE
  8
LAYER-1
 66
  1
 70
  0
 62
  7
 10
48.165175
 20
8.782029
 30
0.000000
  0
VERTEX
  8
LAYER-1
 10
48.165175
 20
8.782029
 30
0.000000
  0
VERTEX
  8
LAYER-1
 10
48.165175
 20
7.882057
 30
0.000000
  0
SEQEND
  8
LAYER-1
  0
POLYLINE
  8
LAYER-1
 66
  1
 70
  0
 62
  7
 10
47.835177
 20
7.552054
 30
0.000000
  0
VERTEX
  8
LAYER-1
 10
47.835177
 20
7.552054
 30
0.000000
  0
VERTEX
  8
LAYER-1
 10
47.835139
 20
7.552054
 30
0.000000
  0
SEQEND
  8
LAYER-1
  0
POLYLINE
  8
LAYER-1
 66
  1
 70
  0
 62
  7
 10
47.505141
 20
7.882057
 30
0.000000
  0
VERTEX
  8
LAYER-1
 10
47.505141
 20
7.882057
 30
0.000000
  0
VERTEX
  8
LAYER-1
 10
47.505141
 20
8.782029
 30
0.000000
  0
SEQEND
  8
LAYER-1
  0
ARC
  8
LAYER-1
 62
  7
 10
47.835139
 20
8.782029
 30
0.000000
 40
0.329999
 50
90.000000
 51
180.000000
  0
ARC
  8
LAYER-1
 62
  7
 10
47.835139
 20
7.882057
 30
0.000000
 40
0.329999
 50
180.000000
 51
270.000000
  0
ARC
  8
LAYER-1
 62
  7
 10
47.835177
 20
7.882057
 30
0.000000
 40
0.329999
 50
270.000000
 51
0.000000
  0
ARC
  8
LAYER-1
 62
  7
 10
47.835177
 20
8.782029
 30
0.000000
 40
0.329999
 50
0.000000
 51
90.000000
  0
POLYLINE
  8
LAYER-1
 66
  1
 70
  0
 62
  7
 10
47.835139
 20
8.902062
 30
0.000000
  0
VERTEX
  8
LAYER-1
 10
47.835139
 20
8.902062
 30
0.000000
  0
VERTEX
  8
LAYER-1
 10
47.835177
 20
8.902062
 30
0.000000
  0
SEQEND
  8
LAYER-1
  0
POLYLINE
  8
LAYER-1
 66
  1
 70
  0
 62
  7
 10
48.030175
 20
8.707069
 30
0.000000
  0
VERTEX
  8
LAYER-1
 10
48.030175
 20
8.707069
 30
0.000000
  0
VERTEX
  8
LAYER-1
 10
48.030175
 20
7.912039
 30
0.000000
  0
SEQEND
  8
LAYER-1
  0
POLYLINE
  8
LAYER-1
 66
  1
 70
  0
 62
  7
 10
47.835177
 20
7.717041
 30
0.000000
  0
VERTEX
  8
LAYER-1
 10
47.835177
 20
7.717041
 30
0.000000
  0
VERTEX
  8
LAYER-1
 10
47.835139
 20
7.717041
 30
0.000000
  0
SEQEND
  8
LAYER-1
  0
POLYLINE
  8
LAYER-1
 66
  1
 70
  0
 62
  7
 10
47.640137
 20
7.912039
 30
0.000000
  0
VERTEX
  8
LAYER-1
 10
47.640137
 20
7.912039
 30
0.000000
  0
VERTEX
  8
LAYER-1
 10
47.640137
 20
8.707069
 30
0.000000
  0
SEQEND
  8
LAYER-1
  0
ARC
  8
LAYER-1
 62
  7
 10
47.835139
 20
8.707069
 30
0.000000
 40
0.195000
 50
90.000000
 51
180.000000
  0
ARC
  8
LAYER-1
 62
  7
 10
47.835139
 20
7.912039
 30
0.000000
 40
0.195000
 50
180.000000
 51
270.000000
  0
ARC
  8
LAYER-1
 62
  7
 10
47.835177
 20
7.912039
 30
0.000000
 40
0.195000
 50
270.000000
 51
0.000000
  0
ARC
  8
LAYER-1
 62
  7
 10
47.835177
 20
8.707069
 30
0.000000
 40
0.195000
 50
0.000000
 51
90.000000
  0
POLYLINE
  8
LAYER-1
 66
  1
 70
  1
 62
  7
  0
VERTEX
  8
LAYER-1
 10
47.760137
 20
7.807054
 30
0.000000
  0
VERTEX
  8
LAYER-1
 10
47.910175
 20
7.807054
 30
0.000000
  0
VERTEX
  8
LAYER-1
 10
47.910175
 20
6.517066
 30
0.000000
  0
VERTEX
  8
LAYER-1
 10
47.760137
 20
6.517066
 30
0.000000
  0
SEQEND
  8
LAYER-1
  0
POLYLINE
  8
LAYER-1
 66
  1
 70
  0
 62
  7
 10
47.815960
 20
11.229018
 30
0.000000
  0
VERTEX
  8
LAYER-1
 10
47.815960
 20
11.229018
 30
0.000000
  0
VERTEX
  8
LAYER-1
 10
47.854351
 20
11.229018
 30
0.000000
  0
SEQEND
  8
LAYER-1
  0
POLYLINE
  8
LAYER-1
 66
  1
 70
  0
 62
  7
 10
48.165175
 20
10.918199
 30
0.000000
  0
VERTEX
  8
LAYER-1
 10
48.165175
 20
10.918199
 30
0.000000
  0
VERTEX
  8
LAYER-1
 10
48.165175
 20
10.155926
 30
0.000000
  0
SEQEND
  8
LAYER-1
  0
POLYLINE
  8
LAYER-1
 66
  1
 70
  0
 62
  7
 10
47.854351
 20
9.845102
 30
0.000000
  0
VERTEX
  8
LAYER-1
 10
47.854351
 20
9.845102
 30
0.000000
  0
VERTEX
  8
LAYER-1
 10
47.815960
 20
9.845102
 30
0.000000
  0
SEQEND
  8
LAYER-1
  0
POLYLINE
  8
LAYER-1
 66
  1
 70
  0
 62
  7
 10
47.505141
 20
10.155926
 30
0.000000
  0
VERTEX
  8
LAYER-1
 10
47.505141
 20
10.155926
 30
0.000000
  0
VERTEX
  8
LAYER-1
 10
47.505141
 20
10.918199
 30
0.000000
  0
SEQEND
  8
LAYER-1
  0
ARC
  8
LAYER-1
 62
  7
 10
47.815960
 20
10.918199
 30
0.000000
 40
0.310821
 50
90.000000
 51
180.000000
  0
ARC
  8
LAYER-1
 62
  7
 10
47.815960
 20
10.155926
 30
0.000000
 40
0.310821
 50
180.000000
 51
270.000000
  0
ARC
  8
LAYER-1
 62
  7
 10
47.854351
 20
10.155926
 30
0.000000
 40
0.310821
 50
270.000000
 51
0.000000
  0
ARC
  8
LAYER-1
 62
  7
 10
47.854351
 20
10.918199
 30
0.000000
 40
0.310821
 50
0.000000
 51
90.000000
  0
POLYLINE
  8
LAYER-1
 66
  1
 70
  0
 62
  7
 10
47.823801
 20
11.042720
 30
0.000000
  0
VERTEX
  8
LAYER-1
 10
47.823801
 20
11.042720
 30
0.000000
  0
VERTEX
  8
LAYER-1
 10
47.846511
 20
11.042720
 30
0.000000
  0
SEQEND
  8
LAYER-1
  0
POLYLINE
  8
LAYER-1
 66
  1
 70
  0
 62
  7
 10
48.030175
 20
10.859051
 30
0.000000
  0
VERTEX
  8
LAYER-1
 10
48.030175
 20
10.859051
 30
0.000000
  0
VERTEX
  8
LAYER-1
 10
48.030175
 20
10.175119
 30
0.000000
  0
SEQEND
  8
LAYER-1
  0
POLYLINE
  8
LAYER-1
 66
  1
 70
  0
 62
  7
 10
47.846511
 20
9.991446
 30
0.000000
  0
VERTEX
  8
LAYER-1
 10
47.846511
 20
9.991446
 30
0.000000
  0
VERTEX
  8
LAYER-1
 10
47.823801
 20
9.991446
 30
0.000000
  0
SEQEND
  8
LAYER-1
  0
POLYLINE
  8
LAYER-1
 66
  1
 70
  0
 62
  7
 10
47.640137
 20
10.175119
 30
0.000000
  0
VERTEX
  8
LAYER-1
 10
47.640137
 20
10.175119
 30
0.000000
  0
VERTEX
  8
LAYER-1
 10
47.640137
 20
10.859051
 30
0.000000
  0
SEQEND
  8
LAYER-1
  0
ARC
  8
LAYER-1
 62
  7
 10
47.823801
 20
10.859051
 30
0.000000
 40
0.183667
 50
90.000000
 51
180.000000
  0
ARC
  8
LAYER-1
 62
  7
 10
47.823801
 20
10.175119
 30
0.000000
 40
0.183667
 50
180.000000
 51
270.000000
  0
ARC
  8
LAYER-1
 62
  7
 10
47.846511
 20
10.175119
 30
0.000000
 40
0.183667
 50
270.000000
 51
0.000000
  0
ARC
  8
LAYER-1
 62
  7
 10
47.846511
 20
10.859051
 30
0.000000
 40
0.183667
 50
0.000000
 51
90.000000
  0
POLYLINE
  8
LAYER-1
 66
  1
 70
  1
 62
  7
  0
VERTEX
  8
LAYER-1
 10
47.760137
 20
10.102037
 30
0.000000
  0
VERTEX
  8
LAYER-1
 10
47.910175
 20
10.102037
 30
0.000000
  0
VERTEX
  8
LAYER-1
 10
47.910175
 20
8.812049
 30
0.000000
  0
VERTEX
  8
LAYER-1
 10
47.760137
 20
8.812049
 30
0.000000
  0
SEQEND
  8
LAYER-1
  0
POLYLINE
  8
LAYER-1
 66
  1
 70
  1
 62
  7
  0
VERTEX
  8
LAYER-1
 10
47.760137
 20
11.442125
 30
0.000000
  0
VERTEX
  8
LAYER-1
 10
47.910175
 20
11.442125
 30
0.000000
  0
VERTEX
  8
LAYER-1
 10
47.910175
 20
10.872108
 30
0.000000
  0
VERTEX
  8
LAYER-1
 10
47.760137
 20
10.872108
 30
0.000000
  0
SEQEND
  8
LAYER-1
  0
POLYLINE
  8
LAYER-1
 66
  1
 70
  0
 62
  7
 10
47.815960
 20
4.749014
 30
0.000000
  0
VERTEX
  8
LAYER-1
 10
47.815960
 20
4.749014
 30
0.000000
  0
VERTEX
  8
LAYER-1
 10
47.854351
 20
4.749014
 30
0.000000
  0
SEQEND
  8
LAYER-1
  0
POLYLINE
  8
LAYER-1
 66
  1
 70
  0
 62
  7
 10
48.165175
 20
4.438185
 30
0.000000
  0
VERTEX
  8
LAYER-1
 10
48.165175
 20
4.438185
 30
0.000000
  0
VERTEX
  8
LAYER-1
 10
48.165175
 20
3.675913
 30
0.000000
  0
SEQEND
  8
LAYER-1
  0
POLYLINE
  8
LAYER-1
 66
  1
 70
  0
 62
  7
 10
47.854351
 20
3.365094
 30
0.000000
  0
VERTEX
  8
LAYER-1
 10
47.854351
 20
3.365094
 30
0.000000
  0
VERTEX
  8
LAYER-1
 10
47.815960
 20
3.365094
 30
0.000000
  0
SEQEND
  8
LAYER-1
  0
POLYLINE
  8
LAYER-1
 66
  1
 70
  0
 62
  7
 10
47.505141
 20
3.675913
 30
0.000000
  0
VERTEX
  8
LAYER-1
 10
47.505141
 20
3.675913
 30
0.000000
  0
VERTEX
  8
LAYER-1
 10
47.505141
 20
4.438185
 30
0.000000
  0
SEQEND
  8
LAYER-1
  0
ARC
  8
LAYER-1
 62
  7
 10
47.815960
 20
4.438185
 30
0.000000
 40
0.310821
 50
90.000000
 51
180.000000
  0
ARC
  8
LAYER-1
 62
  7
 10
47.815960
 20
3.675913
 30
0.000000
 40
0.310821
 50
180.000000
 51
270.000000
  0
ARC
  8
LAYER-1
 62
  7
 10
47.854351
 20
3.675913
 30
0.000000
 40
0.310821
 50
270.000000
 51
0.000000
  0
ARC
  8
LAYER-1
 62
  7
 10
47.854351
 20
4.438185
 30
0.000000
 40
0.310821
 50
0.000000
 51
90.000000
  0
POLYLINE
  8
LAYER-1
 66
  1
 70
  0
 62
  7
 10
47.823801
 20
4.562716
 30
0.000000
  0
VERTEX
  8
LAYER-1
 10
47.823801
 20
4.562716
 30
0.000000
  0
VERTEX
  8
LAYER-1
 10
47.846511
 20
4.562716
 30
0.000000
  0
SEQEND
  8
LAYER-1
  0
POLYLINE
  8
LAYER-1
 66
  1
 70
  0
 62
  7
 10
48.030175
 20
4.379038
 30
0.000000
  0
VERTEX
  8
LAYER-1
 10
48.030175
 20
4.379038
 30
0.000000
  0
VERTEX
  8
LAYER-1
 10
48.030175
 20
3.695106
 30
0.000000
  0
SEQEND
  8
LAYER-1
  0
POLYLINE
  8
LAYER-1
 66
  1
 70
  0
 62
  7
 10
47.846511
 20
3.511437
 30
0.000000
  0
VERTEX
  8
LAYER-1
 10
47.846511
 20
3.511437
 30
0.000000
  0
VERTEX
  8
LAYER-1
 10
47.823801
 20
3.511437
 30
0.000000
  0
SEQEND
  8
LAYER-1
  0
POLYLINE
  8
LAYER-1
 66
  1
 70
  0
 62
  7
 10
47.640137
 20
3.695106
 30
0.000000
  0
VERTEX
  8
LAYER-1
 10
47.640137
 20
3.695106
 30
0.000000
  0
VERTEX
  8
LAYER-1
 10
47.640137
 20
4.379038
 30
0.000000
  0
SEQEND
  8
LAYER-1
  0
ARC
  8
LAYER-1
 62
  7
 10
47.823801
 20
4.379038
 30
0.000000
 40
0.183667
 50
90.000000
 51
180.000000
  0
ARC
  8
LAYER-1
 62
  7
 10
47.823801
 20
3.695106
 30
0.000000
 40
0.183667
 50
180.000000
 51
270.000000
  0
ARC
  8
LAYER-1
 62
  7
 10
47.846511
 20
3.695106
 30
0.000000
 40
0.183667
 50
270.000000
 51
0.000000
  0
ARC
  8
LAYER-1
 62
  7
 10
47.846511
 20
4.379038
 30
0.000000
 40
0.183667
 50
0.000000
 51
90.000000
  0
POLYLINE
  8
LAYER-1
 66
  1
 70
  1
 62
  7
  0
VERTEX
  8
LAYER-1
 10
47.910175
 20
4.357037
 30
0.000000
  0
VERTEX
  8
LAYER-1
 10
47.760137
 20
4.357037
 30
0.000000
  0
VERTEX
  8
LAYER-1
 10
47.760137
 20
5.647067
 30
0.000000
  0
VERTEX
  8
LAYER-1
 10
47.910175
 20
5.647067
 30
0.000000
  0
SEQEND
  8
LAYER-1
  0
POLYLINE
  8
LAYER-1
 66
  1
 70
  0
 62
  7
 10
47.815960
 20
2.911508
 30
0.000000
  0
VERTEX
  8
LAYER-1
 10
47.815960
 20
2.911508
 30
0.000000
  0
VERTEX
  8
LAYER-1
 10
47.854351
 20
2.911508
 30
0.000000
  0
SEQEND
  8
LAYER-1
  0
POLYLINE
  8
LAYER-1
 66
  1
 70
  0
 62
  7
 10
48.165175
 20
2.600680
 30
0.000000
  0
VERTEX
  8
LAYER-1
 10
48.165175
 20
2.600680
 30
0.000000
  0
VERTEX
  8
LAYER-1
 10
48.165175
 20
1.838407
 30
0.000000
  0
SEQEND
  8
LAYER-1
  0
POLYLINE
  8
LAYER-1
 66
  1
 70
  0
 62
  7
 10
47.854351
 20
1.527588
 30
0.000000
  0
VERTEX
  8
LAYER-1
 10
47.854351
 20
1.527588
 30
0.000000
  0
VERTEX
  8
LAYER-1
 10
47.815960
 20
1.527588
 30
0.000000
  0
SEQEND
  8
LAYER-1
  0
POLYLINE
  8
LAYER-1
 66
  1
 70
  0
 62
  7
 10
47.505141
 20
1.838407
 30
0.000000
  0
VERTEX
  8
LAYER-1
 10
47.505141
 20
1.838407
 30
0.000000
  0
VERTEX
  8
LAYER-1
 10
47.505141
 20
2.600680
 30
0.000000
  0
SEQEND
  8
LAYER-1
  0
ARC
  8
LAYER-1
 62
  7
 10
47.815960
 20
2.600680
 30
0.000000
 40
0.310821
 50
90.000000
 51
180.000000
  0
ARC
  8
LAYER-1
 62
  7
 10
47.815960
 20
1.838407
 30
0.000000
 40
0.310821
 50
180.000000
 51
270.000000
  0
ARC
  8
LAYER-1
 62
  7
 10
47.854351
 20
1.838407
 30
0.000000
 40
0.310821
 50
270.000000
 51
0.000000
  0
ARC
  8
LAYER-1
 62
  7
 10
47.854351
 20
2.600680
 30
0.000000
 40
0.310821
 50
0.000000
 51
90.000000
  0
POLYLINE
  8
LAYER-1
 66
  1
 70
  0
 62
  7
 10
47.823801
 20
2.725210
 30
0.000000
  0
VERTEX
  8
LAYER-1
 10
47.823801
 20
2.725210
 30
0.000000
  0
VERTEX
  8
LAYER-1
 10
47.846511
 20
2.725210
 30
0.000000
  0
SEQEND
  8
LAYER-1
  0
POLYLINE
  8
LAYER-1
 66
  1
 70
  0
 62
  7
 10
48.030175
 20
2.541532
 30
0.000000
  0
VERTEX
  8
LAYER-1
 10
48.030175
 20
2.541532
 30
0.000000
  0
VERTEX
  8
LAYER-1
 10
48.030175
 20
1.857600
 30
0.000000
  0
SEQEND
  8
LAYER-1
  0
POLYLINE
  8
LAYER-1
 66
  1
 70
  0
 62
  7
 10
47.846511
 20
1.673931
 30
0.000000
  0
VERTEX
  8
LAYER-1
 10
47.846511
 20
1.673931
 30
0.000000
  0
VERTEX
  8
LAYER-1
 10
47.823801
 20
1.673931
 30
0.000000
  0
SEQEND
  8
LAYER-1
  0
POLYLINE
  8
LAYER-1
 66
  1
 70
  0
 62
  7
 10
47.640137
 20
1.857600
 30
0.000000
  0
VERTEX
  8
LAYER-1
 10
47.640137
 20
1.857600
 30
0.000000
  0
VERTEX
  8
LAYER-1
 10
47.640137
 20
2.541532
 30
0.000000
  0
SEQEND
  8
LAYER-1
  0
ARC
  8
LAYER-1
 62
  7
 10
47.823801
 20
2.541532
 30
0.000000
 40
0.183667
 50
90.000000
 51
180.000000
  0
ARC
  8
LAYER-1
 62
  7
 10
47.823801
 20
1.857600
 30
0.000000
 40
0.183667
 50
180.000000
 51
270.000000
  0
ARC
  8
LAYER-1
 62
  7
 10
47.846511
 20
1.857600
 30
0.000000
 40
0.183667
 50
270.000000
 51
0.000000
  0
ARC
  8
LAYER-1
 62
  7
 10
47.846511
 20
2.541532
 30
0.000000
 40
0.183667
 50
0.000000
 51
90.000000
  0
POLYLINE
  8
LAYER-1
 66
  1
 70
  1
 62
  7
  0
VERTEX
  8
LAYER-1
 10
47.910175
 20
2.519531
 30
0.000000
  0
VERTEX
  8
LAYER-1
 10
47.760137
 20
2.519531
 30
0.000000
  0
VERTEX
  8
LAYER-1
 10
47.760137
 20
3.809561
 30
0.000000
  0
VERTEX
  8
LAYER-1
 10
47.910175
 20
3.809561
 30
0.000000
  0
SEQEND
  8
LAYER-1
  0
CIRCLE
  8
LAYER-1
 62
  7
 10
43.363502
 20
20.058946
 30
0.000000
 40
0.128472
  0
CIRCLE
  8
LAYER-1
 62
  7
 10
43.363502
 20
20.058946
 30
0.000000
 40
0.166667
  0
CIRCLE
  8
LAYER-1
 62
  7
 10
43.363502
 20
20.058946
 30
0.000000
 40
0.239583
  0
POLYLINE
  8
LAYER-1
 66
  1
 70
  1
 62
  7
 10
43.610032
 20
20.201275
 30
0.000000
  0
VERTEX
  8
LAYER-1
 10
43.610032
 20
20.201275
 30
0.000000
  0
VERTEX
  8
LAYER-1
 10
43.610032
 20
19.916607
 30
0.000000
  0
VERTEX
  8
LAYER-1
 10
43.363502
 20
19.774278
 30
0.000000
  0
VERTEX
  8
LAYER-1
 10
43.116976
 20
19.916607
 30
0.000000
  0
VERTEX
  8
LAYER-1
 10
43.116976
 20
20.201275
 30
0.000000
  0
VERTEX
  8
LAYER-1
 10
43.363502
 20
20.343609
 30
0.000000
  0
SEQEND
  8
LAYER-1
  0
CIRCLE
  8
LAYER-1
 62
  7
 10
49.097877
 20
15.628648
 30
0.000000
 40
0.128472
  0
CIRCLE
  8
LAYER-1
 62
  7
 10
49.097877
 20
15.628648
 30
0.000000
 40
0.166667
  0
CIRCLE
  8
LAYER-1
 62
  7
 10
49.097877
 20
15.628648
 30
0.000000
 40
0.239583
  0
POLYLINE
  8
LAYER-1
 66
  1
 70
  1
 62
  7
 10
49.344403
 20
15.770982
 30
0.000000
  0
VERTEX
  8
LAYER-1
 10
49.344403
 20
15.770982
 30
0.000000
  0
VERTEX
  8
LAYER-1
 10
49.344403
 20
15.486319
 30
0.000000
  0
VERTEX
  8
LAYER-1
 10
49.097877
 20
15.343985
 30
0.000000
  0
VERTEX
  8
LAYER-1
 10
48.851347
 20
15.486319
 30
0.000000
  0
VERTEX
  8
LAYER-1
 10
48.851347
 20
15.770982
 30
0.000000
  0
VERTEX
  8
LAYER-1
 10
49.097877
 20
15.913316
 30
0.000000
  0
SEQEND
  8
LAYER-1
  0
POLYLINE
  8
LAYER-1
 66
  1
 70
  1
 62
  7
 10
48.605685
 20
19.698557
 30
0.000000
  0
VERTEX
  8
LAYER-1
 10
48.605685
 20
19.698557
 30
0.000000
  0
VERTEX
  8
LAYER-1
 10
48.605685
 20
20.417307
 30
0.000000
  0
VERTEX
  8
LAYER-1
 10
48.855685
 20
20.667307
 30
0.000000
  0
VERTEX
  8
LAYER-1
 10
53.230685
 20
20.667307
 30
0.000000
  0
VERTEX
  8
LAYER-1
 10
53.230685
 20
19.448557
 30
0.000000
  0
VERTEX
  8
LAYER-1
 10
48.855685
 20
19.448557
 30
0.000000
  0
SEQEND
  8
LAYER-1
  0
POLYLINE
  8
LAYER-1
 66
  1
 70
  0
 62
  7
 10
53.113497
 20
19.448557
 30
0.000000
  0
VERTEX
  8
LAYER-1
 10
53.113497
 20
19.448557
 30
0.000000
  0
VERTEX
  8
LAYER-1
 10
53.113497
 20
20.667307
 30
0.000000
  0
SEQEND
  8
LAYER-1
  0
POLYLINE
  8
LAYER-1
 66
  1
 70
  0
 62
  7
 10
53.231797
 20
20.416185
 30
0.000000
  0
VERTEX
  8
LAYER-1
 10
53.231797
 20
20.416185
 30
0.000000
  0
VERTEX
  8
LAYER-1
 10
53.115727
 20
20.416185
 30
0.000000
  0
SEQEND
  8
LAYER-1
  0
POLYLINE
  8
LAYER-1
 66
  1
 70
  0
 62
  7
 10
53.231797
 20
19.692974
 30
0.000000
  0
VERTEX
  8
LAYER-1
 10
53.231797
 20
19.692974
 30
0.000000
  0
VERTEX
  8
LAYER-1
 10
53.115727
 20
19.692974
 30
0.000000
  0
SEQEND
  8
LAYER-1
  0
CIRCLE
  8
LAYER-1
 62
  7
 10
49.019747
 20
20.059040
 30
0.000000
 40
0.158482
  0
CIRCLE
  8
LAYER-1
 62
  7
 10
49.582247
 20
20.059040
 30
0.000000
 40
0.158482
  0
CIRCLE
  8
LAYER-1
 62
  7
 10
50.144747
 20
20.059040
 30
0.000000
 40
0.158482
  0
CIRCLE
  8
LAYER-1
 62
  7
 10
50.707247
 20
20.059040
 30
0.000000
 40
0.158482
  0
CIRCLE
  8
LAYER-1
 62
  7
 10
51.269747
 20
20.059040
 30
0.000000
 40
0.158482
  0
POLYLINE
  8
LAYER-1
  6
LTYPE01
 66
  1
 70
  0
 62
  7
  6
LTYPE01
 10
53.231797
 20
20.215290
 30
0.000000
  0
VERTEX
  8
LAYER-1
  6
LTYPE01
 10
53.231797
 20
20.215290
 30
0.000000
  0
VERTEX
  8
LAYER-1
  6
LTYPE01
 10
53.115727
 20
20.215290
 30
0.000000
  0
SEQEND
  8
LAYER-1
  0
POLYLINE
  8
LAYER-1
  6
LTYPE01
 66
  1
 70
  0
 62
  7
  6
LTYPE01
 10
53.231797
 20
19.898330
 30
0.000000
  0
VERTEX
  8
LAYER-1
  6
LTYPE01
 10
53.231797
 20
19.898330
 30
0.000000
  0
VERTEX
  8
LAYER-1
  6
LTYPE01
 10
53.115727
 20
19.898330
 30
0.000000
  0
SEQEND
  8
LAYER-1
  0
POLYLINE
  8
LAYER-1
 66
  1
 70
  0
 62
  7
 10
55.092384
 20
20.055298
 30
0.000000
  0
VERTEX
  8
LAYER-1
 10
55.092384
 20
20.055298
 30
0.000000
  0
VERTEX
  8
LAYER-1
 10
54.989892
 20
19.989474
 30
0.000000
  0
SEQEND
  8
LAYER-1
  0
POLYLINE
  8
LAYER-1
 66
  1
 70
  0
 62
  7
 10
55.092384
 20
20.055298
 30
0.000000
  0
VERTEX
  8
LAYER-1
 10
55.092384
 20
20.055298
 30
0.000000
  0
VERTEX
  8
LAYER-1
 10
54.954341
 20
20.121920
 30
0.000000
  0
SEQEND
  8
LAYER-1
  0
POLYLINE
  8
LAYER-1
 66
  1
 70
  1
 62
  7
 10
55.033039
 20
20.104530
 30
0.000000
  0
VERTEX
  8
LAYER-1
 10
55.033039
 20
20.104530
 30
0.000000
  0
VERTEX
  8
LAYER-1
 10
55.013043
 20
20.124446
 30
0.000000
  0
VERTEX
  8
LAYER-1
 10
54.993047
 20
20.104530
 30
0.000000
  0
VERTEX
  8
LAYER-1
 10
55.028593
 20
20.015240
 30
0.000000
  0
VERTEX
  8
LAYER-1
 10
55.048589
 20
19.995324
 30
0.000000
  0
VERTEX
  8
LAYER-1
 10
55.068580
 20
20.015240
 30
0.000000
  0
SEQEND
  8
LAYER-1
  0
POLYLINE
  8
LAYER-1
 66
  1
 70
  0
 62
  7
 10
54.608253
 20
20.151456
 30
0.000000
  0
VERTEX
  8
LAYER-1
 10
54.608253
 20
20.151456
 30
0.000000
  0
VERTEX
  8
LAYER-1
 10
54.588257
 20
20.121920
 30
0.000000
  0
SEQEND
  8
LAYER-1
  0
POLYLINE
  8
LAYER-1
 66
  1
 70
  0
 62
  7
 10
54.608253
 20
20.151456
 30
0.000000
  0
VERTEX
  8
LAYER-1
 10
54.608253
 20
20.151456
 30
0.000000
  0
VERTEX
  8
LAYER-1
 10
54.628249
 20
20.121920
 30
0.000000
  0
SEQEND
  8
LAYER-1
  0
POLYLINE
  8
LAYER-1
 66
  1
 70
  0
 62
  7
 10
54.643794
 20
19.959933
 30
0.000000
  0
VERTEX
  8
LAYER-1
 10
54.643794
 20
19.959933
 30
0.000000
  0
VERTEX
  8
LAYER-1
 10
54.623803
 20
19.989474
 30
0.000000
  0
SEQEND
  8
LAYER-1
  0
POLYLINE
  8
LAYER-1
 66
  1
 70
  0
 62
  7
 10
54.643794
 20
19.959933
 30
0.000000
  0
VERTEX
  8
LAYER-1
 10
54.643794
 20
19.959933
 30
0.000000
  0
VERTEX
  8
LAYER-1
 10
54.663795
 20
19.989474
 30
0.000000
  0
SEQEND
  8
LAYER-1
  0
POLYLINE
  8
LAYER-1
 66
  1
 70
  0
 62
  7
 10
54.588257
 20
20.121920
 30
0.000000
  0
VERTEX
  8
LAYER-1
 10
54.588257
 20
20.121920
 30
0.000000
  0
VERTEX
  8
LAYER-1
 10
54.623803
 20
19.989474
 30
0.000000
  0
SEQEND
  8
LAYER-1
  0
POLYLINE
  8
LAYER-1
 66
  1
 70
  0
 62
  7
 10
54.608253
 20
20.151456
 30
0.000000
  0
VERTEX
  8
LAYER-1
 10
54.608253
 20
20.151456
 30
0.000000
  0
VERTEX
  8
LAYER-1
 10
54.643794
 20
19.959933
 30
0.000000
  0
SEQEND
  8
LAYER-1
  0
POLYLINE
  8
LAYER-1
 66
  1
 70
  0
 62
  7
 10
54.628249
 20
20.121920
 30
0.000000
  0
VERTEX
  8
LAYER-1
 10
54.628249
 20
20.121920
 30
0.000000
  0
VERTEX
  8
LAYER-1
 10
54.663795
 20
19.989474
 30
0.000000
  0
SEQEND
  8
LAYER-1
  0
POLYLINE
  8
LAYER-1
 66
  1
 70
  0
 62
  7
 10
54.628249
 20
20.121920
 30
0.000000
  0
VERTEX
  8
LAYER-1
 10
54.628249
 20
20.121920
 30
0.000000
  0
VERTEX
  8
LAYER-1
 10
54.669781
 20
20.121920
 30
0.000000
  0
SEQEND
  8
LAYER-1
  0
POLYLINE
  8
LAYER-1
 66
  1
 70
  0
 62
  7
 10
54.663795
 20
19.989474
 30
0.000000
  0
VERTEX
  8
LAYER-1
 10
54.663795
 20
19.989474
 30
0.000000
  0
VERTEX
  8
LAYER-1
 10
54.705327
 20
19.989474
 30
0.000000
  0
SEQEND
  8
LAYER-1
  0
POLYLINE
  8
LAYER-1
 66
  1
 70
  0
 62
  7
 10
55.013043
 20
20.124446
 30
0.000000
  0
VERTEX
  8
LAYER-1
 10
55.013043
 20
20.124446
 30
0.000000
  0
VERTEX
  8
LAYER-1
 10
55.048589
 20
19.995324
 30
0.000000
  0
SEQEND
  8
LAYER-1
  0
POLYLINE
  8
LAYER-1
 66
  1
 70
  0
 62
  7
 10
54.689782
 20
20.151456
 30
0.000000
  0
VERTEX
  8
LAYER-1
 10
54.689782
 20
20.151456
 30
0.000000
  0
VERTEX
  8
LAYER-1
 10
54.669781
 20
20.121920
 30
0.000000
  0
SEQEND
  8
LAYER-1
  0
POLYLINE
  8
LAYER-1
 66
  1
 70
  0
 62
  7
 10
54.689782
 20
20.151456
 30
0.000000
  0
VERTEX
  8
LAYER-1
 10
54.689782
 20
20.151456
 30
0.000000
  0
VERTEX
  8
LAYER-1
 10
54.709773
 20
20.121920
 30
0.000000
  0
SEQEND
  8
LAYER-1
  0
POLYLINE
  8
LAYER-1
 66
  1
 70
  0
 62
  7
 10
54.725318
 20
19.959933
 30
0.000000
  0
VERTEX
  8
LAYER-1
 10
54.725318
 20
19.959933
 30
0.000000
  0
VERTEX
  8
LAYER-1
 10
54.705327
 20
19.989474
 30
0.000000
  0
SEQEND
  8
LAYER-1
  0
POLYLINE
  8
LAYER-1
 66
  1
 70
  0
 62
  7
 10
54.725318
 20
19.959933
 30
0.000000
  0
VERTEX
  8
LAYER-1
 10
54.725318
 20
19.959933
 30
0.000000
  0
VERTEX
  8
LAYER-1
 10
54.745314
 20
19.989474
 30
0.000000
  0
SEQEND
  8
LAYER-1
  0
POLYLINE
  8
LAYER-1
 66
  1
 70
  0
 62
  7
 10
54.669781
 20
20.121920
 30
0.000000
  0
VERTEX
  8
LAYER-1
 10
54.669781
 20
20.121920
 30
0.000000
  0
VERTEX
  8
LAYER-1
 10
54.705327
 20
19.989474
 30
0.000000
  0
SEQEND
  8
LAYER-1
  0
POLYLINE
  8
LAYER-1
 66
  1
 70
  0
 62
  7
 10
54.689782
 20
20.151456
 30
0.000000
  0
VERTEX
  8
LAYER-1
 10
54.689782
 20
20.151456
 30
0.000000
  0
VERTEX
  8
LAYER-1
 10
54.725318
 20
19.959933
 30
0.000000
  0
SEQEND
  8
LAYER-1
  0
POLYLINE
  8
LAYER-1
 66
  1
 70
  0
 62
  7
 10
54.709773
 20
20.121920
 30
0.000000
  0
VERTEX
  8
LAYER-1
 10
54.709773
 20
20.121920
 30
0.000000
  0
VERTEX
  8
LAYER-1
 10
54.745314
 20
19.989474
 30
0.000000
  0
SEQEND
  8
LAYER-1
  0
POLYLINE
  8
LAYER-1
 66
  1
 70
  0
 62
  7
 10
54.771301
 20
20.151456
 30
0.000000
  0
VERTEX
  8
LAYER-1
 10
54.771301
 20
20.151456
 30
0.000000
  0
VERTEX
  8
LAYER-1
 10
54.751305
 20
20.121920
 30
0.000000
  0
SEQEND
  8
LAYER-1
  0
POLYLINE
  8
LAYER-1
 66
  1
 70
  0
 62
  7
 10
54.771301
 20
20.151456
 30
0.000000
  0
VERTEX
  8
LAYER-1
 10
54.771301
 20
20.151456
 30
0.000000
  0
VERTEX
  8
LAYER-1
 10
54.791297
 20
20.121920
 30
0.000000
  0
SEQEND
  8
LAYER-1
  0
POLYLINE
  8
LAYER-1
 66
  1
 70
  0
 62
  7
 10
54.806847
 20
19.959933
 30
0.000000
  0
VERTEX
  8
LAYER-1
 10
54.806847
 20
19.959933
 30
0.000000
  0
VERTEX
  8
LAYER-1
 10
54.786851
 20
19.989474
 30
0.000000
  0
SEQEND
  8
LAYER-1
  0
POLYLINE
  8
LAYER-1
 66
  1
 70
  0
 62
  7
 10
54.806847
 20
19.959933
 30
0.000000
  0
VERTEX
  8
LAYER-1
 10
54.806847
 20
19.959933
 30
0.000000
  0
VERTEX
  8
LAYER-1
 10
54.826843
 20
19.989474
 30
0.000000
  0
SEQEND
  8
LAYER-1
  0
POLYLINE
  8
LAYER-1
 66
  1
 70
  0
 62
  7
 10
54.751305
 20
20.121920
 30
0.000000
  0
VERTEX
  8
LAYER-1
 10
54.751305
 20
20.121920
 30
0.000000
  0
VERTEX
  8
LAYER-1
 10
54.786851
 20
19.989474
 30
0.000000
  0
SEQEND
  8
LAYER-1
  0
POLYLINE
  8
LAYER-1
 66
  1
 70
  0
 62
  7
 10
54.771301
 20
20.151456
 30
0.000000
  0
VERTEX
  8
LAYER-1
 10
54.771301
 20
20.151456
 30
0.000000
  0
VERTEX
  8
LAYER-1
 10
54.806847
 20
19.959933
 30
0.000000
  0
SEQEND
  8
LAYER-1
  0
POLYLINE
  8
LAYER-1
 66
  1
 70
  0
 62
  7
 10
54.791297
 20
20.121920
 30
0.000000
  0
VERTEX
  8
LAYER-1
 10
54.791297
 20
20.121920
 30
0.000000
  0
VERTEX
  8
LAYER-1
 10
54.826843
 20
19.989474
 30
0.000000
  0
SEQEND
  8
LAYER-1
  0
POLYLINE
  8
LAYER-1
 66
  1
 70
  0
 62
  7
 10
54.852825
 20
20.151456
 30
0.000000
  0
VERTEX
  8
LAYER-1
 10
54.852825
 20
20.151456
 30
0.000000
  0
VERTEX
  8
LAYER-1
 10
54.832829
 20
20.121920
 30
0.000000
  0
SEQEND
  8
LAYER-1
  0
POLYLINE
  8
LAYER-1
 66
  1
 70
  0
 62
  7
 10
54.852825
 20
20.151456
 30
0.000000
  0
VERTEX
  8
LAYER-1
 10
54.852825
 20
20.151456
 30
0.000000
  0
VERTEX
  8
LAYER-1
 10
54.872822
 20
20.121920
 30
0.000000
  0
SEQEND
  8
LAYER-1
  0
POLYLINE
  8
LAYER-1
 66
  1
 70
  0
 62
  7
 10
54.888371
 20
19.959933
 30
0.000000
  0
VERTEX
  8
LAYER-1
 10
54.888371
 20
19.959933
 30
0.000000
  0
VERTEX
  8
LAYER-1
 10
54.868375
 20
19.989474
 30
0.000000
  0
SEQEND
  8
LAYER-1
  0
POLYLINE
  8
LAYER-1
 66
  1
 70
  0
 62
  7
 10
54.888371
 20
19.959933
 30
0.000000
  0
VERTEX
  8
LAYER-1
 10
54.888371
 20
19.959933
 30
0.000000
  0
VERTEX
  8
LAYER-1
 10
54.908367
 20
19.989474
 30
0.000000
  0
SEQEND
  8
LAYER-1
  0
POLYLINE
  8
LAYER-1
 66
  1
 70
  0
 62
  7
 10
54.832829
 20
20.121920
 30
0.000000
  0
VERTEX
  8
LAYER-1
 10
54.832829
 20
20.121920
 30
0.000000
  0
VERTEX
  8
LAYER-1
 10
54.868375
 20
19.989474
 30
0.000000
  0
SEQEND
  8
LAYER-1
  0
POLYLINE
  8
LAYER-1
 66
  1
 70
  0
 62
  7
 10
54.852825
 20
20.151456
 30
0.000000
  0
VERTEX
  8
LAYER-1
 10
54.852825
 20
20.151456
 30
0.000000
  0
VERTEX
  8
LAYER-1
 10
54.888371
 20
19.959933
 30
0.000000
  0
SEQEND
  8
LAYER-1
  0
POLYLINE
  8
LAYER-1
 66
  1
 70
  0
 62
  7
 10
54.872822
 20
20.121920
 30
0.000000
  0
VERTEX
  8
LAYER-1
 10
54.872822
 20
20.121920
 30
0.000000
  0
VERTEX
  8
LAYER-1
 10
54.908367
 20
19.989474
 30
0.000000
  0
SEQEND
  8
LAYER-1
  0
POLYLINE
  8
LAYER-1
 66
  1
 70
  0
 62
  7
 10
54.934350
 20
20.151456
 30
0.000000
  0
VERTEX
  8
LAYER-1
 10
54.934350
 20
20.151456
 30
0.000000
  0
VERTEX
  8
LAYER-1
 10
54.914358
 20
20.121920
 30
0.000000
  0
SEQEND
  8
LAYER-1
  0
POLYLINE
  8
LAYER-1
 66
  1
 70
  0
 62
  7
 10
54.934350
 20
20.151456
 30
0.000000
  0
VERTEX
  8
LAYER-1
 10
54.934350
 20
20.151456
 30
0.000000
  0
VERTEX
  8
LAYER-1
 10
54.954341
 20
20.121920
 30
0.000000
  0
SEQEND
  8
LAYER-1
  0
POLYLINE
  8
LAYER-1
 66
  1
 70
  0
 62
  7
 10
54.969896
 20
19.959933
 30
0.000000
  0
VERTEX
  8
LAYER-1
 10
54.969896
 20
19.959933
 30
0.000000
  0
VERTEX
  8
LAYER-1
 10
54.949900
 20
19.989474
 30
0.000000
  0
SEQEND
  8
LAYER-1
  0
POLYLINE
  8
LAYER-1
 66
  1
 70
  0
 62
  7
 10
54.969896
 20
19.959933
 30
0.000000
  0
VERTEX
  8
LAYER-1
 10
54.969896
 20
19.959933
 30
0.000000
  0
VERTEX
  8
LAYER-1
 10
54.989892
 20
19.989474
 30
0.000000
  0
SEQEND
  8
LAYER-1
  0
POLYLINE
  8
LAYER-1
 66
  1
 70
  0
 62
  7
 10
54.914358
 20
20.121920
 30
0.000000
  0
VERTEX
  8
LAYER-1
 10
54.914358
 20
20.121920
 30
0.000000
  0
VERTEX
  8
LAYER-1
 10
54.949900
 20
19.989474
 30
0.000000
  0
SEQEND
  8
LAYER-1
  0
POLYLINE
  8
LAYER-1
 66
  1
 70
  0
 62
  7
 10
54.934350
 20
20.151456
 30
0.000000
  0
VERTEX
  8
LAYER-1
 10
54.934350
 20
20.151456
 30
0.000000
  0
VERTEX
  8
LAYER-1
 10
54.969896
 20
19.959933
 30
0.000000
  0
SEQEND
  8
LAYER-1
  0
POLYLINE
  8
LAYER-1
 66
  1
 70
  0
 62
  7
 10
54.954341
 20
20.121920
 30
0.000000
  0
VERTEX
  8
LAYER-1
 10
54.954341
 20
20.121920
 30
0.000000
  0
VERTEX
  8
LAYER-1
 10
54.989892
 20
19.989474
 30
0.000000
  0
SEQEND
  8
LAYER-1
  0
POLYLINE
  8
LAYER-1
 66
  1
 70
  0
 62
  7
 10
54.709773
 20
20.121920
 30
0.000000
  0
VERTEX
  8
LAYER-1
 10
54.709773
 20
20.121920
 30
0.000000
  0
VERTEX
  8
LAYER-1
 10
54.751305
 20
20.121920
 30
0.000000
  0
SEQEND
  8
LAYER-1
  0
POLYLINE
  8
LAYER-1
 66
  1
 70
  0
 62
  7
 10
54.791297
 20
20.121920
 30
0.000000
  0
VERTEX
  8
LAYER-1
 10
54.791297
 20
20.121920
 30
0.000000
  0
VERTEX
  8
LAYER-1
 10
54.832829
 20
20.121920
 30
0.000000
  0
SEQEND
  8
LAYER-1
  0
POLYLINE
  8
LAYER-1
 66
  1
 70
  0
 62
  7
 10
54.872822
 20
20.121920
 30
0.000000
  0
VERTEX
  8
LAYER-1
 10
54.872822
 20
20.121920
 30
0.000000
  0
VERTEX
  8
LAYER-1
 10
54.914358
 20
20.121920
 30
0.000000
  0
SEQEND
  8
LAYER-1
  0
POLYLINE
  8
LAYER-1
 66
  1
 70
  0
 62
  7
 10
54.745314
 20
19.989474
 30
0.000000
  0
VERTEX
  8
LAYER-1
 10
54.745314
 20
19.989474
 30
0.000000
  0
VERTEX
  8
LAYER-1
 10
54.786851
 20
19.989474
 30
0.000000
  0
SEQEND
  8
LAYER-1
  0
POLYLINE
  8
LAYER-1
 66
  1
 70
  0
 62
  7
 10
54.826843
 20
19.989474
 30
0.000000
  0
VERTEX
  8
LAYER-1
 10
54.826843
 20
19.989474
 30
0.000000
  0
VERTEX
  8
LAYER-1
 10
54.868375
 20
19.989474
 30
0.000000
  0
SEQEND
  8
LAYER-1
  0
POLYLINE
  8
LAYER-1
 66
  1
 70
  0
 62
  7
 10
54.908367
 20
19.989474
 30
0.000000
  0
VERTEX
  8
LAYER-1
 10
54.908367
 20
19.989474
 30
0.000000
  0
VERTEX
  8
LAYER-1
 10
54.949900
 20
19.989474
 30
0.000000
  0
SEQEND
  8
LAYER-1
  0
POLYLINE
  8
LAYER-1
 66
  1
 70
  0
 62
  7
 10
53.110145
 20
20.234267
 30
0.000000
  0
VERTEX
  8
LAYER-1
 10
53.110145
 20
20.234267
 30
0.000000
  0
VERTEX
  8
LAYER-1
 10
53.110145
 20
19.876568
 30
0.000000
  0
SEQEND
  8
LAYER-1
  0
POLYLINE
  8
LAYER-1
 66
  1
 70
  0
 62
  7
 10
53.040682
 20
19.876568
 30
0.000000
  0
VERTEX
  8
LAYER-1
 10
53.040682
 20
19.876568
 30
0.000000
  0
VERTEX
  8
LAYER-1
 10
53.040682
 20
20.234267
 30
0.000000
  0
SEQEND
  8
LAYER-1
  0
POLYLINE
  8
LAYER-1
 66
  1
 70
  0
 62
  7
 10
52.963872
 20
20.002399
 30
0.000000
  0
VERTEX
  8
LAYER-1
 10
52.963872
 20
20.002399
 30
0.000000
  0
VERTEX
  8
LAYER-1
 10
52.963872
 20
20.110037
 30
0.000000
  0
SEQEND
  8
LAYER-1
  0
POLYLINE
  8
LAYER-1
 66
  1
 70
  0
 62
  7
 10
53.110145
 20
20.234267
 30
0.000000
  0
VERTEX
  8
LAYER-1
 10
53.110145
 20
20.234267
 30
0.000000
  0
VERTEX
  8
LAYER-1
 10
53.094370
 20
20.238375
 30
0.000000
  0
VERTEX
  8
LAYER-1
 10
53.080435
 20
20.239446
 30
0.000000
  0
VERTEX
  8
LAYER-1
 10
53.066458
 20
20.239446
 30
0.000000
  0
VERTEX
  8
LAYER-1
 10
53.052528
 20
20.238370
 30
0.000000
  0
VERTEX
  8
LAYER-1
 10
53.040682
 20
20.234267
 30
0.000000
  0
SEQEND
  8
LAYER-1
  0
POLYLINE
  8
LAYER-1
 66
  1
 70
  0
 62
  7
 10
53.040682
 20
19.876568
 30
0.000000
  0
VERTEX
  8
LAYER-1
 10
53.040682
 20
19.876568
 30
0.000000
  0
VERTEX
  8
LAYER-1
 10
53.052523
 20
19.876357
 30
0.000000
  0
VERTEX
  8
LAYER-1
 10
53.066458
 20
19.875263
 30
0.000000
  0
VERTEX
  8
LAYER-1
 10
53.080435
 20
19.875263
 30
0.000000
  0
VERTEX
  8
LAYER-1
 10
53.094370
 20
19.876357
 30
0.000000
  0
VERTEX
  8
LAYER-1
 10
53.110145
 20
19.876568
 30
0.000000
  0
SEQEND
  8
LAYER-1
  0
ARC
  8
LAYER-1
 62
  7
 10
53.187585
 20
20.057575
 30
0.000000
 40
0.229780
 50
129.739807
 51
166.802307
  0
ARC
  8
LAYER-1
 62
  7
 10
53.201181
 20
20.060904
 30
0.000000
 40
0.244412
 50
193.848083
 51
228.954468
  0
POLYLINE
  8
LAYER-1
 66
  1
 70
  0
 62
  7
 10
54.526250
 20
20.151456
 30
0.000000
  0
VERTEX
  8
LAYER-1
 10
54.526250
 20
20.151456
 30
0.000000
  0
VERTEX
  8
LAYER-1
 10
54.506258
 20
20.121920
 30
0.000000
  0
SEQEND
  8
LAYER-1
  0
POLYLINE
  8
LAYER-1
 66
  1
 70
  0
 62
  7
 10
54.526250
 20
20.151456
 30
0.000000
  0
VERTEX
  8
LAYER-1
 10
54.526250
 20
20.151456
 30
0.000000
  0
VERTEX
  8
LAYER-1
 10
54.546246
 20
20.121920
 30
0.000000
  0
SEQEND
  8
LAYER-1
  0
POLYLINE
  8
LAYER-1
 66
  1
 70
  0
 62
  7
 10
54.561796
 20
19.959933
 30
0.000000
  0
VERTEX
  8
LAYER-1
 10
54.561796
 20
19.959933
 30
0.000000
  0
VERTEX
  8
LAYER-1
 10
54.541804
 20
19.989474
 30
0.000000
  0
SEQEND
  8
LAYER-1
  0
POLYLINE
  8
LAYER-1
 66
  1
 70
  0
 62
  7
 10
54.561796
 20
19.959933
 30
0.000000
  0
VERTEX
  8
LAYER-1
 10
54.561796
 20
19.959933
 30
0.000000
  0
VERTEX
  8
LAYER-1
 10
54.581792
 20
19.989474
 30
0.000000
  0
SEQEND
  8
LAYER-1
  0
POLYLINE
  8
LAYER-1
 66
  1
 70
  0
 62
  7
 10
54.506258
 20
20.121920
 30
0.000000
  0
VERTEX
  8
LAYER-1
 10
54.506258
 20
20.121920
 30
0.000000
  0
VERTEX
  8
LAYER-1
 10
54.541804
 20
19.989474
 30
0.000000
  0
SEQEND
  8
LAYER-1
  0
POLYLINE
  8
LAYER-1
 66
  1
 70
  0
 62
  7
 10
54.526250
 20
20.151456
 30
0.000000
  0
VERTEX
  8
LAYER-1
 10
54.526250
 20
20.151456
 30
0.000000
  0
VERTEX
  8
LAYER-1
 10
54.561796
 20
19.959933
 30
0.000000
  0
SEQEND
  8
LAYER-1
  0
POLYLINE
  8
LAYER-1
 66
  1
 70
  0
 62
  7
 10
54.546246
 20
20.121920
 30
0.000000
  0
VERTEX
  8
LAYER-1
 10
54.546246
 20
20.121920
 30
0.000000
  0
VERTEX
  8
LAYER-1
 10
54.581792
 20
19.989474
 30
0.000000
  0
SEQEND
  8
LAYER-1
  0
POLYLINE
  8
LAYER-1
 66
  1
 70
  0
 62
  7
 10
54.546246
 20
20.121920
 30
0.000000
  0
VERTEX
  8
LAYER-1
 10
54.546246
 20
20.121920
 30
0.000000
  0
VERTEX
  8
LAYER-1
 10
54.587783
 20
20.121920
 30
0.000000
  0
SEQEND
  8
LAYER-1
  0
POLYLINE
  8
LAYER-1
 66
  1
 70
  0
 62
  7
 10
54.581792
 20
19.989474
 30
0.000000
  0
VERTEX
  8
LAYER-1
 10
54.581792
 20
19.989474
 30
0.000000
  0
VERTEX
  8
LAYER-1
 10
54.623329
 20
19.989474
 30
0.000000
  0
SEQEND
  8
LAYER-1
  0
POLYLINE
  8
LAYER-1
 66
  1
 70
  0
 62
  7
 10
54.444256
 20
20.151456
 30
0.000000
  0
VERTEX
  8
LAYER-1
 10
54.444256
 20
20.151456
 30
0.000000
  0
VERTEX
  8
LAYER-1
 10
54.424260
 20
20.121920
 30
0.000000
  0
SEQEND
  8
LAYER-1
  0
POLYLINE
  8
LAYER-1
 66
  1
 70
  0
 62
  7
 10
54.444256
 20
20.151456
 30
0.000000
  0
VERTEX
  8
LAYER-1
 10
54.444256
 20
20.151456
 30
0.000000
  0
VERTEX
  8
LAYER-1
 10
54.464247
 20
20.121920
 30
0.000000
  0
SEQEND
  8
LAYER-1
  0
POLYLINE
  8
LAYER-1
 66
  1
 70
  0
 62
  7
 10
54.479797
 20
19.959933
 30
0.000000
  0
VERTEX
  8
LAYER-1
 10
54.479797
 20
19.959933
 30
0.000000
  0
VERTEX
  8
LAYER-1
 10
54.459801
 20
19.989474
 30
0.000000
  0
SEQEND
  8
LAYER-1
  0
POLYLINE
  8
LAYER-1
 66
  1
 70
  0
 62
  7
 10
54.479797
 20
19.959933
 30
0.000000
  0
VERTEX
  8
LAYER-1
 10
54.479797
 20
19.959933
 30
0.000000
  0
VERTEX
  8
LAYER-1
 10
54.499793
 20
19.989474
 30
0.000000
  0
SEQEND
  8
LAYER-1
  0
POLYLINE
  8
LAYER-1
 66
  1
 70
  0
 62
  7
 10
54.424260
 20
20.121920
 30
0.000000
  0
VERTEX
  8
LAYER-1
 10
54.424260
 20
20.121920
 30
0.000000
  0
VERTEX
  8
LAYER-1
 10
54.459801
 20
19.989474
 30
0.000000
  0
SEQEND
  8
LAYER-1
  0
POLYLINE
  8
LAYER-1
 66
  1
 70
  0
 62
  7
 10
54.444256
 20
20.151456
 30
0.000000
  0
VERTEX
  8
LAYER-1
 10
54.444256
 20
20.151456
 30
0.000000
  0
VERTEX
  8
LAYER-1
 10
54.479797
 20
19.959933
 30
0.000000
  0
SEQEND
  8
LAYER-1
  0
POLYLINE
  8
LAYER-1
 66
  1
 70
  0
 62
  7
 10
54.464247
 20
20.121920
 30
0.000000
  0
VERTEX
  8
LAYER-1
 10
54.464247
 20
20.121920
 30
0.000000
  0
VERTEX
  8
LAYER-1
 10
54.499793
 20
19.989474
 30
0.000000
  0
SEQEND
  8
LAYER-1
  0
POLYLINE
  8
LAYER-1
 66
  1
 70
  0
 62
  7
 10
54.464247
 20
20.121920
 30
0.000000
  0
VERTEX
  8
LAYER-1
 10
54.464247
 20
20.121920
 30
0.000000
  0
VERTEX
  8
LAYER-1
 10
54.505784
 20
20.121920
 30
0.000000
  0
SEQEND
  8
LAYER-1
  0
POLYLINE
  8
LAYER-1
 66
  1
 70
  0
 62
  7
 10
54.499793
 20
19.989474
 30
0.000000
  0
VERTEX
  8
LAYER-1
 10
54.499793
 20
19.989474
 30
0.000000
  0
VERTEX
  8
LAYER-1
 10
54.541325
 20
19.989474
 30
0.000000
  0
SEQEND
  8
LAYER-1
  0
POLYLINE
  8
LAYER-1
 66
  1
 70
  0
 62
  7
 10
54.362253
 20
20.151456
 30
0.000000
  0
VERTEX
  8
LAYER-1
 10
54.362253
 20
20.151456
 30
0.000000
  0
VERTEX
  8
LAYER-1
 10
54.342257
 20
20.121920
 30
0.000000
  0
SEQEND
  8
LAYER-1
  0
POLYLINE
  8
LAYER-1
 66
  1
 70
  0
 62
  7
 10
54.362253
 20
20.151456
 30
0.000000
  0
VERTEX
  8
LAYER-1
 10
54.362253
 20
20.151456
 30
0.000000
  0
VERTEX
  8
LAYER-1
 10
54.382249
 20
20.121920
 30
0.000000
  0
SEQEND
  8
LAYER-1
  0
POLYLINE
  8
LAYER-1
 66
  1
 70
  0
 62
  7
 10
54.397799
 20
19.959933
 30
0.000000
  0
VERTEX
  8
LAYER-1
 10
54.397799
 20
19.959933
 30
0.000000
  0
VERTEX
  8
LAYER-1
 10
54.377803
 20
19.989474
 30
0.000000
  0
SEQEND
  8
LAYER-1
  0
POLYLINE
  8
LAYER-1
 66
  1
 70
  0
 62
  7
 10
54.397799
 20
19.959933
 30
0.000000
  0
VERTEX
  8
LAYER-1
 10
54.397799
 20
19.959933
 30
0.000000
  0
VERTEX
  8
LAYER-1
 10
54.417795
 20
19.989474
 30
0.000000
  0
SEQEND
  8
LAYER-1
  0
POLYLINE
  8
LAYER-1
 66
  1
 70
  0
 62
  7
 10
54.342257
 20
20.121920
 30
0.000000
  0
VERTEX
  8
LAYER-1
 10
54.342257
 20
20.121920
 30
0.000000
  0
VERTEX
  8
LAYER-1
 10
54.377803
 20
19.989474
 30
0.000000
  0
SEQEND
  8
LAYER-1
  0
POLYLINE
  8
LAYER-1
 66
  1
 70
  0
 62
  7
 10
54.362253
 20
20.151456
 30
0.000000
  0
VERTEX
  8
LAYER-1
 10
54.362253
 20
20.151456
 30
0.000000
  0
VERTEX
  8
LAYER-1
 10
54.397799
 20
19.959933
 30
0.000000
  0
SEQEND
  8
LAYER-1
  0
POLYLINE
  8
LAYER-1
 66
  1
 70
  0
 62
  7
 10
54.382249
 20
20.121920
 30
0.000000
  0
VERTEX
  8
LAYER-1
 10
54.382249
 20
20.121920
 30
0.000000
  0
VERTEX
  8
LAYER-1
 10
54.417795
 20
19.989474
 30
0.000000
  0
SEQEND
  8
LAYER-1
  0
POLYLINE
  8
LAYER-1
 66
  1
 70
  0
 62
  7
 10
54.382249
 20
20.121920
 30
0.000000
  0
VERTEX
  8
LAYER-1
 10
54.382249
 20
20.121920
 30
0.000000
  0
VERTEX
  8
LAYER-1
 10
54.423781
 20
20.121920
 30
0.000000
  0
SEQEND
  8
LAYER-1
  0
POLYLINE
  8
LAYER-1
 66
  1
 70
  0
 62
  7
 10
54.417795
 20
19.989474
 30
0.000000
  0
VERTEX
  8
LAYER-1
 10
54.417795
 20
19.989474
 30
0.000000
  0
VERTEX
  8
LAYER-1
 10
54.459327
 20
19.989474
 30
0.000000
  0
SEQEND
  8
LAYER-1
  0
POLYLINE
  8
LAYER-1
 66
  1
 70
  0
 62
  7
 10
54.280255
 20
20.151456
 30
0.000000
  0
VERTEX
  8
LAYER-1
 10
54.280255
 20
20.151456
 30
0.000000
  0
VERTEX
  8
LAYER-1
 10
54.260259
 20
20.121920
 30
0.000000
  0
SEQEND
  8
LAYER-1
  0
POLYLINE
  8
LAYER-1
 66
  1
 70
  0
 62
  7
 10
54.280255
 20
20.151456
 30
0.000000
  0
VERTEX
  8
LAYER-1
 10
54.280255
 20
20.151456
 30
0.000000
  0
VERTEX
  8
LAYER-1
 10
54.300246
 20
20.121920
 30
0.000000
  0
SEQEND
  8
LAYER-1
  0
POLYLINE
  8
LAYER-1
 66
  1
 70
  0
 62
  7
 10
54.315801
 20
19.959933
 30
0.000000
  0
VERTEX
  8
LAYER-1
 10
54.315801
 20
19.959933
 30
0.000000
  0
VERTEX
  8
LAYER-1
 10
54.295800
 20
19.989474
 30
0.000000
  0
SEQEND
  8
LAYER-1
  0
POLYLINE
  8
LAYER-1
 66
  1
 70
  0
 62
  7
 10
54.315801
 20
19.959933
 30
0.000000
  0
VERTEX
  8
LAYER-1
 10
54.315801
 20
19.959933
 30
0.000000
  0
VERTEX
  8
LAYER-1
 10
54.335797
 20
19.989474
 30
0.000000
  0
SEQEND
  8
LAYER-1
  0
POLYLINE
  8
LAYER-1
 66
  1
 70
  0
 62
  7
 10
54.260259
 20
20.121920
 30
0.000000
  0
VERTEX
  8
LAYER-1
 10
54.260259
 20
20.121920
 30
0.000000
  0
VERTEX
  8
LAYER-1
 10
54.295800
 20
19.989474
 30
0.000000
  0
SEQEND
  8
LAYER-1
  0
POLYLINE
  8
LAYER-1
 66
  1
 70
  0
 62
  7
 10
54.280255
 20
20.151456
 30
0.000000
  0
VERTEX
  8
LAYER-1
 10
54.280255
 20
20.151456
 30
0.000000
  0
VERTEX
  8
LAYER-1
 10
54.315801
 20
19.959933
 30
0.000000
  0
SEQEND
  8
LAYER-1
  0
POLYLINE
  8
LAYER-1
 66
  1
 70
  0
 62
  7
 10
54.300246
 20
20.121920
 30
0.000000
  0
VERTEX
  8
LAYER-1
 10
54.300246
 20
20.121920
 30
0.000000
  0
VERTEX
  8
LAYER-1
 10
54.335797
 20
19.989474
 30
0.000000
  0
SEQEND
  8
LAYER-1
  0
POLYLINE
  8
LAYER-1
 66
  1
 70
  0
 62
  7
 10
54.300246
 20
20.121920
 30
0.000000
  0
VERTEX
  8
LAYER-1
 10
54.300246
 20
20.121920
 30
0.000000
  0
VERTEX
  8
LAYER-1
 10
54.341783
 20
20.121920
 30
0.000000
  0
SEQEND
  8
LAYER-1
  0
POLYLINE
  8
LAYER-1
 66
  1
 70
  0
 62
  7
 10
54.335797
 20
19.989474
 30
0.000000
  0
VERTEX
  8
LAYER-1
 10
54.335797
 20
19.989474
 30
0.000000
  0
VERTEX
  8
LAYER-1
 10
54.377324
 20
19.989474
 30
0.000000
  0
SEQEND
  8
LAYER-1
  0
POLYLINE
  8
LAYER-1
 66
  1
 70
  0
 62
  7
 10
54.198252
 20
20.151456
 30
0.000000
  0
VERTEX
  8
LAYER-1
 10
54.198252
 20
20.151456
 30
0.000000
  0
VERTEX
  8
LAYER-1
 10
54.178256
 20
20.121920
 30
0.000000
  0
SEQEND
  8
LAYER-1
  0
POLYLINE
  8
LAYER-1
 66
  1
 70
  0
 62
  7
 10
54.198252
 20
20.151456
 30
0.000000
  0
VERTEX
  8
LAYER-1
 10
54.198252
 20
20.151456
 30
0.000000
  0
VERTEX
  8
LAYER-1
 10
54.218248
 20
20.121920
 30
0.000000
  0
SEQEND
  8
LAYER-1
  0
POLYLINE
  8
LAYER-1
 66
  1
 70
  0
 62
  7
 10
54.233798
 20
19.959933
 30
0.000000
  0
VERTEX
  8
LAYER-1
 10
54.233798
 20
19.959933
 30
0.000000
  0
VERTEX
  8
LAYER-1
 10
54.213801
 20
19.989474
 30
0.000000
  0
SEQEND
  8
LAYER-1
  0
POLYLINE
  8
LAYER-1
 66
  1
 70
  0
 62
  7
 10
54.233798
 20
19.959933
 30
0.000000
  0
VERTEX
  8
LAYER-1
 10
54.233798
 20
19.959933
 30
0.000000
  0
VERTEX
  8
LAYER-1
 10
54.253794
 20
19.989474
 30
0.000000
  0
SEQEND
  8
LAYER-1
  0
POLYLINE
  8
LAYER-1
 66
  1
 70
  0
 62
  7
 10
54.178256
 20
20.121920
 30
0.000000
  0
VERTEX
  8
LAYER-1
 10
54.178256
 20
20.121920
 30
0.000000
  0
VERTEX
  8
LAYER-1
 10
54.213801
 20
19.989474
 30
0.000000
  0
SEQEND
  8
LAYER-1
  0
POLYLINE
  8
LAYER-1
 66
  1
 70
  0
 62
  7
 10
54.198252
 20
20.151456
 30
0.000000
  0
VERTEX
  8
LAYER-1
 10
54.198252
 20
20.151456
 30
0.000000
  0
VERTEX
  8
LAYER-1
 10
54.233798
 20
19.959933
 30
0.000000
  0
SEQEND
  8
LAYER-1
  0
POLYLINE
  8
LAYER-1
 66
  1
 70
  0
 62
  7
 10
54.218248
 20
20.121920
 30
0.000000
  0
VERTEX
  8
LAYER-1
 10
54.218248
 20
20.121920
 30
0.000000
  0
VERTEX
  8
LAYER-1
 10
54.253794
 20
19.989474
 30
0.000000
  0
SEQEND
  8
LAYER-1
  0
POLYLINE
  8
LAYER-1
 66
  1
 70
  0
 62
  7
 10
54.218248
 20
20.121920
 30
0.000000
  0
VERTEX
  8
LAYER-1
 10
54.218248
 20
20.121920
 30
0.000000
  0
VERTEX
  8
LAYER-1
 10
54.259784
 20
20.121920
 30
0.000000
  0
SEQEND
  8
LAYER-1
  0
POLYLINE
  8
LAYER-1
 66
  1
 70
  0
 62
  7
 10
54.253794
 20
19.989474
 30
0.000000
  0
VERTEX
  8
LAYER-1
 10
54.253794
 20
19.989474
 30
0.000000
  0
VERTEX
  8
LAYER-1
 10
54.295330
 20
19.989474
 30
0.000000
  0
SEQEND
  8
LAYER-1
  0
POLYLINE
  8
LAYER-1
 66
  1
 70
  0
 62
  7
 10
54.116253
 20
20.151456
 30
0.000000
  0
VERTEX
  8
LAYER-1
 10
54.116253
 20
20.151456
 30
0.000000
  0
VERTEX
  8
LAYER-1
 10
54.096262
 20
20.121920
 30
0.000000
  0
SEQEND
  8
LAYER-1
  0
POLYLINE
  8
LAYER-1
 66
  1
 70
  0
 62
  7
 10
54.116253
 20
20.151456
 30
0.000000
  0
VERTEX
  8
LAYER-1
 10
54.116253
 20
20.151456
 30
0.000000
  0
VERTEX
  8
LAYER-1
 10
54.136245
 20
20.121920
 30
0.000000
  0
SEQEND
  8
LAYER-1
  0
POLYLINE
  8
LAYER-1
 66
  1
 70
  0
 62
  7
 10
54.151799
 20
19.959933
 30
0.000000
  0
VERTEX
  8
LAYER-1
 10
54.151799
 20
19.959933
 30
0.000000
  0
VERTEX
  8
LAYER-1
 10
54.131803
 20
19.989474
 30
0.000000
  0
SEQEND
  8
LAYER-1
  0
POLYLINE
  8
LAYER-1
 66
  1
 70
  0
 62
  7
 10
54.151799
 20
19.959933
 30
0.000000
  0
VERTEX
  8
LAYER-1
 10
54.151799
 20
19.959933
 30
0.000000
  0
VERTEX
  8
LAYER-1
 10
54.171795
 20
19.989474
 30
0.000000
  0
SEQEND
  8
LAYER-1
  0
POLYLINE
  8
LAYER-1
 66
  1
 70
  0
 62
  7
 10
54.096262
 20
20.121920
 30
0.000000
  0
VERTEX
  8
LAYER-1
 10
54.096262
 20
20.121920
 30
0.000000
  0
VERTEX
  8
LAYER-1
 10
54.131803
 20
19.989474
 30
0.000000
  0
SEQEND
  8
LAYER-1
  0
POLYLINE
  8
LAYER-1
 66
  1
 70
  0
 62
  7
 10
54.116253
 20
20.151456
 30
0.000000
  0
VERTEX
  8
LAYER-1
 10
54.116253
 20
20.151456
 30
0.000000
  0
VERTEX
  8
LAYER-1
 10
54.151799
 20
19.959933
 30
0.000000
  0
SEQEND
  8
LAYER-1
  0
POLYLINE
  8
LAYER-1
 66
  1
 70
  0
 62
  7
 10
54.136245
 20
20.121920
 30
0.000000
  0
VERTEX
  8
LAYER-1
 10
54.136245
 20
20.121920
 30
0.000000
  0
VERTEX
  8
LAYER-1
 10
54.171795
 20
19.989474
 30
0.000000
  0
SEQEND
  8
LAYER-1
  0
POLYLINE
  8
LAYER-1
 66
  1
 70
  0
 62
  7
 10
54.136245
 20
20.121920
 30
0.000000
  0
VERTEX
  8
LAYER-1
 10
54.136245
 20
20.121920
 30
0.000000
  0
VERTEX
  8
LAYER-1
 10
54.177786
 20
20.121920
 30
0.000000
  0
SEQEND
  8
LAYER-1
  0
POLYLINE
  8
LAYER-1
 66
  1
 70
  0
 62
  7
 10
54.171795
 20
19.989474
 30
0.000000
  0
VERTEX
  8
LAYER-1
 10
54.171795
 20
19.989474
 30
0.000000
  0
VERTEX
  8
LAYER-1
 10
54.213327
 20
19.989474
 30
0.000000
  0
SEQEND
  8
LAYER-1
  0
POLYLINE
  8
LAYER-1
 66
  1
 70
  0
 62
  7
 10
54.034250
 20
20.151456
 30
0.000000
  0
VERTEX
  8
LAYER-1
 10
54.034250
 20
20.151456
 30
0.000000
  0
VERTEX
  8
LAYER-1
 10
54.014259
 20
20.121920
 30
0.000000
  0
SEQEND
  8
LAYER-1
  0
POLYLINE
  8
LAYER-1
 66
  1
 70
  0
 62
  7
 10
54.034250
 20
20.151456
 30
0.000000
  0
VERTEX
  8
LAYER-1
 10
54.034250
 20
20.151456
 30
0.000000
  0
VERTEX
  8
LAYER-1
 10
54.054246
 20
20.121920
 30
0.000000
  0
SEQEND
  8
LAYER-1
  0
POLYLINE
  8
LAYER-1
 66
  1
 70
  0
 62
  7
 10
54.069801
 20
19.959933
 30
0.000000
  0
VERTEX
  8
LAYER-1
 10
54.069801
 20
19.959933
 30
0.000000
  0
VERTEX
  8
LAYER-1
 10
54.049805
 20
19.989474
 30
0.000000
  0
SEQEND
  8
LAYER-1
  0
POLYLINE
  8
LAYER-1
 66
  1
 70
  0
 62
  7
 10
54.069801
 20
19.959933
 30
0.000000
  0
VERTEX
  8
LAYER-1
 10
54.069801
 20
19.959933
 30
0.000000
  0
VERTEX
  8
LAYER-1
 10
54.089792
 20
19.989474
 30
0.000000
  0
SEQEND
  8
LAYER-1
  0
POLYLINE
  8
LAYER-1
 66
  1
 70
  0
 62
  7
 10
54.014259
 20
20.121920
 30
0.000000
  0
VERTEX
  8
LAYER-1
 10
54.014259
 20
20.121920
 30
0.000000
  0
VERTEX
  8
LAYER-1
 10
54.049805
 20
19.989474
 30
0.000000
  0
SEQEND
  8
LAYER-1
  0
POLYLINE
  8
LAYER-1
 66
  1
 70
  0
 62
  7
 10
54.034250
 20
20.151456
 30
0.000000
  0
VERTEX
  8
LAYER-1
 10
54.034250
 20
20.151456
 30
0.000000
  0
VERTEX
  8
LAYER-1
 10
54.069801
 20
19.959933
 30
0.000000
  0
SEQEND
  8
LAYER-1
  0
POLYLINE
  8
LAYER-1
 66
  1
 70
  0
 62
  7
 10
54.054246
 20
20.121920
 30
0.000000
  0
VERTEX
  8
LAYER-1
 10
54.054246
 20
20.121920
 30
0.000000
  0
VERTEX
  8
LAYER-1
 10
54.089792
 20
19.989474
 30
0.000000
  0
SEQEND
  8
LAYER-1
  0
POLYLINE
  8
LAYER-1
 66
  1
 70
  0
 62
  7
 10
54.054246
 20
20.121920
 30
0.000000
  0
VERTEX
  8
LAYER-1
 10
54.054246
 20
20.121920
 30
0.000000
  0
VERTEX
  8
LAYER-1
 10
54.095783
 20
20.121920
 30
0.000000
  0
SEQEND
  8
LAYER-1
  0
POLYLINE
  8
LAYER-1
 66
  1
 70
  0
 62
  7
 10
54.089792
 20
19.989474
 30
0.000000
  0
VERTEX
  8
LAYER-1
 10
54.089792
 20
19.989474
 30
0.000000
  0
VERTEX
  8
LAYER-1
 10
54.131329
 20
19.989474
 30
0.000000
  0
SEQEND
  8
LAYER-1
  0
POLYLINE
  8
LAYER-1
 66
  1
 70
  0
 62
  7
 10
53.952252
 20
20.151456
 30
0.000000
  0
VERTEX
  8
LAYER-1
 10
53.952252
 20
20.151456
 30
0.000000
  0
VERTEX
  8
LAYER-1
 10
53.932260
 20
20.121920
 30
0.000000
  0
SEQEND
  8
LAYER-1
  0
POLYLINE
  8
LAYER-1
 66
  1
 70
  0
 62
  7
 10
53.952252
 20
20.151456
 30
0.000000
  0
VERTEX
  8
LAYER-1
 10
53.952252
 20
20.151456
 30
0.000000
  0
VERTEX
  8
LAYER-1
 10
53.972243
 20
20.121920
 30
0.000000
  0
SEQEND
  8
LAYER-1
  0
POLYLINE
  8
LAYER-1
 66
  1
 70
  0
 62
  7
 10
53.987802
 20
19.959933
 30
0.000000
  0
VERTEX
  8
LAYER-1
 10
53.987802
 20
19.959933
 30
0.000000
  0
VERTEX
  8
LAYER-1
 10
53.967802
 20
19.989474
 30
0.000000
  0
SEQEND
  8
LAYER-1
  0
POLYLINE
  8
LAYER-1
 66
  1
 70
  0
 62
  7
 10
53.987802
 20
19.959933
 30
0.000000
  0
VERTEX
  8
LAYER-1
 10
53.987802
 20
19.959933
 30
0.000000
  0
VERTEX
  8
LAYER-1
 10
54.007794
 20
19.989474
 30
0.000000
  0
SEQEND
  8
LAYER-1
  0
POLYLINE
  8
LAYER-1
 66
  1
 70
  0
 62
  7
 10
53.932260
 20
20.121920
 30
0.000000
  0
VERTEX
  8
LAYER-1
 10
53.932260
 20
20.121920
 30
0.000000
  0
VERTEX
  8
LAYER-1
 10
53.967802
 20
19.989474
 30
0.000000
  0
SEQEND
  8
LAYER-1
  0
POLYLINE
  8
LAYER-1
 66
  1
 70
  0
 62
  7
 10
53.952252
 20
20.151456
 30
0.000000
  0
VERTEX
  8
LAYER-1
 10
53.952252
 20
20.151456
 30
0.000000
  0
VERTEX
  8
LAYER-1
 10
53.987802
 20
19.959933
 30
0.000000
  0
SEQEND
  8
LAYER-1
  0
POLYLINE
  8
LAYER-1
 66
  1
 70
  0
 62
  7
 10
53.972243
 20
20.121920
 30
0.000000
  0
VERTEX
  8
LAYER-1
 10
53.972243
 20
20.121920
 30
0.000000
  0
VERTEX
  8
LAYER-1
 10
54.007794
 20
19.989474
 30
0.000000
  0
SEQEND
  8
LAYER-1
  0
POLYLINE
  8
LAYER-1
 66
  1
 70
  0
 62
  7
 10
53.972243
 20
20.121920
 30
0.000000
  0
VERTEX
  8
LAYER-1
 10
53.972243
 20
20.121920
 30
0.000000
  0
VERTEX
  8
LAYER-1
 10
54.013785
 20
20.121920
 30
0.000000
  0
SEQEND
  8
LAYER-1
  0
POLYLINE
  8
LAYER-1
 66
  1
 70
  0
 62
  7
 10
54.007794
 20
19.989474
 30
0.000000
  0
VERTEX
  8
LAYER-1
 10
54.007794
 20
19.989474
 30
0.000000
  0
VERTEX
  8
LAYER-1
 10
54.049326
 20
19.989474
 30
0.000000
  0
SEQEND
  8
LAYER-1
  0
POLYLINE
  8
LAYER-1
 66
  1
 70
  0
 62
  7
 10
53.870253
 20
20.151456
 30
0.000000
  0
VERTEX
  8
LAYER-1
 10
53.870253
 20
20.151456
 30
0.000000
  0
VERTEX
  8
LAYER-1
 10
53.850257
 20
20.121920
 30
0.000000
  0
SEQEND
  8
LAYER-1
  0
POLYLINE
  8
LAYER-1
 66
  1
 70
  0
 62
  7
 10
53.870253
 20
20.151456
 30
0.000000
  0
VERTEX
  8
LAYER-1
 10
53.870253
 20
20.151456
 30
0.000000
  0
VERTEX
  8
LAYER-1
 10
53.890249
 20
20.121920
 30
0.000000
  0
SEQEND
  8
LAYER-1
  0
POLYLINE
  8
LAYER-1
 66
  1
 70
  0
 62
  7
 10
53.905799
 20
19.959933
 30
0.000000
  0
VERTEX
  8
LAYER-1
 10
53.905799
 20
19.959933
 30
0.000000
  0
VERTEX
  8
LAYER-1
 10
53.885803
 20
19.989474
 30
0.000000
  0
SEQEND
  8
LAYER-1
  0
POLYLINE
  8
LAYER-1
 66
  1
 70
  0
 62
  7
 10
53.905799
 20
19.959933
 30
0.000000
  0
VERTEX
  8
LAYER-1
 10
53.905799
 20
19.959933
 30
0.000000
  0
VERTEX
  8
LAYER-1
 10
53.925791
 20
19.989474
 30
0.000000
  0
SEQEND
  8
LAYER-1
  0
POLYLINE
  8
LAYER-1
 66
  1
 70
  0
 62
  7
 10
53.850257
 20
20.121920
 30
0.000000
  0
VERTEX
  8
LAYER-1
 10
53.850257
 20
20.121920
 30
0.000000
  0
VERTEX
  8
LAYER-1
 10
53.885803
 20
19.989474
 30
0.000000
  0
SEQEND
  8
LAYER-1
  0
POLYLINE
  8
LAYER-1
 66
  1
 70
  0
 62
  7
 10
53.870253
 20
20.151456
 30
0.000000
  0
VERTEX
  8
LAYER-1
 10
53.870253
 20
20.151456
 30
0.000000
  0
VERTEX
  8
LAYER-1
 10
53.905799
 20
19.959933
 30
0.000000
  0
SEQEND
  8
LAYER-1
  0
POLYLINE
  8
LAYER-1
 66
  1
 70
  0
 62
  7
 10
53.890249
 20
20.121920
 30
0.000000
  0
VERTEX
  8
LAYER-1
 10
53.890249
 20
20.121920
 30
0.000000
  0
VERTEX
  8
LAYER-1
 10
53.925791
 20
19.989474
 30
0.000000
  0
SEQEND
  8
LAYER-1
  0
POLYLINE
  8
LAYER-1
 66
  1
 70
  0
 62
  7
 10
53.890249
 20
20.121920
 30
0.000000
  0
VERTEX
  8
LAYER-1
 10
53.890249
 20
20.121920
 30
0.000000
  0
VERTEX
  8
LAYER-1
 10
53.931781
 20
20.121920
 30
0.000000
  0
SEQEND
  8
LAYER-1
  0
POLYLINE
  8
LAYER-1
 66
  1
 70
  0
 62
  7
 10
53.925791
 20
19.989474
 30
0.000000
  0
VERTEX
  8
LAYER-1
 10
53.925791
 20
19.989474
 30
0.000000
  0
VERTEX
  8
LAYER-1
 10
53.967327
 20
19.989474
 30
0.000000
  0
SEQEND
  8
LAYER-1
  0
POLYLINE
  8
LAYER-1
 66
  1
 70
  0
 62
  7
 10
53.788250
 20
20.151456
 30
0.000000
  0
VERTEX
  8
LAYER-1
 10
53.788250
 20
20.151456
 30
0.000000
  0
VERTEX
  8
LAYER-1
 10
53.768259
 20
20.121920
 30
0.000000
  0
SEQEND
  8
LAYER-1
  0
POLYLINE
  8
LAYER-1
 66
  1
 70
  0
 62
  7
 10
53.788250
 20
20.151456
 30
0.000000
  0
VERTEX
  8
LAYER-1
 10
53.788250
 20
20.151456
 30
0.000000
  0
VERTEX
  8
LAYER-1
 10
53.808246
 20
20.121920
 30
0.000000
  0
SEQEND
  8
LAYER-1
  0
POLYLINE
  8
LAYER-1
 66
  1
 70
  0
 62
  7
 10
53.823801
 20
19.959933
 30
0.000000
  0
VERTEX
  8
LAYER-1
 10
53.823801
 20
19.959933
 30
0.000000
  0
VERTEX
  8
LAYER-1
 10
53.803805
 20
19.989474
 30
0.000000
  0
SEQEND
  8
LAYER-1
  0
POLYLINE
  8
LAYER-1
 66
  1
 70
  0
 62
  7
 10
53.823801
 20
19.959933
 30
0.000000
  0
VERTEX
  8
LAYER-1
 10
53.823801
 20
19.959933
 30
0.000000
  0
VERTEX
  8
LAYER-1
 10
53.843792
 20
19.989474
 30
0.000000
  0
SEQEND
  8
LAYER-1
  0
POLYLINE
  8
LAYER-1
 66
  1
 70
  0
 62
  7
 10
53.768259
 20
20.121920
 30
0.000000
  0
VERTEX
  8
LAYER-1
 10
53.768259
 20
20.121920
 30
0.000000
  0
VERTEX
  8
LAYER-1
 10
53.803805
 20
19.989474
 30
0.000000
  0
SEQEND
  8
LAYER-1
  0
POLYLINE
  8
LAYER-1
 66
  1
 70
  0
 62
  7
 10
53.788250
 20
20.151456
 30
0.000000
  0
VERTEX
  8
LAYER-1
 10
53.788250
 20
20.151456
 30
0.000000
  0
VERTEX
  8
LAYER-1
 10
53.823801
 20
19.959933
 30
0.000000
  0
SEQEND
  8
LAYER-1
  0
POLYLINE
  8
LAYER-1
 66
  1
 70
  0
 62
  7
 10
53.808246
 20
20.121920
 30
0.000000
  0
VERTEX
  8
LAYER-1
 10
53.808246
 20
20.121920
 30
0.000000
  0
VERTEX
  8
LAYER-1
 10
53.843792
 20
19.989474
 30
0.000000
  0
SEQEND
  8
LAYER-1
  0
POLYLINE
  8
LAYER-1
 66
  1
 70
  0
 62
  7
 10
53.808246
 20
20.121920
 30
0.000000
  0
VERTEX
  8
LAYER-1
 10
53.808246
 20
20.121920
 30
0.000000
  0
VERTEX
  8
LAYER-1
 10
53.849783
 20
20.121920
 30
0.000000
  0
SEQEND
  8
LAYER-1
  0
POLYLINE
  8
LAYER-1
 66
  1
 70
  0
 62
  7
 10
53.843792
 20
19.989474
 30
0.000000
  0
VERTEX
  8
LAYER-1
 10
53.843792
 20
19.989474
 30
0.000000
  0
VERTEX
  8
LAYER-1
 10
53.885329
 20
19.989474
 30
0.000000
  0
SEQEND
  8
LAYER-1
  0
POLYLINE
  8
LAYER-1
 66
  1
 70
  0
 62
  7
 10
53.706252
 20
20.151456
 30
0.000000
  0
VERTEX
  8
LAYER-1
 10
53.706252
 20
20.151456
 30
0.000000
  0
VERTEX
  8
LAYER-1
 10
53.686256
 20
20.121920
 30
0.000000
  0
SEQEND
  8
LAYER-1
  0
POLYLINE
  8
LAYER-1
 66
  1
 70
  0
 62
  7
 10
53.706252
 20
20.151456
 30
0.000000
  0
VERTEX
  8
LAYER-1
 10
53.706252
 20
20.151456
 30
0.000000
  0
VERTEX
  8
LAYER-1
 10
53.726248
 20
20.121920
 30
0.000000
  0
SEQEND
  8
LAYER-1
  0
POLYLINE
  8
LAYER-1
 66
  1
 70
  0
 62
  7
 10
53.741798
 20
19.959933
 30
0.000000
  0
VERTEX
  8
LAYER-1
 10
53.741798
 20
19.959933
 30
0.000000
  0
VERTEX
  8
LAYER-1
 10
53.721802
 20
19.989474
 30
0.000000
  0
SEQEND
  8
LAYER-1
  0
POLYLINE
  8
LAYER-1
 66
  1
 70
  0
 62
  7
 10
53.741798
 20
19.959933
 30
0.000000
  0
VERTEX
  8
LAYER-1
 10
53.741798
 20
19.959933
 30
0.000000
  0
VERTEX
  8
LAYER-1
 10
53.761789
 20
19.989474
 30
0.000000
  0
SEQEND
  8
LAYER-1
  0
POLYLINE
  8
LAYER-1
 66
  1
 70
  0
 62
  7
 10
53.686256
 20
20.121920
 30
0.000000
  0
VERTEX
  8
LAYER-1
 10
53.686256
 20
20.121920
 30
0.000000
  0
VERTEX
  8
LAYER-1
 10
53.721802
 20
19.989474
 30
0.000000
  0
SEQEND
  8
LAYER-1
  0
POLYLINE
  8
LAYER-1
 66
  1
 70
  0
 62
  7
 10
53.706252
 20
20.151456
 30
0.000000
  0
VERTEX
  8
LAYER-1
 10
53.706252
 20
20.151456
 30
0.000000
  0
VERTEX
  8
LAYER-1
 10
53.741798
 20
19.959933
 30
0.000000
  0
SEQEND
  8
LAYER-1
  0
POLYLINE
  8
LAYER-1
 66
  1
 70
  0
 62
  7
 10
53.726248
 20
20.121920
 30
0.000000
  0
VERTEX
  8
LAYER-1
 10
53.726248
 20
20.121920
 30
0.000000
  0
VERTEX
  8
LAYER-1
 10
53.761789
 20
19.989474
 30
0.000000
  0
SEQEND
  8
LAYER-1
  0
POLYLINE
  8
LAYER-1
 66
  1
 70
  0
 62
  7
 10
53.726248
 20
20.121920
 30
0.000000
  0
VERTEX
  8
LAYER-1
 10
53.726248
 20
20.121920
 30
0.000000
  0
VERTEX
  8
LAYER-1
 10
53.767780
 20
20.121920
 30
0.000000
  0
SEQEND
  8
LAYER-1
  0
POLYLINE
  8
LAYER-1
 66
  1
 70
  0
 62
  7
 10
53.761789
 20
19.989474
 30
0.000000
  0
VERTEX
  8
LAYER-1
 10
53.761789
 20
19.989474
 30
0.000000
  0
VERTEX
  8
LAYER-1
 10
53.803331
 20
19.989474
 30
0.000000
  0
SEQEND
  8
LAYER-1
  0
POLYLINE
  8
LAYER-1
 66
  1
 70
  0
 62
  7
 10
53.624249
 20
20.151456
 30
0.000000
  0
VERTEX
  8
LAYER-1
 10
53.624249
 20
20.151456
 30
0.000000
  0
VERTEX
  8
LAYER-1
 10
53.604257
 20
20.121920
 30
0.000000
  0
SEQEND
  8
LAYER-1
  0
POLYLINE
  8
LAYER-1
 66
  1
 70
  0
 62
  7
 10
53.624249
 20
20.151456
 30
0.000000
  0
VERTEX
  8
LAYER-1
 10
53.624249
 20
20.151456
 30
0.000000
  0
VERTEX
  8
LAYER-1
 10
53.644245
 20
20.121920
 30
0.000000
  0
SEQEND
  8
LAYER-1
  0
POLYLINE
  8
LAYER-1
 66
  1
 70
  0
 62
  7
 10
53.659799
 20
19.959933
 30
0.000000
  0
VERTEX
  8
LAYER-1
 10
53.659799
 20
19.959933
 30
0.000000
  0
VERTEX
  8
LAYER-1
 10
53.639803
 20
19.989474
 30
0.000000
  0
SEQEND
  8
LAYER-1
  0
POLYLINE
  8
LAYER-1
 66
  1
 70
  0
 62
  7
 10
53.659799
 20
19.959933
 30
0.000000
  0
VERTEX
  8
LAYER-1
 10
53.659799
 20
19.959933
 30
0.000000
  0
VERTEX
  8
LAYER-1
 10
53.679791
 20
19.989474
 30
0.000000
  0
SEQEND
  8
LAYER-1
  0
POLYLINE
  8
LAYER-1
 66
  1
 70
  0
 62
  7
 10
53.604257
 20
20.121920
 30
0.000000
  0
VERTEX
  8
LAYER-1
 10
53.604257
 20
20.121920
 30
0.000000
  0
VERTEX
  8
LAYER-1
 10
53.639803
 20
19.989474
 30
0.000000
  0
SEQEND
  8
LAYER-1
  0
POLYLINE
  8
LAYER-1
 66
  1
 70
  0
 62
  7
 10
53.624249
 20
20.151456
 30
0.000000
  0
VERTEX
  8
LAYER-1
 10
53.624249
 20
20.151456
 30
0.000000
  0
VERTEX
  8
LAYER-1
 10
53.659799
 20
19.959933
 30
0.000000
  0
SEQEND
  8
LAYER-1
  0
POLYLINE
  8
LAYER-1
 66
  1
 70
  0
 62
  7
 10
53.644245
 20
20.121920
 30
0.000000
  0
VERTEX
  8
LAYER-1
 10
53.644245
 20
20.121920
 30
0.000000
  0
VERTEX
  8
LAYER-1
 10
53.679791
 20
19.989474
 30
0.000000
  0
SEQEND
  8
LAYER-1
  0
POLYLINE
  8
LAYER-1
 66
  1
 70
  0
 62
  7
 10
53.644245
 20
20.121920
 30
0.000000
  0
VERTEX
  8
LAYER-1
 10
53.644245
 20
20.121920
 30
0.000000
  0
VERTEX
  8
LAYER-1
 10
53.685782
 20
20.121920
 30
0.000000
  0
SEQEND
  8
LAYER-1
  0
POLYLINE
  8
LAYER-1
 66
  1
 70
  0
 62
  7
 10
53.679791
 20
19.989474
 30
0.000000
  0
VERTEX
  8
LAYER-1
 10
53.679791
 20
19.989474
 30
0.000000
  0
VERTEX
  8
LAYER-1
 10
53.721328
 20
19.989474
 30
0.000000
  0
SEQEND
  8
LAYER-1
  0
POLYLINE
  8
LAYER-1
 66
  1
 70
  0
 62
  7
 10
53.542255
 20
20.151456
 30
0.000000
  0
VERTEX
  8
LAYER-1
 10
53.542255
 20
20.151456
 30
0.000000
  0
VERTEX
  8
LAYER-1
 10
53.522254
 20
20.121920
 30
0.000000
  0
SEQEND
  8
LAYER-1
  0
POLYLINE
  8
LAYER-1
 66
  1
 70
  0
 62
  7
 10
53.542255
 20
20.151456
 30
0.000000
  0
VERTEX
  8
LAYER-1
 10
53.542255
 20
20.151456
 30
0.000000
  0
VERTEX
  8
LAYER-1
 10
53.562246
 20
20.121920
 30
0.000000
  0
SEQEND
  8
LAYER-1
  0
POLYLINE
  8
LAYER-1
 66
  1
 70
  0
 62
  7
 10
53.577796
 20
19.959933
 30
0.000000
  0
VERTEX
  8
LAYER-1
 10
53.577796
 20
19.959933
 30
0.000000
  0
VERTEX
  8
LAYER-1
 10
53.557805
 20
19.989474
 30
0.000000
  0
SEQEND
  8
LAYER-1
  0
POLYLINE
  8
LAYER-1
 66
  1
 70
  0
 62
  7
 10
53.577796
 20
19.959933
 30
0.000000
  0
VERTEX
  8
LAYER-1
 10
53.577796
 20
19.959933
 30
0.000000
  0
VERTEX
  8
LAYER-1
 10
53.597792
 20
19.989474
 30
0.000000
  0
SEQEND
  8
LAYER-1
  0
POLYLINE
  8
LAYER-1
 66
  1
 70
  0
 62
  7
 10
53.522254
 20
20.121920
 30
0.000000
  0
VERTEX
  8
LAYER-1
 10
53.522254
 20
20.121920
 30
0.000000
  0
VERTEX
  8
LAYER-1
 10
53.557805
 20
19.989474
 30
0.000000
  0
SEQEND
  8
LAYER-1
  0
POLYLINE
  8
LAYER-1
 66
  1
 70
  0
 62
  7
 10
53.542255
 20
20.151456
 30
0.000000
  0
VERTEX
  8
LAYER-1
 10
53.542255
 20
20.151456
 30
0.000000
  0
VERTEX
  8
LAYER-1
 10
53.577796
 20
19.959933
 30
0.000000
  0
SEQEND
  8
LAYER-1
  0
POLYLINE
  8
LAYER-1
 66
  1
 70
  0
 62
  7
 10
53.562246
 20
20.121920
 30
0.000000
  0
VERTEX
  8
LAYER-1
 10
53.562246
 20
20.121920
 30
0.000000
  0
VERTEX
  8
LAYER-1
 10
53.597792
 20
19.989474
 30
0.000000
  0
SEQEND
  8
LAYER-1
  0
POLYLINE
  8
LAYER-1
 66
  1
 70
  0
 62
  7
 10
53.562246
 20
20.121920
 30
0.000000
  0
VERTEX
  8
LAYER-1
 10
53.562246
 20
20.121920
 30
0.000000
  0
VERTEX
  8
LAYER-1
 10
53.603779
 20
20.121920
 30
0.000000
  0
SEQEND
  8
LAYER-1
  0
POLYLINE
  8
LAYER-1
 66
  1
 70
  0
 62
  7
 10
53.597792
 20
19.989474
 30
0.000000
  0
VERTEX
  8
LAYER-1
 10
53.597792
 20
19.989474
 30
0.000000
  0
VERTEX
  8
LAYER-1
 10
53.639329
 20
19.989474
 30
0.000000
  0
SEQEND
  8
LAYER-1
  0
POLYLINE
  8
LAYER-1
 66
  1
 70
  0
 62
  7
 10
53.460252
 20
20.151456
 30
0.000000
  0
VERTEX
  8
LAYER-1
 10
53.460252
 20
20.151456
 30
0.000000
  0
VERTEX
  8
LAYER-1
 10
53.440256
 20
20.121920
 30
0.000000
  0
SEQEND
  8
LAYER-1
  0
POLYLINE
  8
LAYER-1
 66
  1
 70
  0
 62
  7
 10
53.460252
 20
20.151456
 30
0.000000
  0
VERTEX
  8
LAYER-1
 10
53.460252
 20
20.151456
 30
0.000000
  0
VERTEX
  8
LAYER-1
 10
53.480248
 20
20.121920
 30
0.000000
  0
SEQEND
  8
LAYER-1
  0
POLYLINE
  8
LAYER-1
 66
  1
 70
  0
 62
  7
 10
53.495798
 20
19.959933
 30
0.000000
  0
VERTEX
  8
LAYER-1
 10
53.495798
 20
19.959933
 30
0.000000
  0
VERTEX
  8
LAYER-1
 10
53.475807
 20
19.989474
 30
0.000000
  0
SEQEND
  8
LAYER-1
  0
POLYLINE
  8
LAYER-1
 66
  1
 70
  0
 62
  7
 10
53.495798
 20
19.959933
 30
0.000000
  0
VERTEX
  8
LAYER-1
 10
53.495798
 20
19.959933
 30
0.000000
  0
VERTEX
  8
LAYER-1
 10
53.515794
 20
19.989474
 30
0.000000
  0
SEQEND
  8
LAYER-1
  0
POLYLINE
  8
LAYER-1
 66
  1
 70
  0
 62
  7
 10
53.440256
 20
20.121920
 30
0.000000
  0
VERTEX
  8
LAYER-1
 10
53.440256
 20
20.121920
 30
0.000000
  0
VERTEX
  8
LAYER-1
 10
53.475807
 20
19.989474
 30
0.000000
  0
SEQEND
  8
LAYER-1
  0
POLYLINE
  8
LAYER-1
 66
  1
 70
  0
 62
  7
 10
53.460252
 20
20.151456
 30
0.000000
  0
VERTEX
  8
LAYER-1
 10
53.460252
 20
20.151456
 30
0.000000
  0
VERTEX
  8
LAYER-1
 10
53.495798
 20
19.959933
 30
0.000000
  0
SEQEND
  8
LAYER-1
  0
POLYLINE
  8
LAYER-1
 66
  1
 70
  0
 62
  7
 10
53.480248
 20
20.121920
 30
0.000000
  0
VERTEX
  8
LAYER-1
 10
53.480248
 20
20.121920
 30
0.000000
  0
VERTEX
  8
LAYER-1
 10
53.515794
 20
19.989474
 30
0.000000
  0
SEQEND
  8
LAYER-1
  0
POLYLINE
  8
LAYER-1
 66
  1
 70
  0
 62
  7
 10
53.480248
 20
20.121920
 30
0.000000
  0
VERTEX
  8
LAYER-1
 10
53.480248
 20
20.121920
 30
0.000000
  0
VERTEX
  8
LAYER-1
 10
53.521780
 20
20.121920
 30
0.000000
  0
SEQEND
  8
LAYER-1
  0
POLYLINE
  8
LAYER-1
 66
  1
 70
  0
 62
  7
 10
53.515794
 20
19.989474
 30
0.000000
  0
VERTEX
  8
LAYER-1
 10
53.515794
 20
19.989474
 30
0.000000
  0
VERTEX
  8
LAYER-1
 10
53.557326
 20
19.989474
 30
0.000000
  0
SEQEND
  8
LAYER-1
  0
POLYLINE
  8
LAYER-1
 66
  1
 70
  0
 62
  7
 10
53.378254
 20
20.151456
 30
0.000000
  0
VERTEX
  8
LAYER-1
 10
53.378254
 20
20.151456
 30
0.000000
  0
VERTEX
  8
LAYER-1
 10
53.358258
 20
20.121920
 30
0.000000
  0
SEQEND
  8
LAYER-1
  0
POLYLINE
  8
LAYER-1
 66
  1
 70
  0
 62
  7
 10
53.378254
 20
20.151456
 30
0.000000
  0
VERTEX
  8
LAYER-1
 10
53.378254
 20
20.151456
 30
0.000000
  0
VERTEX
  8
LAYER-1
 10
53.398250
 20
20.121920
 30
0.000000
  0
SEQEND
  8
LAYER-1
  0
POLYLINE
  8
LAYER-1
 66
  1
 70
  0
 62
  7
 10
53.413795
 20
19.959933
 30
0.000000
  0
VERTEX
  8
LAYER-1
 10
53.413795
 20
19.959933
 30
0.000000
  0
VERTEX
  8
LAYER-1
 10
53.393804
 20
19.989474
 30
0.000000
  0
SEQEND
  8
LAYER-1
  0
POLYLINE
  8
LAYER-1
 66
  1
 70
  0
 62
  7
 10
53.413795
 20
19.959933
 30
0.000000
  0
VERTEX
  8
LAYER-1
 10
53.413795
 20
19.959933
 30
0.000000
  0
VERTEX
  8
LAYER-1
 10
53.433791
 20
19.989474
 30
0.000000
  0
SEQEND
  8
LAYER-1
  0
POLYLINE
  8
LAYER-1
 66
  1
 70
  0
 62
  7
 10
53.358258
 20
20.121920
 30
0.000000
  0
VERTEX
  8
LAYER-1
 10
53.358258
 20
20.121920
 30
0.000000
  0
VERTEX
  8
LAYER-1
 10
53.393804
 20
19.989474
 30
0.000000
  0
SEQEND
  8
LAYER-1
  0
POLYLINE
  8
LAYER-1
 66
  1
 70
  0
 62
  7
 10
53.378254
 20
20.151456
 30
0.000000
  0
VERTEX
  8
LAYER-1
 10
53.378254
 20
20.151456
 30
0.000000
  0
VERTEX
  8
LAYER-1
 10
53.413795
 20
19.959933
 30
0.000000
  0
SEQEND
  8
LAYER-1
  0
POLYLINE
  8
LAYER-1
 66
  1
 70
  0
 62
  7
 10
53.398250
 20
20.121920
 30
0.000000
  0
VERTEX
  8
LAYER-1
 10
53.398250
 20
20.121920
 30
0.000000
  0
VERTEX
  8
LAYER-1
 10
53.433791
 20
19.989474
 30
0.000000
  0
SEQEND
  8
LAYER-1
  0
POLYLINE
  8
LAYER-1
 66
  1
 70
  0
 62
  7
 10
53.398250
 20
20.121920
 30
0.000000
  0
VERTEX
  8
LAYER-1
 10
53.398250
 20
20.121920
 30
0.000000
  0
VERTEX
  8
LAYER-1
 10
53.439777
 20
20.121920
 30
0.000000
  0
SEQEND
  8
LAYER-1
  0
POLYLINE
  8
LAYER-1
 66
  1
 70
  0
 62
  7
 10
53.433791
 20
19.989474
 30
0.000000
  0
VERTEX
  8
LAYER-1
 10
53.433791
 20
19.989474
 30
0.000000
  0
VERTEX
  8
LAYER-1
 10
53.475328
 20
19.989474
 30
0.000000
  0
SEQEND
  8
LAYER-1
  0
POLYLINE
  8
LAYER-1
 66
  1
 70
  0
 62
  7
 10
53.296251
 20
20.151456
 30
0.000000
  0
VERTEX
  8
LAYER-1
 10
53.296251
 20
20.151456
 30
0.000000
  0
VERTEX
  8
LAYER-1
 10
53.276255
 20
20.121920
 30
0.000000
  0
SEQEND
  8
LAYER-1
  0
POLYLINE
  8
LAYER-1
 66
  1
 70
  0
 62
  7
 10
53.296251
 20
20.151456
 30
0.000000
  0
VERTEX
  8
LAYER-1
 10
53.296251
 20
20.151456
 30
0.000000
  0
VERTEX
  8
LAYER-1
 10
53.316247
 20
20.121920
 30
0.000000
  0
SEQEND
  8
LAYER-1
  0
POLYLINE
  8
LAYER-1
 66
  1
 70
  0
 62
  7
 10
53.331796
 20
19.959933
 30
0.000000
  0
VERTEX
  8
LAYER-1
 10
53.331796
 20
19.959933
 30
0.000000
  0
VERTEX
  8
LAYER-1
 10
53.311805
 20
19.989474
 30
0.000000
  0
SEQEND
  8
LAYER-1
  0
POLYLINE
  8
LAYER-1
 66
  1
 70
  0
 62
  7
 10
53.331796
 20
19.959933
 30
0.000000
  0
VERTEX
  8
LAYER-1
 10
53.331796
 20
19.959933
 30
0.000000
  0
VERTEX
  8
LAYER-1
 10
53.351793
 20
19.989474
 30
0.000000
  0
SEQEND
  8
LAYER-1
  0
POLYLINE
  8
LAYER-1
 66
  1
 70
  0
 62
  7
 10
53.276255
 20
20.121920
 30
0.000000
  0
VERTEX
  8
LAYER-1
 10
53.276255
 20
20.121920
 30
0.000000
  0
VERTEX
  8
LAYER-1
 10
53.311805
 20
19.989474
 30
0.000000
  0
SEQEND
  8
LAYER-1
  0
POLYLINE
  8
LAYER-1
 66
  1
 70
  0
 62
  7
 10
53.296251
 20
20.151456
 30
0.000000
  0
VERTEX
  8
LAYER-1
 10
53.296251
 20
20.151456
 30
0.000000
  0
VERTEX
  8
LAYER-1
 10
53.331796
 20
19.959933
 30
0.000000
  0
SEQEND
  8
LAYER-1
  0
POLYLINE
  8
LAYER-1
 66
  1
 70
  0
 62
  7
 10
53.316247
 20
20.121920
 30
0.000000
  0
VERTEX
  8
LAYER-1
 10
53.316247
 20
20.121920
 30
0.000000
  0
VERTEX
  8
LAYER-1
 10
53.351793
 20
19.989474
 30
0.000000
  0
SEQEND
  8
LAYER-1
  0
POLYLINE
  8
LAYER-1
 66
  1
 70
  0
 62
  7
 10
53.316247
 20
20.121920
 30
0.000000
  0
VERTEX
  8
LAYER-1
 10
53.316247
 20
20.121920
 30
0.000000
  0
VERTEX
  8
LAYER-1
 10
53.357783
 20
20.121920
 30
0.000000
  0
SEQEND
  8
LAYER-1
  0
POLYLINE
  8
LAYER-1
 66
  1
 70
  0
 62
  7
 10
53.351793
 20
19.989474
 30
0.000000
  0
VERTEX
  8
LAYER-1
 10
53.351793
 20
19.989474
 30
0.000000
  0
VERTEX
  8
LAYER-1
 10
53.393329
 20
19.989474
 30
0.000000
  0
SEQEND
  8
LAYER-1
  0
POLYLINE
  8
LAYER-1
 66
  1
 70
  0
 62
  7
 10
53.214252
 20
20.151456
 30
0.000000
  0
VERTEX
  8
LAYER-1
 10
53.214252
 20
20.151456
 30
0.000000
  0
VERTEX
  8
LAYER-1
 10
53.194261
 20
20.121920
 30
0.000000
  0
SEQEND
  8
LAYER-1
  0
POLYLINE
  8
LAYER-1
 66
  1
 70
  0
 62
  7
 10
53.214252
 20
20.151456
 30
0.000000
  0
VERTEX
  8
LAYER-1
 10
53.214252
 20
20.151456
 30
0.000000
  0
VERTEX
  8
LAYER-1
 10
53.234248
 20
20.121920
 30
0.000000
  0
SEQEND
  8
LAYER-1
  0
POLYLINE
  8
LAYER-1
 66
  1
 70
  0
 62
  7
 10
53.249793
 20
19.959933
 30
0.000000
  0
VERTEX
  8
LAYER-1
 10
53.249793
 20
19.959933
 30
0.000000
  0
VERTEX
  8
LAYER-1
 10
53.229802
 20
19.989474
 30
0.000000
  0
SEQEND
  8
LAYER-1
  0
POLYLINE
  8
LAYER-1
 66
  1
 70
  0
 62
  7
 10
53.249793
 20
19.959933
 30
0.000000
  0
VERTEX
  8
LAYER-1
 10
53.249793
 20
19.959933
 30
0.000000
  0
VERTEX
  8
LAYER-1
 10
53.269794
 20
19.989474
 30
0.000000
  0
SEQEND
  8
LAYER-1
  0
POLYLINE
  8
LAYER-1
 66
  1
 70
  0
 62
  7
 10
53.194261
 20
20.121920
 30
0.000000
  0
VERTEX
  8
LAYER-1
 10
53.194261
 20
20.121920
 30
0.000000
  0
VERTEX
  8
LAYER-1
 10
53.229802
 20
19.989474
 30
0.000000
  0
SEQEND
  8
LAYER-1
  0
POLYLINE
  8
LAYER-1
 66
  1
 70
  0
 62
  7
 10
53.214252
 20
20.151456
 30
0.000000
  0
VERTEX
  8
LAYER-1
 10
53.214252
 20
20.151456
 30
0.000000
  0
VERTEX
  8
LAYER-1
 10
53.249793
 20
19.959933
 30
0.000000
  0
SEQEND
  8
LAYER-1
  0
POLYLINE
  8
LAYER-1
 66
  1
 70
  0
 62
  7
 10
53.234248
 20
20.121920
 30
0.000000
  0
VERTEX
  8
LAYER-1
 10
53.234248
 20
20.121920
 30
0.000000
  0
VERTEX
  8
LAYER-1
 10
53.269794
 20
19.989474
 30
0.000000
  0
SEQEND
  8
LAYER-1
  0
POLYLINE
  8
LAYER-1
 66
  1
 70
  0
 62
  7
 10
53.234248
 20
20.121920
 30
0.000000
  0
VERTEX
  8
LAYER-1
 10
53.234248
 20
20.121920
 30
0.000000
  0
VERTEX
  8
LAYER-1
 10
53.275780
 20
20.121920
 30
0.000000
  0
SEQEND
  8
LAYER-1
  0
POLYLINE
  8
LAYER-1
 66
  1
 70
  0
 62
  7
 10
53.269794
 20
19.989474
 30
0.000000
  0
VERTEX
  8
LAYER-1
 10
53.269794
 20
19.989474
 30
0.000000
  0
VERTEX
  8
LAYER-1
 10
53.311326
 20
19.989474
 30
0.000000
  0
SEQEND
  8
LAYER-1
  0
POLYLINE
  8
LAYER-1
 66
  1
 70
  0
 62
  7
 10
53.132254
 20
20.151456
 30
0.000000
  0
VERTEX
  8
LAYER-1
 10
53.132254
 20
20.151456
 30
0.000000
  0
VERTEX
  8
LAYER-1
 10
53.112258
 20
20.121920
 30
0.000000
  0
SEQEND
  8
LAYER-1
  0
POLYLINE
  8
LAYER-1
 66
  1
 70
  0
 62
  7
 10
53.132254
 20
20.151456
 30
0.000000
  0
VERTEX
  8
LAYER-1
 10
53.132254
 20
20.151456
 30
0.000000
  0
VERTEX
  8
LAYER-1
 10
53.152245
 20
20.121920
 30
0.000000
  0
SEQEND
  8
LAYER-1
  0
POLYLINE
  8
LAYER-1
 66
  1
 70
  0
 62
  7
 10
53.167800
 20
19.959933
 30
0.000000
  0
VERTEX
  8
LAYER-1
 10
53.167800
 20
19.959933
 30
0.000000
  0
VERTEX
  8
LAYER-1
 10
53.147804
 20
19.989474
 30
0.000000
  0
SEQEND
  8
LAYER-1
  0
POLYLINE
  8
LAYER-1
 66
  1
 70
  0
 62
  7
 10
53.167800
 20
19.959933
 30
0.000000
  0
VERTEX
  8
LAYER-1
 10
53.167800
 20
19.959933
 30
0.000000
  0
VERTEX
  8
LAYER-1
 10
53.187791
 20
19.989474
 30
0.000000
  0
SEQEND
  8
LAYER-1
  0
POLYLINE
  8
LAYER-1
 66
  1
 70
  0
 62
  7
 10
53.112258
 20
20.121920
 30
0.000000
  0
VERTEX
  8
LAYER-1
 10
53.112258
 20
20.121920
 30
0.000000
  0
VERTEX
  8
LAYER-1
 10
53.147804
 20
19.989474
 30
0.000000
  0
SEQEND
  8
LAYER-1
  0
POLYLINE
  8
LAYER-1
 66
  1
 70
  0
 62
  7
 10
53.132254
 20
20.151456
 30
0.000000
  0
VERTEX
  8
LAYER-1
 10
53.132254
 20
20.151456
 30
0.000000
  0
VERTEX
  8
LAYER-1
 10
53.167800
 20
19.959933
 30
0.000000
  0
SEQEND
  8
LAYER-1
  0
POLYLINE
  8
LAYER-1
 66
  1
 70
  0
 62
  7
 10
53.152245
 20
20.121920
 30
0.000000
  0
VERTEX
  8
LAYER-1
 10
53.152245
 20
20.121920
 30
0.000000
  0
VERTEX
  8
LAYER-1
 10
53.187791
 20
19.989474
 30
0.000000
  0
SEQEND
  8
LAYER-1
  0
POLYLINE
  8
LAYER-1
 66
  1
 70
  0
 62
  7
 10
53.152245
 20
20.121920
 30
0.000000
  0
VERTEX
  8
LAYER-1
 10
53.152245
 20
20.121920
 30
0.000000
  0
VERTEX
  8
LAYER-1
 10
53.193782
 20
20.121920
 30
0.000000
  0
SEQEND
  8
LAYER-1
  0
POLYLINE
  8
LAYER-1
 66
  1
 70
  0
 62
  7
 10
53.187791
 20
19.989474
 30
0.000000
  0
VERTEX
  8
LAYER-1
 10
53.187791
 20
19.989474
 30
0.000000
  0
VERTEX
  8
LAYER-1
 10
53.229328
 20
19.989474
 30
0.000000
  0
SEQEND
  8
LAYER-1
  0
POLYLINE
  8
LAYER-1
 66
  1
 70
  0
 62
  7
 10
53.109746
 20
19.989319
 30
0.000000
  0
VERTEX
  8
LAYER-1
 10
53.109746
 20
19.989319
 30
0.000000
  0
VERTEX
  8
LAYER-1
 10
53.147325
 20
19.989474
 30
0.000000
  0
SEQEND
  8
LAYER-1
  0
POLYLINE
  8
LAYER-1
 66
  1
 70
  0
 62
  7
 10
53.233455
 20
2.974816
 30
0.000000
  0
VERTEX
  8
LAYER-1
 10
53.233455
 20
2.974816
 30
0.000000
  0
VERTEX
  8
LAYER-1
 10
59.308476
 20
2.974816
 30
0.000000
  0
SEQEND
  8
LAYER-1
  0
POLYLINE
  8
LAYER-1
 66
  1
 70
  0
 62
  7
 10
59.308476
 20
2.974816
 30
0.000000
  0
VERTEX
  8
LAYER-1
 10
59.308476
 20
2.974816
 30
0.000000
  0
VERTEX
  8
LAYER-1
 10
59.308476
 20
28.090191
 30
0.000000
  0
SEQEND
  8
LAYER-1
  0
TEXT
  8
LAYER-1
 62
  7
 10
41.029370
 20
26.205585
 30
0.000000
 40
0.980769
  1
Plaque
 72
  5
 11
47.260139
 21
26.205585
 31
0.000000
  0
TEXT
  8
LAYER-1
 62
  7
 10
41.029370
 20
24.051739
 30
0.000000
 40
0.980769
  1
d'extrÄmitÄ
 72
  5
 11
50.337062
 21
24.051739
 31
0.000000
  0
POLYLINE
  8
LAYER-1
 66
  1
 70
  1
 62
255
  0
VERTEX
  8
LAYER-1
 10
50.231558
 20
59.244047
 30
0.000000
  0
VERTEX
  8
LAYER-1
 10
53.231558
 20
59.244047
 30
0.000000
  0
VERTEX
  8
LAYER-1
 10
53.231558
 20
32.494047
 30
0.000000
  0
VERTEX
  8
LAYER-1
 10
50.231558
 20
32.494047
 30
0.000000
  0
SEQEND
  8
LAYER-1
  0
POLYLINE
  8
LAYER-1
 66
  1
 70
  0
 62
  7
 10
53.231558
 20
59.244047
 30
0.000000
  0
VERTEX
  8
LAYER-1
 10
53.231558
 20
59.244047
 30
0.000000
  0
VERTEX
  8
LAYER-1
 10
53.231558
 20
32.494047
 30
0.000000
  0
SEQEND
  8
LAYER-1
  0
POLYLINE
  8
LAYER-1
 66
  1
 70
  0
 62
  7
 10
50.231558
 20
59.244047
 30
0.000000
  0
VERTEX
  8
LAYER-1
 10
50.231558
 20
59.244047
 30
0.000000
  0
VERTEX
  8
LAYER-1
 10
50.231558
 20
32.494047
 30
0.000000
  0
SEQEND
  8
LAYER-1
  0
POLYLINE
  8
LAYER-1
 66
  1
 70
  1
 62
  7
  0
VERTEX
  8
LAYER-1
 10
47.731558
 20
49.664513
 30
0.000000
  0
VERTEX
  8
LAYER-1
 10
55.736417
 20
49.664513
 30
0.000000
  0
VERTEX
  8
LAYER-1
 10
55.736417
 20
48.666448
 30
0.000000
  0
VERTEX
  8
LAYER-1
 10
47.731558
 20
48.666448
 30
0.000000
  0
SEQEND
  8
LAYER-1
  0
POLYLINE
  8
LAYER-1
  6
LTYPE01
 66
  1
 70
  0
 62
  7
  6
LTYPE01
 10
47.731558
 20
49.541448
 30
0.000000
  0
VERTEX
  8
LAYER-1
  6
LTYPE01
 10
47.731558
 20
49.541448
 30
0.000000
  0
VERTEX
  8
LAYER-1
  6
LTYPE01
 10
55.736417
 20
49.541448
 30
0.000000
  0
SEQEND
  8
LAYER-1
  0
POLYLINE
  8
LAYER-1
 66
  1
 70
  0
 62
  7
 10
40.099741
 20
45.861258
 30
0.000000
  0
VERTEX
  8
LAYER-1
 10
40.099741
 20
45.861258
 30
0.000000
  0
VERTEX
  8
LAYER-1
 10
47.731558
 20
45.861258
 30
0.000000
  0
SEQEND
  8
LAYER-1
  0
POLYLINE
  8
LAYER-1
 66
  1
 70
  0
 62
  7
 10
47.733690
 20
48.099492
 30
0.000000
  0
VERTEX
  8
LAYER-1
 10
47.733690
 20
48.099492
 30
0.000000
  0
VERTEX
  8
LAYER-1
 10
41.392015
 20
48.099492
 30
0.000000
  0
SEQEND
  8
LAYER-1
  0
POLYLINE
  8
LAYER-1
 66
  1
 70
  0
 62
  7
 10
47.733690
 20
47.400034
 30
0.000000
  0
VERTEX
  8
LAYER-1
 10
47.733690
 20
47.400034
 30
0.000000
  0
VERTEX
  8
LAYER-1
 10
40.988164
 20
47.400020
 30
0.000000
  0
SEQEND
  8
LAYER-1
  0
POLYLINE
  8
LAYER-1
 66
  1
 70
  0
 62
  7
 10
47.733690
 20
46.810988
 30
0.000000
  0
VERTEX
  8
LAYER-1
 10
47.733690
 20
46.810988
 30
0.000000
  0
VERTEX
  8
LAYER-1
 10
40.648076
 20
46.810988
 30
0.000000
  0
SEQEND
  8
LAYER-1
  0
POLYLINE
  8
LAYER-1
 66
  1
 70
  0
 62
  7
 10
47.733690
 20
46.424438
 30
0.000000
  0
VERTEX
  8
LAYER-1
 10
47.733690
 20
46.424438
 30
0.000000
  0
VERTEX
  8
LAYER-1
 10
40.424913
 20
46.424429
 30
0.000000
  0
SEQEND
  8
LAYER-1
  0
POLYLINE
  8
LAYER-1
 66
  1
 70
  0
 62
  7
 10
47.733690
 20
46.166739
 30
0.000000
  0
VERTEX
  8
LAYER-1
 10
47.733690
 20
46.166739
 30
0.000000
  0
VERTEX
  8
LAYER-1
 10
40.276104
 20
46.166739
 30
0.000000
  0
SEQEND
  8
LAYER-1
  0
POLYLINE
  8
LAYER-1
 66
  1
 70
  0
 62
  7
 10
47.733690
 20
45.982657
 30
0.000000
  0
VERTEX
  8
LAYER-1
 10
47.733690
 20
45.982657
 30
0.000000
  0
VERTEX
  8
LAYER-1
 10
40.169837
 20
45.982657
 30
0.000000
  0
SEQEND
  8
LAYER-1
  0
TEXT
  8
LAYER-1
 62
  7
 10
43.490908
 20
40.744047
 30
0.000000
 40
0.980769
  1
Baril
 72
  5
 11
47.567831
 21
40.744047
 31
0.000000
  0
POLYLINE
  8
LAYER-1
 66
  1
 70
  0
 62
  7
 10
48.266376
 20
54.705106
 30
0.000000
  0
VERTEX
  8
LAYER-1
 10
48.266376
 20
54.705106
 30
0.000000
  0
VERTEX
  8
LAYER-1
 10
49.237051
 20
49.740840
 30
0.000000
  0
SEQEND
  8
LAYER-1
  0
POLYLINE
  8
LAYER-1
 66
  1
 70
  1
 62
  7
  0
VERTEX
  8
LAYER-1
 10
49.240826
 20
49.721520
 30
0.000000
  0
VERTEX
  8
LAYER-1
 10
48.940538
 20
50.054706
 30
0.000000
  0
VERTEX
  8
LAYER-1
 10
49.167020
 20
50.098990
 30
0.000000
  0
VERTEX
  8
LAYER-1
 10
49.393503
 20
50.143273
 30
0.000000
  0
VERTEX
  8
LAYER-1
 10
49.240826
 20
49.721520
 30
0.000000
  0
SEQEND
  8
LAYER-1
  0
POLYLINE
  8
LAYER-1
 66
  1
 70
  0
 62
  7
 10
41.927274
 20
43.717337
 30
0.000000
  0
VERTEX
  8
LAYER-1
 10
41.927274
 20
43.717337
 30
0.000000
  0
VERTEX
  8
LAYER-1
 10
40.608197
 20
45.829271
 30
0.000000
  0
SEQEND
  8
LAYER-1
  0
POLYLINE
  8
LAYER-1
 66
  1
 70
  1
 62
  7
  0
VERTEX
  8
LAYER-1
 10
40.597769
 20
45.845966
 30
0.000000
  0
VERTEX
  8
LAYER-1
 10
40.997249
 20
45.642001
 30
0.000000
  0
VERTEX
  8
LAYER-1
 10
40.801518
 20
45.519752
 30
0.000000
  0
VERTEX
  8
LAYER-1
 10
40.605788
 20
45.397503
 30
0.000000
  0
VERTEX
  8
LAYER-1
 10
40.597769
 20
45.845966
 30
0.000000
  0
SEQEND
  8
LAYER-1
  0
POLYLINE
  8
LAYER-1
 66
  1
 70
  0
 62
  7
 10
48.266376
 20
54.705106
 30
0.000000
  0
VERTEX
  8
LAYER-1
 10
48.266376
 20
54.705106
 30
0.000000
  0
VERTEX
  8
LAYER-1
 10
47.152743
 20
54.705106
 30
0.000000
  0
SEQEND
  8
LAYER-1
  0
TEXT
  8
LAYER-1
 62
  7
 10
45.337062
 20
52.590201
 30
0.000000
 40
0.980769
  1
Arbre
 72
  5
 11
50.183216
 21
52.590201
 31
0.000000
  0
POLYLINE
  8
LAYER-1
 66
  1
 70
  0
 62
  7
 10
47.731558
 20
52.484431
 30
0.000000
  0
VERTEX
  8
LAYER-1
 10
47.731558
 20
52.484431
 30
0.000000
  0
VERTEX
  8
LAYER-1
 10
47.731558
 20
45.861258
 30
0.000000
  0
SEQEND
  8
LAYER-1
  0
POLYLINE
  8
LAYER-1
 66
  1
 70
  1
 62
  7
  0
VERTEX
  8
LAYER-1
 10
50.046509
 20
56.167124
 30
0.000000
  0
VERTEX
  8
LAYER-1
 10
50.231558
 20
56.167124
 30
0.000000
  0
VERTEX
  8
LAYER-1
 10
50.231558
 20
40.167119
 30
0.000000
  0
VERTEX
  8
LAYER-1
 10
50.046509
 20
40.167119
 30
0.000000
  0
SEQEND
  8
LAYER-1
  0
POLYLINE
  8
LAYER-1
 66
  1
 70
  0
 62
  7
 10
47.731558
 20
52.484431
 30
0.000000
  0
VERTEX
  8
LAYER-1
 10
47.731558
 20
52.484431
 30
0.000000
  0
VERTEX
  8
LAYER-1
 10
43.923725
 20
52.484431
 30
0.000000
  0
SEQEND
  8
LAYER-1
  0
POLYLINE
  8
LAYER-1
 66
  1
 70
  0
 62
  7
 10
47.728915
 20
50.183368
 30
0.000000
  0
VERTEX
  8
LAYER-1
 10
47.728915
 20
50.183368
 30
0.000000
  0
VERTEX
  8
LAYER-1
 10
42.595173
 20
50.183368
 30
0.000000
  0
SEQEND
  8
LAYER-1
  0
POLYLINE
  8
LAYER-1
 66
  1
 70
  0
 62
  7
 10
47.728915
 20
50.882850
 30
0.000000
  0
VERTEX
  8
LAYER-1
 10
47.728915
 20
50.882850
 30
0.000000
  0
VERTEX
  8
LAYER-1
 10
42.999028
 20
50.882850
 30
0.000000
  0
SEQEND
  8
LAYER-1
  0
POLYLINE
  8
LAYER-1
 66
  1
 70
  0
 62
  7
 10
47.728915
 20
51.471877
 30
0.000000
  0
VERTEX
  8
LAYER-1
 10
47.728915
 20
51.471877
 30
0.000000
  0
VERTEX
  8
LAYER-1
 10
43.339107
 20
51.471877
 30
0.000000
  0
SEQEND
  8
LAYER-1
  0
POLYLINE
  8
LAYER-1
 66
  1
 70
  0
 62
  7
 10
47.728915
 20
51.858450
 30
0.000000
  0
VERTEX
  8
LAYER-1
 10
47.728915
 20
51.858450
 30
0.000000
  0
VERTEX
  8
LAYER-1
 10
43.562303
 20
51.858450
 30
0.000000
  0
SEQEND
  8
LAYER-1
  0
POLYLINE
  8
LAYER-1
 66
  1
 70
  0
 62
  7
 10
47.728915
 20
52.116136
 30
0.000000
  0
VERTEX
  8
LAYER-1
 10
47.728915
 20
52.116136
 30
0.000000
  0
VERTEX
  8
LAYER-1
 10
43.711083
 20
52.116136
 30
0.000000
  0
SEQEND
  8
LAYER-1
  0
POLYLINE
  8
LAYER-1
 66
  1
 70
  0
 62
  7
 10
47.728915
 20
52.300218
 30
0.000000
  0
VERTEX
  8
LAYER-1
 10
47.728915
 20
52.300218
 30
0.000000
  0
VERTEX
  8
LAYER-1
 10
43.817364
 20
52.300218
 30
0.000000
  0
SEQEND
  8
LAYER-1
  0
POLYLINE
  8
LAYER-1
 66
  1
 70
  1
 62
255
 10
56.387855
 20
50.540208
 30
0.000000
  0
VERTEX
  8
LAYER-1
 10
56.387855
 20
50.540208
 30
0.000000
  0
VERTEX
  8
LAYER-1
 10
56.386578
 20
50.340360
 30
0.000000
  0
VERTEX
  8
LAYER-1
 10
56.456707
 20
50.287645
 30
0.000000
  0
VERTEX
  8
LAYER-1
 10
56.420251
 20
50.258104
 30
0.000000
  0
VERTEX
  8
LAYER-1
 10
56.452022
 20
50.231375
 30
0.000000
  0
VERTEX
  8
LAYER-1
 10
56.417635
 20
50.200571
 30
0.000000
  0
VERTEX
  8
LAYER-1
 10
56.449407
 20
50.173838
 30
0.000000
  0
VERTEX
  8
LAYER-1
 10
56.414640
 20
50.141700
 30
0.000000
  0
VERTEX
  8
LAYER-1
 10
56.449270
 20
50.112662
 30
0.000000
  0
VERTEX
  8
LAYER-1
 10
56.412818
 20
50.083111
 30
0.000000
  0
VERTEX
  8
LAYER-1
 10
56.444585
 20
50.056387
 30
0.000000
  0
VERTEX
  8
LAYER-1
 10
56.410978
 20
50.024536
 30
0.000000
  0
VERTEX
  8
LAYER-1
 10
56.447946
 20
49.996061
 30
0.000000
  0
VERTEX
  8
LAYER-1
 10
56.411485
 20
49.966515
 30
0.000000
  0
VERTEX
  8
LAYER-1
 10
56.442618
 20
49.936627
 30
0.000000
  0
VERTEX
  8
LAYER-1
 10
56.406151
 20
49.907086
 30
0.000000
  0
VERTEX
  8
LAYER-1
 10
56.428856
 20
49.889282
 30
0.000000
  0
VERTEX
  8
LAYER-1
 10
56.413955
 20
49.655579
 30
0.000000
  0
VERTEX
  8
LAYER-1
 10
56.423237
 20
49.647945
 30
0.000000
  0
VERTEX
  8
LAYER-1
 10
56.388179
 20
49.616981
 30
0.000000
  0
VERTEX
  8
LAYER-1
 10
56.419950
 20
49.590243
 30
0.000000
  0
VERTEX
  8
LAYER-1
 10
56.416232
 20
49.554706
 30
0.000000
  0
VERTEX
  8
LAYER-1
 10
56.647724
 20
49.559063
 30
0.000000
  0
VERTEX
  8
LAYER-1
 10
56.661522
 20
49.607657
 30
0.000000
  0
VERTEX
  8
LAYER-1
 10
56.694176
 20
49.633972
 30
0.000000
  0
VERTEX
  8
LAYER-1
 10
56.674551
 20
49.652175
 30
0.000000
  0
VERTEX
  8
LAYER-1
 10
56.686542
 20
49.887648
 30
0.000000
  0
VERTEX
  8
LAYER-1
 10
56.677429
 20
49.897414
 30
0.000000
  0
VERTEX
  8
LAYER-1
 10
56.712149
 20
49.924091
 30
0.000000
  0
VERTEX
  8
LAYER-1
 10
56.684829
 20
49.957200
 30
0.000000
  0
VERTEX
  8
LAYER-1
 10
56.717482
 20
49.983521
 30
0.000000
  0
VERTEX
  8
LAYER-1
 10
56.684321
 20
50.015217
 30
0.000000
  0
VERTEX
  8
LAYER-1
 10
56.716975
 20
50.041537
 30
0.000000
  0
VERTEX
  8
LAYER-1
 10
56.686148
 20
50.073801
 30
0.000000
  0
VERTEX
  8
LAYER-1
 10
56.718802
 20
50.100116
 30
0.000000
  0
VERTEX
  8
LAYER-1
 10
56.687979
 20
50.132381
 30
0.000000
  0
VERTEX
  8
LAYER-1
 10
56.720633
 20
50.158701
 30
0.000000
  0
VERTEX
  8
LAYER-1
 10
56.690974
 20
50.191251
 30
0.000000
  0
VERTEX
  8
LAYER-1
 10
56.723628
 20
50.217567
 30
0.000000
  0
VERTEX
  8
LAYER-1
 10
56.693594
 20
50.248784
 30
0.000000
  0
VERTEX
  8
LAYER-1
 10
56.726243
 20
50.275104
 30
0.000000
  0
VERTEX
  8
LAYER-1
 10
56.703674
 20
50.301777
 30
0.000000
  0
VERTEX
  8
LAYER-1
 10
56.778372
 20
50.313580
 30
0.000000
  0
VERTEX
  8
LAYER-1
 10
56.794673
 20
50.492141
 30
0.000000
  0
VERTEX
  8
LAYER-1
 10
56.674265
 20
50.543250
 30
0.000000
  0
VERTEX
  8
LAYER-1
 10
56.621390
 20
50.552133
 30
0.000000
  0
VERTEX
  8
LAYER-1
 10
56.555547
 20
50.558378
 30
0.000000
  0
VERTEX
  8
LAYER-1
 10
56.503657
 20
50.558124
 30
0.000000
  0
VERTEX
  8
LAYER-1
 10
56.452900
 20
50.553204
 30
0.000000
  0
SEQEND
  8
LAYER-1
  0
POLYLINE
  8
LAYER-1
 66
  1
 70
  0
 62
  7
 10
56.387855
 20
50.540208
 30
0.000000
  0
VERTEX
  8
LAYER-1
 10
56.387855
 20
50.540208
 30
0.000000
  0
VERTEX
  8
LAYER-1
 10
56.386578
 20
50.340360
 30
0.000000
  0
SEQEND
  8
LAYER-1
  0
POLYLINE
  8
LAYER-1
 66
  1
 70
  0
 62
  7
 10
56.663307
 20
50.352215
 30
0.000000
  0
VERTEX
  8
LAYER-1
 10
56.663307
 20
50.352215
 30
0.000000
  0
VERTEX
  8
LAYER-1
 10
56.386578
 20
50.340360
 30
0.000000
  0
SEQEND
  8
LAYER-1
  0
POLYLINE
  8
LAYER-1
 66
  1
 70
  0
 62
  7
 10
56.663307
 20
50.352215
 30
0.000000
  0
VERTEX
  8
LAYER-1
 10
56.663307
 20
50.352215
 30
0.000000
  0
VERTEX
  8
LAYER-1
 10
56.674265
 20
50.543250
 30
0.000000
  0
SEQEND
  8
LAYER-1
  0
POLYLINE
  8
LAYER-1
 66
  1
 70
  0
 62
  7
 10
56.674265
 20
50.543250
 30
0.000000
  0
VERTEX
  8
LAYER-1
 10
56.674265
 20
50.543250
 30
0.000000
  0
VERTEX
  8
LAYER-1
 10
56.794673
 20
50.492141
 30
0.000000
  0
SEQEND
  8
LAYER-1
  0
POLYLINE
  8
LAYER-1
 66
  1
 70
  0
 62
  7
 10
56.794673
 20
50.492141
 30
0.000000
  0
VERTEX
  8
LAYER-1
 10
56.794673
 20
50.492141
 30
0.000000
  0
VERTEX
  8
LAYER-1
 10
56.778372
 20
50.313580
 30
0.000000
  0
SEQEND
  8
LAYER-1
  0
POLYLINE
  8
LAYER-1
 66
  1
 70
  0
 62
  7
 10
56.778372
 20
50.313580
 30
0.000000
  0
VERTEX
  8
LAYER-1
 10
56.778372
 20
50.313580
 30
0.000000
  0
VERTEX
  8
LAYER-1
 10
56.663307
 20
50.352215
 30
0.000000
  0
SEQEND
  8
LAYER-1
  0
ARC
  8
LAYER-1
 62
  7
 10
56.537410
 20
49.945918
 30
0.000000
 40
0.612813
 50
77.095131
 51
104.125153
  0
POLYLINE
  8
LAYER-1
 66
  1
 70
  0
 62
  7
 10
56.446416
 20
50.114971
 30
0.000000
  0
VERTEX
  8
LAYER-1
 10
56.446416
 20
50.114971
 30
0.000000
  0
VERTEX
  8
LAYER-1
 10
56.414640
 20
50.141700
 30
0.000000
  0
SEQEND
  8
LAYER-1
  0
POLYLINE
  8
LAYER-1
 66
  1
 70
  0
 62
  7
 10
56.414640
 20
50.141700
 30
0.000000
  0
VERTEX
  8
LAYER-1
 10
56.414640
 20
50.141700
 30
0.000000
  0
VERTEX
  8
LAYER-1
 10
56.451106
 20
50.171246
 30
0.000000
  0
SEQEND
  8
LAYER-1
  0
POLYLINE
  8
LAYER-1
 66
  1
 70
  0
 62
  7
 10
56.690974
 20
50.191251
 30
0.000000
  0
VERTEX
  8
LAYER-1
 10
56.690974
 20
50.191251
 30
0.000000
  0
VERTEX
  8
LAYER-1
 10
56.720633
 20
50.158701
 30
0.000000
  0
SEQEND
  8
LAYER-1
  0
POLYLINE
  8
LAYER-1
 66
  1
 70
  0
 62
  7
 10
56.720633
 20
50.158701
 30
0.000000
  0
VERTEX
  8
LAYER-1
 10
56.720633
 20
50.158701
 30
0.000000
  0
VERTEX
  8
LAYER-1
 10
56.687979
 20
50.132381
 30
0.000000
  0
SEQEND
  8
LAYER-1
  0
ARC
  8
LAYER-1
 62
  7
 10
56.601722
 20
49.536621
 30
0.000000
 40
0.633342
 50
79.179024
 51
107.181244
  0
ARC
  8
LAYER-1
 62
  7
 10
56.606403
 20
49.579759
 30
0.000000
 40
0.558604
 50
81.602242
 51
106.643066
  0
POLYLINE
  8
LAYER-1
 66
  1
 70
  0
 62
  7
 10
56.444585
 20
50.056387
 30
0.000000
  0
VERTEX
  8
LAYER-1
 10
56.444585
 20
50.056387
 30
0.000000
  0
VERTEX
  8
LAYER-1
 10
56.412818
 20
50.083111
 30
0.000000
  0
SEQEND
  8
LAYER-1
  0
POLYLINE
  8
LAYER-1
 66
  1
 70
  0
 62
  7
 10
56.412818
 20
50.083111
 30
0.000000
  0
VERTEX
  8
LAYER-1
 10
56.412818
 20
50.083111
 30
0.000000
  0
VERTEX
  8
LAYER-1
 10
56.449270
 20
50.112662
 30
0.000000
  0
SEQEND
  8
LAYER-1
  0
POLYLINE
  8
LAYER-1
 66
  1
 70
  0
 62
  7
 10
56.687979
 20
50.132381
 30
0.000000
  0
VERTEX
  8
LAYER-1
 10
56.687979
 20
50.132381
 30
0.000000
  0
VERTEX
  8
LAYER-1
 10
56.718802
 20
50.100116
 30
0.000000
  0
SEQEND
  8
LAYER-1
  0
POLYLINE
  8
LAYER-1
 66
  1
 70
  0
 62
  7
 10
56.718802
 20
50.100116
 30
0.000000
  0
VERTEX
  8
LAYER-1
 10
56.718802
 20
50.100116
 30
0.000000
  0
VERTEX
  8
LAYER-1
 10
56.686148
 20
50.073801
 30
0.000000
  0
SEQEND
  8
LAYER-1
  0
ARC
  8
LAYER-1
 62
  7
 10
56.599900
 20
49.478037
 30
0.000000
 40
0.633342
 50
79.179024
 51
107.181244
  0
ARC
  8
LAYER-1
 62
  7
 10
56.604577
 20
49.521184
 30
0.000000
 40
0.558604
 50
81.602242
 51
106.643066
  0
POLYLINE
  8
LAYER-1
 66
  1
 70
  0
 62
  7
 10
56.443256
 20
49.939791
 30
0.000000
  0
VERTEX
  8
LAYER-1
 10
56.443256
 20
49.939791
 30
0.000000
  0
VERTEX
  8
LAYER-1
 10
56.411485
 20
49.966515
 30
0.000000
  0
SEQEND
  8
LAYER-1
  0
POLYLINE
  8
LAYER-1
 66
  1
 70
  0
 62
  7
 10
56.411485
 20
49.966515
 30
0.000000
  0
VERTEX
  8
LAYER-1
 10
56.411485
 20
49.966515
 30
0.000000
  0
VERTEX
  8
LAYER-1
 10
56.447946
 20
49.996061
 30
0.000000
  0
SEQEND
  8
LAYER-1
  0
POLYLINE
  8
LAYER-1
 66
  1
 70
  0
 62
  7
 10
56.684321
 20
50.015217
 30
0.000000
  0
VERTEX
  8
LAYER-1
 10
56.684321
 20
50.015217
 30
0.000000
  0
VERTEX
  8
LAYER-1
 10
56.717482
 20
49.983521
 30
0.000000
  0
SEQEND
  8
LAYER-1
  0
POLYLINE
  8
LAYER-1
 66
  1
 70
  0
 62
  7
 10
56.717482
 20
49.983521
 30
0.000000
  0
VERTEX
  8
LAYER-1
 10
56.717482
 20
49.983521
 30
0.000000
  0
VERTEX
  8
LAYER-1
 10
56.684829
 20
49.957200
 30
0.000000
  0
SEQEND
  8
LAYER-1
  0
ARC
  8
LAYER-1
 62
  7
 10
56.598572
 20
49.361441
 30
0.000000
 40
0.633342
 50
79.179024
 51
107.181244
  0
ARC
  8
LAYER-1
 62
  7
 10
56.603248
 20
49.404588
 30
0.000000
 40
0.558604
 50
81.602242
 51
106.643066
  0
POLYLINE
  8
LAYER-1
 66
  1
 70
  0
 62
  7
 10
56.428856
 20
49.889282
 30
0.000000
  0
VERTEX
  8
LAYER-1
 10
56.428856
 20
49.889282
 30
0.000000
  0
VERTEX
  8
LAYER-1
 10
56.406151
 20
49.907086
 30
0.000000
  0
SEQEND
  8
LAYER-1
  0
POLYLINE
  8
LAYER-1
 66
  1
 70
  0
 62
  7
 10
56.406151
 20
49.907086
 30
0.000000
  0
VERTEX
  8
LAYER-1
 10
56.406151
 20
49.907086
 30
0.000000
  0
VERTEX
  8
LAYER-1
 10
56.442618
 20
49.936627
 30
0.000000
  0
SEQEND
  8
LAYER-1
  0
POLYLINE
  8
LAYER-1
 66
  1
 70
  0
 62
  7
 10
56.684829
 20
49.957200
 30
0.000000
  0
VERTEX
  8
LAYER-1
 10
56.684829
 20
49.957200
 30
0.000000
  0
VERTEX
  8
LAYER-1
 10
56.712149
 20
49.924091
 30
0.000000
  0
SEQEND
  8
LAYER-1
  0
POLYLINE
  8
LAYER-1
 66
  1
 70
  0
 62
  7
 10
56.712149
 20
49.924091
 30
0.000000
  0
VERTEX
  8
LAYER-1
 10
56.712149
 20
49.924091
 30
0.000000
  0
VERTEX
  8
LAYER-1
 10
56.679495
 20
49.897766
 30
0.000000
  0
SEQEND
  8
LAYER-1
  0
ARC
  8
LAYER-1
 62
  7
 10
56.593238
 20
49.302002
 30
0.000000
 40
0.633342
 50
79.179024
 51
107.181244
  0
ARC
  8
LAYER-1
 62
  7
 10
56.593313
 20
49.227943
 30
0.000000
 40
0.675344
 50
82.668495
 51
96.916077
  0
POLYLINE
  8
LAYER-1
 66
  1
 70
  0
 62
  7
 10
56.449407
 20
50.173838
 30
0.000000
  0
VERTEX
  8
LAYER-1
 10
56.449407
 20
50.173838
 30
0.000000
  0
VERTEX
  8
LAYER-1
 10
56.417635
 20
50.200571
 30
0.000000
  0
SEQEND
  8
LAYER-1
  0
POLYLINE
  8
LAYER-1
 66
  1
 70
  0
 62
  7
 10
56.417635
 20
50.200571
 30
0.000000
  0
VERTEX
  8
LAYER-1
 10
56.417635
 20
50.200571
 30
0.000000
  0
VERTEX
  8
LAYER-1
 10
56.454102
 20
50.230112
 30
0.000000
  0
SEQEND
  8
LAYER-1
  0
POLYLINE
  8
LAYER-1
 66
  1
 70
  0
 62
  7
 10
56.693594
 20
50.248784
 30
0.000000
  0
VERTEX
  8
LAYER-1
 10
56.693594
 20
50.248784
 30
0.000000
  0
VERTEX
  8
LAYER-1
 10
56.723628
 20
50.217567
 30
0.000000
  0
SEQEND
  8
LAYER-1
  0
POLYLINE
  8
LAYER-1
 66
  1
 70
  0
 62
  7
 10
56.723628
 20
50.217567
 30
0.000000
  0
VERTEX
  8
LAYER-1
 10
56.723628
 20
50.217567
 30
0.000000
  0
VERTEX
  8
LAYER-1
 10
56.690974
 20
50.191251
 30
0.000000
  0
SEQEND
  8
LAYER-1
  0
ARC
  8
LAYER-1
 62
  7
 10
56.604722
 20
49.595487
 30
0.000000
 40
0.633342
 50
79.179024
 51
107.181244
  0
ARC
  8
LAYER-1
 62
  7
 10
56.609394
 20
49.638634
 30
0.000000
 40
0.558604
 50
81.602242
 51
106.643066
  0
POLYLINE
  8
LAYER-1
 66
  1
 70
  0
 62
  7
 10
56.452022
 20
50.231375
 30
0.000000
  0
VERTEX
  8
LAYER-1
 10
56.452022
 20
50.231375
 30
0.000000
  0
VERTEX
  8
LAYER-1
 10
56.420251
 20
50.258104
 30
0.000000
  0
SEQEND
  8
LAYER-1
  0
POLYLINE
  8
LAYER-1
 66
  1
 70
  0
 62
  7
 10
56.420251
 20
50.258104
 30
0.000000
  0
VERTEX
  8
LAYER-1
 10
56.420251
 20
50.258104
 30
0.000000
  0
VERTEX
  8
LAYER-1
 10
56.456707
 20
50.287645
 30
0.000000
  0
SEQEND
  8
LAYER-1
  0
POLYLINE
  8
LAYER-1
 66
  1
 70
  0
 62
  7
 10
56.703674
 20
50.301777
 30
0.000000
  0
VERTEX
  8
LAYER-1
 10
56.703674
 20
50.301777
 30
0.000000
  0
VERTEX
  8
LAYER-1
 10
56.726243
 20
50.275104
 30
0.000000
  0
SEQEND
  8
LAYER-1
  0
POLYLINE
  8
LAYER-1
 66
  1
 70
  0
 62
  7
 10
56.726243
 20
50.275104
 30
0.000000
  0
VERTEX
  8
LAYER-1
 10
56.726243
 20
50.275104
 30
0.000000
  0
VERTEX
  8
LAYER-1
 10
56.693594
 20
50.248784
 30
0.000000
  0
SEQEND
  8
LAYER-1
  0
ARC
  8
LAYER-1
 62
  7
 10
56.607337
 20
49.653020
 30
0.000000
 40
0.633342
 50
79.179024
 51
107.181244
  0
ARC
  8
LAYER-1
 62
  7
 10
56.612014
 20
49.696172
 30
0.000000
 40
0.558604
 50
81.602242
 51
106.643066
  0
POLYLINE
  8
LAYER-1
 66
  1
 70
  0
 62
  7
 10
56.456707
 20
50.287645
 30
0.000000
  0
VERTEX
  8
LAYER-1
 10
56.456707
 20
50.287645
 30
0.000000
  0
VERTEX
  8
LAYER-1
 10
56.386578
 20
50.340360
 30
0.000000
  0
SEQEND
  8
LAYER-1
  0
POLYLINE
  8
LAYER-1
 66
  1
 70
  0
 62
  7
 10
56.703674
 20
50.301777
 30
0.000000
  0
VERTEX
  8
LAYER-1
 10
56.703674
 20
50.301777
 30
0.000000
  0
VERTEX
  8
LAYER-1
 10
56.778372
 20
50.313580
 30
0.000000
  0
SEQEND
  8
LAYER-1
  0
ARC
  8
LAYER-1
 62
  7
 10
56.612037
 20
49.738079
 30
0.000000
 40
0.571096
 50
80.766609
 51
105.782074
  0
POLYLINE
  8
LAYER-1
 66
  1
 70
  0
 62
  7
 10
56.442749
 20
49.997803
 30
0.000000
  0
VERTEX
  8
LAYER-1
 10
56.442749
 20
49.997803
 30
0.000000
  0
VERTEX
  8
LAYER-1
 10
56.410978
 20
50.024536
 30
0.000000
  0
SEQEND
  8
LAYER-1
  0
POLYLINE
  8
LAYER-1
 66
  1
 70
  0
 62
  7
 10
56.410978
 20
50.024536
 30
0.000000
  0
VERTEX
  8
LAYER-1
 10
56.410978
 20
50.024536
 30
0.000000
  0
VERTEX
  8
LAYER-1
 10
56.447444
 20
50.054077
 30
0.000000
  0
SEQEND
  8
LAYER-1
  0
POLYLINE
  8
LAYER-1
 66
  1
 70
  0
 62
  7
 10
56.686148
 20
50.073801
 30
0.000000
  0
VERTEX
  8
LAYER-1
 10
56.686148
 20
50.073801
 30
0.000000
  0
VERTEX
  8
LAYER-1
 10
56.716975
 20
50.041537
 30
0.000000
  0
SEQEND
  8
LAYER-1
  0
POLYLINE
  8
LAYER-1
 66
  1
 70
  0
 62
  7
 10
56.716975
 20
50.041537
 30
0.000000
  0
VERTEX
  8
LAYER-1
 10
56.716975
 20
50.041537
 30
0.000000
  0
VERTEX
  8
LAYER-1
 10
56.684321
 20
50.015217
 30
0.000000
  0
SEQEND
  8
LAYER-1
  0
ARC
  8
LAYER-1
 62
  7
 10
56.598065
 20
49.419452
 30
0.000000
 40
0.633342
 50
79.179024
 51
107.181244
  0
ARC
  8
LAYER-1
 62
  7
 10
56.602736
 20
49.462604
 30
0.000000
 40
0.558604
 50
81.602242
 51
106.643066
  0
POLYLINE
  8
LAYER-1
 66
  1
 70
  0
 62
  7
 10
56.677429
 20
49.897414
 30
0.000000
  0
VERTEX
  8
LAYER-1
 10
56.677429
 20
49.897414
 30
0.000000
  0
VERTEX
  8
LAYER-1
 10
56.686542
 20
49.887648
 30
0.000000
  0
SEQEND
  8
LAYER-1
  0
POLYLINE
  8
LAYER-1
 66
  1
 70
  1
 62
  7
  0
VERTEX
  8
LAYER-1
 10
56.306124
 20
49.895977
 30
0.000000
  0
VERTEX
  8
LAYER-1
 10
56.801316
 20
49.895977
 30
0.000000
  0
VERTEX
  8
LAYER-1
 10
56.801316
 20
48.338280
 30
0.000000
  0
VERTEX
  8
LAYER-1
 10
56.306124
 20
48.338280
 30
0.000000
  0
SEQEND
  8
LAYER-1
  0
POLYLINE
  8
LAYER-1
 66
  1
 70
  1
 62
255
 10
61.012855
 20
50.540208
 30
0.000000
  0
VERTEX
  8
LAYER-1
 10
61.012855
 20
50.540208
 30
0.000000
  0
VERTEX
  8
LAYER-1
 10
61.011578
 20
50.340360
 30
0.000000
  0
VERTEX
  8
LAYER-1
 10
61.081707
 20
50.287645
 30
0.000000
  0
VERTEX
  8
LAYER-1
 10
61.045251
 20
50.258104
 30
0.000000
  0
VERTEX
  8
LAYER-1
 10
61.077022
 20
50.231375
 30
0.000000
  0
VERTEX
  8
LAYER-1
 10
61.042635
 20
50.200571
 30
0.000000
  0
VERTEX
  8
LAYER-1
 10
61.074407
 20
50.173838
 30
0.000000
  0
VERTEX
  8
LAYER-1
 10
61.039640
 20
50.141700
 30
0.000000
  0
VERTEX
  8
LAYER-1
 10
61.074270
 20
50.112662
 30
0.000000
  0
VERTEX
  8
LAYER-1
 10
61.037818
 20
50.083111
 30
0.000000
  0
VERTEX
  8
LAYER-1
 10
61.069585
 20
50.056387
 30
0.000000
  0
VERTEX
  8
LAYER-1
 10
61.035978
 20
50.024536
 30
0.000000
  0
VERTEX
  8
LAYER-1
 10
61.072946
 20
49.996061
 30
0.000000
  0
VERTEX
  8
LAYER-1
 10
61.036485
 20
49.966515
 30
0.000000
  0
VERTEX
  8
LAYER-1
 10
61.067618
 20
49.936627
 30
0.000000
  0
VERTEX
  8
LAYER-1
 10
61.031151
 20
49.907086
 30
0.000000
  0
VERTEX
  8
LAYER-1
 10
61.053856
 20
49.889282
 30
0.000000
  0
VERTEX
  8
LAYER-1
 10
61.038955
 20
49.655579
 30
0.000000
  0
VERTEX
  8
LAYER-1
 10
61.048237
 20
49.647945
 30
0.000000
  0
VERTEX
  8
LAYER-1
 10
61.013179
 20
49.616981
 30
0.000000
  0
VERTEX
  8
LAYER-1
 10
61.044950
 20
49.590243
 30
0.000000
  0
VERTEX
  8
LAYER-1
 10
61.041232
 20
49.554706
 30
0.000000
  0
VERTEX
  8
LAYER-1
 10
61.272724
 20
49.559063
 30
0.000000
  0
VERTEX
  8
LAYER-1
 10
61.286522
 20
49.607657
 30
0.000000
  0
VERTEX
  8
LAYER-1
 10
61.319176
 20
49.633972
 30
0.000000
  0
VERTEX
  8
LAYER-1
 10
61.299551
 20
49.652175
 30
0.000000
  0
VERTEX
  8
LAYER-1
 10
61.311542
 20
49.887648
 30
0.000000
  0
VERTEX
  8
LAYER-1
 10
61.302429
 20
49.897414
 30
0.000000
  0
VERTEX
  8
LAYER-1
 10
61.337149
 20
49.924091
 30
0.000000
  0
VERTEX
  8
LAYER-1
 10
61.309829
 20
49.957200
 30
0.000000
  0
VERTEX
  8
LAYER-1
 10
61.342482
 20
49.983521
 30
0.000000
  0
VERTEX
  8
LAYER-1
 10
61.309321
 20
50.015217
 30
0.000000
  0
VERTEX
  8
LAYER-1
 10
61.341975
 20
50.041537
 30
0.000000
  0
VERTEX
  8
LAYER-1
 10
61.311153
 20
50.073801
 30
0.000000
  0
VERTEX
  8
LAYER-1
 10
61.343802
 20
50.100116
 30
0.000000
  0
VERTEX
  8
LAYER-1
 10
61.312979
 20
50.132381
 30
0.000000
  0
VERTEX
  8
LAYER-1
 10
61.345633
 20
50.158701
 30
0.000000
  0
VERTEX
  8
LAYER-1
 10
61.315974
 20
50.191251
 30
0.000000
  0
VERTEX
  8
LAYER-1
 10
61.348628
 20
50.217567
 30
0.000000
  0
VERTEX
  8
LAYER-1
 10
61.318594
 20
50.248784
 30
0.000000
  0
VERTEX
  8
LAYER-1
 10
61.351243
 20
50.275104
 30
0.000000
  0
VERTEX
  8
LAYER-1
 10
61.328674
 20
50.301777
 30
0.000000
  0
VERTEX
  8
LAYER-1
 10
61.403372
 20
50.313580
 30
0.000000
  0
VERTEX
  8
LAYER-1
 10
61.419673
 20
50.492141
 30
0.000000
  0
VERTEX
  8
LAYER-1
 10
61.299265
 20
50.543250
 30
0.000000
  0
VERTEX
  8
LAYER-1
 10
61.246390
 20
50.552133
 30
0.000000
  0
VERTEX
  8
LAYER-1
 10
61.180547
 20
50.558378
 30
0.000000
  0
VERTEX
  8
LAYER-1
 10
61.128657
 20
50.558124
 30
0.000000
  0
VERTEX
  8
LAYER-1
 10
61.077900
 20
50.553204
 30
0.000000
  0
SEQEND
  8
LAYER-1
  0
POLYLINE
  8
LAYER-1
 66
  1
 70
  0
 62
  7
 10
61.012855
 20
50.540208
 30
0.000000
  0
VERTEX
  8
LAYER-1
 10
61.012855
 20
50.540208
 30
0.000000
  0
VERTEX
  8
LAYER-1
 10
61.011578
 20
50.340360
 30
0.000000
  0
SEQEND
  8
LAYER-1
  0
POLYLINE
  8
LAYER-1
 66
  1
 70
  0
 62
  7
 10
61.288307
 20
50.352215
 30
0.000000
  0
VERTEX
  8
LAYER-1
 10
61.288307
 20
50.352215
 30
0.000000
  0
VERTEX
  8
LAYER-1
 10
61.011578
 20
50.340360
 30
0.000000
  0
SEQEND
  8
LAYER-1
  0
POLYLINE
  8
LAYER-1
 66
  1
 70
  0
 62
  7
 10
61.288307
 20
50.352215
 30
0.000000
  0
VERTEX
  8
LAYER-1
 10
61.288307
 20
50.352215
 30
0.000000
  0
VERTEX
  8
LAYER-1
 10
61.299265
 20
50.543250
 30
0.000000
  0
SEQEND
  8
LAYER-1
  0
POLYLINE
  8
LAYER-1
 66
  1
 70
  0
 62
  7
 10
61.299265
 20
50.543250
 30
0.000000
  0
VERTEX
  8
LAYER-1
 10
61.299265
 20
50.543250
 30
0.000000
  0
VERTEX
  8
LAYER-1
 10
61.419673
 20
50.492141
 30
0.000000
  0
SEQEND
  8
LAYER-1
  0
POLYLINE
  8
LAYER-1
 66
  1
 70
  0
 62
  7
 10
61.419673
 20
50.492141
 30
0.000000
  0
VERTEX
  8
LAYER-1
 10
61.419673
 20
50.492141
 30
0.000000
  0
VERTEX
  8
LAYER-1
 10
61.403372
 20
50.313580
 30
0.000000
  0
SEQEND
  8
LAYER-1
  0
POLYLINE
  8
LAYER-1
 66
  1
 70
  0
 62
  7
 10
61.403372
 20
50.313580
 30
0.000000
  0
VERTEX
  8
LAYER-1
 10
61.403372
 20
50.313580
 30
0.000000
  0
VERTEX
  8
LAYER-1
 10
61.288307
 20
50.352215
 30
0.000000
  0
SEQEND
  8
LAYER-1
  0
ARC
  8
LAYER-1
 62
  7
 10
61.162410
 20
49.945918
 30
0.000000
 40
0.612813
 50
77.095131
 51
104.125153
  0
POLYLINE
  8
LAYER-1
 66
  1
 70
  0
 62
  7
 10
61.071416
 20
50.114971
 30
0.000000
  0
VERTEX
  8
LAYER-1
 10
61.071416
 20
50.114971
 30
0.000000
  0
VERTEX
  8
LAYER-1
 10
61.039640
 20
50.141700
 30
0.000000
  0
SEQEND
  8
LAYER-1
  0
POLYLINE
  8
LAYER-1
 66
  1
 70
  0
 62
  7
 10
61.039640
 20
50.141700
 30
0.000000
  0
VERTEX
  8
LAYER-1
 10
61.039640
 20
50.141700
 30
0.000000
  0
VERTEX
  8
LAYER-1
 10
61.076106
 20
50.171246
 30
0.000000
  0
SEQEND
  8
LAYER-1
  0
POLYLINE
  8
LAYER-1
 66
  1
 70
  0
 62
  7
 10
61.315974
 20
50.191251
 30
0.000000
  0
VERTEX
  8
LAYER-1
 10
61.315974
 20
50.191251
 30
0.000000
  0
VERTEX
  8
LAYER-1
 10
61.345633
 20
50.158701
 30
0.000000
  0
SEQEND
  8
LAYER-1
  0
POLYLINE
  8
LAYER-1
 66
  1
 70
  0
 62
  7
 10
61.345633
 20
50.158701
 30
0.000000
  0
VERTEX
  8
LAYER-1
 10
61.345633
 20
50.158701
 30
0.000000
  0
VERTEX
  8
LAYER-1
 10
61.312979
 20
50.132381
 30
0.000000
  0
SEQEND
  8
LAYER-1
  0
ARC
  8
LAYER-1
 62
  7
 10
61.226722
 20
49.536621
 30
0.000000
 40
0.633342
 50
79.179024
 51
107.181244
  0
ARC
  8
LAYER-1
 62
  7
 10
61.231403
 20
49.579759
 30
0.000000
 40
0.558604
 50
81.602242
 51
106.643066
  0
POLYLINE
  8
LAYER-1
 66
  1
 70
  0
 62
  7
 10
61.069585
 20
50.056387
 30
0.000000
  0
VERTEX
  8
LAYER-1
 10
61.069585
 20
50.056387
 30
0.000000
  0
VERTEX
  8
LAYER-1
 10
61.037818
 20
50.083111
 30
0.000000
  0
SEQEND
  8
LAYER-1
  0
POLYLINE
  8
LAYER-1
 66
  1
 70
  0
 62
  7
 10
61.037818
 20
50.083111
 30
0.000000
  0
VERTEX
  8
LAYER-1
 10
61.037818
 20
50.083111
 30
0.000000
  0
VERTEX
  8
LAYER-1
 10
61.074270
 20
50.112662
 30
0.000000
  0
SEQEND
  8
LAYER-1
  0
POLYLINE
  8
LAYER-1
 66
  1
 70
  0
 62
  7
 10
61.312979
 20
50.132381
 30
0.000000
  0
VERTEX
  8
LAYER-1
 10
61.312979
 20
50.132381
 30
0.000000
  0
VERTEX
  8
LAYER-1
 10
61.343802
 20
50.100116
 30
0.000000
  0
SEQEND
  8
LAYER-1
  0
POLYLINE
  8
LAYER-1
 66
  1
 70
  0
 62
  7
 10
61.343802
 20
50.100116
 30
0.000000
  0
VERTEX
  8
LAYER-1
 10
61.343802
 20
50.100116
 30
0.000000
  0
VERTEX
  8
LAYER-1
 10
61.311153
 20
50.073801
 30
0.000000
  0
SEQEND
  8
LAYER-1
  0
ARC
  8
LAYER-1
 62
  7
 10
61.224900
 20
49.478037
 30
0.000000
 40
0.633342
 50
79.179024
 51
107.181244
  0
ARC
  8
LAYER-1
 62
  7
 10
61.229577
 20
49.521184
 30
0.000000
 40
0.558604
 50
81.602242
 51
106.643066
  0
POLYLINE
  8
LAYER-1
 66
  1
 70
  0
 62
  7
 10
61.068256
 20
49.939791
 30
0.000000
  0
VERTEX
  8
LAYER-1
 10
61.068256
 20
49.939791
 30
0.000000
  0
VERTEX
  8
LAYER-1
 10
61.036485
 20
49.966515
 30
0.000000
  0
SEQEND
  8
LAYER-1
  0
POLYLINE
  8
LAYER-1
 66
  1
 70
  0
 62
  7
 10
61.036485
 20
49.966515
 30
0.000000
  0
VERTEX
  8
LAYER-1
 10
61.036485
 20
49.966515
 30
0.000000
  0
VERTEX
  8
LAYER-1
 10
61.072946
 20
49.996061
 30
0.000000
  0
SEQEND
  8
LAYER-1
  0
POLYLINE
  8
LAYER-1
 66
  1
 70
  0
 62
  7
 10
61.309321
 20
50.015217
 30
0.000000
  0
VERTEX
  8
LAYER-1
 10
61.309321
 20
50.015217
 30
0.000000
  0
VERTEX
  8
LAYER-1
 10
61.342482
 20
49.983521
 30
0.000000
  0
SEQEND
  8
LAYER-1
  0
POLYLINE
  8
LAYER-1
 66
  1
 70
  0
 62
  7
 10
61.342482
 20
49.983521
 30
0.000000
  0
VERTEX
  8
LAYER-1
 10
61.342482
 20
49.983521
 30
0.000000
  0
VERTEX
  8
LAYER-1
 10
61.309829
 20
49.957200
 30
0.000000
  0
SEQEND
  8
LAYER-1
  0
ARC
  8
LAYER-1
 62
  7
 10
61.223572
 20
49.361441
 30
0.000000
 40
0.633342
 50
79.179024
 51
107.181244
  0
ARC
  8
LAYER-1
 62
  7
 10
61.228248
 20
49.404588
 30
0.000000
 40
0.558604
 50
81.602242
 51
106.643066
  0
POLYLINE
  8
LAYER-1
 66
  1
 70
  0
 62
  7
 10
61.053856
 20
49.889282
 30
0.000000
  0
VERTEX
  8
LAYER-1
 10
61.053856
 20
49.889282
 30
0.000000
  0
VERTEX
  8
LAYER-1
 10
61.031151
 20
49.907086
 30
0.000000
  0
SEQEND
  8
LAYER-1
  0
POLYLINE
  8
LAYER-1
 66
  1
 70
  0
 62
  7
 10
61.031151
 20
49.907086
 30
0.000000
  0
VERTEX
  8
LAYER-1
 10
61.031151
 20
49.907086
 30
0.000000
  0
VERTEX
  8
LAYER-1
 10
61.067618
 20
49.936627
 30
0.000000
  0
SEQEND
  8
LAYER-1
  0
POLYLINE
  8
LAYER-1
 66
  1
 70
  0
 62
  7
 10
61.309829
 20
49.957200
 30
0.000000
  0
VERTEX
  8
LAYER-1
 10
61.309829
 20
49.957200
 30
0.000000
  0
VERTEX
  8
LAYER-1
 10
61.337149
 20
49.924091
 30
0.000000
  0
SEQEND
  8
LAYER-1
  0
POLYLINE
  8
LAYER-1
 66
  1
 70
  0
 62
  7
 10
61.337149
 20
49.924091
 30
0.000000
  0
VERTEX
  8
LAYER-1
 10
61.337149
 20
49.924091
 30
0.000000
  0
VERTEX
  8
LAYER-1
 10
61.304495
 20
49.897766
 30
0.000000
  0
SEQEND
  8
LAYER-1
  0
ARC
  8
LAYER-1
 62
  7
 10
61.218238
 20
49.302002
 30
0.000000
 40
0.633342
 50
79.179024
 51
107.181244
  0
ARC
  8
LAYER-1
 62
  7
 10
61.218313
 20
49.227943
 30
0.000000
 40
0.675344
 50
82.668495
 51
96.916077
  0
POLYLINE
  8
LAYER-1
 66
  1
 70
  0
 62
  7
 10
61.074407
 20
50.173838
 30
0.000000
  0
VERTEX
  8
LAYER-1
 10
61.074407
 20
50.173838
 30
0.000000
  0
VERTEX
  8
LAYER-1
 10
61.042635
 20
50.200571
 30
0.000000
  0
SEQEND
  8
LAYER-1
  0
POLYLINE
  8
LAYER-1
 66
  1
 70
  0
 62
  7
 10
61.042635
 20
50.200571
 30
0.000000
  0
VERTEX
  8
LAYER-1
 10
61.042635
 20
50.200571
 30
0.000000
  0
VERTEX
  8
LAYER-1
 10
61.079102
 20
50.230112
 30
0.000000
  0
SEQEND
  8
LAYER-1
  0
POLYLINE
  8
LAYER-1
 66
  1
 70
  0
 62
  7
 10
61.318594
 20
50.248784
 30
0.000000
  0
VERTEX
  8
LAYER-1
 10
61.318594
 20
50.248784
 30
0.000000
  0
VERTEX
  8
LAYER-1
 10
61.348628
 20
50.217567
 30
0.000000
  0
SEQEND
  8
LAYER-1
  0
POLYLINE
  8
LAYER-1
 66
  1
 70
  0
 62
  7
 10
61.348628
 20
50.217567
 30
0.000000
  0
VERTEX
  8
LAYER-1
 10
61.348628
 20
50.217567
 30
0.000000
  0
VERTEX
  8
LAYER-1
 10
61.315974
 20
50.191251
 30
0.000000
  0
SEQEND
  8
LAYER-1
  0
ARC
  8
LAYER-1
 62
  7
 10
61.229722
 20
49.595487
 30
0.000000
 40
0.633342
 50
79.179024
 51
107.181244
  0
ARC
  8
LAYER-1
 62
  7
 10
61.234394
 20
49.638634
 30
0.000000
 40
0.558604
 50
81.602242
 51
106.643066
  0
POLYLINE
  8
LAYER-1
 66
  1
 70
  0
 62
  7
 10
61.077022
 20
50.231375
 30
0.000000
  0
VERTEX
  8
LAYER-1
 10
61.077022
 20
50.231375
 30
0.000000
  0
VERTEX
  8
LAYER-1
 10
61.045251
 20
50.258104
 30
0.000000
  0
SEQEND
  8
LAYER-1
  0
POLYLINE
  8
LAYER-1
 66
  1
 70
  0
 62
  7
 10
61.045251
 20
50.258104
 30
0.000000
  0
VERTEX
  8
LAYER-1
 10
61.045251
 20
50.258104
 30
0.000000
  0
VERTEX
  8
LAYER-1
 10
61.081707
 20
50.287645
 30
0.000000
  0
SEQEND
  8
LAYER-1
  0
POLYLINE
  8
LAYER-1
 66
  1
 70
  0
 62
  7
 10
61.328674
 20
50.301777
 30
0.000000
  0
VERTEX
  8
LAYER-1
 10
61.328674
 20
50.301777
 30
0.000000
  0
VERTEX
  8
LAYER-1
 10
61.351243
 20
50.275104
 30
0.000000
  0
SEQEND
  8
LAYER-1
  0
POLYLINE
  8
LAYER-1
 66
  1
 70
  0
 62
  7
 10
61.351243
 20
50.275104
 30
0.000000
  0
VERTEX
  8
LAYER-1
 10
61.351243
 20
50.275104
 30
0.000000
  0
VERTEX
  8
LAYER-1
 10
61.318594
 20
50.248784
 30
0.000000
  0
SEQEND
  8
LAYER-1
  0
ARC
  8
LAYER-1
 62
  7
 10
61.232337
 20
49.653020
 30
0.000000
 40
0.633342
 50
79.179024
 51
107.181244
  0
ARC
  8
LAYER-1
 62
  7
 10
61.237014
 20
49.696172
 30
0.000000
 40
0.558604
 50
81.602242
 51
106.643066
  0
POLYLINE
  8
LAYER-1
 66
  1
 70
  0
 62
  7
 10
61.081707
 20
50.287645
 30
0.000000
  0
VERTEX
  8
LAYER-1
 10
61.081707
 20
50.287645
 30
0.000000
  0
VERTEX
  8
LAYER-1
 10
61.011578
 20
50.340360
 30
0.000000
  0
SEQEND
  8
LAYER-1
  0
POLYLINE
  8
LAYER-1
 66
  1
 70
  0
 62
  7
 10
61.328674
 20
50.301777
 30
0.000000
  0
VERTEX
  8
LAYER-1
 10
61.328674
 20
50.301777
 30
0.000000
  0
VERTEX
  8
LAYER-1
 10
61.403372
 20
50.313580
 30
0.000000
  0
SEQEND
  8
LAYER-1
  0
ARC
  8
LAYER-1
 62
  7
 10
61.237037
 20
49.738079
 30
0.000000
 40
0.571096
 50
80.766609
 51
105.782074
  0
POLYLINE
  8
LAYER-1
 66
  1
 70
  0
 62
  7
 10
61.067749
 20
49.997803
 30
0.000000
  0
VERTEX
  8
LAYER-1
 10
61.067749
 20
49.997803
 30
0.000000
  0
VERTEX
  8
LAYER-1
 10
61.035978
 20
50.024536
 30
0.000000
  0
SEQEND
  8
LAYER-1
  0
POLYLINE
  8
LAYER-1
 66
  1
 70
  0
 62
  7
 10
61.035978
 20
50.024536
 30
0.000000
  0
VERTEX
  8
LAYER-1
 10
61.035978
 20
50.024536
 30
0.000000
  0
VERTEX
  8
LAYER-1
 10
61.072444
 20
50.054077
 30
0.000000
  0
SEQEND
  8
LAYER-1
  0
POLYLINE
  8
LAYER-1
 66
  1
 70
  0
 62
  7
 10
61.311153
 20
50.073801
 30
0.000000
  0
VERTEX
  8
LAYER-1
 10
61.311153
 20
50.073801
 30
0.000000
  0
VERTEX
  8
LAYER-1
 10
61.341975
 20
50.041537
 30
0.000000
  0
SEQEND
  8
LAYER-1
  0
POLYLINE
  8
LAYER-1
 66
  1
 70
  0
 62
  7
 10
61.341975
 20
50.041537
 30
0.000000
  0
VERTEX
  8
LAYER-1
 10
61.341975
 20
50.041537
 30
0.000000
  0
VERTEX
  8
LAYER-1
 10
61.309321
 20
50.015217
 30
0.000000
  0
SEQEND
  8
LAYER-1
  0
ARC
  8
LAYER-1
 62
  7
 10
61.223065
 20
49.419452
 30
0.000000
 40
0.633342
 50
79.179024
 51
107.181244
  0
ARC
  8
LAYER-1
 62
  7
 10
61.227741
 20
49.462604
 30
0.000000
 40
0.558604
 50
81.602242
 51
106.643066
  0
POLYLINE
  8
LAYER-1
 66
  1
 70
  0
 62
  7
 10
61.302429
 20
49.897414
 30
0.000000
  0
VERTEX
  8
LAYER-1
 10
61.302429
 20
49.897414
 30
0.000000
  0
VERTEX
  8
LAYER-1
 10
61.311542
 20
49.887648
 30
0.000000
  0
SEQEND
  8
LAYER-1
  0
POLYLINE
  8
LAYER-1
 66
  1
 70
  1
 62
  7
  0
VERTEX
  8
LAYER-1
 10
60.931124
 20
49.895977
 30
0.000000
  0
VERTEX
  8
LAYER-1
 10
61.426316
 20
49.895977
 30
0.000000
  0
VERTEX
  8
LAYER-1
 10
61.426316
 20
48.338280
 30
0.000000
  0
VERTEX
  8
LAYER-1
 10
60.931124
 20
48.338280
 30
0.000000
  0
SEQEND
  8
LAYER-1
  0
POLYLINE
  8
LAYER-1
 66
  1
 70
  1
 62
  7
  0
VERTEX
  8
LAYER-1
 10
57.609976
 20
52.203181
 30
0.000000
  0
VERTEX
  8
LAYER-1
 10
60.109981
 20
52.203181
 30
0.000000
  0
VERTEX
  8
LAYER-1
 10
60.109981
 20
42.503183
 30
0.000000
  0
VERTEX
  8
LAYER-1
 10
57.609976
 20
42.503183
 30
0.000000
  0
SEQEND
  8
LAYER-1
  0
POLYLINE
  8
LAYER-1
 66
  1
 70
  1
 62
  7
  0
VERTEX
  8
LAYER-1
 10
57.355178
 20
50.080106
 30
0.000000
  0
VERTEX
  8
LAYER-1
 10
57.605178
 20
50.080106
 30
0.000000
  0
VERTEX
  8
LAYER-1
 10
57.605178
 20
48.080106
 30
0.000000
  0
VERTEX
  8
LAYER-1
 10
57.355178
 20
48.080106
 30
0.000000
  0
SEQEND
  8
LAYER-1
  0
POLYLINE
  8
LAYER-1
 66
  1
 70
  1
 62
  7
  0
VERTEX
  8
LAYER-1
 10
60.105178
 20
50.080106
 30
0.000000
  0
VERTEX
  8
LAYER-1
 10
60.355178
 20
50.080106
 30
0.000000
  0
VERTEX
  8
LAYER-1
 10
60.355178
 20
48.080106
 30
0.000000
  0
VERTEX
  8
LAYER-1
 10
60.105178
 20
48.080106
 30
0.000000
  0
SEQEND
  8
LAYER-1
  0
POLYLINE
  8
LAYER-1
 66
  1
 70
  1
 62
  7
  0
VERTEX
  8
LAYER-1
 10
60.105164
 20
46.092604
 30
0.000000
  0
VERTEX
  8
LAYER-1
 10
60.230164
 20
46.092604
 30
0.000000
  0
VERTEX
  8
LAYER-1
 10
60.230164
 20
44.842604
 30
0.000000
  0
VERTEX
  8
LAYER-1
 10
60.105164
 20
44.842604
 30
0.000000
  0
SEQEND
  8
LAYER-1
  0
POLYLINE
  8
LAYER-1
 66
  1
 70
  1
 62
  7
  0
VERTEX
  8
LAYER-1
 10
57.480164
 20
46.092604
 30
0.000000
  0
VERTEX
  8
LAYER-1
 10
57.605164
 20
46.092604
 30
0.000000
  0
VERTEX
  8
LAYER-1
 10
57.605164
 20
44.842604
 30
0.000000
  0
VERTEX
  8
LAYER-1
 10
57.480164
 20
44.842604
 30
0.000000
  0
SEQEND
  8
LAYER-1
  0
POLYLINE
  8
LAYER-1
  6
LTYPE06
 66
  1
 70
  0
 62
  7
  6
LTYPE06
 10
62.555162
 20
51.131427
 30
0.000000
  0
VERTEX
  8
LAYER-1
  6
LTYPE06
 10
62.555162
 20
51.131427
 30
0.000000
  0
VERTEX
  8
LAYER-1
  6
LTYPE06
 10
47.055162
 20
51.131427
 30
0.000000
  0
SEQEND
  8
LAYER-1
  0
POLYLINE
  8
LAYER-1
  6
LTYPE06
 66
  1
 70
  0
 62
  7
  6
LTYPE06
 10
62.555162
 20
44.792138
 30
0.000000
  0
VERTEX
  8
LAYER-1
  6
LTYPE06
 10
62.555162
 20
44.792138
 30
0.000000
  0
VERTEX
  8
LAYER-1
  6
LTYPE06
 10
47.055162
 20
44.792138
 30
0.000000
  0
SEQEND
  8
LAYER-1
  0
POLYLINE
  8
LAYER-1
 66
  1
 70
  0
 62
  7
 10
53.245821
 20
44.936354
 30
0.000000
  0
VERTEX
  8
LAYER-1
 10
53.245821
 20
44.936354
 30
0.000000
  0
VERTEX
  8
LAYER-1
 10
53.217459
 20
44.888639
 30
0.000000
  0
SEQEND
  8
LAYER-1
  0
POLYLINE
  8
LAYER-1
 66
  1
 70
  0
 62
  7
 10
53.245821
 20
44.936354
 30
0.000000
  0
VERTEX
  8
LAYER-1
 10
53.245821
 20
44.936354
 30
0.000000
  0
VERTEX
  8
LAYER-1
 10
53.274189
 20
44.888639
 30
0.000000
  0
SEQEND
  8
LAYER-1
  0
POLYLINE
  8
LAYER-1
 66
  1
 70
  0
 62
  7
 10
53.296246
 20
44.626991
 30
0.000000
  0
VERTEX
  8
LAYER-1
 10
53.296246
 20
44.626991
 30
0.000000
  0
VERTEX
  8
LAYER-1
 10
53.267883
 20
44.674701
 30
0.000000
  0
SEQEND
  8
LAYER-1
  0
POLYLINE
  8
LAYER-1
 66
  1
 70
  0
 62
  7
 10
53.296246
 20
44.626991
 30
0.000000
  0
VERTEX
  8
LAYER-1
 10
53.296246
 20
44.626991
 30
0.000000
  0
VERTEX
  8
LAYER-1
 10
53.324613
 20
44.674701
 30
0.000000
  0
SEQEND
  8
LAYER-1
  0
POLYLINE
  8
LAYER-1
 66
  1
 70
  0
 62
  7
 10
53.217459
 20
44.888639
 30
0.000000
  0
VERTEX
  8
LAYER-1
 10
53.217459
 20
44.888639
 30
0.000000
  0
VERTEX
  8
LAYER-1
 10
53.267883
 20
44.674701
 30
0.000000
  0
SEQEND
  8
LAYER-1
  0
POLYLINE
  8
LAYER-1
 66
  1
 70
  0
 62
  7
 10
53.245821
 20
44.936354
 30
0.000000
  0
VERTEX
  8
LAYER-1
 10
53.245821
 20
44.936354
 30
0.000000
  0
VERTEX
  8
LAYER-1
 10
53.296246
 20
44.626991
 30
0.000000
  0
SEQEND
  8
LAYER-1
  0
POLYLINE
  8
LAYER-1
 66
  1
 70
  0
 62
  7
 10
53.302096
 20
44.936354
 30
0.000000
  0
VERTEX
  8
LAYER-1
 10
53.302096
 20
44.936354
 30
0.000000
  0
VERTEX
  8
LAYER-1
 10
53.273733
 20
44.888639
 30
0.000000
  0
SEQEND
  8
LAYER-1
  0
POLYLINE
  8
LAYER-1
 66
  1
 70
  0
 62
  7
 10
53.302096
 20
44.936354
 30
0.000000
  0
VERTEX
  8
LAYER-1
 10
53.302096
 20
44.936354
 30
0.000000
  0
VERTEX
  8
LAYER-1
 10
53.330463
 20
44.888639
 30
0.000000
  0
SEQEND
  8
LAYER-1
  0
POLYLINE
  8
LAYER-1
 66
  1
 70
  0
 62
  7
 10
53.352525
 20
44.626991
 30
0.000000
  0
VERTEX
  8
LAYER-1
 10
53.352525
 20
44.626991
 30
0.000000
  0
VERTEX
  8
LAYER-1
 10
53.324162
 20
44.674701
 30
0.000000
  0
SEQEND
  8
LAYER-1
  0
POLYLINE
  8
LAYER-1
 66
  1
 70
  0
 62
  7
 10
53.352525
 20
44.626991
 30
0.000000
  0
VERTEX
  8
LAYER-1
 10
53.352525
 20
44.626991
 30
0.000000
  0
VERTEX
  8
LAYER-1
 10
53.380888
 20
44.674701
 30
0.000000
  0
SEQEND
  8
LAYER-1
  0
POLYLINE
  8
LAYER-1
 66
  1
 70
  0
 62
  7
 10
53.273733
 20
44.888639
 30
0.000000
  0
VERTEX
  8
LAYER-1
 10
53.273733
 20
44.888639
 30
0.000000
  0
VERTEX
  8
LAYER-1
 10
53.324162
 20
44.674701
 30
0.000000
  0
SEQEND
  8
LAYER-1
  0
POLYLINE
  8
LAYER-1
 66
  1
 70
  0
 62
  7
 10
53.302096
 20
44.936354
 30
0.000000
  0
VERTEX
  8
LAYER-1
 10
53.302096
 20
44.936354
 30
0.000000
  0
VERTEX
  8
LAYER-1
 10
53.352525
 20
44.626991
 30
0.000000
  0
SEQEND
  8
LAYER-1
  0
POLYLINE
  8
LAYER-1
 66
  1
 70
  0
 62
  7
 10
53.358375
 20
44.936354
 30
0.000000
  0
VERTEX
  8
LAYER-1
 10
53.358375
 20
44.936354
 30
0.000000
  0
VERTEX
  8
LAYER-1
 10
53.330008
 20
44.888639
 30
0.000000
  0
SEQEND
  8
LAYER-1
  0
POLYLINE
  8
LAYER-1
 66
  1
 70
  0
 62
  7
 10
53.358375
 20
44.936354
 30
0.000000
  0
VERTEX
  8
LAYER-1
 10
53.358375
 20
44.936354
 30
0.000000
  0
VERTEX
  8
LAYER-1
 10
53.386738
 20
44.888639
 30
0.000000
  0
SEQEND
  8
LAYER-1
  0
POLYLINE
  8
LAYER-1
 66
  1
 70
  0
 62
  7
 10
53.408799
 20
44.626991
 30
0.000000
  0
VERTEX
  8
LAYER-1
 10
53.408799
 20
44.626991
 30
0.000000
  0
VERTEX
  8
LAYER-1
 10
53.380437
 20
44.674701
 30
0.000000
  0
SEQEND
  8
LAYER-1
  0
POLYLINE
  8
LAYER-1
 66
  1
 70
  0
 62
  7
 10
53.408799
 20
44.626991
 30
0.000000
  0
VERTEX
  8
LAYER-1
 10
53.408799
 20
44.626991
 30
0.000000
  0
VERTEX
  8
LAYER-1
 10
53.437167
 20
44.674701
 30
0.000000
  0
SEQEND
  8
LAYER-1
  0
POLYLINE
  8
LAYER-1
 66
  1
 70
  0
 62
  7
 10
53.330008
 20
44.888639
 30
0.000000
  0
VERTEX
  8
LAYER-1
 10
53.330008
 20
44.888639
 30
0.000000
  0
VERTEX
  8
LAYER-1
 10
53.380437
 20
44.674701
 30
0.000000
  0
SEQEND
  8
LAYER-1
  0
POLYLINE
  8
LAYER-1
 66
  1
 70
  0
 62
  7
 10
53.358375
 20
44.936354
 30
0.000000
  0
VERTEX
  8
LAYER-1
 10
53.358375
 20
44.936354
 30
0.000000
  0
VERTEX
  8
LAYER-1
 10
53.408799
 20
44.626991
 30
0.000000
  0
SEQEND
  8
LAYER-1
  0
POLYLINE
  8
LAYER-1
 66
  1
 70
  0
 62
  7
 10
53.414649
 20
44.936354
 30
0.000000
  0
VERTEX
  8
LAYER-1
 10
53.414649
 20
44.936354
 30
0.000000
  0
VERTEX
  8
LAYER-1
 10
53.386282
 20
44.888639
 30
0.000000
  0
SEQEND
  8
LAYER-1
  0
POLYLINE
  8
LAYER-1
 66
  1
 70
  0
 62
  7
 10
53.414649
 20
44.936354
 30
0.000000
  0
VERTEX
  8
LAYER-1
 10
53.414649
 20
44.936354
 30
0.000000
  0
VERTEX
  8
LAYER-1
 10
53.443012
 20
44.888639
 30
0.000000
  0
SEQEND
  8
LAYER-1
  0
POLYLINE
  8
LAYER-1
 66
  1
 70
  0
 62
  7
 10
53.465074
 20
44.626991
 30
0.000000
  0
VERTEX
  8
LAYER-1
 10
53.465074
 20
44.626991
 30
0.000000
  0
VERTEX
  8
LAYER-1
 10
53.436711
 20
44.674701
 30
0.000000
  0
SEQEND
  8
LAYER-1
  0
POLYLINE
  8
LAYER-1
 66
  1
 70
  0
 62
  7
 10
53.465074
 20
44.626991
 30
0.000000
  0
VERTEX
  8
LAYER-1
 10
53.465074
 20
44.626991
 30
0.000000
  0
VERTEX
  8
LAYER-1
 10
53.493441
 20
44.674701
 30
0.000000
  0
SEQEND
  8
LAYER-1
  0
POLYLINE
  8
LAYER-1
 66
  1
 70
  0
 62
  7
 10
53.386282
 20
44.888639
 30
0.000000
  0
VERTEX
  8
LAYER-1
 10
53.386282
 20
44.888639
 30
0.000000
  0
VERTEX
  8
LAYER-1
 10
53.436711
 20
44.674701
 30
0.000000
  0
SEQEND
  8
LAYER-1
  0
POLYLINE
  8
LAYER-1
 66
  1
 70
  0
 62
  7
 10
53.414649
 20
44.936354
 30
0.000000
  0
VERTEX
  8
LAYER-1
 10
53.414649
 20
44.936354
 30
0.000000
  0
VERTEX
  8
LAYER-1
 10
53.465074
 20
44.626991
 30
0.000000
  0
SEQEND
  8
LAYER-1
  0
POLYLINE
  8
LAYER-1
 66
  1
 70
  0
 62
  7
 10
53.470924
 20
44.936354
 30
0.000000
  0
VERTEX
  8
LAYER-1
 10
53.470924
 20
44.936354
 30
0.000000
  0
VERTEX
  8
LAYER-1
 10
53.442561
 20
44.888639
 30
0.000000
  0
SEQEND
  8
LAYER-1
  0
POLYLINE
  8
LAYER-1
 66
  1
 70
  0
 62
  7
 10
53.470924
 20
44.936354
 30
0.000000
  0
VERTEX
  8
LAYER-1
 10
53.470924
 20
44.936354
 30
0.000000
  0
VERTEX
  8
LAYER-1
 10
53.499286
 20
44.888639
 30
0.000000
  0
SEQEND
  8
LAYER-1
  0
POLYLINE
  8
LAYER-1
 66
  1
 70
  0
 62
  7
 10
53.521353
 20
44.626991
 30
0.000000
  0
VERTEX
  8
LAYER-1
 10
53.521353
 20
44.626991
 30
0.000000
  0
VERTEX
  8
LAYER-1
 10
53.492986
 20
44.674701
 30
0.000000
  0
SEQEND
  8
LAYER-1
  0
POLYLINE
  8
LAYER-1
 66
  1
 70
  0
 62
  7
 10
53.521353
 20
44.626991
 30
0.000000
  0
VERTEX
  8
LAYER-1
 10
53.521353
 20
44.626991
 30
0.000000
  0
VERTEX
  8
LAYER-1
 10
53.549715
 20
44.674701
 30
0.000000
  0
SEQEND
  8
LAYER-1
  0
POLYLINE
  8
LAYER-1
 66
  1
 70
  0
 62
  7
 10
53.442561
 20
44.888639
 30
0.000000
  0
VERTEX
  8
LAYER-1
 10
53.442561
 20
44.888639
 30
0.000000
  0
VERTEX
  8
LAYER-1
 10
53.492986
 20
44.674701
 30
0.000000
  0
SEQEND
  8
LAYER-1
  0
POLYLINE
  8
LAYER-1
 66
  1
 70
  0
 62
  7
 10
53.470924
 20
44.936354
 30
0.000000
  0
VERTEX
  8
LAYER-1
 10
53.470924
 20
44.936354
 30
0.000000
  0
VERTEX
  8
LAYER-1
 10
53.521353
 20
44.626991
 30
0.000000
  0
SEQEND
  8
LAYER-1
  0
POLYLINE
  8
LAYER-1
 66
  1
 70
  0
 62
  7
 10
53.527203
 20
44.936354
 30
0.000000
  0
VERTEX
  8
LAYER-1
 10
53.527203
 20
44.936354
 30
0.000000
  0
VERTEX
  8
LAYER-1
 10
53.498836
 20
44.888639
 30
0.000000
  0
SEQEND
  8
LAYER-1
  0
POLYLINE
  8
LAYER-1
 66
  1
 70
  0
 62
  7
 10
53.527203
 20
44.936354
 30
0.000000
  0
VERTEX
  8
LAYER-1
 10
53.527203
 20
44.936354
 30
0.000000
  0
VERTEX
  8
LAYER-1
 10
53.555565
 20
44.888639
 30
0.000000
  0
SEQEND
  8
LAYER-1
  0
POLYLINE
  8
LAYER-1
 66
  1
 70
  0
 62
  7
 10
53.577627
 20
44.626991
 30
0.000000
  0
VERTEX
  8
LAYER-1
 10
53.577627
 20
44.626991
 30
0.000000
  0
VERTEX
  8
LAYER-1
 10
53.549260
 20
44.674701
 30
0.000000
  0
SEQEND
  8
LAYER-1
  0
POLYLINE
  8
LAYER-1
 66
  1
 70
  0
 62
  7
 10
53.577627
 20
44.626991
 30
0.000000
  0
VERTEX
  8
LAYER-1
 10
53.577627
 20
44.626991
 30
0.000000
  0
VERTEX
  8
LAYER-1
 10
53.605990
 20
44.674701
 30
0.000000
  0
SEQEND
  8
LAYER-1
  0
POLYLINE
  8
LAYER-1
 66
  1
 70
  0
 62
  7
 10
53.498836
 20
44.888639
 30
0.000000
  0
VERTEX
  8
LAYER-1
 10
53.498836
 20
44.888639
 30
0.000000
  0
VERTEX
  8
LAYER-1
 10
53.549260
 20
44.674701
 30
0.000000
  0
SEQEND
  8
LAYER-1
  0
POLYLINE
  8
LAYER-1
 66
  1
 70
  0
 62
  7
 10
53.527203
 20
44.936354
 30
0.000000
  0
VERTEX
  8
LAYER-1
 10
53.527203
 20
44.936354
 30
0.000000
  0
VERTEX
  8
LAYER-1
 10
53.577627
 20
44.626991
 30
0.000000
  0
SEQEND
  8
LAYER-1
  0
POLYLINE
  8
LAYER-1
 66
  1
 70
  0
 62
  7
 10
53.583477
 20
44.936354
 30
0.000000
  0
VERTEX
  8
LAYER-1
 10
53.583477
 20
44.936354
 30
0.000000
  0
VERTEX
  8
LAYER-1
 10
53.555115
 20
44.888639
 30
0.000000
  0
SEQEND
  8
LAYER-1
  0
POLYLINE
  8
LAYER-1
 66
  1
 70
  0
 62
  7
 10
53.583477
 20
44.936354
 30
0.000000
  0
VERTEX
  8
LAYER-1
 10
53.583477
 20
44.936354
 30
0.000000
  0
VERTEX
  8
LAYER-1
 10
53.611845
 20
44.888639
 30
0.000000
  0
SEQEND
  8
LAYER-1
  0
POLYLINE
  8
LAYER-1
 66
  1
 70
  0
 62
  7
 10
53.633902
 20
44.626991
 30
0.000000
  0
VERTEX
  8
LAYER-1
 10
53.633902
 20
44.626991
 30
0.000000
  0
VERTEX
  8
LAYER-1
 10
53.605539
 20
44.674701
 30
0.000000
  0
SEQEND
  8
LAYER-1
  0
POLYLINE
  8
LAYER-1
 66
  1
 70
  0
 62
  7
 10
53.633902
 20
44.626991
 30
0.000000
  0
VERTEX
  8
LAYER-1
 10
53.633902
 20
44.626991
 30
0.000000
  0
VERTEX
  8
LAYER-1
 10
53.662264
 20
44.674701
 30
0.000000
  0
SEQEND
  8
LAYER-1
  0
POLYLINE
  8
LAYER-1
 66
  1
 70
  0
 62
  7
 10
53.555115
 20
44.888639
 30
0.000000
  0
VERTEX
  8
LAYER-1
 10
53.555115
 20
44.888639
 30
0.000000
  0
VERTEX
  8
LAYER-1
 10
53.605539
 20
44.674701
 30
0.000000
  0
SEQEND
  8
LAYER-1
  0
POLYLINE
  8
LAYER-1
 66
  1
 70
  0
 62
  7
 10
53.583477
 20
44.936354
 30
0.000000
  0
VERTEX
  8
LAYER-1
 10
53.583477
 20
44.936354
 30
0.000000
  0
VERTEX
  8
LAYER-1
 10
53.633902
 20
44.626991
 30
0.000000
  0
SEQEND
  8
LAYER-1
  0
POLYLINE
  8
LAYER-1
 66
  1
 70
  0
 62
  7
 10
53.639752
 20
44.936354
 30
0.000000
  0
VERTEX
  8
LAYER-1
 10
53.639752
 20
44.936354
 30
0.000000
  0
VERTEX
  8
LAYER-1
 10
53.611389
 20
44.888639
 30
0.000000
  0
SEQEND
  8
LAYER-1
  0
POLYLINE
  8
LAYER-1
 66
  1
 70
  0
 62
  7
 10
53.639752
 20
44.936354
 30
0.000000
  0
VERTEX
  8
LAYER-1
 10
53.639752
 20
44.936354
 30
0.000000
  0
VERTEX
  8
LAYER-1
 10
53.668119
 20
44.888639
 30
0.000000
  0
SEQEND
  8
LAYER-1
  0
POLYLINE
  8
LAYER-1
 66
  1
 70
  0
 62
  7
 10
53.690181
 20
44.626991
 30
0.000000
  0
VERTEX
  8
LAYER-1
 10
53.690181
 20
44.626991
 30
0.000000
  0
VERTEX
  8
LAYER-1
 10
53.661814
 20
44.674701
 30
0.000000
  0
SEQEND
  8
LAYER-1
  0
POLYLINE
  8
LAYER-1
 66
  1
 70
  0
 62
  7
 10
53.690181
 20
44.626991
 30
0.000000
  0
VERTEX
  8
LAYER-1
 10
53.690181
 20
44.626991
 30
0.000000
  0
VERTEX
  8
LAYER-1
 10
53.718543
 20
44.674701
 30
0.000000
  0
SEQEND
  8
LAYER-1
  0
POLYLINE
  8
LAYER-1
 66
  1
 70
  0
 62
  7
 10
53.611389
 20
44.888639
 30
0.000000
  0
VERTEX
  8
LAYER-1
 10
53.611389
 20
44.888639
 30
0.000000
  0
VERTEX
  8
LAYER-1
 10
53.661814
 20
44.674701
 30
0.000000
  0
SEQEND
  8
LAYER-1
  0
POLYLINE
  8
LAYER-1
 66
  1
 70
  0
 62
  7
 10
53.639752
 20
44.936354
 30
0.000000
  0
VERTEX
  8
LAYER-1
 10
53.639752
 20
44.936354
 30
0.000000
  0
VERTEX
  8
LAYER-1
 10
53.690181
 20
44.626991
 30
0.000000
  0
SEQEND
  8
LAYER-1
  0
POLYLINE
  8
LAYER-1
 66
  1
 70
  0
 62
  7
 10
53.696026
 20
44.936354
 30
0.000000
  0
VERTEX
  8
LAYER-1
 10
53.696026
 20
44.936354
 30
0.000000
  0
VERTEX
  8
LAYER-1
 10
53.667664
 20
44.888639
 30
0.000000
  0
SEQEND
  8
LAYER-1
  0
POLYLINE
  8
LAYER-1
 66
  1
 70
  0
 62
  7
 10
53.696026
 20
44.936354
 30
0.000000
  0
VERTEX
  8
LAYER-1
 10
53.696026
 20
44.936354
 30
0.000000
  0
VERTEX
  8
LAYER-1
 10
53.724393
 20
44.888639
 30
0.000000
  0
SEQEND
  8
LAYER-1
  0
POLYLINE
  8
LAYER-1
 66
  1
 70
  0
 62
  7
 10
53.746455
 20
44.626991
 30
0.000000
  0
VERTEX
  8
LAYER-1
 10
53.746455
 20
44.626991
 30
0.000000
  0
VERTEX
  8
LAYER-1
 10
53.718093
 20
44.674701
 30
0.000000
  0
SEQEND
  8
LAYER-1
  0
POLYLINE
  8
LAYER-1
 66
  1
 70
  0
 62
  7
 10
53.746455
 20
44.626991
 30
0.000000
  0
VERTEX
  8
LAYER-1
 10
53.746455
 20
44.626991
 30
0.000000
  0
VERTEX
  8
LAYER-1
 10
53.774823
 20
44.674701
 30
0.000000
  0
SEQEND
  8
LAYER-1
  0
POLYLINE
  8
LAYER-1
 66
  1
 70
  0
 62
  7
 10
53.667664
 20
44.888639
 30
0.000000
  0
VERTEX
  8
LAYER-1
 10
53.667664
 20
44.888639
 30
0.000000
  0
VERTEX
  8
LAYER-1
 10
53.718093
 20
44.674701
 30
0.000000
  0
SEQEND
  8
LAYER-1
  0
POLYLINE
  8
LAYER-1
 66
  1
 70
  0
 62
  7
 10
53.696026
 20
44.936354
 30
0.000000
  0
VERTEX
  8
LAYER-1
 10
53.696026
 20
44.936354
 30
0.000000
  0
VERTEX
  8
LAYER-1
 10
53.746455
 20
44.626991
 30
0.000000
  0
SEQEND
  8
LAYER-1
  0
POLYLINE
  8
LAYER-1
 66
  1
 70
  0
 62
  7
 10
53.217910
 20
44.888639
 30
0.000000
  0
VERTEX
  8
LAYER-1
 10
53.217910
 20
44.888639
 30
0.000000
  0
VERTEX
  8
LAYER-1
 10
53.196256
 20
44.906842
 30
0.000000
  0
SEQEND
  8
LAYER-1
  0
POLYLINE
  8
LAYER-1
 66
  1
 70
  0
 62
  7
 10
53.239971
 20
44.626991
 30
0.000000
  0
VERTEX
  8
LAYER-1
 10
53.239971
 20
44.626991
 30
0.000000
  0
VERTEX
  8
LAYER-1
 10
53.196256
 20
44.655626
 30
0.000000
  0
SEQEND
  8
LAYER-1
  0
POLYLINE
  8
LAYER-1
 66
  1
 70
  0
 62
  7
 10
53.239971
 20
44.626991
 30
0.000000
  0
VERTEX
  8
LAYER-1
 10
53.239971
 20
44.626991
 30
0.000000
  0
VERTEX
  8
LAYER-1
 10
53.268334
 20
44.674701
 30
0.000000
  0
SEQEND
  8
LAYER-1
  0
POLYLINE
  8
LAYER-1
 66
  1
 70
  0
 62
  7
 10
53.196256
 20
44.906842
 30
0.000000
  0
VERTEX
  8
LAYER-1
 10
53.196256
 20
44.906842
 30
0.000000
  0
VERTEX
  8
LAYER-1
 10
53.239971
 20
44.626991
 30
0.000000
  0
SEQEND
  8
LAYER-1
  0
POLYLINE
  8
LAYER-1
 66
  1
 70
  0
 62
  7
 10
53.752305
 20
44.936354
 30
0.000000
  0
VERTEX
  8
LAYER-1
 10
53.752305
 20
44.936354
 30
0.000000
  0
VERTEX
  8
LAYER-1
 10
53.723938
 20
44.888639
 30
0.000000
  0
SEQEND
  8
LAYER-1
  0
POLYLINE
  8
LAYER-1
 66
  1
 70
  0
 62
  7
 10
53.752305
 20
44.936354
 30
0.000000
  0
VERTEX
  8
LAYER-1
 10
53.752305
 20
44.936354
 30
0.000000
  0
VERTEX
  8
LAYER-1
 10
53.780668
 20
44.888639
 30
0.000000
  0
SEQEND
  8
LAYER-1
  0
POLYLINE
  8
LAYER-1
 66
  1
 70
  0
 62
  7
 10
53.802730
 20
44.626991
 30
0.000000
  0
VERTEX
  8
LAYER-1
 10
53.802730
 20
44.626991
 30
0.000000
  0
VERTEX
  8
LAYER-1
 10
53.774367
 20
44.674701
 30
0.000000
  0
SEQEND
  8
LAYER-1
  0
POLYLINE
  8
LAYER-1
 66
  1
 70
  0
 62
  7
 10
53.802730
 20
44.626991
 30
0.000000
  0
VERTEX
  8
LAYER-1
 10
53.802730
 20
44.626991
 30
0.000000
  0
VERTEX
  8
LAYER-1
 10
53.831097
 20
44.674701
 30
0.000000
  0
SEQEND
  8
LAYER-1
  0
POLYLINE
  8
LAYER-1
 66
  1
 70
  0
 62
  7
 10
53.723938
 20
44.888639
 30
0.000000
  0
VERTEX
  8
LAYER-1
 10
53.723938
 20
44.888639
 30
0.000000
  0
VERTEX
  8
LAYER-1
 10
53.774367
 20
44.674701
 30
0.000000
  0
SEQEND
  8
LAYER-1
  0
POLYLINE
  8
LAYER-1
 66
  1
 70
  0
 62
  7
 10
53.752305
 20
44.936354
 30
0.000000
  0
VERTEX
  8
LAYER-1
 10
53.752305
 20
44.936354
 30
0.000000
  0
VERTEX
  8
LAYER-1
 10
53.802730
 20
44.626991
 30
0.000000
  0
SEQEND
  8
LAYER-1
  0
POLYLINE
  8
LAYER-1
 66
  1
 70
  0
 62
  7
 10
53.808580
 20
44.936354
 30
0.000000
  0
VERTEX
  8
LAYER-1
 10
53.808580
 20
44.936354
 30
0.000000
  0
VERTEX
  8
LAYER-1
 10
53.780217
 20
44.888639
 30
0.000000
  0
SEQEND
  8
LAYER-1
  0
POLYLINE
  8
LAYER-1
 66
  1
 70
  0
 62
  7
 10
53.808580
 20
44.936354
 30
0.000000
  0
VERTEX
  8
LAYER-1
 10
53.808580
 20
44.936354
 30
0.000000
  0
VERTEX
  8
LAYER-1
 10
53.836942
 20
44.888639
 30
0.000000
  0
SEQEND
  8
LAYER-1
  0
POLYLINE
  8
LAYER-1
 66
  1
 70
  0
 62
  7
 10
53.859004
 20
44.626991
 30
0.000000
  0
VERTEX
  8
LAYER-1
 10
53.859004
 20
44.626991
 30
0.000000
  0
VERTEX
  8
LAYER-1
 10
53.830642
 20
44.674701
 30
0.000000
  0
SEQEND
  8
LAYER-1
  0
POLYLINE
  8
LAYER-1
 66
  1
 70
  0
 62
  7
 10
53.859004
 20
44.626991
 30
0.000000
  0
VERTEX
  8
LAYER-1
 10
53.859004
 20
44.626991
 30
0.000000
  0
VERTEX
  8
LAYER-1
 10
53.887371
 20
44.674701
 30
0.000000
  0
SEQEND
  8
LAYER-1
  0
POLYLINE
  8
LAYER-1
 66
  1
 70
  0
 62
  7
 10
53.780217
 20
44.888639
 30
0.000000
  0
VERTEX
  8
LAYER-1
 10
53.780217
 20
44.888639
 30
0.000000
  0
VERTEX
  8
LAYER-1
 10
53.830642
 20
44.674701
 30
0.000000
  0
SEQEND
  8
LAYER-1
  0
POLYLINE
  8
LAYER-1
 66
  1
 70
  0
 62
  7
 10
53.808580
 20
44.936354
 30
0.000000
  0
VERTEX
  8
LAYER-1
 10
53.808580
 20
44.936354
 30
0.000000
  0
VERTEX
  8
LAYER-1
 10
53.859004
 20
44.626991
 30
0.000000
  0
SEQEND
  8
LAYER-1
  0
POLYLINE
  8
LAYER-1
 66
  1
 70
  0
 62
  7
 10
53.864859
 20
44.936354
 30
0.000000
  0
VERTEX
  8
LAYER-1
 10
53.864859
 20
44.936354
 30
0.000000
  0
VERTEX
  8
LAYER-1
 10
53.836492
 20
44.888639
 30
0.000000
  0
SEQEND
  8
LAYER-1
  0
POLYLINE
  8
LAYER-1
 66
  1
 70
  0
 62
  7
 10
53.864859
 20
44.936354
 30
0.000000
  0
VERTEX
  8
LAYER-1
 10
53.864859
 20
44.936354
 30
0.000000
  0
VERTEX
  8
LAYER-1
 10
53.893221
 20
44.888639
 30
0.000000
  0
SEQEND
  8
LAYER-1
  0
POLYLINE
  8
LAYER-1
 66
  1
 70
  0
 62
  7
 10
53.915283
 20
44.626991
 30
0.000000
  0
VERTEX
  8
LAYER-1
 10
53.915283
 20
44.626991
 30
0.000000
  0
VERTEX
  8
LAYER-1
 10
53.886916
 20
44.674701
 30
0.000000
  0
SEQEND
  8
LAYER-1
  0
POLYLINE
  8
LAYER-1
 66
  1
 70
  0
 62
  7
 10
53.915283
 20
44.626991
 30
0.000000
  0
VERTEX
  8
LAYER-1
 10
53.915283
 20
44.626991
 30
0.000000
  0
VERTEX
  8
LAYER-1
 10
53.943646
 20
44.674701
 30
0.000000
  0
SEQEND
  8
LAYER-1
  0
POLYLINE
  8
LAYER-1
 66
  1
 70
  0
 62
  7
 10
53.836492
 20
44.888639
 30
0.000000
  0
VERTEX
  8
LAYER-1
 10
53.836492
 20
44.888639
 30
0.000000
  0
VERTEX
  8
LAYER-1
 10
53.886916
 20
44.674701
 30
0.000000
  0
SEQEND
  8
LAYER-1
  0
POLYLINE
  8
LAYER-1
 66
  1
 70
  0
 62
  7
 10
53.864859
 20
44.936354
 30
0.000000
  0
VERTEX
  8
LAYER-1
 10
53.864859
 20
44.936354
 30
0.000000
  0
VERTEX
  8
LAYER-1
 10
53.915283
 20
44.626991
 30
0.000000
  0
SEQEND
  8
LAYER-1
  0
POLYLINE
  8
LAYER-1
 66
  1
 70
  0
 62
  7
 10
53.921133
 20
44.936354
 30
0.000000
  0
VERTEX
  8
LAYER-1
 10
53.921133
 20
44.936354
 30
0.000000
  0
VERTEX
  8
LAYER-1
 10
53.892766
 20
44.888639
 30
0.000000
  0
SEQEND
  8
LAYER-1
  0
POLYLINE
  8
LAYER-1
 66
  1
 70
  0
 62
  7
 10
53.921133
 20
44.936354
 30
0.000000
  0
VERTEX
  8
LAYER-1
 10
53.921133
 20
44.936354
 30
0.000000
  0
VERTEX
  8
LAYER-1
 10
53.949500
 20
44.888639
 30
0.000000
  0
SEQEND
  8
LAYER-1
  0
POLYLINE
  8
LAYER-1
 66
  1
 70
  0
 62
  7
 10
53.971562
 20
44.626991
 30
0.000000
  0
VERTEX
  8
LAYER-1
 10
53.971562
 20
44.626991
 30
0.000000
  0
VERTEX
  8
LAYER-1
 10
53.943195
 20
44.674701
 30
0.000000
  0
SEQEND
  8
LAYER-1
  0
POLYLINE
  8
LAYER-1
 66
  1
 70
  0
 62
  7
 10
53.971562
 20
44.626991
 30
0.000000
  0
VERTEX
  8
LAYER-1
 10
53.971562
 20
44.626991
 30
0.000000
  0
VERTEX
  8
LAYER-1
 10
53.999925
 20
44.674701
 30
0.000000
  0
SEQEND
  8
LAYER-1
  0
POLYLINE
  8
LAYER-1
 66
  1
 70
  0
 62
  7
 10
53.892766
 20
44.888639
 30
0.000000
  0
VERTEX
  8
LAYER-1
 10
53.892766
 20
44.888639
 30
0.000000
  0
VERTEX
  8
LAYER-1
 10
53.943195
 20
44.674701
 30
0.000000
  0
SEQEND
  8
LAYER-1
  0
POLYLINE
  8
LAYER-1
 66
  1
 70
  0
 62
  7
 10
53.921133
 20
44.936354
 30
0.000000
  0
VERTEX
  8
LAYER-1
 10
53.921133
 20
44.936354
 30
0.000000
  0
VERTEX
  8
LAYER-1
 10
53.971562
 20
44.626991
 30
0.000000
  0
SEQEND
  8
LAYER-1
  0
POLYLINE
  8
LAYER-1
 66
  1
 70
  0
 62
  7
 10
53.977408
 20
44.936354
 30
0.000000
  0
VERTEX
  8
LAYER-1
 10
53.977408
 20
44.936354
 30
0.000000
  0
VERTEX
  8
LAYER-1
 10
53.949045
 20
44.888639
 30
0.000000
  0
SEQEND
  8
LAYER-1
  0
POLYLINE
  8
LAYER-1
 66
  1
 70
  0
 62
  7
 10
53.977408
 20
44.936354
 30
0.000000
  0
VERTEX
  8
LAYER-1
 10
53.977408
 20
44.936354
 30
0.000000
  0
VERTEX
  8
LAYER-1
 10
54.005775
 20
44.888639
 30
0.000000
  0
SEQEND
  8
LAYER-1
  0
POLYLINE
  8
LAYER-1
 66
  1
 70
  0
 62
  7
 10
54.027837
 20
44.626991
 30
0.000000
  0
VERTEX
  8
LAYER-1
 10
54.027837
 20
44.626991
 30
0.000000
  0
VERTEX
  8
LAYER-1
 10
53.999469
 20
44.674701
 30
0.000000
  0
SEQEND
  8
LAYER-1
  0
POLYLINE
  8
LAYER-1
 66
  1
 70
  0
 62
  7
 10
54.027837
 20
44.626991
 30
0.000000
  0
VERTEX
  8
LAYER-1
 10
54.027837
 20
44.626991
 30
0.000000
  0
VERTEX
  8
LAYER-1
 10
54.056199
 20
44.674701
 30
0.000000
  0
SEQEND
  8
LAYER-1
  0
POLYLINE
  8
LAYER-1
 66
  1
 70
  0
 62
  7
 10
53.949045
 20
44.888639
 30
0.000000
  0
VERTEX
  8
LAYER-1
 10
53.949045
 20
44.888639
 30
0.000000
  0
VERTEX
  8
LAYER-1
 10
53.999469
 20
44.674701
 30
0.000000
  0
SEQEND
  8
LAYER-1
  0
POLYLINE
  8
LAYER-1
 66
  1
 70
  0
 62
  7
 10
53.977408
 20
44.936354
 30
0.000000
  0
VERTEX
  8
LAYER-1
 10
53.977408
 20
44.936354
 30
0.000000
  0
VERTEX
  8
LAYER-1
 10
54.027837
 20
44.626991
 30
0.000000
  0
SEQEND
  8
LAYER-1
  0
POLYLINE
  8
LAYER-1
 66
  1
 70
  0
 62
  7
 10
54.033682
 20
44.936354
 30
0.000000
  0
VERTEX
  8
LAYER-1
 10
54.033682
 20
44.936354
 30
0.000000
  0
VERTEX
  8
LAYER-1
 10
54.005319
 20
44.888639
 30
0.000000
  0
SEQEND
  8
LAYER-1
  0
POLYLINE
  8
LAYER-1
 66
  1
 70
  0
 62
  7
 10
54.033682
 20
44.936354
 30
0.000000
  0
VERTEX
  8
LAYER-1
 10
54.033682
 20
44.936354
 30
0.000000
  0
VERTEX
  8
LAYER-1
 10
54.062049
 20
44.888639
 30
0.000000
  0
SEQEND
  8
LAYER-1
  0
POLYLINE
  8
LAYER-1
 66
  1
 70
  0
 62
  7
 10
54.084111
 20
44.626991
 30
0.000000
  0
VERTEX
  8
LAYER-1
 10
54.084111
 20
44.626991
 30
0.000000
  0
VERTEX
  8
LAYER-1
 10
54.055744
 20
44.674701
 30
0.000000
  0
SEQEND
  8
LAYER-1
  0
POLYLINE
  8
LAYER-1
 66
  1
 70
  0
 62
  7
 10
54.084111
 20
44.626991
 30
0.000000
  0
VERTEX
  8
LAYER-1
 10
54.084111
 20
44.626991
 30
0.000000
  0
VERTEX
  8
LAYER-1
 10
54.112478
 20
44.674701
 30
0.000000
  0
SEQEND
  8
LAYER-1
  0
POLYLINE
  8
LAYER-1
 66
  1
 70
  0
 62
  7
 10
54.005319
 20
44.888639
 30
0.000000
  0
VERTEX
  8
LAYER-1
 10
54.005319
 20
44.888639
 30
0.000000
  0
VERTEX
  8
LAYER-1
 10
54.055744
 20
44.674701
 30
0.000000
  0
SEQEND
  8
LAYER-1
  0
POLYLINE
  8
LAYER-1
 66
  1
 70
  0
 62
  7
 10
54.033682
 20
44.936354
 30
0.000000
  0
VERTEX
  8
LAYER-1
 10
54.033682
 20
44.936354
 30
0.000000
  0
VERTEX
  8
LAYER-1
 10
54.084111
 20
44.626991
 30
0.000000
  0
SEQEND
  8
LAYER-1
  0
POLYLINE
  8
LAYER-1
 66
  1
 70
  0
 62
  7
 10
54.089956
 20
44.936354
 30
0.000000
  0
VERTEX
  8
LAYER-1
 10
54.089956
 20
44.936354
 30
0.000000
  0
VERTEX
  8
LAYER-1
 10
54.061594
 20
44.888639
 30
0.000000
  0
SEQEND
  8
LAYER-1
  0
POLYLINE
  8
LAYER-1
 66
  1
 70
  0
 62
  7
 10
54.089956
 20
44.936354
 30
0.000000
  0
VERTEX
  8
LAYER-1
 10
54.089956
 20
44.936354
 30
0.000000
  0
VERTEX
  8
LAYER-1
 10
54.118324
 20
44.888639
 30
0.000000
  0
SEQEND
  8
LAYER-1
  0
POLYLINE
  8
LAYER-1
 66
  1
 70
  0
 62
  7
 10
54.140386
 20
44.626991
 30
0.000000
  0
VERTEX
  8
LAYER-1
 10
54.140386
 20
44.626991
 30
0.000000
  0
VERTEX
  8
LAYER-1
 10
54.112023
 20
44.674701
 30
0.000000
  0
SEQEND
  8
LAYER-1
  0
POLYLINE
  8
LAYER-1
 66
  1
 70
  0
 62
  7
 10
54.140386
 20
44.626991
 30
0.000000
  0
VERTEX
  8
LAYER-1
 10
54.140386
 20
44.626991
 30
0.000000
  0
VERTEX
  8
LAYER-1
 10
54.168753
 20
44.674701
 30
0.000000
  0
SEQEND
  8
LAYER-1
  0
POLYLINE
  8
LAYER-1
 66
  1
 70
  0
 62
  7
 10
54.061594
 20
44.888639
 30
0.000000
  0
VERTEX
  8
LAYER-1
 10
54.061594
 20
44.888639
 30
0.000000
  0
VERTEX
  8
LAYER-1
 10
54.112023
 20
44.674701
 30
0.000000
  0
SEQEND
  8
LAYER-1
  0
POLYLINE
  8
LAYER-1
 66
  1
 70
  0
 62
  7
 10
54.089956
 20
44.936354
 30
0.000000
  0
VERTEX
  8
LAYER-1
 10
54.089956
 20
44.936354
 30
0.000000
  0
VERTEX
  8
LAYER-1
 10
54.140386
 20
44.626991
 30
0.000000
  0
SEQEND
  8
LAYER-1
  0
POLYLINE
  8
LAYER-1
 66
  1
 70
  0
 62
  7
 10
54.146236
 20
44.936354
 30
0.000000
  0
VERTEX
  8
LAYER-1
 10
54.146236
 20
44.936354
 30
0.000000
  0
VERTEX
  8
LAYER-1
 10
54.117873
 20
44.888639
 30
0.000000
  0
SEQEND
  8
LAYER-1
  0
POLYLINE
  8
LAYER-1
 66
  1
 70
  0
 62
  7
 10
54.146236
 20
44.936354
 30
0.000000
  0
VERTEX
  8
LAYER-1
 10
54.146236
 20
44.936354
 30
0.000000
  0
VERTEX
  8
LAYER-1
 10
54.181941
 20
44.908048
 30
0.000000
  0
SEQEND
  8
LAYER-1
  0
POLYLINE
  8
LAYER-1
 66
  1
 70
  0
 62
  7
 10
54.196660
 20
44.626991
 30
0.000000
  0
VERTEX
  8
LAYER-1
 10
54.196660
 20
44.626991
 30
0.000000
  0
VERTEX
  8
LAYER-1
 10
54.168297
 20
44.674701
 30
0.000000
  0
SEQEND
  8
LAYER-1
  0
POLYLINE
  8
LAYER-1
 66
  1
 70
  0
 62
  7
 10
54.196660
 20
44.626991
 30
0.000000
  0
VERTEX
  8
LAYER-1
 10
54.196660
 20
44.626991
 30
0.000000
  0
VERTEX
  8
LAYER-1
 10
54.181941
 20
44.908048
 30
0.000000
  0
SEQEND
  8
LAYER-1
  0
POLYLINE
  8
LAYER-1
 66
  1
 70
  0
 62
  7
 10
54.117873
 20
44.888639
 30
0.000000
  0
VERTEX
  8
LAYER-1
 10
54.117873
 20
44.888639
 30
0.000000
  0
VERTEX
  8
LAYER-1
 10
54.168297
 20
44.674701
 30
0.000000
  0
SEQEND
  8
LAYER-1
  0
POLYLINE
  8
LAYER-1
 66
  1
 70
  0
 62
  7
 10
54.146236
 20
44.936354
 30
0.000000
  0
VERTEX
  8
LAYER-1
 10
54.146236
 20
44.936354
 30
0.000000
  0
VERTEX
  8
LAYER-1
 10
54.196660
 20
44.626991
 30
0.000000
  0
SEQEND
  8
LAYER-1
  0
POLYLINE
  8
LAYER-1
 66
  1
 70
  0
 62
  7
 10
53.196256
 20
44.906842
 30
0.000000
  0
VERTEX
  8
LAYER-1
 10
53.196256
 20
44.906842
 30
0.000000
  0
VERTEX
  8
LAYER-1
 10
53.196256
 20
44.655626
 30
0.000000
  0
SEQEND
  8
LAYER-1
  0
POLYLINE
  8
LAYER-1
 66
  1
 70
  0
 62
  7
 10
53.106412
 20
44.936354
 30
0.000000
  0
VERTEX
  8
LAYER-1
 10
53.106412
 20
44.936354
 30
0.000000
  0
VERTEX
  8
LAYER-1
 10
53.196256
 20
44.906842
 30
0.000000
  0
SEQEND
  8
LAYER-1
  0
POLYLINE
  8
LAYER-1
 66
  1
 70
  0
 62
  7
 10
53.196256
 20
44.655626
 30
0.000000
  0
VERTEX
  8
LAYER-1
 10
53.196256
 20
44.655626
 30
0.000000
  0
VERTEX
  8
LAYER-1
 10
53.106412
 20
44.626991
 30
0.000000
  0
SEQEND
  8
LAYER-1
  0
POLYLINE
  8
LAYER-1
 66
  1
 70
  0
 62
  7
 10
53.106412
 20
44.936354
 30
0.000000
  0
VERTEX
  8
LAYER-1
 10
53.106412
 20
44.936354
 30
0.000000
  0
VERTEX
  8
LAYER-1
 10
53.106412
 20
44.626991
 30
0.000000
  0
SEQEND
  8
LAYER-1
  0
POLYLINE
  8
LAYER-1
 66
  1
 70
  0
 62
  7
 10
48.038227
 20
44.497624
 30
0.000000
  0
VERTEX
  8
LAYER-1
 10
48.038227
 20
44.497624
 30
0.000000
  0
VERTEX
  8
LAYER-1
 10
48.196040
 20
44.497624
 30
0.000000
  0
SEQEND
  8
LAYER-1
  0
POLYLINE
  8
LAYER-1
 66
  1
 70
  0
 62
  7
 10
48.038227
 20
44.497624
 30
0.000000
  0
VERTEX
  8
LAYER-1
 10
48.038227
 20
44.497624
 30
0.000000
  0
VERTEX
  8
LAYER-1
 10
48.008709
 20
44.527137
 30
0.000000
  0
SEQEND
  8
LAYER-1
  0
ARC
  8
LAYER-1
 62
  7
 10
48.321566
 20
44.779100
 30
0.000000
 40
0.309461
 50
151.200317
 51
207.435486
  0
POLYLINE
  8
LAYER-1
 66
  1
 70
  0
 62
  7
 10
48.039908
 20
45.067012
 30
0.000000
  0
VERTEX
  8
LAYER-1
 10
48.039908
 20
45.067012
 30
0.000000
  0
VERTEX
  8
LAYER-1
 10
48.196040
 20
45.067012
 30
0.000000
  0
SEQEND
  8
LAYER-1
  0
POLYLINE
  8
LAYER-1
 66
  1
 70
  0
 62
  7
 10
48.196040
 20
45.067012
 30
0.000000
  0
VERTEX
  8
LAYER-1
 10
48.196040
 20
45.067012
 30
0.000000
  0
VERTEX
  8
LAYER-1
 10
48.196040
 20
44.497624
 30
0.000000
  0
SEQEND
  8
LAYER-1
  0
POLYLINE
  8
LAYER-1
 66
  1
 70
  0
 62
  7
 10
48.008709
 20
45.035823
 30
0.000000
  0
VERTEX
  8
LAYER-1
 10
48.008709
 20
45.035823
 30
0.000000
  0
VERTEX
  8
LAYER-1
 10
48.008709
 20
44.527137
 30
0.000000
  0
SEQEND
  8
LAYER-1
  0
ARC
  8
LAYER-1
 62
  7
 10
48.192331
 20
45.045016
 30
0.000000
 40
0.183849
 50
182.866760
 51
219.456268
  0
POLYLINE
  8
LAYER-1
 66
  1
 70
  0
 62
  7
 10
48.039908
 20
45.067012
 30
0.000000
  0
VERTEX
  8
LAYER-1
 10
48.039908
 20
45.067012
 30
0.000000
  0
VERTEX
  8
LAYER-1
 10
48.008709
 20
45.035823
 30
0.000000
  0
SEQEND
  8
LAYER-1
  0
ARC
  8
LAYER-1
 62
  7
 10
48.289969
 20
44.490277
 30
0.000000
 40
0.283661
 50
148.966705
 51
172.533142
  0
POLYLINE
  8
LAYER-1
 66
  1
 70
  0
 62
  7
 10
48.046908
 20
44.636512
 30
0.000000
  0
VERTEX
  8
LAYER-1
 10
48.046908
 20
44.636512
 30
0.000000
  0
VERTEX
  8
LAYER-1
 10
48.195867
 20
44.636512
 30
0.000000
  0
SEQEND
  8
LAYER-1
  0
POLYLINE
  8
LAYER-1
 66
  1
 70
  0
 62
  7
 10
48.049828
 20
44.928185
 30
0.000000
  0
VERTEX
  8
LAYER-1
 10
48.049828
 20
44.928185
 30
0.000000
  0
VERTEX
  8
LAYER-1
 10
48.195867
 20
44.928185
 30
0.000000
  0
SEQEND
  8
LAYER-1
  0
POLYLINE
  8
LAYER-1
 66
  1
 70
  0
 62
  7
 10
53.245821
 20
51.280696
 30
0.000000
  0
VERTEX
  8
LAYER-1
 10
53.245821
 20
51.280696
 30
0.000000
  0
VERTEX
  8
LAYER-1
 10
53.217459
 20
51.232981
 30
0.000000
  0
SEQEND
  8
LAYER-1
  0
POLYLINE
  8
LAYER-1
 66
  1
 70
  0
 62
  7
 10
53.245821
 20
51.280696
 30
0.000000
  0
VERTEX
  8
LAYER-1
 10
53.245821
 20
51.280696
 30
0.000000
  0
VERTEX
  8
LAYER-1
 10
53.274189
 20
51.232981
 30
0.000000
  0
SEQEND
  8
LAYER-1
  0
POLYLINE
  8
LAYER-1
 66
  1
 70
  0
 62
  7
 10
53.296246
 20
50.971332
 30
0.000000
  0
VERTEX
  8
LAYER-1
 10
53.296246
 20
50.971332
 30
0.000000
  0
VERTEX
  8
LAYER-1
 10
53.267883
 20
51.019043
 30
0.000000
  0
SEQEND
  8
LAYER-1
  0
POLYLINE
  8
LAYER-1
 66
  1
 70
  0
 62
  7
 10
53.296246
 20
50.971332
 30
0.000000
  0
VERTEX
  8
LAYER-1
 10
53.296246
 20
50.971332
 30
0.000000
  0
VERTEX
  8
LAYER-1
 10
53.324613
 20
51.019043
 30
0.000000
  0
SEQEND
  8
LAYER-1
  0
POLYLINE
  8
LAYER-1
 66
  1
 70
  0
 62
  7
 10
53.217459
 20
51.232981
 30
0.000000
  0
VERTEX
  8
LAYER-1
 10
53.217459
 20
51.232981
 30
0.000000
  0
VERTEX
  8
LAYER-1
 10
53.267883
 20
51.019043
 30
0.000000
  0
SEQEND
  8
LAYER-1
  0
POLYLINE
  8
LAYER-1
 66
  1
 70
  0
 62
  7
 10
53.245821
 20
51.280696
 30
0.000000
  0
VERTEX
  8
LAYER-1
 10
53.245821
 20
51.280696
 30
0.000000
  0
VERTEX
  8
LAYER-1
 10
53.296246
 20
50.971332
 30
0.000000
  0
SEQEND
  8
LAYER-1
  0
POLYLINE
  8
LAYER-1
 66
  1
 70
  0
 62
  7
 10
53.302096
 20
51.280696
 30
0.000000
  0
VERTEX
  8
LAYER-1
 10
53.302096
 20
51.280696
 30
0.000000
  0
VERTEX
  8
LAYER-1
 10
53.273733
 20
51.232981
 30
0.000000
  0
SEQEND
  8
LAYER-1
  0
POLYLINE
  8
LAYER-1
 66
  1
 70
  0
 62
  7
 10
53.302096
 20
51.280696
 30
0.000000
  0
VERTEX
  8
LAYER-1
 10
53.302096
 20
51.280696
 30
0.000000
  0
VERTEX
  8
LAYER-1
 10
53.330463
 20
51.232981
 30
0.000000
  0
SEQEND
  8
LAYER-1
  0
POLYLINE
  8
LAYER-1
 66
  1
 70
  0
 62
  7
 10
53.352525
 20
50.971332
 30
0.000000
  0
VERTEX
  8
LAYER-1
 10
53.352525
 20
50.971332
 30
0.000000
  0
VERTEX
  8
LAYER-1
 10
53.324162
 20
51.019043
 30
0.000000
  0
SEQEND
  8
LAYER-1
  0
POLYLINE
  8
LAYER-1
 66
  1
 70
  0
 62
  7
 10
53.352525
 20
50.971332
 30
0.000000
  0
VERTEX
  8
LAYER-1
 10
53.352525
 20
50.971332
 30
0.000000
  0
VERTEX
  8
LAYER-1
 10
53.380888
 20
51.019043
 30
0.000000
  0
SEQEND
  8
LAYER-1
  0
POLYLINE
  8
LAYER-1
 66
  1
 70
  0
 62
  7
 10
53.273733
 20
51.232981
 30
0.000000
  0
VERTEX
  8
LAYER-1
 10
53.273733
 20
51.232981
 30
0.000000
  0
VERTEX
  8
LAYER-1
 10
53.324162
 20
51.019043
 30
0.000000
  0
SEQEND
  8
LAYER-1
  0
POLYLINE
  8
LAYER-1
 66
  1
 70
  0
 62
  7
 10
53.302096
 20
51.280696
 30
0.000000
  0
VERTEX
  8
LAYER-1
 10
53.302096
 20
51.280696
 30
0.000000
  0
VERTEX
  8
LAYER-1
 10
53.352525
 20
50.971332
 30
0.000000
  0
SEQEND
  8
LAYER-1
  0
POLYLINE
  8
LAYER-1
 66
  1
 70
  0
 62
  7
 10
53.358375
 20
51.280696
 30
0.000000
  0
VERTEX
  8
LAYER-1
 10
53.358375
 20
51.280696
 30
0.000000
  0
VERTEX
  8
LAYER-1
 10
53.330008
 20
51.232981
 30
0.000000
  0
SEQEND
  8
LAYER-1
  0
POLYLINE
  8
LAYER-1
 66
  1
 70
  0
 62
  7
 10
53.358375
 20
51.280696
 30
0.000000
  0
VERTEX
  8
LAYER-1
 10
53.358375
 20
51.280696
 30
0.000000
  0
VERTEX
  8
LAYER-1
 10
53.386738
 20
51.232981
 30
0.000000
  0
SEQEND
  8
LAYER-1
  0
POLYLINE
  8
LAYER-1
 66
  1
 70
  0
 62
  7
 10
53.408799
 20
50.971332
 30
0.000000
  0
VERTEX
  8
LAYER-1
 10
53.408799
 20
50.971332
 30
0.000000
  0
VERTEX
  8
LAYER-1
 10
53.380437
 20
51.019043
 30
0.000000
  0
SEQEND
  8
LAYER-1
  0
POLYLINE
  8
LAYER-1
 66
  1
 70
  0
 62
  7
 10
53.408799
 20
50.971332
 30
0.000000
  0
VERTEX
  8
LAYER-1
 10
53.408799
 20
50.971332
 30
0.000000
  0
VERTEX
  8
LAYER-1
 10
53.437167
 20
51.019043
 30
0.000000
  0
SEQEND
  8
LAYER-1
  0
POLYLINE
  8
LAYER-1
 66
  1
 70
  0
 62
  7
 10
53.330008
 20
51.232981
 30
0.000000
  0
VERTEX
  8
LAYER-1
 10
53.330008
 20
51.232981
 30
0.000000
  0
VERTEX
  8
LAYER-1
 10
53.380437
 20
51.019043
 30
0.000000
  0
SEQEND
  8
LAYER-1
  0
POLYLINE
  8
LAYER-1
 66
  1
 70
  0
 62
  7
 10
53.358375
 20
51.280696
 30
0.000000
  0
VERTEX
  8
LAYER-1
 10
53.358375
 20
51.280696
 30
0.000000
  0
VERTEX
  8
LAYER-1
 10
53.408799
 20
50.971332
 30
0.000000
  0
SEQEND
  8
LAYER-1
  0
POLYLINE
  8
LAYER-1
 66
  1
 70
  0
 62
  7
 10
53.414649
 20
51.280696
 30
0.000000
  0
VERTEX
  8
LAYER-1
 10
53.414649
 20
51.280696
 30
0.000000
  0
VERTEX
  8
LAYER-1
 10
53.386282
 20
51.232981
 30
0.000000
  0
SEQEND
  8
LAYER-1
  0
POLYLINE
  8
LAYER-1
 66
  1
 70
  0
 62
  7
 10
53.414649
 20
51.280696
 30
0.000000
  0
VERTEX
  8
LAYER-1
 10
53.414649
 20
51.280696
 30
0.000000
  0
VERTEX
  8
LAYER-1
 10
53.443012
 20
51.232981
 30
0.000000
  0
SEQEND
  8
LAYER-1
  0
POLYLINE
  8
LAYER-1
 66
  1
 70
  0
 62
  7
 10
53.465074
 20
50.971332
 30
0.000000
  0
VERTEX
  8
LAYER-1
 10
53.465074
 20
50.971332
 30
0.000000
  0
VERTEX
  8
LAYER-1
 10
53.436711
 20
51.019043
 30
0.000000
  0
SEQEND
  8
LAYER-1
  0
POLYLINE
  8
LAYER-1
 66
  1
 70
  0
 62
  7
 10
53.465074
 20
50.971332
 30
0.000000
  0
VERTEX
  8
LAYER-1
 10
53.465074
 20
50.971332
 30
0.000000
  0
VERTEX
  8
LAYER-1
 10
53.493441
 20
51.019043
 30
0.000000
  0
SEQEND
  8
LAYER-1
  0
POLYLINE
  8
LAYER-1
 66
  1
 70
  0
 62
  7
 10
53.386282
 20
51.232981
 30
0.000000
  0
VERTEX
  8
LAYER-1
 10
53.386282
 20
51.232981
 30
0.000000
  0
VERTEX
  8
LAYER-1
 10
53.436711
 20
51.019043
 30
0.000000
  0
SEQEND
  8
LAYER-1
  0
POLYLINE
  8
LAYER-1
 66
  1
 70
  0
 62
  7
 10
53.414649
 20
51.280696
 30
0.000000
  0
VERTEX
  8
LAYER-1
 10
53.414649
 20
51.280696
 30
0.000000
  0
VERTEX
  8
LAYER-1
 10
53.465074
 20
50.971332
 30
0.000000
  0
SEQEND
  8
LAYER-1
  0
POLYLINE
  8
LAYER-1
 66
  1
 70
  0
 62
  7
 10
53.470924
 20
51.280696
 30
0.000000
  0
VERTEX
  8
LAYER-1
 10
53.470924
 20
51.280696
 30
0.000000
  0
VERTEX
  8
LAYER-1
 10
53.442561
 20
51.232981
 30
0.000000
  0
SEQEND
  8
LAYER-1
  0
POLYLINE
  8
LAYER-1
 66
  1
 70
  0
 62
  7
 10
53.470924
 20
51.280696
 30
0.000000
  0
VERTEX
  8
LAYER-1
 10
53.470924
 20
51.280696
 30
0.000000
  0
VERTEX
  8
LAYER-1
 10
53.499286
 20
51.232981
 30
0.000000
  0
SEQEND
  8
LAYER-1
  0
POLYLINE
  8
LAYER-1
 66
  1
 70
  0
 62
  7
 10
53.521353
 20
50.971332
 30
0.000000
  0
VERTEX
  8
LAYER-1
 10
53.521353
 20
50.971332
 30
0.000000
  0
VERTEX
  8
LAYER-1
 10
53.492986
 20
51.019043
 30
0.000000
  0
SEQEND
  8
LAYER-1
  0
POLYLINE
  8
LAYER-1
 66
  1
 70
  0
 62
  7
 10
53.521353
 20
50.971332
 30
0.000000
  0
VERTEX
  8
LAYER-1
 10
53.521353
 20
50.971332
 30
0.000000
  0
VERTEX
  8
LAYER-1
 10
53.549715
 20
51.019043
 30
0.000000
  0
SEQEND
  8
LAYER-1
  0
POLYLINE
  8
LAYER-1
 66
  1
 70
  0
 62
  7
 10
53.442561
 20
51.232981
 30
0.000000
  0
VERTEX
  8
LAYER-1
 10
53.442561
 20
51.232981
 30
0.000000
  0
VERTEX
  8
LAYER-1
 10
53.492986
 20
51.019043
 30
0.000000
  0
SEQEND
  8
LAYER-1
  0
POLYLINE
  8
LAYER-1
 66
  1
 70
  0
 62
  7
 10
53.470924
 20
51.280696
 30
0.000000
  0
VERTEX
  8
LAYER-1
 10
53.470924
 20
51.280696
 30
0.000000
  0
VERTEX
  8
LAYER-1
 10
53.521353
 20
50.971332
 30
0.000000
  0
SEQEND
  8
LAYER-1
  0
POLYLINE
  8
LAYER-1
 66
  1
 70
  0
 62
  7
 10
53.527203
 20
51.280696
 30
0.000000
  0
VERTEX
  8
LAYER-1
 10
53.527203
 20
51.280696
 30
0.000000
  0
VERTEX
  8
LAYER-1
 10
53.498836
 20
51.232981
 30
0.000000
  0
SEQEND
  8
LAYER-1
  0
POLYLINE
  8
LAYER-1
 66
  1
 70
  0
 62
  7
 10
53.527203
 20
51.280696
 30
0.000000
  0
VERTEX
  8
LAYER-1
 10
53.527203
 20
51.280696
 30
0.000000
  0
VERTEX
  8
LAYER-1
 10
53.555565
 20
51.232981
 30
0.000000
  0
SEQEND
  8
LAYER-1
  0
POLYLINE
  8
LAYER-1
 66
  1
 70
  0
 62
  7
 10
53.577627
 20
50.971332
 30
0.000000
  0
VERTEX
  8
LAYER-1
 10
53.577627
 20
50.971332
 30
0.000000
  0
VERTEX
  8
LAYER-1
 10
53.549260
 20
51.019043
 30
0.000000
  0
SEQEND
  8
LAYER-1
  0
POLYLINE
  8
LAYER-1
 66
  1
 70
  0
 62
  7
 10
53.577627
 20
50.971332
 30
0.000000
  0
VERTEX
  8
LAYER-1
 10
53.577627
 20
50.971332
 30
0.000000
  0
VERTEX
  8
LAYER-1
 10
53.605990
 20
51.019043
 30
0.000000
  0
SEQEND
  8
LAYER-1
  0
POLYLINE
  8
LAYER-1
 66
  1
 70
  0
 62
  7
 10
53.498836
 20
51.232981
 30
0.000000
  0
VERTEX
  8
LAYER-1
 10
53.498836
 20
51.232981
 30
0.000000
  0
VERTEX
  8
LAYER-1
 10
53.549260
 20
51.019043
 30
0.000000
  0
SEQEND
  8
LAYER-1
  0
POLYLINE
  8
LAYER-1
 66
  1
 70
  0
 62
  7
 10
53.527203
 20
51.280696
 30
0.000000
  0
VERTEX
  8
LAYER-1
 10
53.527203
 20
51.280696
 30
0.000000
  0
VERTEX
  8
LAYER-1
 10
53.577627
 20
50.971332
 30
0.000000
  0
SEQEND
  8
LAYER-1
  0
POLYLINE
  8
LAYER-1
 66
  1
 70
  0
 62
  7
 10
53.583477
 20
51.280696
 30
0.000000
  0
VERTEX
  8
LAYER-1
 10
53.583477
 20
51.280696
 30
0.000000
  0
VERTEX
  8
LAYER-1
 10
53.555115
 20
51.232981
 30
0.000000
  0
SEQEND
  8
LAYER-1
  0
POLYLINE
  8
LAYER-1
 66
  1
 70
  0
 62
  7
 10
53.583477
 20
51.280696
 30
0.000000
  0
VERTEX
  8
LAYER-1
 10
53.583477
 20
51.280696
 30
0.000000
  0
VERTEX
  8
LAYER-1
 10
53.611845
 20
51.232981
 30
0.000000
  0
SEQEND
  8
LAYER-1
  0
POLYLINE
  8
LAYER-1
 66
  1
 70
  0
 62
  7
 10
53.633902
 20
50.971332
 30
0.000000
  0
VERTEX
  8
LAYER-1
 10
53.633902
 20
50.971332
 30
0.000000
  0
VERTEX
  8
LAYER-1
 10
53.605539
 20
51.019043
 30
0.000000
  0
SEQEND
  8
LAYER-1
  0
POLYLINE
  8
LAYER-1
 66
  1
 70
  0
 62
  7
 10
53.633902
 20
50.971332
 30
0.000000
  0
VERTEX
  8
LAYER-1
 10
53.633902
 20
50.971332
 30
0.000000
  0
VERTEX
  8
LAYER-1
 10
53.662264
 20
51.019043
 30
0.000000
  0
SEQEND
  8
LAYER-1
  0
POLYLINE
  8
LAYER-1
 66
  1
 70
  0
 62
  7
 10
53.555115
 20
51.232981
 30
0.000000
  0
VERTEX
  8
LAYER-1
 10
53.555115
 20
51.232981
 30
0.000000
  0
VERTEX
  8
LAYER-1
 10
53.605539
 20
51.019043
 30
0.000000
  0
SEQEND
  8
LAYER-1
  0
POLYLINE
  8
LAYER-1
 66
  1
 70
  0
 62
  7
 10
53.583477
 20
51.280696
 30
0.000000
  0
VERTEX
  8
LAYER-1
 10
53.583477
 20
51.280696
 30
0.000000
  0
VERTEX
  8
LAYER-1
 10
53.633902
 20
50.971332
 30
0.000000
  0
SEQEND
  8
LAYER-1
  0
POLYLINE
  8
LAYER-1
 66
  1
 70
  0
 62
  7
 10
53.639752
 20
51.280696
 30
0.000000
  0
VERTEX
  8
LAYER-1
 10
53.639752
 20
51.280696
 30
0.000000
  0
VERTEX
  8
LAYER-1
 10
53.611389
 20
51.232981
 30
0.000000
  0
SEQEND
  8
LAYER-1
  0
POLYLINE
  8
LAYER-1
 66
  1
 70
  0
 62
  7
 10
53.639752
 20
51.280696
 30
0.000000
  0
VERTEX
  8
LAYER-1
 10
53.639752
 20
51.280696
 30
0.000000
  0
VERTEX
  8
LAYER-1
 10
53.668119
 20
51.232981
 30
0.000000
  0
SEQEND
  8
LAYER-1
  0
POLYLINE
  8
LAYER-1
 66
  1
 70
  0
 62
  7
 10
53.690181
 20
50.971332
 30
0.000000
  0
VERTEX
  8
LAYER-1
 10
53.690181
 20
50.971332
 30
0.000000
  0
VERTEX
  8
LAYER-1
 10
53.661814
 20
51.019043
 30
0.000000
  0
SEQEND
  8
LAYER-1
  0
POLYLINE
  8
LAYER-1
 66
  1
 70
  0
 62
  7
 10
53.690181
 20
50.971332
 30
0.000000
  0
VERTEX
  8
LAYER-1
 10
53.690181
 20
50.971332
 30
0.000000
  0
VERTEX
  8
LAYER-1
 10
53.718543
 20
51.019043
 30
0.000000
  0
SEQEND
  8
LAYER-1
  0
POLYLINE
  8
LAYER-1
 66
  1
 70
  0
 62
  7
 10
53.611389
 20
51.232981
 30
0.000000
  0
VERTEX
  8
LAYER-1
 10
53.611389
 20
51.232981
 30
0.000000
  0
VERTEX
  8
LAYER-1
 10
53.661814
 20
51.019043
 30
0.000000
  0
SEQEND
  8
LAYER-1
  0
POLYLINE
  8
LAYER-1
 66
  1
 70
  0
 62
  7
 10
53.639752
 20
51.280696
 30
0.000000
  0
VERTEX
  8
LAYER-1
 10
53.639752
 20
51.280696
 30
0.000000
  0
VERTEX
  8
LAYER-1
 10
53.690181
 20
50.971332
 30
0.000000
  0
SEQEND
  8
LAYER-1
  0
POLYLINE
  8
LAYER-1
 66
  1
 70
  0
 62
  7
 10
53.696026
 20
51.280696
 30
0.000000
  0
VERTEX
  8
LAYER-1
 10
53.696026
 20
51.280696
 30
0.000000
  0
VERTEX
  8
LAYER-1
 10
53.667664
 20
51.232981
 30
0.000000
  0
SEQEND
  8
LAYER-1
  0
POLYLINE
  8
LAYER-1
 66
  1
 70
  0
 62
  7
 10
53.696026
 20
51.280696
 30
0.000000
  0
VERTEX
  8
LAYER-1
 10
53.696026
 20
51.280696
 30
0.000000
  0
VERTEX
  8
LAYER-1
 10
53.724393
 20
51.232981
 30
0.000000
  0
SEQEND
  8
LAYER-1
  0
POLYLINE
  8
LAYER-1
 66
  1
 70
  0
 62
  7
 10
53.746455
 20
50.971332
 30
0.000000
  0
VERTEX
  8
LAYER-1
 10
53.746455
 20
50.971332
 30
0.000000
  0
VERTEX
  8
LAYER-1
 10
53.718093
 20
51.019043
 30
0.000000
  0
SEQEND
  8
LAYER-1
  0
POLYLINE
  8
LAYER-1
 66
  1
 70
  0
 62
  7
 10
53.746455
 20
50.971332
 30
0.000000
  0
VERTEX
  8
LAYER-1
 10
53.746455
 20
50.971332
 30
0.000000
  0
VERTEX
  8
LAYER-1
 10
53.774823
 20
51.019043
 30
0.000000
  0
SEQEND
  8
LAYER-1
  0
POLYLINE
  8
LAYER-1
 66
  1
 70
  0
 62
  7
 10
53.667664
 20
51.232981
 30
0.000000
  0
VERTEX
  8
LAYER-1
 10
53.667664
 20
51.232981
 30
0.000000
  0
VERTEX
  8
LAYER-1
 10
53.718093
 20
51.019043
 30
0.000000
  0
SEQEND
  8
LAYER-1
  0
POLYLINE
  8
LAYER-1
 66
  1
 70
  0
 62
  7
 10
53.696026
 20
51.280696
 30
0.000000
  0
VERTEX
  8
LAYER-1
 10
53.696026
 20
51.280696
 30
0.000000
  0
VERTEX
  8
LAYER-1
 10
53.746455
 20
50.971332
 30
0.000000
  0
SEQEND
  8
LAYER-1
  0
POLYLINE
  8
LAYER-1
 66
  1
 70
  0
 62
  7
 10
53.217910
 20
51.232981
 30
0.000000
  0
VERTEX
  8
LAYER-1
 10
53.217910
 20
51.232981
 30
0.000000
  0
VERTEX
  8
LAYER-1
 10
53.196256
 20
51.251193
 30
0.000000
  0
SEQEND
  8
LAYER-1
  0
POLYLINE
  8
LAYER-1
 66
  1
 70
  0
 62
  7
 10
53.239971
 20
50.971332
 30
0.000000
  0
VERTEX
  8
LAYER-1
 10
53.239971
 20
50.971332
 30
0.000000
  0
VERTEX
  8
LAYER-1
 10
53.196256
 20
50.999967
 30
0.000000
  0
SEQEND
  8
LAYER-1
  0
POLYLINE
  8
LAYER-1
 66
  1
 70
  0
 62
  7
 10
53.239971
 20
50.971332
 30
0.000000
  0
VERTEX
  8
LAYER-1
 10
53.239971
 20
50.971332
 30
0.000000
  0
VERTEX
  8
LAYER-1
 10
53.268334
 20
51.019043
 30
0.000000
  0
SEQEND
  8
LAYER-1
  0
POLYLINE
  8
LAYER-1
 66
  1
 70
  0
 62
  7
 10
53.196256
 20
51.251193
 30
0.000000
  0
VERTEX
  8
LAYER-1
 10
53.196256
 20
51.251193
 30
0.000000
  0
VERTEX
  8
LAYER-1
 10
53.239971
 20
50.971332
 30
0.000000
  0
SEQEND
  8
LAYER-1
  0
POLYLINE
  8
LAYER-1
 66
  1
 70
  0
 62
  7
 10
53.752305
 20
51.280696
 30
0.000000
  0
VERTEX
  8
LAYER-1
 10
53.752305
 20
51.280696
 30
0.000000
  0
VERTEX
  8
LAYER-1
 10
53.723938
 20
51.232981
 30
0.000000
  0
SEQEND
  8
LAYER-1
  0
POLYLINE
  8
LAYER-1
 66
  1
 70
  0
 62
  7
 10
53.752305
 20
51.280696
 30
0.000000
  0
VERTEX
  8
LAYER-1
 10
53.752305
 20
51.280696
 30
0.000000
  0
VERTEX
  8
LAYER-1
 10
53.780668
 20
51.232981
 30
0.000000
  0
SEQEND
  8
LAYER-1
  0
POLYLINE
  8
LAYER-1
 66
  1
 70
  0
 62
  7
 10
53.802730
 20
50.971332
 30
0.000000
  0
VERTEX
  8
LAYER-1
 10
53.802730
 20
50.971332
 30
0.000000
  0
VERTEX
  8
LAYER-1
 10
53.774367
 20
51.019043
 30
0.000000
  0
SEQEND
  8
LAYER-1
  0
POLYLINE
  8
LAYER-1
 66
  1
 70
  0
 62
  7
 10
53.802730
 20
50.971332
 30
0.000000
  0
VERTEX
  8
LAYER-1
 10
53.802730
 20
50.971332
 30
0.000000
  0
VERTEX
  8
LAYER-1
 10
53.831097
 20
51.019043
 30
0.000000
  0
SEQEND
  8
LAYER-1
  0
POLYLINE
  8
LAYER-1
 66
  1
 70
  0
 62
  7
 10
53.723938
 20
51.232981
 30
0.000000
  0
VERTEX
  8
LAYER-1
 10
53.723938
 20
51.232981
 30
0.000000
  0
VERTEX
  8
LAYER-1
 10
53.774367
 20
51.019043
 30
0.000000
  0
SEQEND
  8
LAYER-1
  0
POLYLINE
  8
LAYER-1
 66
  1
 70
  0
 62
  7
 10
53.752305
 20
51.280696
 30
0.000000
  0
VERTEX
  8
LAYER-1
 10
53.752305
 20
51.280696
 30
0.000000
  0
VERTEX
  8
LAYER-1
 10
53.802730
 20
50.971332
 30
0.000000
  0
SEQEND
  8
LAYER-1
  0
POLYLINE
  8
LAYER-1
 66
  1
 70
  0
 62
  7
 10
53.808580
 20
51.280696
 30
0.000000
  0
VERTEX
  8
LAYER-1
 10
53.808580
 20
51.280696
 30
0.000000
  0
VERTEX
  8
LAYER-1
 10
53.780217
 20
51.232981
 30
0.000000
  0
SEQEND
  8
LAYER-1
  0
POLYLINE
  8
LAYER-1
 66
  1
 70
  0
 62
  7
 10
53.808580
 20
51.280696
 30
0.000000
  0
VERTEX
  8
LAYER-1
 10
53.808580
 20
51.280696
 30
0.000000
  0
VERTEX
  8
LAYER-1
 10
53.836942
 20
51.232981
 30
0.000000
  0
SEQEND
  8
LAYER-1
  0
POLYLINE
  8
LAYER-1
 66
  1
 70
  0
 62
  7
 10
53.859004
 20
50.971332
 30
0.000000
  0
VERTEX
  8
LAYER-1
 10
53.859004
 20
50.971332
 30
0.000000
  0
VERTEX
  8
LAYER-1
 10
53.830642
 20
51.019043
 30
0.000000
  0
SEQEND
  8
LAYER-1
  0
POLYLINE
  8
LAYER-1
 66
  1
 70
  0
 62
  7
 10
53.859004
 20
50.971332
 30
0.000000
  0
VERTEX
  8
LAYER-1
 10
53.859004
 20
50.971332
 30
0.000000
  0
VERTEX
  8
LAYER-1
 10
53.887371
 20
51.019043
 30
0.000000
  0
SEQEND
  8
LAYER-1
  0
POLYLINE
  8
LAYER-1
 66
  1
 70
  0
 62
  7
 10
53.780217
 20
51.232981
 30
0.000000
  0
VERTEX
  8
LAYER-1
 10
53.780217
 20
51.232981
 30
0.000000
  0
VERTEX
  8
LAYER-1
 10
53.830642
 20
51.019043
 30
0.000000
  0
SEQEND
  8
LAYER-1
  0
POLYLINE
  8
LAYER-1
 66
  1
 70
  0
 62
  7
 10
53.808580
 20
51.280696
 30
0.000000
  0
VERTEX
  8
LAYER-1
 10
53.808580
 20
51.280696
 30
0.000000
  0
VERTEX
  8
LAYER-1
 10
53.859004
 20
50.971332
 30
0.000000
  0
SEQEND
  8
LAYER-1
  0
POLYLINE
  8
LAYER-1
 66
  1
 70
  0
 62
  7
 10
53.864859
 20
51.280696
 30
0.000000
  0
VERTEX
  8
LAYER-1
 10
53.864859
 20
51.280696
 30
0.000000
  0
VERTEX
  8
LAYER-1
 10
53.836492
 20
51.232981
 30
0.000000
  0
SEQEND
  8
LAYER-1
  0
POLYLINE
  8
LAYER-1
 66
  1
 70
  0
 62
  7
 10
53.864859
 20
51.280696
 30
0.000000
  0
VERTEX
  8
LAYER-1
 10
53.864859
 20
51.280696
 30
0.000000
  0
VERTEX
  8
LAYER-1
 10
53.893221
 20
51.232981
 30
0.000000
  0
SEQEND
  8
LAYER-1
  0
POLYLINE
  8
LAYER-1
 66
  1
 70
  0
 62
  7
 10
53.915283
 20
50.971332
 30
0.000000
  0
VERTEX
  8
LAYER-1
 10
53.915283
 20
50.971332
 30
0.000000
  0
VERTEX
  8
LAYER-1
 10
53.886916
 20
51.019043
 30
0.000000
  0
SEQEND
  8
LAYER-1
  0
POLYLINE
  8
LAYER-1
 66
  1
 70
  0
 62
  7
 10
53.915283
 20
50.971332
 30
0.000000
  0
VERTEX
  8
LAYER-1
 10
53.915283
 20
50.971332
 30
0.000000
  0
VERTEX
  8
LAYER-1
 10
53.943646
 20
51.019043
 30
0.000000
  0
SEQEND
  8
LAYER-1
  0
POLYLINE
  8
LAYER-1
 66
  1
 70
  0
 62
  7
 10
53.836492
 20
51.232981
 30
0.000000
  0
VERTEX
  8
LAYER-1
 10
53.836492
 20
51.232981
 30
0.000000
  0
VERTEX
  8
LAYER-1
 10
53.886916
 20
51.019043
 30
0.000000
  0
SEQEND
  8
LAYER-1
  0
POLYLINE
  8
LAYER-1
 66
  1
 70
  0
 62
  7
 10
53.864859
 20
51.280696
 30
0.000000
  0
VERTEX
  8
LAYER-1
 10
53.864859
 20
51.280696
 30
0.000000
  0
VERTEX
  8
LAYER-1
 10
53.915283
 20
50.971332
 30
0.000000
  0
SEQEND
  8
LAYER-1
  0
POLYLINE
  8
LAYER-1
 66
  1
 70
  0
 62
  7
 10
53.921133
 20
51.280696
 30
0.000000
  0
VERTEX
  8
LAYER-1
 10
53.921133
 20
51.280696
 30
0.000000
  0
VERTEX
  8
LAYER-1
 10
53.892766
 20
51.232981
 30
0.000000
  0
SEQEND
  8
LAYER-1
  0
POLYLINE
  8
LAYER-1
 66
  1
 70
  0
 62
  7
 10
53.921133
 20
51.280696
 30
0.000000
  0
VERTEX
  8
LAYER-1
 10
53.921133
 20
51.280696
 30
0.000000
  0
VERTEX
  8
LAYER-1
 10
53.949500
 20
51.232981
 30
0.000000
  0
SEQEND
  8
LAYER-1
  0
POLYLINE
  8
LAYER-1
 66
  1
 70
  0
 62
  7
 10
53.971562
 20
50.971332
 30
0.000000
  0
VERTEX
  8
LAYER-1
 10
53.971562
 20
50.971332
 30
0.000000
  0
VERTEX
  8
LAYER-1
 10
53.943195
 20
51.019043
 30
0.000000
  0
SEQEND
  8
LAYER-1
  0
POLYLINE
  8
LAYER-1
 66
  1
 70
  0
 62
  7
 10
53.971562
 20
50.971332
 30
0.000000
  0
VERTEX
  8
LAYER-1
 10
53.971562
 20
50.971332
 30
0.000000
  0
VERTEX
  8
LAYER-1
 10
53.999925
 20
51.019043
 30
0.000000
  0
SEQEND
  8
LAYER-1
  0
POLYLINE
  8
LAYER-1
 66
  1
 70
  0
 62
  7
 10
53.892766
 20
51.232981
 30
0.000000
  0
VERTEX
  8
LAYER-1
 10
53.892766
 20
51.232981
 30
0.000000
  0
VERTEX
  8
LAYER-1
 10
53.943195
 20
51.019043
 30
0.000000
  0
SEQEND
  8
LAYER-1
  0
POLYLINE
  8
LAYER-1
 66
  1
 70
  0
 62
  7
 10
53.921133
 20
51.280696
 30
0.000000
  0
VERTEX
  8
LAYER-1
 10
53.921133
 20
51.280696
 30
0.000000
  0
VERTEX
  8
LAYER-1
 10
53.971562
 20
50.971332
 30
0.000000
  0
SEQEND
  8
LAYER-1
  0
POLYLINE
  8
LAYER-1
 66
  1
 70
  0
 62
  7
 10
53.977408
 20
51.280696
 30
0.000000
  0
VERTEX
  8
LAYER-1
 10
53.977408
 20
51.280696
 30
0.000000
  0
VERTEX
  8
LAYER-1
 10
53.949045
 20
51.232981
 30
0.000000
  0
SEQEND
  8
LAYER-1
  0
POLYLINE
  8
LAYER-1
 66
  1
 70
  0
 62
  7
 10
53.977408
 20
51.280696
 30
0.000000
  0
VERTEX
  8
LAYER-1
 10
53.977408
 20
51.280696
 30
0.000000
  0
VERTEX
  8
LAYER-1
 10
54.005775
 20
51.232981
 30
0.000000
  0
SEQEND
  8
LAYER-1
  0
POLYLINE
  8
LAYER-1
 66
  1
 70
  0
 62
  7
 10
54.027837
 20
50.971332
 30
0.000000
  0
VERTEX
  8
LAYER-1
 10
54.027837
 20
50.971332
 30
0.000000
  0
VERTEX
  8
LAYER-1
 10
53.999469
 20
51.019043
 30
0.000000
  0
SEQEND
  8
LAYER-1
  0
POLYLINE
  8
LAYER-1
 66
  1
 70
  0
 62
  7
 10
54.027837
 20
50.971332
 30
0.000000
  0
VERTEX
  8
LAYER-1
 10
54.027837
 20
50.971332
 30
0.000000
  0
VERTEX
  8
LAYER-1
 10
54.056199
 20
51.019043
 30
0.000000
  0
SEQEND
  8
LAYER-1
  0
POLYLINE
  8
LAYER-1
 66
  1
 70
  0
 62
  7
 10
53.949045
 20
51.232981
 30
0.000000
  0
VERTEX
  8
LAYER-1
 10
53.949045
 20
51.232981
 30
0.000000
  0
VERTEX
  8
LAYER-1
 10
53.999469
 20
51.019043
 30
0.000000
  0
SEQEND
  8
LAYER-1
  0
POLYLINE
  8
LAYER-1
 66
  1
 70
  0
 62
  7
 10
53.977408
 20
51.280696
 30
0.000000
  0
VERTEX
  8
LAYER-1
 10
53.977408
 20
51.280696
 30
0.000000
  0
VERTEX
  8
LAYER-1
 10
54.027837
 20
50.971332
 30
0.000000
  0
SEQEND
  8
LAYER-1
  0
POLYLINE
  8
LAYER-1
 66
  1
 70
  0
 62
  7
 10
54.033682
 20
51.280696
 30
0.000000
  0
VERTEX
  8
LAYER-1
 10
54.033682
 20
51.280696
 30
0.000000
  0
VERTEX
  8
LAYER-1
 10
54.005319
 20
51.232981
 30
0.000000
  0
SEQEND
  8
LAYER-1
  0
POLYLINE
  8
LAYER-1
 66
  1
 70
  0
 62
  7
 10
54.033682
 20
51.280696
 30
0.000000
  0
VERTEX
  8
LAYER-1
 10
54.033682
 20
51.280696
 30
0.000000
  0
VERTEX
  8
LAYER-1
 10
54.062049
 20
51.232981
 30
0.000000
  0
SEQEND
  8
LAYER-1
  0
POLYLINE
  8
LAYER-1
 66
  1
 70
  0
 62
  7
 10
54.084111
 20
50.971332
 30
0.000000
  0
VERTEX
  8
LAYER-1
 10
54.084111
 20
50.971332
 30
0.000000
  0
VERTEX
  8
LAYER-1
 10
54.055744
 20
51.019043
 30
0.000000
  0
SEQEND
  8
LAYER-1
  0
POLYLINE
  8
LAYER-1
 66
  1
 70
  0
 62
  7
 10
54.084111
 20
50.971332
 30
0.000000
  0
VERTEX
  8
LAYER-1
 10
54.084111
 20
50.971332
 30
0.000000
  0
VERTEX
  8
LAYER-1
 10
54.112478
 20
51.019043
 30
0.000000
  0
SEQEND
  8
LAYER-1
  0
POLYLINE
  8
LAYER-1
 66
  1
 70
  0
 62
  7
 10
54.005319
 20
51.232981
 30
0.000000
  0
VERTEX
  8
LAYER-1
 10
54.005319
 20
51.232981
 30
0.000000
  0
VERTEX
  8
LAYER-1
 10
54.055744
 20
51.019043
 30
0.000000
  0
SEQEND
  8
LAYER-1
  0
POLYLINE
  8
LAYER-1
 66
  1
 70
  0
 62
  7
 10
54.033682
 20
51.280696
 30
0.000000
  0
VERTEX
  8
LAYER-1
 10
54.033682
 20
51.280696
 30
0.000000
  0
VERTEX
  8
LAYER-1
 10
54.084111
 20
50.971332
 30
0.000000
  0
SEQEND
  8
LAYER-1
  0
POLYLINE
  8
LAYER-1
 66
  1
 70
  0
 62
  7
 10
54.089956
 20
51.280696
 30
0.000000
  0
VERTEX
  8
LAYER-1
 10
54.089956
 20
51.280696
 30
0.000000
  0
VERTEX
  8
LAYER-1
 10
54.061594
 20
51.232981
 30
0.000000
  0
SEQEND
  8
LAYER-1
  0
POLYLINE
  8
LAYER-1
 66
  1
 70
  0
 62
  7
 10
54.089956
 20
51.280696
 30
0.000000
  0
VERTEX
  8
LAYER-1
 10
54.089956
 20
51.280696
 30
0.000000
  0
VERTEX
  8
LAYER-1
 10
54.118324
 20
51.232981
 30
0.000000
  0
SEQEND
  8
LAYER-1
  0
POLYLINE
  8
LAYER-1
 66
  1
 70
  0
 62
  7
 10
54.140386
 20
50.971332
 30
0.000000
  0
VERTEX
  8
LAYER-1
 10
54.140386
 20
50.971332
 30
0.000000
  0
VERTEX
  8
LAYER-1
 10
54.112023
 20
51.019043
 30
0.000000
  0
SEQEND
  8
LAYER-1
  0
POLYLINE
  8
LAYER-1
 66
  1
 70
  0
 62
  7
 10
54.140386
 20
50.971332
 30
0.000000
  0
VERTEX
  8
LAYER-1
 10
54.140386
 20
50.971332
 30
0.000000
  0
VERTEX
  8
LAYER-1
 10
54.168753
 20
51.019043
 30
0.000000
  0
SEQEND
  8
LAYER-1
  0
POLYLINE
  8
LAYER-1
 66
  1
 70
  0
 62
  7
 10
54.061594
 20
51.232981
 30
0.000000
  0
VERTEX
  8
LAYER-1
 10
54.061594
 20
51.232981
 30
0.000000
  0
VERTEX
  8
LAYER-1
 10
54.112023
 20
51.019043
 30
0.000000
  0
SEQEND
  8
LAYER-1
  0
POLYLINE
  8
LAYER-1
 66
  1
 70
  0
 62
  7
 10
54.089956
 20
51.280696
 30
0.000000
  0
VERTEX
  8
LAYER-1
 10
54.089956
 20
51.280696
 30
0.000000
  0
VERTEX
  8
LAYER-1
 10
54.140386
 20
50.971332
 30
0.000000
  0
SEQEND
  8
LAYER-1
  0
POLYLINE
  8
LAYER-1
 66
  1
 70
  0
 62
  7
 10
54.146236
 20
51.280696
 30
0.000000
  0
VERTEX
  8
LAYER-1
 10
54.146236
 20
51.280696
 30
0.000000
  0
VERTEX
  8
LAYER-1
 10
54.117873
 20
51.232981
 30
0.000000
  0
SEQEND
  8
LAYER-1
  0
POLYLINE
  8
LAYER-1
 66
  1
 70
  0
 62
  7
 10
54.146236
 20
51.280696
 30
0.000000
  0
VERTEX
  8
LAYER-1
 10
54.146236
 20
51.280696
 30
0.000000
  0
VERTEX
  8
LAYER-1
 10
54.181941
 20
51.252390
 30
0.000000
  0
SEQEND
  8
LAYER-1
  0
POLYLINE
  8
LAYER-1
 66
  1
 70
  0
 62
  7
 10
54.196660
 20
50.971332
 30
0.000000
  0
VERTEX
  8
LAYER-1
 10
54.196660
 20
50.971332
 30
0.000000
  0
VERTEX
  8
LAYER-1
 10
54.168297
 20
51.019043
 30
0.000000
  0
SEQEND
  8
LAYER-1
  0
POLYLINE
  8
LAYER-1
 66
  1
 70
  0
 62
  7
 10
54.196660
 20
50.971332
 30
0.000000
  0
VERTEX
  8
LAYER-1
 10
54.196660
 20
50.971332
 30
0.000000
  0
VERTEX
  8
LAYER-1
 10
54.181941
 20
51.252390
 30
0.000000
  0
SEQEND
  8
LAYER-1
  0
POLYLINE
  8
LAYER-1
 66
  1
 70
  0
 62
  7
 10
54.117873
 20
51.232981
 30
0.000000
  0
VERTEX
  8
LAYER-1
 10
54.117873
 20
51.232981
 30
0.000000
  0
VERTEX
  8
LAYER-1
 10
54.168297
 20
51.019043
 30
0.000000
  0
SEQEND
  8
LAYER-1
  0
POLYLINE
  8
LAYER-1
 66
  1
 70
  0
 62
  7
 10
54.146236
 20
51.280696
 30
0.000000
  0
VERTEX
  8
LAYER-1
 10
54.146236
 20
51.280696
 30
0.000000
  0
VERTEX
  8
LAYER-1
 10
54.196660
 20
50.971332
 30
0.000000
  0
SEQEND
  8
LAYER-1
  0
POLYLINE
  8
LAYER-1
 66
  1
 70
  0
 62
  7
 10
53.196256
 20
51.251193
 30
0.000000
  0
VERTEX
  8
LAYER-1
 10
53.196256
 20
51.251193
 30
0.000000
  0
VERTEX
  8
LAYER-1
 10
53.196256
 20
50.999967
 30
0.000000
  0
SEQEND
  8
LAYER-1
  0
POLYLINE
  8
LAYER-1
 66
  1
 70
  0
 62
  7
 10
53.106412
 20
51.280696
 30
0.000000
  0
VERTEX
  8
LAYER-1
 10
53.106412
 20
51.280696
 30
0.000000
  0
VERTEX
  8
LAYER-1
 10
53.196256
 20
51.251193
 30
0.000000
  0
SEQEND
  8
LAYER-1
  0
POLYLINE
  8
LAYER-1
 66
  1
 70
  0
 62
  7
 10
53.196256
 20
50.999967
 30
0.000000
  0
VERTEX
  8
LAYER-1
 10
53.196256
 20
50.999967
 30
0.000000
  0
VERTEX
  8
LAYER-1
 10
53.106412
 20
50.971332
 30
0.000000
  0
SEQEND
  8
LAYER-1
  0
POLYLINE
  8
LAYER-1
 66
  1
 70
  0
 62
  7
 10
53.106412
 20
51.280696
 30
0.000000
  0
VERTEX
  8
LAYER-1
 10
53.106412
 20
51.280696
 30
0.000000
  0
VERTEX
  8
LAYER-1
 10
53.106412
 20
50.971332
 30
0.000000
  0
SEQEND
  8
LAYER-1
  0
POLYLINE
  8
LAYER-1
 66
  1
 70
  0
 62
  7
 10
48.038227
 20
50.841966
 30
0.000000
  0
VERTEX
  8
LAYER-1
 10
48.038227
 20
50.841966
 30
0.000000
  0
VERTEX
  8
LAYER-1
 10
48.196040
 20
50.841966
 30
0.000000
  0
SEQEND
  8
LAYER-1
  0
POLYLINE
  8
LAYER-1
 66
  1
 70
  0
 62
  7
 10
48.038227
 20
50.841966
 30
0.000000
  0
VERTEX
  8
LAYER-1
 10
48.038227
 20
50.841966
 30
0.000000
  0
VERTEX
  8
LAYER-1
 10
48.008709
 20
50.871483
 30
0.000000
  0
SEQEND
  8
LAYER-1
  0
ARC
  8
LAYER-1
 62
  7
 10
48.321566
 20
51.123446
 30
0.000000
 40
0.309461
 50
151.200317
 51
207.435486
  0
POLYLINE
  8
LAYER-1
 66
  1
 70
  0
 62
  7
 10
48.039908
 20
51.411353
 30
0.000000
  0
VERTEX
  8
LAYER-1
 10
48.039908
 20
51.411353
 30
0.000000
  0
VERTEX
  8
LAYER-1
 10
48.196040
 20
51.411353
 30
0.000000
  0
SEQEND
  8
LAYER-1
  0
POLYLINE
  8
LAYER-1
 66
  1
 70
  0
 62
  7
 10
48.196040
 20
51.411353
 30
0.000000
  0
VERTEX
  8
LAYER-1
 10
48.196040
 20
51.411353
 30
0.000000
  0
VERTEX
  8
LAYER-1
 10
48.196040
 20
50.841966
 30
0.000000
  0
SEQEND
  8
LAYER-1
  0
POLYLINE
  8
LAYER-1
 66
  1
 70
  0
 62
  7
 10
48.008709
 20
51.380165
 30
0.000000
  0
VERTEX
  8
LAYER-1
 10
48.008709
 20
51.380165
 30
0.000000
  0
VERTEX
  8
LAYER-1
 10
48.008709
 20
50.871483
 30
0.000000
  0
SEQEND
  8
LAYER-1
  0
ARC
  8
LAYER-1
 62
  7
 10
48.192331
 20
51.389362
 30
0.000000
 40
0.183849
 50
182.866760
 51
219.456268
  0
POLYLINE
  8
LAYER-1
 66
  1
 70
  0
 62
  7
 10
48.039908
 20
51.411353
 30
0.000000
  0
VERTEX
  8
LAYER-1
 10
48.039908
 20
51.411353
 30
0.000000
  0
VERTEX
  8
LAYER-1
 10
48.008709
 20
51.380165
 30
0.000000
  0
SEQEND
  8
LAYER-1
  0
ARC
  8
LAYER-1
 62
  7
 10
48.289969
 20
50.834623
 30
0.000000
 40
0.283661
 50
148.966705
 51
172.533142
  0
POLYLINE
  8
LAYER-1
 66
  1
 70
  0
 62
  7
 10
48.046908
 20
50.980858
 30
0.000000
  0
VERTEX
  8
LAYER-1
 10
48.046908
 20
50.980858
 30
0.000000
  0
VERTEX
  8
LAYER-1
 10
48.195867
 20
50.980858
 30
0.000000
  0
SEQEND
  8
LAYER-1
  0
POLYLINE
  8
LAYER-1
 66
  1
 70
  0
 62
  7
 10
48.049828
 20
51.272527
 30
0.000000
  0
VERTEX
  8
LAYER-1
 10
48.049828
 20
51.272527
 30
0.000000
  0
VERTEX
  8
LAYER-1
 10
48.195867
 20
51.272527
 30
0.000000
  0
SEQEND
  8
LAYER-1
  0
POLYLINE
  8
LAYER-1
 66
  1
 70
  0
 62
  7
 10
47.035480
 20
44.792138
 30
0.000000
  0
VERTEX
  8
LAYER-1
 10
47.035480
 20
44.792138
 30
0.000000
  0
VERTEX
  8
LAYER-1
 10
45.092665
 20
44.792138
 30
0.000000
  0
SEQEND
  8
LAYER-1
  0
POLYLINE
  8
LAYER-1
 66
  1
 70
  1
 62
  7
  0
VERTEX
  8
LAYER-1
 10
47.055162
 20
44.792138
 30
0.000000
  0
VERTEX
  8
LAYER-1
 10
46.670546
 20
45.022907
 30
0.000000
  0
VERTEX
  8
LAYER-1
 10
46.670546
 20
44.792138
 30
0.000000
  0
VERTEX
  8
LAYER-1
 10
46.670546
 20
44.561369
 30
0.000000
  0
VERTEX
  8
LAYER-1
 10
47.055162
 20
44.792138
 30
0.000000
  0
SEQEND
  8
LAYER-1
  0
POLYLINE
  8
LAYER-1
 66
  1
 70
  0
 62
  7
 10
47.035480
 20
51.129639
 30
0.000000
  0
VERTEX
  8
LAYER-1
 10
47.035480
 20
51.129639
 30
0.000000
  0
VERTEX
  8
LAYER-1
 10
45.092665
 20
51.129639
 30
0.000000
  0
SEQEND
  8
LAYER-1
  0
POLYLINE
  8
LAYER-1
 66
  1
 70
  1
 62
  7
  0
VERTEX
  8
LAYER-1
 10
47.055162
 20
51.129639
 30
0.000000
  0
VERTEX
  8
LAYER-1
 10
46.670546
 20
51.360408
 30
0.000000
  0
VERTEX
  8
LAYER-1
 10
46.670546
 20
51.129639
 30
0.000000
  0
VERTEX
  8
LAYER-1
 10
46.670546
 20
50.898869
 30
0.000000
  0
VERTEX
  8
LAYER-1
 10
47.055162
 20
51.129639
 30
0.000000
  0
SEQEND
  8
LAYER-1
  0
POLYLINE
  8
LAYER-1
 66
  1
 70
  0
 62
  7
 10
62.837543
 20
50.848210
 30
0.000000
  0
VERTEX
  8
LAYER-1
 10
62.837543
 20
50.848210
 30
0.000000
  0
VERTEX
  8
LAYER-1
 10
63.042405
 20
50.848210
 30
0.000000
  0
SEQEND
  8
LAYER-1
  0
POLYLINE
  8
LAYER-1
  6
LTYPE01
 66
  1
 70
  0
 62
  7
  6
LTYPE01
 10
62.808030
 20
51.004460
 30
0.000000
  0
VERTEX
  8
LAYER-1
  6
LTYPE01
 10
62.808030
 20
51.004460
 30
0.000000
  0
VERTEX
  8
LAYER-1
  6
LTYPE01
 10
63.071918
 20
51.004460
 30
0.000000
  0
SEQEND
  8
LAYER-1
  0
ARC
  8
LAYER-1
 62
  7
 10
62.831332
 20
50.836290
 30
0.000000
 40
0.244129
 50
9.772491
 51
38.152527
  0
POLYLINE
  8
LAYER-1
 66
  1
 70
  0
 62
  7
 10
62.846224
 20
50.987103
 30
0.000000
  0
VERTEX
  8
LAYER-1
 10
62.846224
 20
50.987103
 30
0.000000
  0
VERTEX
  8
LAYER-1
 10
63.023306
 20
50.987103
 30
0.000000
  0
SEQEND
  8
LAYER-1
  0
POLYLINE
  8
LAYER-1
 66
  1
 70
  0
 62
  7
 10
62.837543
 20
50.848210
 30
0.000000
  0
VERTEX
  8
LAYER-1
 10
62.837543
 20
50.848210
 30
0.000000
  0
VERTEX
  8
LAYER-1
 10
62.808030
 20
50.877728
 30
0.000000
  0
SEQEND
  8
LAYER-1
  0
POLYLINE
  8
LAYER-1
 66
  1
 70
  0
 62
  7
 10
63.042405
 20
50.848210
 30
0.000000
  0
VERTEX
  8
LAYER-1
 10
63.042405
 20
50.848210
 30
0.000000
  0
VERTEX
  8
LAYER-1
 10
63.071918
 20
50.877728
 30
0.000000
  0
SEQEND
  8
LAYER-1
  0
POLYLINE
  8
LAYER-1
  6
LTYPE01
 66
  1
 70
  0
 62
  7
  6
LTYPE01
 10
62.808030
 20
51.257935
 30
0.000000
  0
VERTEX
  8
LAYER-1
  6
LTYPE01
 10
62.808030
 20
51.257935
 30
0.000000
  0
VERTEX
  8
LAYER-1
  6
LTYPE01
 10
63.071918
 20
51.257935
 30
0.000000
  0
SEQEND
  8
LAYER-1
  0
ARC
  8
LAYER-1
 62
  7
 10
63.120878
 20
51.129681
 30
0.000000
 40
0.309461
 50
151.200317
 51
207.435486
  0
ARC
  8
LAYER-1
 62
  7
 10
62.789518
 20
51.132935
 30
0.000000
 40
0.275550
 50
328.045746
 51
31.954407
  0
POLYLINE
  8
LAYER-1
 66
  1
 70
  0
 62
  7
 10
62.849694
 20
51.278762
 30
0.000000
  0
VERTEX
  8
LAYER-1
 10
62.849694
 20
51.278762
 30
0.000000
  0
VERTEX
  8
LAYER-1
 10
63.023306
 20
51.278762
 30
0.000000
  0
SEQEND
  8
LAYER-1
  0
POLYLINE
  8
LAYER-1
 66
  1
 70
  0
 62
  7
 10
62.839219
 20
51.417598
 30
0.000000
  0
VERTEX
  8
LAYER-1
 10
62.839219
 20
51.417598
 30
0.000000
  0
VERTEX
  8
LAYER-1
 10
63.040725
 20
51.417598
 30
0.000000
  0
SEQEND
  8
LAYER-1
  0
POLYLINE
  8
LAYER-1
 66
  1
 70
  0
 62
  7
 10
63.071918
 20
51.386399
 30
0.000000
  0
VERTEX
  8
LAYER-1
 10
63.071918
 20
51.386399
 30
0.000000
  0
VERTEX
  8
LAYER-1
 10
63.071918
 20
50.877728
 30
0.000000
  0
SEQEND
  8
LAYER-1
  0
POLYLINE
  8
LAYER-1
 66
  1
 70
  0
 62
  7
 10
62.808030
 20
51.386399
 30
0.000000
  0
VERTEX
  8
LAYER-1
 10
62.808030
 20
51.386399
 30
0.000000
  0
VERTEX
  8
LAYER-1
 10
62.808030
 20
50.877728
 30
0.000000
  0
SEQEND
  8
LAYER-1
  0
ARC
  8
LAYER-1
 62
  7
 10
62.991643
 20
51.395602
 30
0.000000
 40
0.183846
 50
182.866638
 51
219.456543
  0
ARC
  8
LAYER-1
 62
  7
 10
62.904888
 20
51.397038
 30
0.000000
 40
0.167364
 50
315.034149
 51
356.356812
  0
POLYLINE
  8
LAYER-1
 66
  1
 70
  0
 62
  7
 10
62.839219
 20
51.417598
 30
0.000000
  0
VERTEX
  8
LAYER-1
 10
62.839219
 20
51.417598
 30
0.000000
  0
VERTEX
  8
LAYER-1
 10
62.808030
 20
51.386399
 30
0.000000
  0
SEQEND
  8
LAYER-1
  0
POLYLINE
  8
LAYER-1
 66
  1
 70
  0
 62
  7
 10
63.040725
 20
51.417598
 30
0.000000
  0
VERTEX
  8
LAYER-1
 10
63.040725
 20
51.417598
 30
0.000000
  0
VERTEX
  8
LAYER-1
 10
63.071918
 20
51.386399
 30
0.000000
  0
SEQEND
  8
LAYER-1
  0
ARC
  8
LAYER-1
 62
  7
 10
63.089280
 20
50.840867
 30
0.000000
 40
0.283661
 50
148.966705
 51
172.533142
  0
POLYLINE
  8
LAYER-1
 66
  1
 70
  0
 62
  7
 10
62.041546
 20
51.141616
 30
0.000000
  0
VERTEX
  8
LAYER-1
 10
62.041546
 20
51.141616
 30
0.000000
  0
VERTEX
  8
LAYER-1
 10
62.133376
 20
51.141686
 30
0.000000
  0
SEQEND
  8
LAYER-1
  0
POLYLINE
  8
LAYER-1
 66
  1
 70
  0
 62
  7
 10
62.154973
 20
51.117310
 30
0.000000
  0
VERTEX
  8
LAYER-1
 10
62.154973
 20
51.117310
 30
0.000000
  0
VERTEX
  8
LAYER-1
 10
62.238690
 20
51.117310
 30
0.000000
  0
SEQEND
  8
LAYER-1
  0
POLYLINE
  8
LAYER-1
 66
  1
 70
  0
 62
  7
 10
62.041546
 20
51.141616
 30
0.000000
  0
VERTEX
  8
LAYER-1
 10
62.041546
 20
51.141616
 30
0.000000
  0
VERTEX
  8
LAYER-1
 10
62.075472
 20
51.408485
 30
0.000000
  0
SEQEND
  8
LAYER-1
  0
POLYLINE
  8
LAYER-1
 66
  1
 70
  0
 62
  7
 10
62.090975
 20
51.417659
 30
0.000000
  0
VERTEX
  8
LAYER-1
 10
62.090975
 20
51.417659
 30
0.000000
  0
VERTEX
  8
LAYER-1
 10
62.084444
 20
51.419189
 30
0.000000
  0
VERTEX
  8
LAYER-1
 10
62.080280
 20
51.417903
 30
0.000000
  0
VERTEX
  8
LAYER-1
 10
62.076890
 20
51.415894
 30
0.000000
  0
VERTEX
  8
LAYER-1
 10
62.074561
 20
51.413335
 30
0.000000
  0
VERTEX
  8
LAYER-1
 10
62.075472
 20
51.408485
 30
0.000000
  0
SEQEND
  8
LAYER-1
  0
POLYLINE
  8
LAYER-1
 66
  1
 70
  0
 62
  7
 10
62.165776
 20
51.417659
 30
0.000000
  0
VERTEX
  8
LAYER-1
 10
62.165776
 20
51.417659
 30
0.000000
  0
VERTEX
  8
LAYER-1
 10
62.090975
 20
51.417659
 30
0.000000
  0
SEQEND
  8
LAYER-1
  0
POLYLINE
  8
LAYER-1
 66
  1
 70
  0
 62
  7
 10
62.166185
 20
51.417659
 30
0.000000
  0
VERTEX
  8
LAYER-1
 10
62.166185
 20
51.417659
 30
0.000000
  0
VERTEX
  8
LAYER-1
 10
62.133376
 20
51.141686
 30
0.000000
  0
SEQEND
  8
LAYER-1
  0
POLYLINE
  8
LAYER-1
 66
  1
 70
  0
 62
  7
 10
62.238690
 20
51.117310
 30
0.000000
  0
VERTEX
  8
LAYER-1
 10
62.238690
 20
51.117310
 30
0.000000
  0
VERTEX
  8
LAYER-1
 10
62.209984
 20
50.850581
 30
0.000000
  0
SEQEND
  8
LAYER-1
  0
POLYLINE
  8
LAYER-1
 66
  1
 70
  0
 62
  7
 10
62.194467
 20
50.841271
 30
0.000000
  0
VERTEX
  8
LAYER-1
 10
62.194467
 20
50.841271
 30
0.000000
  0
VERTEX
  8
LAYER-1
 10
62.197097
 20
50.843684
 30
0.000000
  0
VERTEX
  8
LAYER-1
 10
62.201289
 20
50.844989
 30
0.000000
  0
VERTEX
  8
LAYER-1
 10
62.204693
 20
50.847027
 30
0.000000
  0
VERTEX
  8
LAYER-1
 10
62.206998
 20
50.849628
 30
0.000000
  0
VERTEX
  8
LAYER-1
 10
62.208017
 20
50.852548
 30
0.000000
  0
VERTEX
  8
LAYER-1
 10
62.209984
 20
50.850581
 30
0.000000
  0
SEQEND
  8
LAYER-1
  0
POLYLINE
  8
LAYER-1
 66
  1
 70
  0
 62
  7
 10
62.154973
 20
51.117310
 30
0.000000
  0
VERTEX
  8
LAYER-1
 10
62.154973
 20
51.117310
 30
0.000000
  0
VERTEX
  8
LAYER-1
 10
62.122563
 20
50.841271
 30
0.000000
  0
SEQEND
  8
LAYER-1
  0
POLYLINE
  8
LAYER-1
 66
  1
 70
  0
 62
  7
 10
62.122563
 20
50.841271
 30
0.000000
  0
VERTEX
  8
LAYER-1
 10
62.122563
 20
50.841271
 30
0.000000
  0
VERTEX
  8
LAYER-1
 10
62.194467
 20
50.841271
 30
0.000000
  0
SEQEND
  8
LAYER-1
  0
POLYLINE
  8
LAYER-1
 66
  1
 70
  0
 62
  7
 10
62.154973
 20
51.117310
 30
0.000000
  0
VERTEX
  8
LAYER-1
 10
62.154973
 20
51.117310
 30
0.000000
  0
VERTEX
  8
LAYER-1
 10
62.133367
 20
51.099947
 30
0.000000
  0
SEQEND
  8
LAYER-1
  0
POLYLINE
  8
LAYER-1
 66
  1
 70
  0
 62
  7
 10
62.133367
 20
51.141616
 30
0.000000
  0
VERTEX
  8
LAYER-1
 10
62.133367
 20
51.141616
 30
0.000000
  0
VERTEX
  8
LAYER-1
 10
62.152269
 20
51.155503
 30
0.000000
  0
SEQEND
  8
LAYER-1
  0
POLYLINE
  8
LAYER-1
 66
  1
 70
  0
 62
  7
 10
62.152269
 20
51.155503
 30
0.000000
  0
VERTEX
  8
LAYER-1
 10
62.152269
 20
51.155503
 30
0.000000
  0
VERTEX
  8
LAYER-1
 10
62.165776
 20
51.308284
 30
0.000000
  0
SEQEND
  8
LAYER-1
  0
POLYLINE
  8
LAYER-1
 66
  1
 70
  0
 62
  7
 10
62.133367
 20
51.099947
 30
0.000000
  0
VERTEX
  8
LAYER-1
 10
62.133367
 20
51.099947
 30
0.000000
  0
VERTEX
  8
LAYER-1
 10
62.122563
 20
50.947172
 30
0.000000
  0
SEQEND
  8
LAYER-1
  0
POLYLINE
  8
LAYER-1
 66
  1
 70
  0
 62
  7
 10
62.087454
 20
51.139878
 30
0.000000
  0
VERTEX
  8
LAYER-1
 10
62.087454
 20
51.139878
 30
0.000000
  0
VERTEX
  8
LAYER-1
 10
62.105793
 20
50.855319
 30
0.000000
  0
SEQEND
  8
LAYER-1
  0
POLYLINE
  8
LAYER-1
 66
  1
 70
  0
 62
  7
 10
62.200881
 20
51.117310
 30
0.000000
  0
VERTEX
  8
LAYER-1
 10
62.200881
 20
51.117310
 30
0.000000
  0
VERTEX
  8
LAYER-1
 10
62.179570
 20
51.396400
 30
0.000000
  0
SEQEND
  8
LAYER-1
  0
POLYLINE
  8
LAYER-1
 66
  1
 70
  0
 62
  7
 10
62.179570
 20
51.396395
 30
0.000000
  0
VERTEX
  8
LAYER-1
 10
62.179570
 20
51.396395
 30
0.000000
  0
VERTEX
  8
LAYER-1
 10
62.177373
 20
51.399884
 30
0.000000
  0
VERTEX
  8
LAYER-1
 10
62.176894
 20
51.401381
 30
0.000000
  0
VERTEX
  8
LAYER-1
 10
62.176180
 20
51.402841
 30
0.000000
  0
VERTEX
  8
LAYER-1
 10
62.175241
 20
51.404241
 30
0.000000
  0
VERTEX
  8
LAYER-1
 10
62.176058
 20
51.403611
 30
0.000000
  0
SEQEND
  8
LAYER-1
  0
POLYLINE
  8
LAYER-1
 66
  1
 70
  0
 62
  7
 10
62.103656
 20
51.141616
 30
0.000000
  0
VERTEX
  8
LAYER-1
 10
62.103656
 20
51.141616
 30
0.000000
  0
VERTEX
  8
LAYER-1
 10
62.108905
 20
50.962858
 30
0.000000
  0
SEQEND
  8
LAYER-1
  0
POLYLINE
  8
LAYER-1
 66
  1
 70
  0
 62
  7
 10
62.108905
 20
50.962858
 30
0.000000
  0
VERTEX
  8
LAYER-1
 10
62.108905
 20
50.962858
 30
0.000000
  0
VERTEX
  8
LAYER-1
 10
62.107211
 20
50.962806
 30
0.000000
  0
VERTEX
  8
LAYER-1
 10
62.107901
 20
50.960834
 30
0.000000
  0
VERTEX
  8
LAYER-1
 10
62.109004
 20
50.958933
 30
0.000000
  0
VERTEX
  8
LAYER-1
 10
62.110492
 20
50.957149
 30
0.000000
  0
VERTEX
  8
LAYER-1
 10
62.114309
 20
50.953538
 30
0.000000
  0
SEQEND
  8
LAYER-1
  0
POLYLINE
  8
LAYER-1
 66
  1
 70
  0
 62
  7
 10
62.181979
 20
51.117310
 30
0.000000
  0
VERTEX
  8
LAYER-1
 10
62.181979
 20
51.117310
 30
0.000000
  0
VERTEX
  8
LAYER-1
 10
62.176701
 20
51.293485
 30
0.000000
  0
SEQEND
  8
LAYER-1
  0
POLYLINE
  8
LAYER-1
 66
  1
 70
  0
 62
  7
 10
62.122563
 20
50.841271
 30
0.000000
  0
VERTEX
  8
LAYER-1
 10
62.122563
 20
50.841271
 30
0.000000
  0
VERTEX
  8
LAYER-1
 10
62.118662
 20
50.842520
 30
0.000000
  0
SEQEND
  8
LAYER-1
  0
POLYLINE
  8
LAYER-1
 66
  1
 70
  0
 62
  7
 10
62.105788
 20
50.855319
 30
0.000000
  0
VERTEX
  8
LAYER-1
 10
62.105788
 20
50.855319
 30
0.000000
  0
VERTEX
  8
LAYER-1
 10
62.104553
 20
50.854135
 30
0.000000
  0
VERTEX
  8
LAYER-1
 10
62.106304
 20
50.851145
 30
0.000000
  0
VERTEX
  8
LAYER-1
 10
62.109004
 20
50.848464
 30
0.000000
  0
VERTEX
  8
LAYER-1
 10
62.112521
 20
50.846220
 30
0.000000
  0
VERTEX
  8
LAYER-1
 10
62.118662
 20
50.842529
 30
0.000000
  0
SEQEND
  8
LAYER-1
  0
POLYLINE
  8
LAYER-1
 66
  1
 70
  0
 62
  7
 10
62.122563
 20
50.947172
 30
0.000000
  0
VERTEX
  8
LAYER-1
 10
62.122563
 20
50.947172
 30
0.000000
  0
VERTEX
  8
LAYER-1
 10
62.114309
 20
50.953538
 30
0.000000
  0
SEQEND
  8
LAYER-1
  0
POLYLINE
  8
LAYER-1
 66
  1
 70
  0
 62
  7
 10
62.108957
 20
50.961107
 30
0.000000
  0
VERTEX
  8
LAYER-1
 10
62.108957
 20
50.961107
 30
0.000000
  0
VERTEX
  8
LAYER-1
 10
62.107168
 20
50.961726
 30
0.000000
  0
VERTEX
  8
LAYER-1
 10
62.107628
 20
50.960402
 30
0.000000
  0
VERTEX
  8
LAYER-1
 10
62.108366
 20
50.959139
 30
0.000000
  0
VERTEX
  8
LAYER-1
 10
62.109356
 20
50.957951
 30
0.000000
  0
VERTEX
  8
LAYER-1
 10
62.110591
 20
50.956858
 30
0.000000
  0
VERTEX
  8
LAYER-1
 10
62.112558
 20
50.954890
 30
0.000000
  0
SEQEND
  8
LAYER-1
  0
POLYLINE
  8
LAYER-1
 66
  1
 70
  0
 62
  7
 10
62.165776
 20
51.308284
 30
0.000000
  0
VERTEX
  8
LAYER-1
 10
62.165776
 20
51.308284
 30
0.000000
  0
VERTEX
  8
LAYER-1
 10
62.172791
 20
51.301518
 30
0.000000
  0
SEQEND
  8
LAYER-1
  0
POLYLINE
  8
LAYER-1
 66
  1
 70
  0
 62
  7
 10
62.176701
 20
51.293485
 30
0.000000
  0
VERTEX
  8
LAYER-1
 10
62.176701
 20
51.293485
 30
0.000000
  0
VERTEX
  8
LAYER-1
 10
62.174542
 20
51.297147
 30
0.000000
  0
VERTEX
  8
LAYER-1
 10
62.174044
 20
51.298828
 30
0.000000
  0
VERTEX
  8
LAYER-1
 10
62.173241
 20
51.300453
 30
0.000000
  0
VERTEX
  8
LAYER-1
 10
62.172175
 20
51.302011
 30
0.000000
  0
VERTEX
  8
LAYER-1
 10
62.172791
 20
51.301518
 30
0.000000
  0
SEQEND
  8
LAYER-1
  0
POLYLINE
  8
LAYER-1
 66
  1
 70
  0
 62
  7
 10
62.165776
 20
51.417659
 30
0.000000
  0
VERTEX
  8
LAYER-1
 10
62.165776
 20
51.417659
 30
0.000000
  0
VERTEX
  8
LAYER-1
 10
62.176049
 20
51.403611
 30
0.000000
  0
SEQEND
  8
LAYER-1
  0
POLYLINE
  8
LAYER-1
 66
  1
 70
  0
 62
  7
 10
62.837543
 20
44.509667
 30
0.000000
  0
VERTEX
  8
LAYER-1
 10
62.837543
 20
44.509667
 30
0.000000
  0
VERTEX
  8
LAYER-1
 10
63.042405
 20
44.509667
 30
0.000000
  0
SEQEND
  8
LAYER-1
  0
POLYLINE
  8
LAYER-1
  6
LTYPE01
 66
  1
 70
  0
 62
  7
  6
LTYPE01
 10
62.808030
 20
44.665917
 30
0.000000
  0
VERTEX
  8
LAYER-1
  6
LTYPE01
 10
62.808030
 20
44.665917
 30
0.000000
  0
VERTEX
  8
LAYER-1
  6
LTYPE01
 10
63.071918
 20
44.665917
 30
0.000000
  0
SEQEND
  8
LAYER-1
  0
ARC
  8
LAYER-1
 62
  7
 10
62.831332
 20
44.497751
 30
0.000000
 40
0.244129
 50
9.772491
 51
38.152527
  0
POLYLINE
  8
LAYER-1
 66
  1
 70
  0
 62
  7
 10
62.846224
 20
44.648564
 30
0.000000
  0
VERTEX
  8
LAYER-1
 10
62.846224
 20
44.648564
 30
0.000000
  0
VERTEX
  8
LAYER-1
 10
63.023306
 20
44.648564
 30
0.000000
  0
SEQEND
  8
LAYER-1
  0
POLYLINE
  8
LAYER-1
 66
  1
 70
  0
 62
  7
 10
62.837543
 20
44.509667
 30
0.000000
  0
VERTEX
  8
LAYER-1
 10
62.837543
 20
44.509667
 30
0.000000
  0
VERTEX
  8
LAYER-1
 10
62.808030
 20
44.539189
 30
0.000000
  0
SEQEND
  8
LAYER-1
  0
POLYLINE
  8
LAYER-1
 66
  1
 70
  0
 62
  7
 10
63.042405
 20
44.509667
 30
0.000000
  0
VERTEX
  8
LAYER-1
 10
63.042405
 20
44.509667
 30
0.000000
  0
VERTEX
  8
LAYER-1
 10
63.071918
 20
44.539189
 30
0.000000
  0
SEQEND
  8
LAYER-1
  0
POLYLINE
  8
LAYER-1
  6
LTYPE01
 66
  1
 70
  0
 62
  7
  6
LTYPE01
 10
62.808030
 20
44.919396
 30
0.000000
  0
VERTEX
  8
LAYER-1
  6
LTYPE01
 10
62.808030
 20
44.919396
 30
0.000000
  0
VERTEX
  8
LAYER-1
  6
LTYPE01
 10
63.071918
 20
44.919396
 30
0.000000
  0
SEQEND
  8
LAYER-1
  0
ARC
  8
LAYER-1
 62
  7
 10
63.120878
 20
44.791142
 30
0.000000
 40
0.309461
 50
151.200317
 51
207.435486
  0
ARC
  8
LAYER-1
 62
  7
 10
62.789518
 20
44.794391
 30
0.000000
 40
0.275550
 50
328.045746
 51
31.954407
  0
POLYLINE
  8
LAYER-1
 66
  1
 70
  0
 62
  7
 10
62.849694
 20
44.940223
 30
0.000000
  0
VERTEX
  8
LAYER-1
 10
62.849694
 20
44.940223
 30
0.000000
  0
VERTEX
  8
LAYER-1
 10
63.023306
 20
44.940223
 30
0.000000
  0
SEQEND
  8
LAYER-1
  0
POLYLINE
  8
LAYER-1
 66
  1
 70
  0
 62
  7
 10
62.839219
 20
45.079055
 30
0.000000
  0
VERTEX
  8
LAYER-1
 10
62.839219
 20
45.079055
 30
0.000000
  0
VERTEX
  8
LAYER-1
 10
63.040725
 20
45.079055
 30
0.000000
  0
SEQEND
  8
LAYER-1
  0
POLYLINE
  8
LAYER-1
 66
  1
 70
  0
 62
  7
 10
63.071918
 20
45.047861
 30
0.000000
  0
VERTEX
  8
LAYER-1
 10
63.071918
 20
45.047861
 30
0.000000
  0
VERTEX
  8
LAYER-1
 10
63.071918
 20
44.539189
 30
0.000000
  0
SEQEND
  8
LAYER-1
  0
POLYLINE
  8
LAYER-1
 66
  1
 70
  0
 62
  7
 10
62.808030
 20
45.047861
 30
0.000000
  0
VERTEX
  8
LAYER-1
 10
62.808030
 20
45.047861
 30
0.000000
  0
VERTEX
  8
LAYER-1
 10
62.808030
 20
44.539189
 30
0.000000
  0
SEQEND
  8
LAYER-1
  0
ARC
  8
LAYER-1
 62
  7
 10
62.991643
 20
45.057058
 30
0.000000
 40
0.183846
 50
182.866638
 51
219.456543
  0
ARC
  8
LAYER-1
 62
  7
 10
62.904888
 20
45.058495
 30
0.000000
 40
0.167364
 50
315.034149
 51
356.356812
  0
POLYLINE
  8
LAYER-1
 66
  1
 70
  0
 62
  7
 10
62.839219
 20
45.079055
 30
0.000000
  0
VERTEX
  8
LAYER-1
 10
62.839219
 20
45.079055
 30
0.000000
  0
VERTEX
  8
LAYER-1
 10
62.808030
 20
45.047861
 30
0.000000
  0
SEQEND
  8
LAYER-1
  0
POLYLINE
  8
LAYER-1
 66
  1
 70
  0
 62
  7
 10
63.040725
 20
45.079055
 30
0.000000
  0
VERTEX
  8
LAYER-1
 10
63.040725
 20
45.079055
 30
0.000000
  0
VERTEX
  8
LAYER-1
 10
63.071918
 20
45.047861
 30
0.000000
  0
SEQEND
  8
LAYER-1
  0
ARC
  8
LAYER-1
 62
  7
 10
63.089280
 20
44.502324
 30
0.000000
 40
0.283661
 50
148.966705
 51
172.533142
  0
POLYLINE
  8
LAYER-1
 66
  1
 70
  0
 62
  7
 10
62.041546
 20
44.803077
 30
0.000000
  0
VERTEX
  8
LAYER-1
 10
62.041546
 20
44.803077
 30
0.000000
  0
VERTEX
  8
LAYER-1
 10
62.133376
 20
44.803143
 30
0.000000
  0
SEQEND
  8
LAYER-1
  0
POLYLINE
  8
LAYER-1
 66
  1
 70
  0
 62
  7
 10
62.154973
 20
44.778766
 30
0.000000
  0
VERTEX
  8
LAYER-1
 10
62.154973
 20
44.778766
 30
0.000000
  0
VERTEX
  8
LAYER-1
 10
62.238690
 20
44.778766
 30
0.000000
  0
SEQEND
  8
LAYER-1
  0
POLYLINE
  8
LAYER-1
 66
  1
 70
  0
 62
  7
 10
62.041546
 20
44.803077
 30
0.000000
  0
VERTEX
  8
LAYER-1
 10
62.041546
 20
44.803077
 30
0.000000
  0
VERTEX
  8
LAYER-1
 10
62.075472
 20
45.069946
 30
0.000000
  0
SEQEND
  8
LAYER-1
  0
POLYLINE
  8
LAYER-1
 66
  1
 70
  0
 62
  7
 10
62.090975
 20
45.079120
 30
0.000000
  0
VERTEX
  8
LAYER-1
 10
62.090975
 20
45.079120
 30
0.000000
  0
VERTEX
  8
LAYER-1
 10
62.084444
 20
45.080646
 30
0.000000
  0
VERTEX
  8
LAYER-1
 10
62.080280
 20
45.079364
 30
0.000000
  0
VERTEX
  8
LAYER-1
 10
62.076890
 20
45.077355
 30
0.000000
  0
VERTEX
  8
LAYER-1
 10
62.074561
 20
45.074792
 30
0.000000
  0
VERTEX
  8
LAYER-1
 10
62.075472
 20
45.069942
 30
0.000000
  0
SEQEND
  8
LAYER-1
  0
POLYLINE
  8
LAYER-1
 66
  1
 70
  0
 62
  7
 10
62.165776
 20
45.079120
 30
0.000000
  0
VERTEX
  8
LAYER-1
 10
62.165776
 20
45.079120
 30
0.000000
  0
VERTEX
  8
LAYER-1
 10
62.090975
 20
45.079120
 30
0.000000
  0
SEQEND
  8
LAYER-1
  0
POLYLINE
  8
LAYER-1
 66
  1
 70
  0
 62
  7
 10
62.166185
 20
45.079120
 30
0.000000
  0
VERTEX
  8
LAYER-1
 10
62.166185
 20
45.079120
 30
0.000000
  0
VERTEX
  8
LAYER-1
 10
62.133376
 20
44.803143
 30
0.000000
  0
SEQEND
  8
LAYER-1
  0
POLYLINE
  8
LAYER-1
 66
  1
 70
  0
 62
  7
 10
62.238690
 20
44.778766
 30
0.000000
  0
VERTEX
  8
LAYER-1
 10
62.238690
 20
44.778766
 30
0.000000
  0
VERTEX
  8
LAYER-1
 10
62.209984
 20
44.512038
 30
0.000000
  0
SEQEND
  8
LAYER-1
  0
POLYLINE
  8
LAYER-1
 66
  1
 70
  0
 62
  7
 10
62.194467
 20
44.502732
 30
0.000000
  0
VERTEX
  8
LAYER-1
 10
62.194467
 20
44.502732
 30
0.000000
  0
VERTEX
  8
LAYER-1
 10
62.197097
 20
44.505141
 30
0.000000
  0
VERTEX
  8
LAYER-1
 10
62.201289
 20
44.506446
 30
0.000000
  0
VERTEX
  8
LAYER-1
 10
62.204693
 20
44.508489
 30
0.000000
  0
VERTEX
  8
LAYER-1
 10
62.206998
 20
44.511085
 30
0.000000
  0
VERTEX
  8
LAYER-1
 10
62.208017
 20
44.514005
 30
0.000000
  0
VERTEX
  8
LAYER-1
 10
62.209984
 20
44.512038
 30
0.000000
  0
SEQEND
  8
LAYER-1
  0
POLYLINE
  8
LAYER-1
 66
  1
 70
  0
 62
  7
 10
62.154973
 20
44.778766
 30
0.000000
  0
VERTEX
  8
LAYER-1
 10
62.154973
 20
44.778766
 30
0.000000
  0
VERTEX
  8
LAYER-1
 10
62.122563
 20
44.502732
 30
0.000000
  0
SEQEND
  8
LAYER-1
  0
POLYLINE
  8
LAYER-1
 66
  1
 70
  0
 62
  7
 10
62.122563
 20
44.502732
 30
0.000000
  0
VERTEX
  8
LAYER-1
 10
62.122563
 20
44.502732
 30
0.000000
  0
VERTEX
  8
LAYER-1
 10
62.194467
 20
44.502732
 30
0.000000
  0
SEQEND
  8
LAYER-1
  0
POLYLINE
  8
LAYER-1
 66
  1
 70
  0
 62
  7
 10
62.154973
 20
44.778766
 30
0.000000
  0
VERTEX
  8
LAYER-1
 10
62.154973
 20
44.778766
 30
0.000000
  0
VERTEX
  8
LAYER-1
 10
62.133367
 20
44.761404
 30
0.000000
  0
SEQEND
  8
LAYER-1
  0
POLYLINE
  8
LAYER-1
 66
  1
 70
  0
 62
  7
 10
62.133367
 20
44.803077
 30
0.000000
  0
VERTEX
  8
LAYER-1
 10
62.133367
 20
44.803077
 30
0.000000
  0
VERTEX
  8
LAYER-1
 10
62.152269
 20
44.816960
 30
0.000000
  0
SEQEND
  8
LAYER-1
  0
POLYLINE
  8
LAYER-1
 66
  1
 70
  0
 62
  7
 10
62.152269
 20
44.816960
 30
0.000000
  0
VERTEX
  8
LAYER-1
 10
62.152269
 20
44.816960
 30
0.000000
  0
VERTEX
  8
LAYER-1
 10
62.165776
 20
44.969745
 30
0.000000
  0
SEQEND
  8
LAYER-1
  0
POLYLINE
  8
LAYER-1
 66
  1
 70
  0
 62
  7
 10
62.133367
 20
44.761404
 30
0.000000
  0
VERTEX
  8
LAYER-1
 10
62.133367
 20
44.761404
 30
0.000000
  0
VERTEX
  8
LAYER-1
 10
62.122563
 20
44.608633
 30
0.000000
  0
SEQEND
  8
LAYER-1
  0
POLYLINE
  8
LAYER-1
 66
  1
 70
  0
 62
  7
 10
62.087454
 20
44.801335
 30
0.000000
  0
VERTEX
  8
LAYER-1
 10
62.087454
 20
44.801335
 30
0.000000
  0
VERTEX
  8
LAYER-1
 10
62.105793
 20
44.516775
 30
0.000000
  0
SEQEND
  8
LAYER-1
  0
POLYLINE
  8
LAYER-1
 66
  1
 70
  0
 62
  7
 10
62.200881
 20
44.778766
 30
0.000000
  0
VERTEX
  8
LAYER-1
 10
62.200881
 20
44.778766
 30
0.000000
  0
VERTEX
  8
LAYER-1
 10
62.179570
 20
45.057857
 30
0.000000
  0
SEQEND
  8
LAYER-1
  0
POLYLINE
  8
LAYER-1
 66
  1
 70
  0
 62
  7
 10
62.179570
 20
45.057852
 30
0.000000
  0
VERTEX
  8
LAYER-1
 10
62.179570
 20
45.057852
 30
0.000000
  0
VERTEX
  8
LAYER-1
 10
62.177373
 20
45.061345
 30
0.000000
  0
VERTEX
  8
LAYER-1
 10
62.176894
 20
45.062838
 30
0.000000
  0
VERTEX
  8
LAYER-1
 10
62.176180
 20
45.064298
 30
0.000000
  0
VERTEX
  8
LAYER-1
 10
62.175241
 20
45.065702
 30
0.000000
  0
VERTEX
  8
LAYER-1
 10
62.176058
 20
45.065073
 30
0.000000
  0
SEQEND
  8
LAYER-1
  0
POLYLINE
  8
LAYER-1
 66
  1
 70
  0
 62
  7
 10
62.103656
 20
44.803077
 30
0.000000
  0
VERTEX
  8
LAYER-1
 10
62.103656
 20
44.803077
 30
0.000000
  0
VERTEX
  8
LAYER-1
 10
62.108905
 20
44.624319
 30
0.000000
  0
SEQEND
  8
LAYER-1
  0
POLYLINE
  8
LAYER-1
 66
  1
 70
  0
 62
  7
 10
62.108905
 20
44.624319
 30
0.000000
  0
VERTEX
  8
LAYER-1
 10
62.108905
 20
44.624319
 30
0.000000
  0
VERTEX
  8
LAYER-1
 10
62.107211
 20
44.624268
 30
0.000000
  0
VERTEX
  8
LAYER-1
 10
62.107901
 20
44.622291
 30
0.000000
  0
VERTEX
  8
LAYER-1
 10
62.109004
 20
44.620394
 30
0.000000
  0
VERTEX
  8
LAYER-1
 10
62.110492
 20
44.618610
 30
0.000000
  0
VERTEX
  8
LAYER-1
 10
62.114309
 20
44.615000
 30
0.000000
  0
SEQEND
  8
LAYER-1
  0
POLYLINE
  8
LAYER-1
 66
  1
 70
  0
 62
  7
 10
62.181979
 20
44.778766
 30
0.000000
  0
VERTEX
  8
LAYER-1
 10
62.181979
 20
44.778766
 30
0.000000
  0
VERTEX
  8
LAYER-1
 10
62.176701
 20
44.954942
 30
0.000000
  0
SEQEND
  8
LAYER-1
  0
POLYLINE
  8
LAYER-1
 66
  1
 70
  0
 62
  7
 10
62.122563
 20
44.502732
 30
0.000000
  0
VERTEX
  8
LAYER-1
 10
62.122563
 20
44.502732
 30
0.000000
  0
VERTEX
  8
LAYER-1
 10
62.118662
 20
44.503981
 30
0.000000
  0
SEQEND
  8
LAYER-1
  0
POLYLINE
  8
LAYER-1
 66
  1
 70
  0
 62
  7
 10
62.105788
 20
44.516780
 30
0.000000
  0
VERTEX
  8
LAYER-1
 10
62.105788
 20
44.516780
 30
0.000000
  0
VERTEX
  8
LAYER-1
 10
62.104553
 20
44.515592
 30
0.000000
  0
VERTEX
  8
LAYER-1
 10
62.106304
 20
44.512606
 30
0.000000
  0
VERTEX
  8
LAYER-1
 10
62.109004
 20
44.509925
 30
0.000000
  0
VERTEX
  8
LAYER-1
 10
62.112521
 20
44.507676
 30
0.000000
  0
VERTEX
  8
LAYER-1
 10
62.118662
 20
44.503986
 30
0.000000
  0
SEQEND
  8
LAYER-1
  0
POLYLINE
  8
LAYER-1
 66
  1
 70
  0
 62
  7
 10
62.122563
 20
44.608633
 30
0.000000
  0
VERTEX
  8
LAYER-1
 10
62.122563
 20
44.608633
 30
0.000000
  0
VERTEX
  8
LAYER-1
 10
62.114309
 20
44.615000
 30
0.000000
  0
SEQEND
  8
LAYER-1
  0
POLYLINE
  8
LAYER-1
 66
  1
 70
  0
 62
  7
 10
62.108957
 20
44.622563
 30
0.000000
  0
VERTEX
  8
LAYER-1
 10
62.108957
 20
44.622563
 30
0.000000
  0
VERTEX
  8
LAYER-1
 10
62.107168
 20
44.623183
 30
0.000000
  0
VERTEX
  8
LAYER-1
 10
62.107628
 20
44.621864
 30
0.000000
  0
VERTEX
  8
LAYER-1
 10
62.108366
 20
44.620601
 30
0.000000
  0
VERTEX
  8
LAYER-1
 10
62.109356
 20
44.619408
 30
0.000000
  0
VERTEX
  8
LAYER-1
 10
62.110591
 20
44.618314
 30
0.000000
  0
VERTEX
  8
LAYER-1
 10
62.112558
 20
44.616352
 30
0.000000
  0
SEQEND
  8
LAYER-1
  0
POLYLINE
  8
LAYER-1
 66
  1
 70
  0
 62
  7
 10
62.165776
 20
44.969745
 30
0.000000
  0
VERTEX
  8
LAYER-1
 10
62.165776
 20
44.969745
 30
0.000000
  0
VERTEX
  8
LAYER-1
 10
62.172791
 20
44.962975
 30
0.000000
  0
SEQEND
  8
LAYER-1
  0
POLYLINE
  8
LAYER-1
 66
  1
 70
  0
 62
  7
 10
62.176701
 20
44.954942
 30
0.000000
  0
VERTEX
  8
LAYER-1
 10
62.176701
 20
44.954942
 30
0.000000
  0
VERTEX
  8
LAYER-1
 10
62.174542
 20
44.958609
 30
0.000000
  0
VERTEX
  8
LAYER-1
 10
62.174044
 20
44.960285
 30
0.000000
  0
VERTEX
  8
LAYER-1
 10
62.173241
 20
44.961914
 30
0.000000
  0
VERTEX
  8
LAYER-1
 10
62.172175
 20
44.963473
 30
0.000000
  0
VERTEX
  8
LAYER-1
 10
62.172791
 20
44.962975
 30
0.000000
  0
SEQEND
  8
LAYER-1
  0
POLYLINE
  8
LAYER-1
 66
  1
 70
  0
 62
  7
 10
62.165776
 20
45.079120
 30
0.000000
  0
VERTEX
  8
LAYER-1
 10
62.165776
 20
45.079120
 30
0.000000
  0
VERTEX
  8
LAYER-1
 10
62.176049
 20
45.065073
 30
0.000000
  0
SEQEND
  8
LAYER-1
  0
TEXT
  8
LAYER-1
 62
  7
 10
42.183216
 20
61.282508
 30
0.000000
 40
0.980769
  1
ASSEMBLAGE DU PALAN ╦ CHAÙNE
 72
  5
 11
73.490908
 21
61.282508
 31
0.000000
  0
TEXT
  8
LAYER-1
 62
  7
 10
42.183216
 20
59.128662
 30
0.000000
 40
0.980769
  1
╦ LA PLAQUE D'EXTRâMITâ
 72
  5
 11
66.798600
 21
59.128662
 31
0.000000
  0
LINE
  8
LAYER-1
 62
  7
 10
50.251239
 20
58.205585
 30
0.000000
 11
55.716731
 21
58.205585
 31
0.000000
  0
LINE
  8
LAYER-1
 62
  7
 10
50.231558
 20
56.667124
 30
0.000000
 11
50.231558
 21
59.205585
 31
0.000000
  0
LINE
  8
LAYER-1
 62
  7
 10
55.736417
 20
50.164513
 30
0.000000
 11
55.736417
 21
59.205585
 31
0.000000
  0
LINE
  8
LAYER-1
 62
  7
 10
55.736417
 20
58.205585
 30
0.000000
 11
61.106290
 21
58.205585
 31
0.000000
  0
POLYLINE
  8
LAYER-1
 66
  1
 70
  1
 62
  7
  0
VERTEX
  8
LAYER-1
 10
50.231558
 20
58.205585
 30
0.000000
  0
VERTEX
  8
LAYER-1
 10
50.616173
 20
57.974816
 30
0.000000
  0
VERTEX
  8
LAYER-1
 10
50.616173
 20
58.205585
 30
0.000000
  0
VERTEX
  8
LAYER-1
 10
50.616173
 20
58.436354
 30
0.000000
  0
VERTEX
  8
LAYER-1
 10
50.231558
 20
58.205585
 30
0.000000
  0
SEQEND
  8
LAYER-1
  0
POLYLINE
  8
LAYER-1
 66
  1
 70
  1
 62
  7
  0
VERTEX
  8
LAYER-1
 10
55.736417
 20
58.205585
 30
0.000000
  0
VERTEX
  8
LAYER-1
 10
55.351802
 20
57.974816
 30
0.000000
  0
VERTEX
  8
LAYER-1
 10
55.351802
 20
58.205585
 30
0.000000
  0
VERTEX
  8
LAYER-1
 10
55.351802
 20
58.436354
 30
0.000000
  0
VERTEX
  8
LAYER-1
 10
55.736417
 20
58.205585
 30
0.000000
  0
SEQEND
  8
LAYER-1
  0
TEXT
  8
LAYER-1
 62
  7
 10
58.825860
 20
59.213459
 30
0.000000
 40
0.692308
  1
5-1/2"
  0
POLYLINE
  8
LAYER-1
  6
LTYPE06
 66
  1
 70
  0
 62
  7
  6
LTYPE06
 10
52.247770
 20
49.158236
 30
0.000000
  0
VERTEX
  8
LAYER-1
  6
LTYPE06
 10
52.247770
 20
49.158236
 30
0.000000
  0
VERTEX
  8
LAYER-1
  6
LTYPE06
 10
62.555157
 20
49.160710
 30
0.000000
  0
SEQEND
  8
LAYER-1
  0
POLYLINE
  8
LAYER-1
 66
  1
 70
  1
 62
  7
  0
VERTEX
  8
LAYER-1
 10
52.228084
 20
49.158231
 30
0.000000
  0
VERTEX
  8
LAYER-1
 10
52.612755
 20
48.927556
 30
0.000000
  0
VERTEX
  8
LAYER-1
 10
52.612699
 20
49.158325
 30
0.000000
  0
VERTEX
  8
LAYER-1
 10
52.612643
 20
49.389094
 30
0.000000
  0
VERTEX
  8
LAYER-1
 10
52.228084
 20
49.158231
 30
0.000000
  0
SEQEND
  8
LAYER-1
  0
POLYLINE
  8
LAYER-1
 66
  1
 70
  0
 62
  7
 10
58.850962
 20
37.984126
 30
0.000000
  0
VERTEX
  8
LAYER-1
 10
58.850962
 20
37.984126
 30
0.000000
  0
VERTEX
  8
LAYER-1
 10
58.850999
 20
37.984126
 30
0.000000
  0
SEQEND
  8
LAYER-1
  0
POLYLINE
  8
LAYER-1
 66
  1
 70
  0
 62
  7
 10
59.180997
 20
37.654128
 30
0.000000
  0
VERTEX
  8
LAYER-1
 10
59.180997
 20
37.654128
 30
0.000000
  0
VERTEX
  8
LAYER-1
 10
59.180997
 20
36.754150
 30
0.000000
  0
SEQEND
  8
LAYER-1
  0
POLYLINE
  8
LAYER-1
 66
  1
 70
  0
 62
  7
 10
58.850999
 20
36.424147
 30
0.000000
  0
VERTEX
  8
LAYER-1
 10
58.850999
 20
36.424147
 30
0.000000
  0
VERTEX
  8
LAYER-1
 10
58.850962
 20
36.424147
 30
0.000000
  0
SEQEND
  8
LAYER-1
  0
POLYLINE
  8
LAYER-1
 66
  1
 70
  0
 62
  7
 10
58.520963
 20
36.754150
 30
0.000000
  0
VERTEX
  8
LAYER-1
 10
58.520963
 20
36.754150
 30
0.000000
  0
VERTEX
  8
LAYER-1
 10
58.520963
 20
37.654128
 30
0.000000
  0
SEQEND
  8
LAYER-1
  0
ARC
  8
LAYER-1
 62
  7
 10
58.850962
 20
37.654128
 30
0.000000
 40
0.329999
 50
90.000000
 51
180.000000
  0
ARC
  8
LAYER-1
 62
  7
 10
58.850962
 20
36.754150
 30
0.000000
 40
0.329999
 50
180.000000
 51
270.000000
  0
ARC
  8
LAYER-1
 62
  7
 10
58.850999
 20
36.754150
 30
0.000000
 40
0.329999
 50
270.000000
 51
0.000000
  0
ARC
  8
LAYER-1
 62
  7
 10
58.850999
 20
37.654128
 30
0.000000
 40
0.329999
 50
0.000000
 51
90.000000
  0
POLYLINE
  8
LAYER-1
 66
  1
 70
  0
 62
  7
 10
58.850962
 20
37.774114
 30
0.000000
  0
VERTEX
  8
LAYER-1
 10
58.850962
 20
37.774114
 30
0.000000
  0
VERTEX
  8
LAYER-1
 10
58.850999
 20
37.774114
 30
0.000000
  0
SEQEND
  8
LAYER-1
  0
POLYLINE
  8
LAYER-1
 66
  1
 70
  0
 62
  7
 10
59.046002
 20
37.579111
 30
0.000000
  0
VERTEX
  8
LAYER-1
 10
59.046002
 20
37.579111
 30
0.000000
  0
VERTEX
  8
LAYER-1
 10
59.046002
 20
36.784137
 30
0.000000
  0
SEQEND
  8
LAYER-1
  0
POLYLINE
  8
LAYER-1
 66
  1
 70
  0
 62
  7
 10
58.850999
 20
36.589135
 30
0.000000
  0
VERTEX
  8
LAYER-1
 10
58.850999
 20
36.589135
 30
0.000000
  0
VERTEX
  8
LAYER-1
 10
58.850962
 20
36.589135
 30
0.000000
  0
SEQEND
  8
LAYER-1
  0
POLYLINE
  8
LAYER-1
 66
  1
 70
  0
 62
  7
 10
58.655964
 20
36.784137
 30
0.000000
  0
VERTEX
  8
LAYER-1
 10
58.655964
 20
36.784137
 30
0.000000
  0
VERTEX
  8
LAYER-1
 10
58.655964
 20
37.579111
 30
0.000000
  0
SEQEND
  8
LAYER-1
  0
ARC
  8
LAYER-1
 62
  7
 10
58.850962
 20
37.579111
 30
0.000000
 40
0.195000
 50
90.000000
 51
180.000000
  0
ARC
  8
LAYER-1
 62
  7
 10
58.850962
 20
36.784137
 30
0.000000
 40
0.195000
 50
180.000000
 51
270.000000
  0
ARC
  8
LAYER-1
 62
  7
 10
58.850999
 20
36.784137
 30
0.000000
 40
0.195000
 50
270.000000
 51
0.000000
  0
ARC
  8
LAYER-1
 62
  7
 10
58.850999
 20
37.579111
 30
0.000000
 40
0.195000
 50
0.000000
 51
90.000000
  0
POLYLINE
  8
LAYER-1
 66
  1
 70
  0
 62
  7
 10
58.850962
 20
40.169030
 30
0.000000
  0
VERTEX
  8
LAYER-1
 10
58.850962
 20
40.169030
 30
0.000000
  0
VERTEX
  8
LAYER-1
 10
58.850999
 20
40.169030
 30
0.000000
  0
SEQEND
  8
LAYER-1
  0
POLYLINE
  8
LAYER-1
 66
  1
 70
  0
 62
  7
 10
59.180997
 20
39.839027
 30
0.000000
  0
VERTEX
  8
LAYER-1
 10
59.180997
 20
39.839027
 30
0.000000
  0
VERTEX
  8
LAYER-1
 10
59.180997
 20
38.939049
 30
0.000000
  0
SEQEND
  8
LAYER-1
  0
POLYLINE
  8
LAYER-1
 66
  1
 70
  0
 62
  7
 10
58.850999
 20
38.609051
 30
0.000000
  0
VERTEX
  8
LAYER-1
 10
58.850999
 20
38.609051
 30
0.000000
  0
VERTEX
  8
LAYER-1
 10
58.850962
 20
38.609051
 30
0.000000
  0
SEQEND
  8
LAYER-1
  0
POLYLINE
  8
LAYER-1
 66
  1
 70
  0
 62
  7
 10
58.520963
 20
38.939049
 30
0.000000
  0
VERTEX
  8
LAYER-1
 10
58.520963
 20
38.939049
 30
0.000000
  0
VERTEX
  8
LAYER-1
 10
58.520963
 20
39.839027
 30
0.000000
  0
SEQEND
  8
LAYER-1
  0
ARC
  8
LAYER-1
 62
  7
 10
58.850962
 20
39.839027
 30
0.000000
 40
0.329999
 50
90.000000
 51
180.000000
  0
ARC
  8
LAYER-1
 62
  7
 10
58.850962
 20
38.939049
 30
0.000000
 40
0.329999
 50
180.000000
 51
270.000000
  0
ARC
  8
LAYER-1
 62
  7
 10
58.850999
 20
38.939049
 30
0.000000
 40
0.329999
 50
270.000000
 51
0.000000
  0
ARC
  8
LAYER-1
 62
  7
 10
58.850999
 20
39.839027
 30
0.000000
 40
0.329999
 50
0.000000
 51
90.000000
  0
POLYLINE
  8
LAYER-1
 66
  1
 70
  0
 62
  7
 10
58.850962
 20
39.959059
 30
0.000000
  0
VERTEX
  8
LAYER-1
 10
58.850962
 20
39.959059
 30
0.000000
  0
VERTEX
  8
LAYER-1
 10
58.850999
 20
39.959059
 30
0.000000
  0
SEQEND
  8
LAYER-1
  0
POLYLINE
  8
LAYER-1
 66
  1
 70
  0
 62
  7
 10
59.046002
 20
39.764057
 30
0.000000
  0
VERTEX
  8
LAYER-1
 10
59.046002
 20
39.764057
 30
0.000000
  0
VERTEX
  8
LAYER-1
 10
59.046002
 20
38.969036
 30
0.000000
  0
SEQEND
  8
LAYER-1
  0
POLYLINE
  8
LAYER-1
 66
  1
 70
  0
 62
  7
 10
58.850999
 20
38.774034
 30
0.000000
  0
VERTEX
  8
LAYER-1
 10
58.850999
 20
38.774034
 30
0.000000
  0
VERTEX
  8
LAYER-1
 10
58.850962
 20
38.774034
 30
0.000000
  0
SEQEND
  8
LAYER-1
  0
POLYLINE
  8
LAYER-1
 66
  1
 70
  0
 62
  7
 10
58.655964
 20
38.969036
 30
0.000000
  0
VERTEX
  8
LAYER-1
 10
58.655964
 20
38.969036
 30
0.000000
  0
VERTEX
  8
LAYER-1
 10
58.655964
 20
39.764057
 30
0.000000
  0
SEQEND
  8
LAYER-1
  0
ARC
  8
LAYER-1
 62
  7
 10
58.850962
 20
39.764057
 30
0.000000
 40
0.195000
 50
90.000000
 51
180.000000
  0
ARC
  8
LAYER-1
 62
  7
 10
58.850962
 20
38.969036
 30
0.000000
 40
0.195000
 50
180.000000
 51
270.000000
  0
ARC
  8
LAYER-1
 62
  7
 10
58.850999
 20
38.969036
 30
0.000000
 40
0.195000
 50
270.000000
 51
0.000000
  0
ARC
  8
LAYER-1
 62
  7
 10
58.850999
 20
39.764057
 30
0.000000
 40
0.195000
 50
0.000000
 51
90.000000
  0
POLYLINE
  8
LAYER-1
 66
  1
 70
  1
 62
  7
  0
VERTEX
  8
LAYER-1
 10
58.775963
 20
38.864047
 30
0.000000
  0
VERTEX
  8
LAYER-1
 10
58.926002
 20
38.864047
 30
0.000000
  0
VERTEX
  8
LAYER-1
 10
58.926002
 20
37.574064
 30
0.000000
  0
VERTEX
  8
LAYER-1
 10
58.775963
 20
37.574064
 30
0.000000
  0
SEQEND
  8
LAYER-1
  0
POLYLINE
  8
LAYER-1
 66
  1
 70
  0
 62
  7
 10
58.831787
 20
42.286015
 30
0.000000
  0
VERTEX
  8
LAYER-1
 10
58.831787
 20
42.286015
 30
0.000000
  0
VERTEX
  8
LAYER-1
 10
58.870178
 20
42.286015
 30
0.000000
  0
SEQEND
  8
LAYER-1
  0
POLYLINE
  8
LAYER-1
 66
  1
 70
  0
 62
  7
 10
59.180997
 20
41.975196
 30
0.000000
  0
VERTEX
  8
LAYER-1
 10
59.180997
 20
41.975196
 30
0.000000
  0
VERTEX
  8
LAYER-1
 10
59.180997
 20
41.212914
 30
0.000000
  0
SEQEND
  8
LAYER-1
  0
POLYLINE
  8
LAYER-1
 66
  1
 70
  0
 62
  7
 10
58.870178
 20
40.902095
 30
0.000000
  0
VERTEX
  8
LAYER-1
 10
58.870178
 20
40.902095
 30
0.000000
  0
VERTEX
  8
LAYER-1
 10
58.831787
 20
40.902095
 30
0.000000
  0
SEQEND
  8
LAYER-1
  0
POLYLINE
  8
LAYER-1
 66
  1
 70
  0
 62
  7
 10
58.520963
 20
41.212914
 30
0.000000
  0
VERTEX
  8
LAYER-1
 10
58.520963
 20
41.212914
 30
0.000000
  0
VERTEX
  8
LAYER-1
 10
58.520963
 20
41.975196
 30
0.000000
  0
SEQEND
  8
LAYER-1
  0
ARC
  8
LAYER-1
 62
  7
 10
58.831787
 20
41.975196
 30
0.000000
 40
0.310821
 50
90.000000
 51
180.000000
  0
ARC
  8
LAYER-1
 62
  7
 10
58.831787
 20
41.212914
 30
0.000000
 40
0.310821
 50
180.000000
 51
270.000000
  0
ARC
  8
LAYER-1
 62
  7
 10
58.870178
 20
41.212914
 30
0.000000
 40
0.310821
 50
270.000000
 51
0.000000
  0
ARC
  8
LAYER-1
 62
  7
 10
58.870178
 20
41.975196
 30
0.000000
 40
0.310821
 50
0.000000
 51
90.000000
  0
POLYLINE
  8
LAYER-1
 66
  1
 70
  0
 62
  7
 10
58.839628
 20
42.099717
 30
0.000000
  0
VERTEX
  8
LAYER-1
 10
58.839628
 20
42.099717
 30
0.000000
  0
VERTEX
  8
LAYER-1
 10
58.862333
 20
42.099717
 30
0.000000
  0
SEQEND
  8
LAYER-1
  0
POLYLINE
  8
LAYER-1
 66
  1
 70
  0
 62
  7
 10
59.046002
 20
41.916048
 30
0.000000
  0
VERTEX
  8
LAYER-1
 10
59.046002
 20
41.916048
 30
0.000000
  0
VERTEX
  8
LAYER-1
 10
59.046002
 20
41.232107
 30
0.000000
  0
SEQEND
  8
LAYER-1
  0
POLYLINE
  8
LAYER-1
 66
  1
 70
  0
 62
  7
 10
58.862333
 20
41.048443
 30
0.000000
  0
VERTEX
  8
LAYER-1
 10
58.862333
 20
41.048443
 30
0.000000
  0
VERTEX
  8
LAYER-1
 10
58.839628
 20
41.048443
 30
0.000000
  0
SEQEND
  8
LAYER-1
  0
POLYLINE
  8
LAYER-1
 66
  1
 70
  0
 62
  7
 10
58.655964
 20
41.232107
 30
0.000000
  0
VERTEX
  8
LAYER-1
 10
58.655964
 20
41.232107
 30
0.000000
  0
VERTEX
  8
LAYER-1
 10
58.655964
 20
41.916048
 30
0.000000
  0
SEQEND
  8
LAYER-1
  0
ARC
  8
LAYER-1
 62
  7
 10
58.839628
 20
41.916048
 30
0.000000
 40
0.183667
 50
90.000000
 51
180.000000
  0
ARC
  8
LAYER-1
 62
  7
 10
58.839628
 20
41.232107
 30
0.000000
 40
0.183667
 50
180.000000
 51
270.000000
  0
ARC
  8
LAYER-1
 62
  7
 10
58.862333
 20
41.232107
 30
0.000000
 40
0.183667
 50
270.000000
 51
0.000000
  0
ARC
  8
LAYER-1
 62
  7
 10
58.862333
 20
41.916048
 30
0.000000
 40
0.183667
 50
0.000000
 51
90.000000
  0
POLYLINE
  8
LAYER-1
 66
  1
 70
  1
 62
  7
  0
VERTEX
  8
LAYER-1
 10
58.775963
 20
41.159029
 30
0.000000
  0
VERTEX
  8
LAYER-1
 10
58.926002
 20
41.159029
 30
0.000000
  0
VERTEX
  8
LAYER-1
 10
58.926002
 20
39.869047
 30
0.000000
  0
VERTEX
  8
LAYER-1
 10
58.775963
 20
39.869047
 30
0.000000
  0
SEQEND
  8
LAYER-1
  0
POLYLINE
  8
LAYER-1
 66
  1
 70
  1
 62
  7
  0
VERTEX
  8
LAYER-1
 10
58.775963
 20
42.499122
 30
0.000000
  0
VERTEX
  8
LAYER-1
 10
58.926002
 20
42.499122
 30
0.000000
  0
VERTEX
  8
LAYER-1
 10
58.926002
 20
41.929101
 30
0.000000
  0
VERTEX
  8
LAYER-1
 10
58.775963
 20
41.929101
 30
0.000000
  0
SEQEND
  8
LAYER-1
  0
POLYLINE
  8
LAYER-1
 66
  1
 70
  0
 62
  7
 10
58.831787
 20
35.806007
 30
0.000000
  0
VERTEX
  8
LAYER-1
 10
58.831787
 20
35.806007
 30
0.000000
  0
VERTEX
  8
LAYER-1
 10
58.870178
 20
35.806007
 30
0.000000
  0
SEQEND
  8
LAYER-1
  0
POLYLINE
  8
LAYER-1
 66
  1
 70
  0
 62
  7
 10
59.180997
 20
35.495188
 30
0.000000
  0
VERTEX
  8
LAYER-1
 10
59.180997
 20
35.495188
 30
0.000000
  0
VERTEX
  8
LAYER-1
 10
59.180997
 20
34.732910
 30
0.000000
  0
SEQEND
  8
LAYER-1
  0
POLYLINE
  8
LAYER-1
 66
  1
 70
  0
 62
  7
 10
58.870178
 20
34.422086
 30
0.000000
  0
VERTEX
  8
LAYER-1
 10
58.870178
 20
34.422086
 30
0.000000
  0
VERTEX
  8
LAYER-1
 10
58.831787
 20
34.422086
 30
0.000000
  0
SEQEND
  8
LAYER-1
  0
POLYLINE
  8
LAYER-1
 66
  1
 70
  0
 62
  7
 10
58.520963
 20
34.732910
 30
0.000000
  0
VERTEX
  8
LAYER-1
 10
58.520963
 20
34.732910
 30
0.000000
  0
VERTEX
  8
LAYER-1
 10
58.520963
 20
35.495188
 30
0.000000
  0
SEQEND
  8
LAYER-1
  0
ARC
  8
LAYER-1
 62
  7
 10
58.831787
 20
35.495188
 30
0.000000
 40
0.310821
 50
90.000000
 51
180.000000
  0
ARC
  8
LAYER-1
 62
  7
 10
58.831787
 20
34.732910
 30
0.000000
 40
0.310821
 50
180.000000
 51
270.000000
  0
ARC
  8
LAYER-1
 62
  7
 10
58.870178
 20
34.732910
 30
0.000000
 40
0.310821
 50
270.000000
 51
0.000000
  0
ARC
  8
LAYER-1
 62
  7
 10
58.870178
 20
35.495188
 30
0.000000
 40
0.310821
 50
0.000000
 51
90.000000
  0
POLYLINE
  8
LAYER-1
 66
  1
 70
  0
 62
  7
 10
58.839628
 20
35.619709
 30
0.000000
  0
VERTEX
  8
LAYER-1
 10
58.839628
 20
35.619709
 30
0.000000
  0
VERTEX
  8
LAYER-1
 10
58.862333
 20
35.619709
 30
0.000000
  0
SEQEND
  8
LAYER-1
  0
POLYLINE
  8
LAYER-1
 66
  1
 70
  0
 62
  7
 10
59.046002
 20
35.436040
 30
0.000000
  0
VERTEX
  8
LAYER-1
 10
59.046002
 20
35.436040
 30
0.000000
  0
VERTEX
  8
LAYER-1
 10
59.046002
 20
34.752099
 30
0.000000
  0
SEQEND
  8
LAYER-1
  0
POLYLINE
  8
LAYER-1
 66
  1
 70
  0
 62
  7
 10
58.862333
 20
34.568434
 30
0.000000
  0
VERTEX
  8
LAYER-1
 10
58.862333
 20
34.568434
 30
0.000000
  0
VERTEX
  8
LAYER-1
 10
58.839628
 20
34.568434
 30
0.000000
  0
SEQEND
  8
LAYER-1
  0
POLYLINE
  8
LAYER-1
 66
  1
 70
  0
 62
  7
 10
58.655964
 20
34.752099
 30
0.000000
  0
VERTEX
  8
LAYER-1
 10
58.655964
 20
34.752099
 30
0.000000
  0
VERTEX
  8
LAYER-1
 10
58.655964
 20
35.436040
 30
0.000000
  0
SEQEND
  8
LAYER-1
  0
ARC
  8
LAYER-1
 62
  7
 10
58.839628
 20
35.436040
 30
0.000000
 40
0.183667
 50
90.000000
 51
180.000000
  0
ARC
  8
LAYER-1
 62
  7
 10
58.839628
 20
34.752099
 30
0.000000
 40
0.183667
 50
180.000000
 51
270.000000
  0
ARC
  8
LAYER-1
 62
  7
 10
58.862333
 20
34.752099
 30
0.000000
 40
0.183667
 50
270.000000
 51
0.000000
  0
ARC
  8
LAYER-1
 62
  7
 10
58.862333
 20
35.436040
 30
0.000000
 40
0.183667
 50
0.000000
 51
90.000000
  0
POLYLINE
  8
LAYER-1
 66
  1
 70
  1
 62
  7
  0
VERTEX
  8
LAYER-1
 10
58.926002
 20
35.414030
 30
0.000000
  0
VERTEX
  8
LAYER-1
 10
58.775963
 20
35.414030
 30
0.000000
  0
VERTEX
  8
LAYER-1
 10
58.775963
 20
36.704059
 30
0.000000
  0
VERTEX
  8
LAYER-1
 10
58.926002
 20
36.704059
 30
0.000000
  0
SEQEND
  8
LAYER-1
  0
POLYLINE
  8
LAYER-1
 66
  1
 70
  0
 62
  7
 10
58.831787
 20
33.968506
 30
0.000000
  0
VERTEX
  8
LAYER-1
 10
58.831787
 20
33.968506
 30
0.000000
  0
VERTEX
  8
LAYER-1
 10
58.870178
 20
33.968506
 30
0.000000
  0
SEQEND
  8
LAYER-1
  0
POLYLINE
  8
LAYER-1
 66
  1
 70
  0
 62
  7
 10
59.180997
 20
33.657687
 30
0.000000
  0
VERTEX
  8
LAYER-1
 10
59.180997
 20
33.657687
 30
0.000000
  0
VERTEX
  8
LAYER-1
 10
59.180997
 20
32.895405
 30
0.000000
  0
SEQEND
  8
LAYER-1
  0
POLYLINE
  8
LAYER-1
 66
  1
 70
  0
 62
  7
 10
58.870178
 20
32.584585
 30
0.000000
  0
VERTEX
  8
LAYER-1
 10
58.870178
 20
32.584585
 30
0.000000
  0
VERTEX
  8
LAYER-1
 10
58.831787
 20
32.584585
 30
0.000000
  0
SEQEND
  8
LAYER-1
  0
POLYLINE
  8
LAYER-1
 66
  1
 70
  0
 62
  7
 10
58.520963
 20
32.895405
 30
0.000000
  0
VERTEX
  8
LAYER-1
 10
58.520963
 20
32.895405
 30
0.000000
  0
VERTEX
  8
LAYER-1
 10
58.520963
 20
33.657687
 30
0.000000
  0
SEQEND
  8
LAYER-1
  0
ARC
  8
LAYER-1
 62
  7
 10
58.831787
 20
33.657687
 30
0.000000
 40
0.310821
 50
90.000000
 51
180.000000
  0
ARC
  8
LAYER-1
 62
  7
 10
58.831787
 20
32.895405
 30
0.000000
 40
0.310821
 50
180.000000
 51
270.000000
  0
ARC
  8
LAYER-1
 62
  7
 10
58.870178
 20
32.895405
 30
0.000000
 40
0.310821
 50
270.000000
 51
0.000000
  0
ARC
  8
LAYER-1
 62
  7
 10
58.870178
 20
33.657687
 30
0.000000
 40
0.310821
 50
0.000000
 51
90.000000
  0
POLYLINE
  8
LAYER-1
 66
  1
 70
  0
 62
  7
 10
58.839628
 20
33.782203
 30
0.000000
  0
VERTEX
  8
LAYER-1
 10
58.839628
 20
33.782203
 30
0.000000
  0
VERTEX
  8
LAYER-1
 10
58.862333
 20
33.782203
 30
0.000000
  0
SEQEND
  8
LAYER-1
  0
POLYLINE
  8
LAYER-1
 66
  1
 70
  0
 62
  7
 10
59.046002
 20
33.598539
 30
0.000000
  0
VERTEX
  8
LAYER-1
 10
59.046002
 20
33.598539
 30
0.000000
  0
VERTEX
  8
LAYER-1
 10
59.046002
 20
32.914598
 30
0.000000
  0
SEQEND
  8
LAYER-1
  0
POLYLINE
  8
LAYER-1
 66
  1
 70
  0
 62
  7
 10
58.862333
 20
32.730934
 30
0.000000
  0
VERTEX
  8
LAYER-1
 10
58.862333
 20
32.730934
 30
0.000000
  0
VERTEX
  8
LAYER-1
 10
58.839628
 20
32.730934
 30
0.000000
  0
SEQEND
  8
LAYER-1
  0
POLYLINE
  8
LAYER-1
 66
  1
 70
  0
 62
  7
 10
58.655964
 20
32.914598
 30
0.000000
  0
VERTEX
  8
LAYER-1
 10
58.655964
 20
32.914598
 30
0.000000
  0
VERTEX
  8
LAYER-1
 10
58.655964
 20
33.598539
 30
0.000000
  0
SEQEND
  8
LAYER-1
  0
ARC
  8
LAYER-1
 62
  7
 10
58.839628
 20
33.598539
 30
0.000000
 40
0.183667
 50
90.000000
 51
180.000000
  0
ARC
  8
LAYER-1
 62
  7
 10
58.839628
 20
32.914598
 30
0.000000
 40
0.183667
 50
180.000000
 51
270.000000
  0
ARC
  8
LAYER-1
 62
  7
 10
58.862333
 20
32.914598
 30
0.000000
 40
0.183667
 50
270.000000
 51
0.000000
  0
ARC
  8
LAYER-1
 62
  7
 10
58.862333
 20
33.598539
 30
0.000000
 40
0.183667
 50
0.000000
 51
90.000000
  0
POLYLINE
  8
LAYER-1
 66
  1
 70
  1
 62
  7
  0
VERTEX
  8
LAYER-1
 10
58.926002
 20
33.576529
 30
0.000000
  0
VERTEX
  8
LAYER-1
 10
58.775963
 20
33.576529
 30
0.000000
  0
VERTEX
  8
LAYER-1
 10
58.775963
 20
34.866558
 30
0.000000
  0
VERTEX
  8
LAYER-1
 10
58.926002
 20
34.866558
 30
0.000000
  0
SEQEND
  8
LAYER-1
  0
TEXT
  8
LAYER-1
 62
  7
 10
57.337062
 20
13.974816
 30
0.000000
 40
0.980769
  1
Attache
 72
  5
 11
63.952446
 21
13.974816
 31
0.000000
  0
TEXT
  8
LAYER-1
 62
  7
 10
57.337062
 20
11.820970
 30
0.000000
 40
0.980769
  1
en "L"
 72
  5
 11
62.721677
 21
11.820970
 31
0.000000
  0
TEXT
  8
LAYER-1
 62
  7
 10
58.798600
 20
52.667124
 30
0.000000
 40
0.980769
  1
Collets
 72
  5
 11
64.875523
 21
52.667124
 31
0.000000
  0
POLYLINE
  8
LAYER-1
 66
  1
 70
  0
 62
  7
 10
60.567829
 20
53.974816
 30
0.000000
  0
VERTEX
  8
LAYER-1
 10
60.567829
 20
53.974816
 30
0.000000
  0
VERTEX
  8
LAYER-1
 10
61.192514
 20
50.625967
 30
0.000000
  0
SEQEND
  8
LAYER-1
  0
POLYLINE
  8
LAYER-1
 66
  1
 70
  1
 62
  7
  0
VERTEX
  8
LAYER-1
 10
61.196125
 20
50.606614
 30
0.000000
  0
VERTEX
  8
LAYER-1
 10
60.898743
 20
50.942392
 30
0.000000
  0
VERTEX
  8
LAYER-1
 10
61.125596
 20
50.984713
 30
0.000000
  0
VERTEX
  8
LAYER-1
 10
61.352450
 20
51.027029
 30
0.000000
  0
VERTEX
  8
LAYER-1
 10
61.196125
 20
50.606614
 30
0.000000
  0
SEQEND
  8
LAYER-1
  0
POLYLINE
  8
LAYER-1
 66
  1
 70
  0
 62
  7
 10
57.234586
 20
53.974816
 30
0.000000
  0
VERTEX
  8
LAYER-1
 10
57.234586
 20
53.974816
 30
0.000000
  0
VERTEX
  8
LAYER-1
 10
56.609901
 20
50.625972
 30
0.000000
  0
SEQEND
  8
LAYER-1
  0
POLYLINE
  8
LAYER-1
 66
  1
 70
  1
 62
  7
  0
VERTEX
  8
LAYER-1
 10
56.606290
 20
50.606624
 30
0.000000
  0
VERTEX
  8
LAYER-1
 10
56.449961
 20
51.027034
 30
0.000000
  0
VERTEX
  8
LAYER-1
 10
56.676819
 20
50.984713
 30
0.000000
  0
VERTEX
  8
LAYER-1
 10
56.903677
 20
50.942402
 30
0.000000
  0
VERTEX
  8
LAYER-1
 10
56.606290
 20
50.606624
 30
0.000000
  0
SEQEND
  8
LAYER-1
  0
POLYLINE
  8
LAYER-1
 66
  1
 70
  0
 62
  7
 10
46.029367
 20
26.667124
 30
0.000000
  0
VERTEX
  8
LAYER-1
 10
46.029367
 20
26.667124
 30
0.000000
  0
VERTEX
  8
LAYER-1
 10
47.516146
 20
25.027851
 30
0.000000
  0
SEQEND
  8
LAYER-1
  0
POLYLINE
  8
LAYER-1
 66
  1
 70
  1
 62
  7
  0
VERTEX
  8
LAYER-1
 10
47.529372
 20
25.013273
 30
0.000000
  0
VERTEX
  8
LAYER-1
 10
47.100046
 20
25.143132
 30
0.000000
  0
VERTEX
  8
LAYER-1
 10
47.270982
 20
25.298166
 30
0.000000
  0
VERTEX
  8
LAYER-1
 10
47.441918
 20
25.453200
 30
0.000000
  0
VERTEX
  8
LAYER-1
 10
47.529372
 20
25.013273
 30
0.000000
  0
SEQEND
  8
LAYER-1
  0
POLYLINE
  8
LAYER-1
 66
  1
 70
  0
 62
  7
 10
55.221675
 20
16.244047
 30
0.000000
  0
VERTEX
  8
LAYER-1
 10
55.221675
 20
16.244047
 30
0.000000
  0
VERTEX
  8
LAYER-1
 10
53.171955
 20
19.471440
 30
0.000000
  0
SEQEND
  8
LAYER-1
  0
POLYLINE
  8
LAYER-1
 66
  1
 70
  1
 62
  7
  0
VERTEX
  8
LAYER-1
 10
53.161400
 20
19.488056
 30
0.000000
  0
VERTEX
  8
LAYER-1
 10
53.562401
 20
19.287109
 30
0.000000
  0
VERTEX
  8
LAYER-1
 10
53.367601
 20
19.163386
 30
0.000000
  0
VERTEX
  8
LAYER-1
 10
53.172800
 20
19.039663
 30
0.000000
  0
VERTEX
  8
LAYER-1
 10
53.161400
 20
19.488056
 30
0.000000
  0
SEQEND
  8
LAYER-1
  0
POLYLINE
  8
LAYER-1
 66
  1
 70
  0
 62
  7
 10
42.413983
 20
3.051739
 30
0.000000
  0
VERTEX
  8
LAYER-1
 10
42.413983
 20
3.051739
 30
0.000000
  0
VERTEX
  8
LAYER-1
 10
44.308134
 20
4.320998
 30
0.000000
  0
SEQEND
  8
LAYER-1
  0
POLYLINE
  8
LAYER-1
 66
  1
 70
  1
 62
  7
  0
VERTEX
  8
LAYER-1
 10
44.324482
 20
4.331947
 30
0.000000
  0
VERTEX
  8
LAYER-1
 10
44.133428
 20
3.926138
 30
0.000000
  0
VERTEX
  8
LAYER-1
 10
44.004967
 20
4.117845
 30
0.000000
  0
VERTEX
  8
LAYER-1
 10
43.876507
 20
4.309552
 30
0.000000
  0
VERTEX
  8
LAYER-1
 10
44.324482
 20
4.331947
 30
0.000000
  0
SEQEND
  8
LAYER-1
  0
TEXT
  8
LAYER-1
 62
  7
 10
43.490908
 20
34.667124
 30
0.000000
 40
0.980769
  1
Tube
 72
  5
 11
48.106293
 21
34.667124
 31
0.000000
  0
TEXT
  8
LAYER-1
 62
  7
 10
43.490908
 20
32.513277
 30
0.000000
 40
0.980769
  1
support
 72
  5
 11
50.183216
 21
32.513277
 31
0.000000
  0
POLYLINE
  8
LAYER-1
 66
  1
 70
  0
 62
  7
 10
45.413983
 20
36.897893
 30
0.000000
  0
VERTEX
  8
LAYER-1
 10
45.413983
 20
36.897893
 30
0.000000
  0
VERTEX
  8
LAYER-1
 10
50.279550
 20
38.162175
 30
0.000000
  0
SEQEND
  8
LAYER-1
  0
POLYLINE
  8
LAYER-1
 66
  1
 70
  1
 62
  7
  0
VERTEX
  8
LAYER-1
 10
50.298603
 20
38.167124
 30
0.000000
  0
VERTEX
  8
LAYER-1
 10
49.984384
 20
37.847046
 30
0.000000
  0
VERTEX
  8
LAYER-1
 10
49.926349
 20
38.070397
 30
0.000000
  0
VERTEX
  8
LAYER-1
 10
49.868314
 20
38.293748
 30
0.000000
  0
VERTEX
  8
LAYER-1
 10
50.298603
 20
38.167124
 30
0.000000
  0
SEQEND
  8
LAYER-1
  0
POLYLINE
  8
LAYER-1
 66
  1
 70
  0
 62
  7
 10
50.594553
 20
50.125188
 30
0.000000
  0
VERTEX
  8
LAYER-1
 10
50.594553
 20
50.125188
 30
0.000000
  0
VERTEX
  8
LAYER-1
 10
50.594553
 20
48.194627
 30
0.000000
  0
SEQEND
  8
LAYER-1
  0
POLYLINE
  8
LAYER-1
 66
  1
 70
  0
 62
  7
 10
50.004277
 20
48.194627
 30
0.000000
  0
VERTEX
  8
LAYER-1
 10
50.004277
 20
48.194627
 30
0.000000
  0
VERTEX
  8
LAYER-1
 10
50.004277
 20
50.125188
 30
0.000000
  0
SEQEND
  8
LAYER-1
  0
ARC
  8
LAYER-1
 62
  7
 10
50.299415
 20
49.416870
 30
0.000000
 40
0.767347
 50
67.379852
 51
112.620148
  0
ARC
  8
LAYER-1
 62
  7
 10
50.299415
 20
48.902949
 30
0.000000
 40
0.767347
 50
247.379852
 51
292.620148
  0
POLYLINE
  8
LAYER-1
  6
LTYPE01
 66
  1
 70
  0
 62
  7
  6
LTYPE01
 10
50.004277
 20
49.659912
 30
0.000000
  0
VERTEX
  8
LAYER-1
  6
LTYPE01
 10
50.004277
 20
49.659912
 30
0.000000
  0
VERTEX
  8
LAYER-1
  6
LTYPE01
 10
51.066777
 20
49.659912
 30
0.000000
  0
SEQEND
  8
LAYER-1
  0
POLYLINE
  8
LAYER-1
  6
LTYPE01
 66
  1
 70
  0
 62
  7
  6
LTYPE01
 10
50.004277
 20
48.659907
 30
0.000000
  0
VERTEX
  8
LAYER-1
  6
LTYPE01
 10
50.004277
 20
48.659907
 30
0.000000
  0
VERTEX
  8
LAYER-1
  6
LTYPE01
 10
51.066777
 20
48.659907
 30
0.000000
  0
SEQEND
  8
LAYER-1
  0
POLYLINE
  8
LAYER-1
 66
  1
 70
  0
 62
  7
 10
51.066777
 20
48.496713
 30
0.000000
  0
VERTEX
  8
LAYER-1
 10
51.066777
 20
48.496713
 30
0.000000
  0
VERTEX
  8
LAYER-1
 10
51.066777
 20
49.826576
 30
0.000000
  0
SEQEND
  8
LAYER-1
  0
POLYLINE
  8
LAYER-1
 66
  1
 70
  0
 62
  7
 10
50.594553
 20
49.826576
 30
0.000000
  0
VERTEX
  8
LAYER-1
 10
50.594553
 20
49.826576
 30
0.000000
  0
VERTEX
  8
LAYER-1
 10
51.066777
 20
49.826576
 30
0.000000
  0
SEQEND
  8
LAYER-1
  0
POLYLINE
  8
LAYER-1
 66
  1
 70
  0
 62
  7
 10
50.594553
 20
48.496713
 30
0.000000
  0
VERTEX
  8
LAYER-1
 10
50.594553
 20
48.496713
 30
0.000000
  0
VERTEX
  8
LAYER-1
 10
51.066777
 20
48.496713
 30
0.000000
  0
SEQEND
  8
LAYER-1
  0
POLYLINE
  8
LAYER-1
 66
  1
 70
  1
 62
  7
  0
VERTEX
  8
LAYER-1
 10
50.747160
 20
48.496610
 30
0.000000
  0
VERTEX
  8
LAYER-1
 10
50.991347
 20
48.496610
 30
0.000000
  0
VERTEX
  8
LAYER-1
 10
50.991347
 20
48.383357
 30
0.000000
  0
VERTEX
  8
LAYER-1
 10
50.747160
 20
48.383357
 30
0.000000
  0
SEQEND
  8
LAYER-1
  0
POLYLINE
  8
LAYER-1
  6
LTYPE01
 66
  1
 70
  0
 62
  7
  6
LTYPE01
 10
50.988417
 20
49.403198
 30
0.000000
  0
VERTEX
  8
LAYER-1
  6
LTYPE01
 10
50.988417
 20
49.403198
 30
0.000000
  0
VERTEX
  8
LAYER-1
  6
LTYPE01
 10
50.952825
 20
49.478079
 30
0.000000
  0
VERTEX
  8
LAYER-1
  6
LTYPE01
 10
50.866892
 20
49.509099
 30
0.000000
  0
VERTEX
  8
LAYER-1
  6
LTYPE01
 10
50.780959
 20
49.478079
 30
0.000000
  0
VERTEX
  8
LAYER-1
  6
LTYPE01
 10
50.745361
 20
49.403198
 30
0.000000
  0
VERTEX
  8
LAYER-1
  6
LTYPE01
 10
50.780959
 20
49.328313
 30
0.000000
  0
VERTEX
  8
LAYER-1
  6
LTYPE01
 10
50.866892
 20
49.297293
 30
0.000000
  0
VERTEX
  8
LAYER-1
  6
LTYPE01
 10
50.952825
 20
49.328313
 30
0.000000
  0
VERTEX
  8
LAYER-1
  6
LTYPE01
 10
50.988417
 20
49.403198
 30
0.000000
  0
SEQEND
  8
LAYER-1
  0
POLYLINE
  8
LAYER-1
  6
LTYPE01
 66
  1
 70
  0
 62
  7
  6
LTYPE01
 10
50.747160
 20
48.496610
 30
0.000000
  0
VERTEX
  8
LAYER-1
  6
LTYPE01
 10
50.747160
 20
48.496610
 30
0.000000
  0
VERTEX
  8
LAYER-1
  6
LTYPE01
 10
50.747160
 20
48.659907
 30
0.000000
  0
SEQEND
  8
LAYER-1
  0
POLYLINE
  8
LAYER-1
  6
LTYPE01
 66
  1
 70
  0
 62
  7
  6
LTYPE01
 10
50.991347
 20
48.496610
 30
0.000000
  0
VERTEX
  8
LAYER-1
  6
LTYPE01
 10
50.991347
 20
48.496610
 30
0.000000
  0
VERTEX
  8
LAYER-1
  6
LTYPE01
 10
50.991347
 20
48.659907
 30
0.000000
  0
SEQEND
  8
LAYER-1
  0
POLYLINE
  8
LAYER-1
 66
  1
 70
  0
 62
  7
 10
50.229703
 20
49.357826
 30
0.000000
  0
VERTEX
  8
LAYER-1
 10
50.229703
 20
49.357826
 30
0.000000
  0
VERTEX
  8
LAYER-1
 10
50.035260
 20
49.357826
 30
0.000000
  0
SEQEND
  8
LAYER-1
  0
POLYLINE
  8
LAYER-1
 66
  1
 70
  0
 62
  7
 10
50.229703
 20
48.968938
 30
0.000000
  0
VERTEX
  8
LAYER-1
 10
50.229703
 20
48.968938
 30
0.000000
  0
VERTEX
  8
LAYER-1
 10
50.035260
 20
48.968938
 30
0.000000
  0
SEQEND
  8
LAYER-1
  0
POLYLINE
  8
LAYER-1
 66
  1
 70
  0
 62
  7
 10
50.145710
 20
49.062683
 30
0.000000
  0
VERTEX
  8
LAYER-1
 10
50.145710
 20
49.062683
 30
0.000000
  0
VERTEX
  8
LAYER-1
 10
50.145710
 20
49.310077
 30
0.000000
  0
SEQEND
  8
LAYER-1
  0
POLYLINE
  8
LAYER-1
 66
  1
 70
  0
 62
  7
 10
49.357164
 20
49.303932
 30
0.000000
  0
VERTEX
  8
LAYER-1
 10
49.357164
 20
49.303932
 30
0.000000
  0
VERTEX
  8
LAYER-1
 10
49.357164
 20
49.061674
 30
0.000000
  0
SEQEND
  8
LAYER-1
  0
POLYLINE
  8
LAYER-1
 66
  1
 70
  0
 62
  7
 10
49.369192
 20
49.061674
 30
0.000000
  0
VERTEX
  8
LAYER-1
 10
49.369192
 20
49.061674
 30
0.000000
  0
VERTEX
  8
LAYER-1
 10
49.357164
 20
49.061674
 30
0.000000
  0
SEQEND
  8
LAYER-1
  0
POLYLINE
  8
LAYER-1
 66
  1
 70
  0
 62
  7
 10
49.402301
 20
49.303932
 30
0.000000
  0
VERTEX
  8
LAYER-1
 10
49.402301
 20
49.303932
 30
0.000000
  0
VERTEX
  8
LAYER-1
 10
49.357164
 20
49.303932
 30
0.000000
  0
SEQEND
  8
LAYER-1
  0
POLYLINE
  8
LAYER-1
 66
  1
 70
  0
 62
  7
 10
50.145066
 20
49.304725
 30
0.000000
  0
VERTEX
  8
LAYER-1
 10
50.145066
 20
49.304725
 30
0.000000
  0
VERTEX
  8
LAYER-1
 10
50.132916
 20
49.335111
 30
0.000000
  0
SEQEND
  8
LAYER-1
  0
POLYLINE
  8
LAYER-1
 66
  1
 70
  0
 62
  7
 10
50.132916
 20
49.335111
 30
0.000000
  0
VERTEX
  8
LAYER-1
 10
50.132916
 20
49.335111
 30
0.000000
  0
VERTEX
  8
LAYER-1
 10
50.113676
 20
49.335111
 30
0.000000
  0
SEQEND
  8
LAYER-1
  0
POLYLINE
  8
LAYER-1
 66
  1
 70
  0
 62
  7
 10
50.145710
 20
49.062683
 30
0.000000
  0
VERTEX
  8
LAYER-1
 10
50.145710
 20
49.062683
 30
0.000000
  0
VERTEX
  8
LAYER-1
 10
50.117061
 20
49.062683
 30
0.000000
  0
SEQEND
  8
LAYER-1
  0
POLYLINE
  8
LAYER-1
 66
  1
 70
  0
 62
  7
 10
50.113676
 20
49.335111
 30
0.000000
  0
VERTEX
  8
LAYER-1
 10
50.113676
 20
49.335111
 30
0.000000
  0
VERTEX
  8
LAYER-1
 10
50.090379
 20
49.026226
 30
0.000000
  0
SEQEND
  8
LAYER-1
  0
POLYLINE
  8
LAYER-1
 66
  1
 70
  0
 62
  7
 10
50.090379
 20
49.026226
 30
0.000000
  0
VERTEX
  8
LAYER-1
 10
50.090379
 20
49.026226
 30
0.000000
  0
VERTEX
  8
LAYER-1
 10
50.111647
 20
49.026226
 30
0.000000
  0
SEQEND
  8
LAYER-1
  0
POLYLINE
  8
LAYER-1
 66
  1
 70
  0
 62
  7
 10
50.111647
 20
49.026226
 30
0.000000
  0
VERTEX
  8
LAYER-1
 10
50.111647
 20
49.026226
 30
0.000000
  0
VERTEX
  8
LAYER-1
 10
50.132916
 20
49.335111
 30
0.000000
  0
SEQEND
  8
LAYER-1
  0
POLYLINE
  8
LAYER-1
 66
  1
 70
  0
 62
  7
 10
50.111647
 20
49.026226
 30
0.000000
  0
VERTEX
  8
LAYER-1
 10
50.111647
 20
49.026226
 30
0.000000
  0
VERTEX
  8
LAYER-1
 10
50.145710
 20
49.310077
 30
0.000000
  0
SEQEND
  8
LAYER-1
  0
POLYLINE
  8
LAYER-1
 66
  1
 70
  0
 62
  7
 10
50.090379
 20
49.026226
 30
0.000000
  0
VERTEX
  8
LAYER-1
 10
50.090379
 20
49.026226
 30
0.000000
  0
VERTEX
  8
LAYER-1
 10
50.077214
 20
49.061674
 30
0.000000
  0
SEQEND
  8
LAYER-1
  0
POLYLINE
  8
LAYER-1
 66
  1
 70
  0
 62
  7
 10
50.077214
 20
49.061674
 30
0.000000
  0
VERTEX
  8
LAYER-1
 10
50.077214
 20
49.061674
 30
0.000000
  0
VERTEX
  8
LAYER-1
 10
50.113676
 20
49.335111
 30
0.000000
  0
SEQEND
  8
LAYER-1
  0
POLYLINE
  8
LAYER-1
 66
  1
 70
  0
 62
  7
 10
50.109361
 20
49.304725
 30
0.000000
  0
VERTEX
  8
LAYER-1
 10
50.109361
 20
49.304725
 30
0.000000
  0
VERTEX
  8
LAYER-1
 10
50.086074
 20
49.304725
 30
0.000000
  0
SEQEND
  8
LAYER-1
  0
POLYLINE
  8
LAYER-1
 66
  1
 70
  0
 62
  7
 10
50.086074
 20
49.304725
 30
0.000000
  0
VERTEX
  8
LAYER-1
 10
50.086074
 20
49.304725
 30
0.000000
  0
VERTEX
  8
LAYER-1
 10
50.073914
 20
49.335111
 30
0.000000
  0
SEQEND
  8
LAYER-1
  0
POLYLINE
  8
LAYER-1
 66
  1
 70
  0
 62
  7
 10
50.073914
 20
49.335111
 30
0.000000
  0
VERTEX
  8
LAYER-1
 10
50.073914
 20
49.335111
 30
0.000000
  0
VERTEX
  8
LAYER-1
 10
50.054673
 20
49.335111
 30
0.000000
  0
SEQEND
  8
LAYER-1
  0
POLYLINE
  8
LAYER-1
 66
  1
 70
  0
 62
  7
 10
50.079989
 20
49.062683
 30
0.000000
  0
VERTEX
  8
LAYER-1
 10
50.079989
 20
49.062683
 30
0.000000
  0
VERTEX
  8
LAYER-1
 10
50.057711
 20
49.062683
 30
0.000000
  0
SEQEND
  8
LAYER-1
  0
POLYLINE
  8
LAYER-1
 66
  1
 70
  0
 62
  7
 10
50.054673
 20
49.335111
 30
0.000000
  0
VERTEX
  8
LAYER-1
 10
50.054673
 20
49.335111
 30
0.000000
  0
VERTEX
  8
LAYER-1
 10
50.031386
 20
49.026226
 30
0.000000
  0
SEQEND
  8
LAYER-1
  0
POLYLINE
  8
LAYER-1
 66
  1
 70
  0
 62
  7
 10
50.031386
 20
49.026226
 30
0.000000
  0
VERTEX
  8
LAYER-1
 10
50.031386
 20
49.026226
 30
0.000000
  0
VERTEX
  8
LAYER-1
 10
50.052645
 20
49.026226
 30
0.000000
  0
SEQEND
  8
LAYER-1
  0
POLYLINE
  8
LAYER-1
 66
  1
 70
  0
 62
  7
 10
50.052645
 20
49.026226
 30
0.000000
  0
VERTEX
  8
LAYER-1
 10
50.052645
 20
49.026226
 30
0.000000
  0
VERTEX
  8
LAYER-1
 10
50.073914
 20
49.335111
 30
0.000000
  0
SEQEND
  8
LAYER-1
  0
POLYLINE
  8
LAYER-1
 66
  1
 70
  0
 62
  7
 10
50.086074
 20
49.304725
 30
0.000000
  0
VERTEX
  8
LAYER-1
 10
50.086074
 20
49.304725
 30
0.000000
  0
VERTEX
  8
LAYER-1
 10
50.052645
 20
49.026226
 30
0.000000
  0
SEQEND
  8
LAYER-1
  0
POLYLINE
  8
LAYER-1
 66
  1
 70
  0
 62
  7
 10
50.031386
 20
49.026226
 30
0.000000
  0
VERTEX
  8
LAYER-1
 10
50.031386
 20
49.026226
 30
0.000000
  0
VERTEX
  8
LAYER-1
 10
50.018221
 20
49.061674
 30
0.000000
  0
SEQEND
  8
LAYER-1
  0
POLYLINE
  8
LAYER-1
 66
  1
 70
  0
 62
  7
 10
50.018221
 20
49.061674
 30
0.000000
  0
VERTEX
  8
LAYER-1
 10
50.018221
 20
49.061674
 30
0.000000
  0
VERTEX
  8
LAYER-1
 10
50.054673
 20
49.335111
 30
0.000000
  0
SEQEND
  8
LAYER-1
  0
POLYLINE
  8
LAYER-1
 66
  1
 70
  0
 62
  7
 10
50.050363
 20
49.304725
 30
0.000000
  0
VERTEX
  8
LAYER-1
 10
50.050363
 20
49.304725
 30
0.000000
  0
VERTEX
  8
LAYER-1
 10
50.027071
 20
49.304725
 30
0.000000
  0
SEQEND
  8
LAYER-1
  0
POLYLINE
  8
LAYER-1
 66
  1
 70
  0
 62
  7
 10
50.027071
 20
49.304725
 30
0.000000
  0
VERTEX
  8
LAYER-1
 10
50.027071
 20
49.304725
 30
0.000000
  0
VERTEX
  8
LAYER-1
 10
50.014911
 20
49.335111
 30
0.000000
  0
SEQEND
  8
LAYER-1
  0
POLYLINE
  8
LAYER-1
 66
  1
 70
  0
 62
  7
 10
50.014911
 20
49.335111
 30
0.000000
  0
VERTEX
  8
LAYER-1
 10
50.014911
 20
49.335111
 30
0.000000
  0
VERTEX
  8
LAYER-1
 10
49.995676
 20
49.335111
 30
0.000000
  0
SEQEND
  8
LAYER-1
  0
POLYLINE
  8
LAYER-1
 66
  1
 70
  0
 62
  7
 10
50.020996
 20
49.062683
 30
0.000000
  0
VERTEX
  8
LAYER-1
 10
50.020996
 20
49.062683
 30
0.000000
  0
VERTEX
  8
LAYER-1
 10
49.998714
 20
49.062683
 30
0.000000
  0
SEQEND
  8
LAYER-1
  0
POLYLINE
  8
LAYER-1
 66
  1
 70
  0
 62
  7
 10
49.995676
 20
49.335111
 30
0.000000
  0
VERTEX
  8
LAYER-1
 10
49.995676
 20
49.335111
 30
0.000000
  0
VERTEX
  8
LAYER-1
 10
49.972384
 20
49.026226
 30
0.000000
  0
SEQEND
  8
LAYER-1
  0
POLYLINE
  8
LAYER-1
 66
  1
 70
  0
 62
  7
 10
49.972384
 20
49.026226
 30
0.000000
  0
VERTEX
  8
LAYER-1
 10
49.972384
 20
49.026226
 30
0.000000
  0
VERTEX
  8
LAYER-1
 10
49.993652
 20
49.026226
 30
0.000000
  0
SEQEND
  8
LAYER-1
  0
POLYLINE
  8
LAYER-1
 66
  1
 70
  0
 62
  7
 10
49.993652
 20
49.026226
 30
0.000000
  0
VERTEX
  8
LAYER-1
 10
49.993652
 20
49.026226
 30
0.000000
  0
VERTEX
  8
LAYER-1
 10
50.014911
 20
49.335111
 30
0.000000
  0
SEQEND
  8
LAYER-1
  0
POLYLINE
  8
LAYER-1
 66
  1
 70
  0
 62
  7
 10
50.027071
 20
49.304725
 30
0.000000
  0
VERTEX
  8
LAYER-1
 10
50.027071
 20
49.304725
 30
0.000000
  0
VERTEX
  8
LAYER-1
 10
49.993652
 20
49.026226
 30
0.000000
  0
SEQEND
  8
LAYER-1
  0
POLYLINE
  8
LAYER-1
 66
  1
 70
  0
 62
  7
 10
49.972384
 20
49.026226
 30
0.000000
  0
VERTEX
  8
LAYER-1
 10
49.972384
 20
49.026226
 30
0.000000
  0
VERTEX
  8
LAYER-1
 10
49.959219
 20
49.061674
 30
0.000000
  0
SEQEND
  8
LAYER-1
  0
POLYLINE
  8
LAYER-1
 66
  1
 70
  0
 62
  7
 10
49.959219
 20
49.061674
 30
0.000000
  0
VERTEX
  8
LAYER-1
 10
49.959219
 20
49.061674
 30
0.000000
  0
VERTEX
  8
LAYER-1
 10
49.995676
 20
49.335111
 30
0.000000
  0
SEQEND
  8
LAYER-1
  0
POLYLINE
  8
LAYER-1
 66
  1
 70
  0
 62
  7
 10
49.991361
 20
49.304725
 30
0.000000
  0
VERTEX
  8
LAYER-1
 10
49.991361
 20
49.304725
 30
0.000000
  0
VERTEX
  8
LAYER-1
 10
49.968069
 20
49.304725
 30
0.000000
  0
SEQEND
  8
LAYER-1
  0
POLYLINE
  8
LAYER-1
 66
  1
 70
  0
 62
  7
 10
49.968069
 20
49.304725
 30
0.000000
  0
VERTEX
  8
LAYER-1
 10
49.968069
 20
49.304725
 30
0.000000
  0
VERTEX
  8
LAYER-1
 10
49.955919
 20
49.335111
 30
0.000000
  0
SEQEND
  8
LAYER-1
  0
POLYLINE
  8
LAYER-1
 66
  1
 70
  0
 62
  7
 10
49.955919
 20
49.335111
 30
0.000000
  0
VERTEX
  8
LAYER-1
 10
49.955919
 20
49.335111
 30
0.000000
  0
VERTEX
  8
LAYER-1
 10
49.936674
 20
49.335111
 30
0.000000
  0
SEQEND
  8
LAYER-1
  0
POLYLINE
  8
LAYER-1
 66
  1
 70
  0
 62
  7
 10
49.961994
 20
49.062683
 30
0.000000
  0
VERTEX
  8
LAYER-1
 10
49.961994
 20
49.062683
 30
0.000000
  0
VERTEX
  8
LAYER-1
 10
49.939711
 20
49.062683
 30
0.000000
  0
SEQEND
  8
LAYER-1
  0
POLYLINE
  8
LAYER-1
 66
  1
 70
  0
 62
  7
 10
49.936674
 20
49.335111
 30
0.000000
  0
VERTEX
  8
LAYER-1
 10
49.936674
 20
49.335111
 30
0.000000
  0
VERTEX
  8
LAYER-1
 10
49.913382
 20
49.026226
 30
0.000000
  0
SEQEND
  8
LAYER-1
  0
POLYLINE
  8
LAYER-1
 66
  1
 70
  0
 62
  7
 10
49.913382
 20
49.026226
 30
0.000000
  0
VERTEX
  8
LAYER-1
 10
49.913382
 20
49.026226
 30
0.000000
  0
VERTEX
  8
LAYER-1
 10
49.934650
 20
49.026226
 30
0.000000
  0
SEQEND
  8
LAYER-1
  0
POLYLINE
  8
LAYER-1
 66
  1
 70
  0
 62
  7
 10
49.934650
 20
49.026226
 30
0.000000
  0
VERTEX
  8
LAYER-1
 10
49.934650
 20
49.026226
 30
0.000000
  0
VERTEX
  8
LAYER-1
 10
49.955919
 20
49.335111
 30
0.000000
  0
SEQEND
  8
LAYER-1
  0
POLYLINE
  8
LAYER-1
 66
  1
 70
  0
 62
  7
 10
49.968069
 20
49.304725
 30
0.000000
  0
VERTEX
  8
LAYER-1
 10
49.968069
 20
49.304725
 30
0.000000
  0
VERTEX
  8
LAYER-1
 10
49.934650
 20
49.026226
 30
0.000000
  0
SEQEND
  8
LAYER-1
  0
POLYLINE
  8
LAYER-1
 66
  1
 70
  0
 62
  7
 10
49.913382
 20
49.026226
 30
0.000000
  0
VERTEX
  8
LAYER-1
 10
49.913382
 20
49.026226
 30
0.000000
  0
VERTEX
  8
LAYER-1
 10
49.900217
 20
49.061674
 30
0.000000
  0
SEQEND
  8
LAYER-1
  0
POLYLINE
  8
LAYER-1
 66
  1
 70
  0
 62
  7
 10
49.900217
 20
49.061674
 30
0.000000
  0
VERTEX
  8
LAYER-1
 10
49.900217
 20
49.061674
 30
0.000000
  0
VERTEX
  8
LAYER-1
 10
49.936674
 20
49.335111
 30
0.000000
  0
SEQEND
  8
LAYER-1
  0
POLYLINE
  8
LAYER-1
 66
  1
 70
  0
 62
  7
 10
49.932359
 20
49.304725
 30
0.000000
  0
VERTEX
  8
LAYER-1
 10
49.932359
 20
49.304725
 30
0.000000
  0
VERTEX
  8
LAYER-1
 10
49.909067
 20
49.304725
 30
0.000000
  0
SEQEND
  8
LAYER-1
  0
POLYLINE
  8
LAYER-1
 66
  1
 70
  0
 62
  7
 10
49.909067
 20
49.304725
 30
0.000000
  0
VERTEX
  8
LAYER-1
 10
49.909067
 20
49.304725
 30
0.000000
  0
VERTEX
  8
LAYER-1
 10
49.896916
 20
49.335111
 30
0.000000
  0
SEQEND
  8
LAYER-1
  0
POLYLINE
  8
LAYER-1
 66
  1
 70
  0
 62
  7
 10
49.896916
 20
49.335111
 30
0.000000
  0
VERTEX
  8
LAYER-1
 10
49.896916
 20
49.335111
 30
0.000000
  0
VERTEX
  8
LAYER-1
 10
49.877671
 20
49.335111
 30
0.000000
  0
SEQEND
  8
LAYER-1
  0
POLYLINE
  8
LAYER-1
 66
  1
 70
  0
 62
  7
 10
49.902992
 20
49.062683
 30
0.000000
  0
VERTEX
  8
LAYER-1
 10
49.902992
 20
49.062683
 30
0.000000
  0
VERTEX
  8
LAYER-1
 10
49.880709
 20
49.062683
 30
0.000000
  0
SEQEND
  8
LAYER-1
  0
POLYLINE
  8
LAYER-1
 66
  1
 70
  0
 62
  7
 10
49.877671
 20
49.335111
 30
0.000000
  0
VERTEX
  8
LAYER-1
 10
49.877671
 20
49.335111
 30
0.000000
  0
VERTEX
  8
LAYER-1
 10
49.854380
 20
49.026226
 30
0.000000
  0
SEQEND
  8
LAYER-1
  0
POLYLINE
  8
LAYER-1
 66
  1
 70
  0
 62
  7
 10
49.854380
 20
49.026226
 30
0.000000
  0
VERTEX
  8
LAYER-1
 10
49.854380
 20
49.026226
 30
0.000000
  0
VERTEX
  8
LAYER-1
 10
49.875648
 20
49.026226
 30
0.000000
  0
SEQEND
  8
LAYER-1
  0
POLYLINE
  8
LAYER-1
 66
  1
 70
  0
 62
  7
 10
49.875648
 20
49.026226
 30
0.000000
  0
VERTEX
  8
LAYER-1
 10
49.875648
 20
49.026226
 30
0.000000
  0
VERTEX
  8
LAYER-1
 10
49.896916
 20
49.335111
 30
0.000000
  0
SEQEND
  8
LAYER-1
  0
POLYLINE
  8
LAYER-1
 66
  1
 70
  0
 62
  7
 10
49.909067
 20
49.304725
 30
0.000000
  0
VERTEX
  8
LAYER-1
 10
49.909067
 20
49.304725
 30
0.000000
  0
VERTEX
  8
LAYER-1
 10
49.875648
 20
49.026226
 30
0.000000
  0
SEQEND
  8
LAYER-1
  0
POLYLINE
  8
LAYER-1
 66
  1
 70
  0
 62
  7
 10
49.854380
 20
49.026226
 30
0.000000
  0
VERTEX
  8
LAYER-1
 10
49.854380
 20
49.026226
 30
0.000000
  0
VERTEX
  8
LAYER-1
 10
49.841215
 20
49.061674
 30
0.000000
  0
SEQEND
  8
LAYER-1
  0
POLYLINE
  8
LAYER-1
 66
  1
 70
  0
 62
  7
 10
49.841215
 20
49.061674
 30
0.000000
  0
VERTEX
  8
LAYER-1
 10
49.841215
 20
49.061674
 30
0.000000
  0
VERTEX
  8
LAYER-1
 10
49.877671
 20
49.335111
 30
0.000000
  0
SEQEND
  8
LAYER-1
  0
POLYLINE
  8
LAYER-1
 66
  1
 70
  0
 62
  7
 10
49.873357
 20
49.304725
 30
0.000000
  0
VERTEX
  8
LAYER-1
 10
49.873357
 20
49.304725
 30
0.000000
  0
VERTEX
  8
LAYER-1
 10
49.850065
 20
49.304725
 30
0.000000
  0
SEQEND
  8
LAYER-1
  0
POLYLINE
  8
LAYER-1
 66
  1
 70
  0
 62
  7
 10
49.850065
 20
49.304725
 30
0.000000
  0
VERTEX
  8
LAYER-1
 10
49.850065
 20
49.304725
 30
0.000000
  0
VERTEX
  8
LAYER-1
 10
49.837919
 20
49.335111
 30
0.000000
  0
SEQEND
  8
LAYER-1
  0
POLYLINE
  8
LAYER-1
 66
  1
 70
  0
 62
  7
 10
49.837919
 20
49.335111
 30
0.000000
  0
VERTEX
  8
LAYER-1
 10
49.837919
 20
49.335111
 30
0.000000
  0
VERTEX
  8
LAYER-1
 10
49.818679
 20
49.335111
 30
0.000000
  0
SEQEND
  8
LAYER-1
  0
POLYLINE
  8
LAYER-1
 66
  1
 70
  0
 62
  7
 10
49.843989
 20
49.062683
 30
0.000000
  0
VERTEX
  8
LAYER-1
 10
49.843989
 20
49.062683
 30
0.000000
  0
VERTEX
  8
LAYER-1
 10
49.821716
 20
49.062683
 30
0.000000
  0
SEQEND
  8
LAYER-1
  0
POLYLINE
  8
LAYER-1
 66
  1
 70
  0
 62
  7
 10
49.818679
 20
49.335111
 30
0.000000
  0
VERTEX
  8
LAYER-1
 10
49.818679
 20
49.335111
 30
0.000000
  0
VERTEX
  8
LAYER-1
 10
49.795377
 20
49.026226
 30
0.000000
  0
SEQEND
  8
LAYER-1
  0
POLYLINE
  8
LAYER-1
 66
  1
 70
  0
 62
  7
 10
49.795377
 20
49.026226
 30
0.000000
  0
VERTEX
  8
LAYER-1
 10
49.795377
 20
49.026226
 30
0.000000
  0
VERTEX
  8
LAYER-1
 10
49.816646
 20
49.026226
 30
0.000000
  0
SEQEND
  8
LAYER-1
  0
POLYLINE
  8
LAYER-1
 66
  1
 70
  0
 62
  7
 10
49.816646
 20
49.026226
 30
0.000000
  0
VERTEX
  8
LAYER-1
 10
49.816646
 20
49.026226
 30
0.000000
  0
VERTEX
  8
LAYER-1
 10
49.837919
 20
49.335111
 30
0.000000
  0
SEQEND
  8
LAYER-1
  0
POLYLINE
  8
LAYER-1
 66
  1
 70
  0
 62
  7
 10
49.850065
 20
49.304725
 30
0.000000
  0
VERTEX
  8
LAYER-1
 10
49.850065
 20
49.304725
 30
0.000000
  0
VERTEX
  8
LAYER-1
 10
49.816646
 20
49.026226
 30
0.000000
  0
SEQEND
  8
LAYER-1
  0
POLYLINE
  8
LAYER-1
 66
  1
 70
  0
 62
  7
 10
49.795377
 20
49.026226
 30
0.000000
  0
VERTEX
  8
LAYER-1
 10
49.795377
 20
49.026226
 30
0.000000
  0
VERTEX
  8
LAYER-1
 10
49.782212
 20
49.061674
 30
0.000000
  0
SEQEND
  8
LAYER-1
  0
POLYLINE
  8
LAYER-1
 66
  1
 70
  0
 62
  7
 10
49.782212
 20
49.061674
 30
0.000000
  0
VERTEX
  8
LAYER-1
 10
49.782212
 20
49.061674
 30
0.000000
  0
VERTEX
  8
LAYER-1
 10
49.818679
 20
49.335111
 30
0.000000
  0
SEQEND
  8
LAYER-1
  0
POLYLINE
  8
LAYER-1
 66
  1
 70
  0
 62
  7
 10
49.814364
 20
49.304725
 30
0.000000
  0
VERTEX
  8
LAYER-1
 10
49.814364
 20
49.304725
 30
0.000000
  0
VERTEX
  8
LAYER-1
 10
49.791072
 20
49.304725
 30
0.000000
  0
SEQEND
  8
LAYER-1
  0
POLYLINE
  8
LAYER-1
 66
  1
 70
  0
 62
  7
 10
49.791072
 20
49.304725
 30
0.000000
  0
VERTEX
  8
LAYER-1
 10
49.791072
 20
49.304725
 30
0.000000
  0
VERTEX
  8
LAYER-1
 10
49.778917
 20
49.335111
 30
0.000000
  0
SEQEND
  8
LAYER-1
  0
POLYLINE
  8
LAYER-1
 66
  1
 70
  0
 62
  7
 10
49.778917
 20
49.335111
 30
0.000000
  0
VERTEX
  8
LAYER-1
 10
49.778917
 20
49.335111
 30
0.000000
  0
VERTEX
  8
LAYER-1
 10
49.759676
 20
49.335111
 30
0.000000
  0
SEQEND
  8
LAYER-1
  0
POLYLINE
  8
LAYER-1
 66
  1
 70
  0
 62
  7
 10
49.784992
 20
49.062683
 30
0.000000
  0
VERTEX
  8
LAYER-1
 10
49.784992
 20
49.062683
 30
0.000000
  0
VERTEX
  8
LAYER-1
 10
49.762714
 20
49.062683
 30
0.000000
  0
SEQEND
  8
LAYER-1
  0
POLYLINE
  8
LAYER-1
 66
  1
 70
  0
 62
  7
 10
49.759676
 20
49.335111
 30
0.000000
  0
VERTEX
  8
LAYER-1
 10
49.759676
 20
49.335111
 30
0.000000
  0
VERTEX
  8
LAYER-1
 10
49.736384
 20
49.026226
 30
0.000000
  0
SEQEND
  8
LAYER-1
  0
POLYLINE
  8
LAYER-1
 66
  1
 70
  0
 62
  7
 10
49.736384
 20
49.026226
 30
0.000000
  0
VERTEX
  8
LAYER-1
 10
49.736384
 20
49.026226
 30
0.000000
  0
VERTEX
  8
LAYER-1
 10
49.757648
 20
49.026226
 30
0.000000
  0
SEQEND
  8
LAYER-1
  0
POLYLINE
  8
LAYER-1
 66
  1
 70
  0
 62
  7
 10
49.757648
 20
49.026226
 30
0.000000
  0
VERTEX
  8
LAYER-1
 10
49.757648
 20
49.026226
 30
0.000000
  0
VERTEX
  8
LAYER-1
 10
49.778917
 20
49.335111
 30
0.000000
  0
SEQEND
  8
LAYER-1
  0
POLYLINE
  8
LAYER-1
 66
  1
 70
  0
 62
  7
 10
49.791072
 20
49.304725
 30
0.000000
  0
VERTEX
  8
LAYER-1
 10
49.791072
 20
49.304725
 30
0.000000
  0
VERTEX
  8
LAYER-1
 10
49.757648
 20
49.026226
 30
0.000000
  0
SEQEND
  8
LAYER-1
  0
POLYLINE
  8
LAYER-1
 66
  1
 70
  0
 62
  7
 10
49.736384
 20
49.026226
 30
0.000000
  0
VERTEX
  8
LAYER-1
 10
49.736384
 20
49.026226
 30
0.000000
  0
VERTEX
  8
LAYER-1
 10
49.723220
 20
49.061674
 30
0.000000
  0
SEQEND
  8
LAYER-1
  0
POLYLINE
  8
LAYER-1
 66
  1
 70
  0
 62
  7
 10
49.723220
 20
49.061674
 30
0.000000
  0
VERTEX
  8
LAYER-1
 10
49.723220
 20
49.061674
 30
0.000000
  0
VERTEX
  8
LAYER-1
 10
49.759676
 20
49.335111
 30
0.000000
  0
SEQEND
  8
LAYER-1
  0
POLYLINE
  8
LAYER-1
 66
  1
 70
  0
 62
  7
 10
49.755362
 20
49.304725
 30
0.000000
  0
VERTEX
  8
LAYER-1
 10
49.755362
 20
49.304725
 30
0.000000
  0
VERTEX
  8
LAYER-1
 10
49.732070
 20
49.304725
 30
0.000000
  0
SEQEND
  8
LAYER-1
  0
POLYLINE
  8
LAYER-1
 66
  1
 70
  0
 62
  7
 10
49.732070
 20
49.304725
 30
0.000000
  0
VERTEX
  8
LAYER-1
 10
49.732070
 20
49.304725
 30
0.000000
  0
VERTEX
  8
LAYER-1
 10
49.719914
 20
49.335111
 30
0.000000
  0
SEQEND
  8
LAYER-1
  0
POLYLINE
  8
LAYER-1
 66
  1
 70
  0
 62
  7
 10
49.719914
 20
49.335111
 30
0.000000
  0
VERTEX
  8
LAYER-1
 10
49.719914
 20
49.335111
 30
0.000000
  0
VERTEX
  8
LAYER-1
 10
49.700674
 20
49.335111
 30
0.000000
  0
SEQEND
  8
LAYER-1
  0
POLYLINE
  8
LAYER-1
 66
  1
 70
  0
 62
  7
 10
49.725994
 20
49.062683
 30
0.000000
  0
VERTEX
  8
LAYER-1
 10
49.725994
 20
49.062683
 30
0.000000
  0
VERTEX
  8
LAYER-1
 10
49.703712
 20
49.062683
 30
0.000000
  0
SEQEND
  8
LAYER-1
  0
POLYLINE
  8
LAYER-1
 66
  1
 70
  0
 62
  7
 10
49.700674
 20
49.335111
 30
0.000000
  0
VERTEX
  8
LAYER-1
 10
49.700674
 20
49.335111
 30
0.000000
  0
VERTEX
  8
LAYER-1
 10
49.677382
 20
49.026226
 30
0.000000
  0
SEQEND
  8
LAYER-1
  0
POLYLINE
  8
LAYER-1
 66
  1
 70
  0
 62
  7
 10
49.677382
 20
49.026226
 30
0.000000
  0
VERTEX
  8
LAYER-1
 10
49.677382
 20
49.026226
 30
0.000000
  0
VERTEX
  8
LAYER-1
 10
49.698651
 20
49.026226
 30
0.000000
  0
SEQEND
  8
LAYER-1
  0
POLYLINE
  8
LAYER-1
 66
  1
 70
  0
 62
  7
 10
49.698651
 20
49.026226
 30
0.000000
  0
VERTEX
  8
LAYER-1
 10
49.698651
 20
49.026226
 30
0.000000
  0
VERTEX
  8
LAYER-1
 10
49.719914
 20
49.335111
 30
0.000000
  0
SEQEND
  8
LAYER-1
  0
POLYLINE
  8
LAYER-1
 66
  1
 70
  0
 62
  7
 10
49.732070
 20
49.304725
 30
0.000000
  0
VERTEX
  8
LAYER-1
 10
49.732070
 20
49.304725
 30
0.000000
  0
VERTEX
  8
LAYER-1
 10
49.698651
 20
49.026226
 30
0.000000
  0
SEQEND
  8
LAYER-1
  0
POLYLINE
  8
LAYER-1
 66
  1
 70
  0
 62
  7
 10
49.677382
 20
49.026226
 30
0.000000
  0
VERTEX
  8
LAYER-1
 10
49.677382
 20
49.026226
 30
0.000000
  0
VERTEX
  8
LAYER-1
 10
49.664217
 20
49.061674
 30
0.000000
  0
SEQEND
  8
LAYER-1
  0
POLYLINE
  8
LAYER-1
 66
  1
 70
  0
 62
  7
 10
49.664217
 20
49.061674
 30
0.000000
  0
VERTEX
  8
LAYER-1
 10
49.664217
 20
49.061674
 30
0.000000
  0
VERTEX
  8
LAYER-1
 10
49.700674
 20
49.335111
 30
0.000000
  0
SEQEND
  8
LAYER-1
  0
POLYLINE
  8
LAYER-1
 66
  1
 70
  0
 62
  7
 10
49.696359
 20
49.304725
 30
0.000000
  0
VERTEX
  8
LAYER-1
 10
49.696359
 20
49.304725
 30
0.000000
  0
VERTEX
  8
LAYER-1
 10
49.673072
 20
49.304725
 30
0.000000
  0
SEQEND
  8
LAYER-1
  0
POLYLINE
  8
LAYER-1
 66
  1
 70
  0
 62
  7
 10
49.673072
 20
49.304725
 30
0.000000
  0
VERTEX
  8
LAYER-1
 10
49.673072
 20
49.304725
 30
0.000000
  0
VERTEX
  8
LAYER-1
 10
49.660912
 20
49.335111
 30
0.000000
  0
SEQEND
  8
LAYER-1
  0
POLYLINE
  8
LAYER-1
 66
  1
 70
  0
 62
  7
 10
49.660912
 20
49.335111
 30
0.000000
  0
VERTEX
  8
LAYER-1
 10
49.660912
 20
49.335111
 30
0.000000
  0
VERTEX
  8
LAYER-1
 10
49.641672
 20
49.335111
 30
0.000000
  0
SEQEND
  8
LAYER-1
  0
POLYLINE
  8
LAYER-1
 66
  1
 70
  0
 62
  7
 10
49.666997
 20
49.062683
 30
0.000000
  0
VERTEX
  8
LAYER-1
 10
49.666997
 20
49.062683
 30
0.000000
  0
VERTEX
  8
LAYER-1
 10
49.644710
 20
49.062683
 30
0.000000
  0
SEQEND
  8
LAYER-1
  0
POLYLINE
  8
LAYER-1
 66
  1
 70
  0
 62
  7
 10
49.641672
 20
49.335111
 30
0.000000
  0
VERTEX
  8
LAYER-1
 10
49.641672
 20
49.335111
 30
0.000000
  0
VERTEX
  8
LAYER-1
 10
49.618385
 20
49.026226
 30
0.000000
  0
SEQEND
  8
LAYER-1
  0
POLYLINE
  8
LAYER-1
 66
  1
 70
  0
 62
  7
 10
49.618385
 20
49.026226
 30
0.000000
  0
VERTEX
  8
LAYER-1
 10
49.618385
 20
49.026226
 30
0.000000
  0
VERTEX
  8
LAYER-1
 10
49.639653
 20
49.026226
 30
0.000000
  0
SEQEND
  8
LAYER-1
  0
POLYLINE
  8
LAYER-1
 66
  1
 70
  0
 62
  7
 10
49.639653
 20
49.026226
 30
0.000000
  0
VERTEX
  8
LAYER-1
 10
49.639653
 20
49.026226
 30
0.000000
  0
VERTEX
  8
LAYER-1
 10
49.660912
 20
49.335111
 30
0.000000
  0
SEQEND
  8
LAYER-1
  0
POLYLINE
  8
LAYER-1
 66
  1
 70
  0
 62
  7
 10
49.673072
 20
49.304725
 30
0.000000
  0
VERTEX
  8
LAYER-1
 10
49.673072
 20
49.304725
 30
0.000000
  0
VERTEX
  8
LAYER-1
 10
49.639653
 20
49.026226
 30
0.000000
  0
SEQEND
  8
LAYER-1
  0
POLYLINE
  8
LAYER-1
 66
  1
 70
  0
 62
  7
 10
49.618385
 20
49.026226
 30
0.000000
  0
VERTEX
  8
LAYER-1
 10
49.618385
 20
49.026226
 30
0.000000
  0
VERTEX
  8
LAYER-1
 10
49.605220
 20
49.061674
 30
0.000000
  0
SEQEND
  8
LAYER-1
  0
POLYLINE
  8
LAYER-1
 66
  1
 70
  0
 62
  7
 10
49.605220
 20
49.061674
 30
0.000000
  0
VERTEX
  8
LAYER-1
 10
49.605220
 20
49.061674
 30
0.000000
  0
VERTEX
  8
LAYER-1
 10
49.641672
 20
49.335111
 30
0.000000
  0
SEQEND
  8
LAYER-1
  0
POLYLINE
  8
LAYER-1
 66
  1
 70
  0
 62
  7
 10
49.637362
 20
49.304725
 30
0.000000
  0
VERTEX
  8
LAYER-1
 10
49.637362
 20
49.304725
 30
0.000000
  0
VERTEX
  8
LAYER-1
 10
49.614070
 20
49.304725
 30
0.000000
  0
SEQEND
  8
LAYER-1
  0
POLYLINE
  8
LAYER-1
 66
  1
 70
  0
 62
  7
 10
49.614070
 20
49.304725
 30
0.000000
  0
VERTEX
  8
LAYER-1
 10
49.614070
 20
49.304725
 30
0.000000
  0
VERTEX
  8
LAYER-1
 10
49.601919
 20
49.335111
 30
0.000000
  0
SEQEND
  8
LAYER-1
  0
POLYLINE
  8
LAYER-1
 66
  1
 70
  0
 62
  7
 10
49.601919
 20
49.335111
 30
0.000000
  0
VERTEX
  8
LAYER-1
 10
49.601919
 20
49.335111
 30
0.000000
  0
VERTEX
  8
LAYER-1
 10
49.582674
 20
49.335111
 30
0.000000
  0
SEQEND
  8
LAYER-1
  0
POLYLINE
  8
LAYER-1
 66
  1
 70
  0
 62
  7
 10
49.607995
 20
49.062683
 30
0.000000
  0
VERTEX
  8
LAYER-1
 10
49.607995
 20
49.062683
 30
0.000000
  0
VERTEX
  8
LAYER-1
 10
49.585712
 20
49.062683
 30
0.000000
  0
SEQEND
  8
LAYER-1
  0
POLYLINE
  8
LAYER-1
 66
  1
 70
  0
 62
  7
 10
49.582674
 20
49.335111
 30
0.000000
  0
VERTEX
  8
LAYER-1
 10
49.582674
 20
49.335111
 30
0.000000
  0
VERTEX
  8
LAYER-1
 10
49.559383
 20
49.026226
 30
0.000000
  0
SEQEND
  8
LAYER-1
  0
POLYLINE
  8
LAYER-1
 66
  1
 70
  0
 62
  7
 10
49.559383
 20
49.026226
 30
0.000000
  0
VERTEX
  8
LAYER-1
 10
49.559383
 20
49.026226
 30
0.000000
  0
VERTEX
  8
LAYER-1
 10
49.580651
 20
49.026226
 30
0.000000
  0
SEQEND
  8
LAYER-1
  0
POLYLINE
  8
LAYER-1
 66
  1
 70
  0
 62
  7
 10
49.580651
 20
49.026226
 30
0.000000
  0
VERTEX
  8
LAYER-1
 10
49.580651
 20
49.026226
 30
0.000000
  0
VERTEX
  8
LAYER-1
 10
49.601919
 20
49.335111
 30
0.000000
  0
SEQEND
  8
LAYER-1
  0
POLYLINE
  8
LAYER-1
 66
  1
 70
  0
 62
  7
 10
49.614070
 20
49.304725
 30
0.000000
  0
VERTEX
  8
LAYER-1
 10
49.614070
 20
49.304725
 30
0.000000
  0
VERTEX
  8
LAYER-1
 10
49.580651
 20
49.026226
 30
0.000000
  0
SEQEND
  8
LAYER-1
  0
POLYLINE
  8
LAYER-1
 66
  1
 70
  0
 62
  7
 10
49.559383
 20
49.026226
 30
0.000000
  0
VERTEX
  8
LAYER-1
 10
49.559383
 20
49.026226
 30
0.000000
  0
VERTEX
  8
LAYER-1
 10
49.546218
 20
49.061674
 30
0.000000
  0
SEQEND
  8
LAYER-1
  0
POLYLINE
  8
LAYER-1
 66
  1
 70
  0
 62
  7
 10
49.546218
 20
49.061674
 30
0.000000
  0
VERTEX
  8
LAYER-1
 10
49.546218
 20
49.061674
 30
0.000000
  0
VERTEX
  8
LAYER-1
 10
49.582674
 20
49.335111
 30
0.000000
  0
SEQEND
  8
LAYER-1
  0
POLYLINE
  8
LAYER-1
 66
  1
 70
  0
 62
  7
 10
49.578360
 20
49.304725
 30
0.000000
  0
VERTEX
  8
LAYER-1
 10
49.578360
 20
49.304725
 30
0.000000
  0
VERTEX
  8
LAYER-1
 10
49.555068
 20
49.304725
 30
0.000000
  0
SEQEND
  8
LAYER-1
  0
POLYLINE
  8
LAYER-1
 66
  1
 70
  0
 62
  7
 10
49.555068
 20
49.304725
 30
0.000000
  0
VERTEX
  8
LAYER-1
 10
49.555068
 20
49.304725
 30
0.000000
  0
VERTEX
  8
LAYER-1
 10
49.542917
 20
49.335111
 30
0.000000
  0
SEQEND
  8
LAYER-1
  0
POLYLINE
  8
LAYER-1
 66
  1
 70
  0
 62
  7
 10
49.542917
 20
49.335111
 30
0.000000
  0
VERTEX
  8
LAYER-1
 10
49.542917
 20
49.335111
 30
0.000000
  0
VERTEX
  8
LAYER-1
 10
49.523677
 20
49.335111
 30
0.000000
  0
SEQEND
  8
LAYER-1
  0
POLYLINE
  8
LAYER-1
 66
  1
 70
  0
 62
  7
 10
49.548992
 20
49.062683
 30
0.000000
  0
VERTEX
  8
LAYER-1
 10
49.548992
 20
49.062683
 30
0.000000
  0
VERTEX
  8
LAYER-1
 10
49.526715
 20
49.062683
 30
0.000000
  0
SEQEND
  8
LAYER-1
  0
POLYLINE
  8
LAYER-1
 66
  1
 70
  0
 62
  7
 10
49.523677
 20
49.335111
 30
0.000000
  0
VERTEX
  8
LAYER-1
 10
49.523677
 20
49.335111
 30
0.000000
  0
VERTEX
  8
LAYER-1
 10
49.500380
 20
49.026226
 30
0.000000
  0
SEQEND
  8
LAYER-1
  0
POLYLINE
  8
LAYER-1
 66
  1
 70
  0
 62
  7
 10
49.500380
 20
49.026226
 30
0.000000
  0
VERTEX
  8
LAYER-1
 10
49.500380
 20
49.026226
 30
0.000000
  0
VERTEX
  8
LAYER-1
 10
49.521649
 20
49.026226
 30
0.000000
  0
SEQEND
  8
LAYER-1
  0
POLYLINE
  8
LAYER-1
 66
  1
 70
  0
 62
  7
 10
49.521649
 20
49.026226
 30
0.000000
  0
VERTEX
  8
LAYER-1
 10
49.521649
 20
49.026226
 30
0.000000
  0
VERTEX
  8
LAYER-1
 10
49.542917
 20
49.335111
 30
0.000000
  0
SEQEND
  8
LAYER-1
  0
POLYLINE
  8
LAYER-1
 66
  1
 70
  0
 62
  7
 10
49.555068
 20
49.304725
 30
0.000000
  0
VERTEX
  8
LAYER-1
 10
49.555068
 20
49.304725
 30
0.000000
  0
VERTEX
  8
LAYER-1
 10
49.521649
 20
49.026226
 30
0.000000
  0
SEQEND
  8
LAYER-1
  0
POLYLINE
  8
LAYER-1
 66
  1
 70
  0
 62
  7
 10
49.500380
 20
49.026226
 30
0.000000
  0
VERTEX
  8
LAYER-1
 10
49.500380
 20
49.026226
 30
0.000000
  0
VERTEX
  8
LAYER-1
 10
49.487215
 20
49.061674
 30
0.000000
  0
SEQEND
  8
LAYER-1
  0
POLYLINE
  8
LAYER-1
 66
  1
 70
  0
 62
  7
 10
49.487215
 20
49.061674
 30
0.000000
  0
VERTEX
  8
LAYER-1
 10
49.487215
 20
49.061674
 30
0.000000
  0
VERTEX
  8
LAYER-1
 10
49.523677
 20
49.335111
 30
0.000000
  0
SEQEND
  8
LAYER-1
  0
POLYLINE
  8
LAYER-1
 66
  1
 70
  0
 62
  7
 10
49.519367
 20
49.304725
 30
0.000000
  0
VERTEX
  8
LAYER-1
 10
49.519367
 20
49.304725
 30
0.000000
  0
VERTEX
  8
LAYER-1
 10
49.496075
 20
49.304725
 30
0.000000
  0
SEQEND
  8
LAYER-1
  0
POLYLINE
  8
LAYER-1
 66
  1
 70
  0
 62
  7
 10
49.496075
 20
49.304725
 30
0.000000
  0
VERTEX
  8
LAYER-1
 10
49.496075
 20
49.304725
 30
0.000000
  0
VERTEX
  8
LAYER-1
 10
49.483915
 20
49.335111
 30
0.000000
  0
SEQEND
  8
LAYER-1
  0
POLYLINE
  8
LAYER-1
 66
  1
 70
  0
 62
  7
 10
49.483915
 20
49.335111
 30
0.000000
  0
VERTEX
  8
LAYER-1
 10
49.483915
 20
49.335111
 30
0.000000
  0
VERTEX
  8
LAYER-1
 10
49.464679
 20
49.335111
 30
0.000000
  0
SEQEND
  8
LAYER-1
  0
POLYLINE
  8
LAYER-1
 66
  1
 70
  0
 62
  7
 10
49.489990
 20
49.062683
 30
0.000000
  0
VERTEX
  8
LAYER-1
 10
49.489990
 20
49.062683
 30
0.000000
  0
VERTEX
  8
LAYER-1
 10
49.467717
 20
49.062683
 30
0.000000
  0
SEQEND
  8
LAYER-1
  0
POLYLINE
  8
LAYER-1
 66
  1
 70
  0
 62
  7
 10
49.464679
 20
49.335111
 30
0.000000
  0
VERTEX
  8
LAYER-1
 10
49.464679
 20
49.335111
 30
0.000000
  0
VERTEX
  8
LAYER-1
 10
49.441387
 20
49.026226
 30
0.000000
  0
SEQEND
  8
LAYER-1
  0
POLYLINE
  8
LAYER-1
 66
  1
 70
  0
 62
  7
 10
49.441387
 20
49.026226
 30
0.000000
  0
VERTEX
  8
LAYER-1
 10
49.441387
 20
49.026226
 30
0.000000
  0
VERTEX
  8
LAYER-1
 10
49.462646
 20
49.026226
 30
0.000000
  0
SEQEND
  8
LAYER-1
  0
POLYLINE
  8
LAYER-1
 66
  1
 70
  0
 62
  7
 10
49.462646
 20
49.026226
 30
0.000000
  0
VERTEX
  8
LAYER-1
 10
49.462646
 20
49.026226
 30
0.000000
  0
VERTEX
  8
LAYER-1
 10
49.483915
 20
49.335111
 30
0.000000
  0
SEQEND
  8
LAYER-1
  0
POLYLINE
  8
LAYER-1
 66
  1
 70
  0
 62
  7
 10
49.496075
 20
49.304725
 30
0.000000
  0
VERTEX
  8
LAYER-1
 10
49.496075
 20
49.304725
 30
0.000000
  0
VERTEX
  8
LAYER-1
 10
49.462646
 20
49.026226
 30
0.000000
  0
SEQEND
  8
LAYER-1
  0
POLYLINE
  8
LAYER-1
 66
  1
 70
  0
 62
  7
 10
49.441387
 20
49.026226
 30
0.000000
  0
VERTEX
  8
LAYER-1
 10
49.441387
 20
49.026226
 30
0.000000
  0
VERTEX
  8
LAYER-1
 10
49.428213
 20
49.061674
 30
0.000000
  0
SEQEND
  8
LAYER-1
  0
POLYLINE
  8
LAYER-1
 66
  1
 70
  0
 62
  7
 10
49.428213
 20
49.061674
 30
0.000000
  0
VERTEX
  8
LAYER-1
 10
49.428213
 20
49.061674
 30
0.000000
  0
VERTEX
  8
LAYER-1
 10
49.464679
 20
49.335111
 30
0.000000
  0
SEQEND
  8
LAYER-1
  0
POLYLINE
  8
LAYER-1
 66
  1
 70
  0
 62
  7
 10
49.461332
 20
49.305195
 30
0.000000
  0
VERTEX
  8
LAYER-1
 10
49.461332
 20
49.305195
 30
0.000000
  0
VERTEX
  8
LAYER-1
 10
49.438035
 20
49.305195
 30
0.000000
  0
SEQEND
  8
LAYER-1
  0
POLYLINE
  8
LAYER-1
 66
  1
 70
  0
 62
  7
 10
49.438035
 20
49.305195
 30
0.000000
  0
VERTEX
  8
LAYER-1
 10
49.438035
 20
49.305195
 30
0.000000
  0
VERTEX
  8
LAYER-1
 10
49.425885
 20
49.335571
 30
0.000000
  0
SEQEND
  8
LAYER-1
  0
POLYLINE
  8
LAYER-1
 66
  1
 70
  0
 62
  7
 10
49.425885
 20
49.335571
 30
0.000000
  0
VERTEX
  8
LAYER-1
 10
49.425885
 20
49.335571
 30
0.000000
  0
VERTEX
  8
LAYER-1
 10
49.406644
 20
49.335571
 30
0.000000
  0
SEQEND
  8
LAYER-1
  0
POLYLINE
  8
LAYER-1
 66
  1
 70
  0
 62
  7
 10
49.431960
 20
49.063148
 30
0.000000
  0
VERTEX
  8
LAYER-1
 10
49.431960
 20
49.063148
 30
0.000000
  0
VERTEX
  8
LAYER-1
 10
49.409682
 20
49.063148
 30
0.000000
  0
SEQEND
  8
LAYER-1
  0
POLYLINE
  8
LAYER-1
 66
  1
 70
  0
 62
  7
 10
49.406644
 20
49.335571
 30
0.000000
  0
VERTEX
  8
LAYER-1
 10
49.406644
 20
49.335571
 30
0.000000
  0
VERTEX
  8
LAYER-1
 10
49.383348
 20
49.026696
 30
0.000000
  0
SEQEND
  8
LAYER-1
  0
POLYLINE
  8
LAYER-1
 66
  1
 70
  0
 62
  7
 10
49.383348
 20
49.026696
 30
0.000000
  0
VERTEX
  8
LAYER-1
 10
49.383348
 20
49.026696
 30
0.000000
  0
VERTEX
  8
LAYER-1
 10
49.404616
 20
49.026696
 30
0.000000
  0
SEQEND
  8
LAYER-1
  0
POLYLINE
  8
LAYER-1
 66
  1
 70
  0
 62
  7
 10
49.404616
 20
49.026696
 30
0.000000
  0
VERTEX
  8
LAYER-1
 10
49.404616
 20
49.026696
 30
0.000000
  0
VERTEX
  8
LAYER-1
 10
49.425885
 20
49.335571
 30
0.000000
  0
SEQEND
  8
LAYER-1
  0
POLYLINE
  8
LAYER-1
 66
  1
 70
  0
 62
  7
 10
49.438035
 20
49.305195
 30
0.000000
  0
VERTEX
  8
LAYER-1
 10
49.438035
 20
49.305195
 30
0.000000
  0
VERTEX
  8
LAYER-1
 10
49.404616
 20
49.026696
 30
0.000000
  0
SEQEND
  8
LAYER-1
  0
POLYLINE
  8
LAYER-1
 66
  1
 70
  0
 62
  7
 10
49.383348
 20
49.026696
 30
0.000000
  0
VERTEX
  8
LAYER-1
 10
49.383348
 20
49.026696
 30
0.000000
  0
VERTEX
  8
LAYER-1
 10
49.370188
 20
49.062134
 30
0.000000
  0
SEQEND
  8
LAYER-1
  0
POLYLINE
  8
LAYER-1
 66
  1
 70
  0
 62
  7
 10
49.370188
 20
49.062134
 30
0.000000
  0
VERTEX
  8
LAYER-1
 10
49.370188
 20
49.062134
 30
0.000000
  0
VERTEX
  8
LAYER-1
 10
49.406644
 20
49.335571
 30
0.000000
  0
SEQEND
  8
LAYER-1
  0
POLYLINE
  8
LAYER-1
 66
  1
 70
  1
 62
  7
  0
VERTEX
  8
LAYER-1
 10
50.145118
 20
49.346628
 30
0.000000
  0
VERTEX
  8
LAYER-1
 10
50.212139
 20
49.346628
 30
0.000000
  0
VERTEX
  8
LAYER-1
 10
50.212139
 20
49.020705
 30
0.000000
  0
VERTEX
  8
LAYER-1
 10
50.145118
 20
49.020705
 30
0.000000
  0
SEQEND
  8
LAYER-1
  0
POLYLINE
  8
LAYER-1
 66
  1
 70
  1
 62
  7
  0
VERTEX
  8
LAYER-1
 10
50.212139
 20
49.355873
 30
0.000000
  0
VERTEX
  8
LAYER-1
 10
50.378578
 20
49.355873
 30
0.000000
  0
VERTEX
  8
LAYER-1
 10
50.378578
 20
49.009146
 30
0.000000
  0
VERTEX
  8
LAYER-1
 10
50.212139
 20
49.009146
 30
0.000000
  0
SEQEND
  8
LAYER-1
  0
POLYLINE
  8
LAYER-1
 66
  1
 70
  0
 62
  7
 10
50.438688
 20
49.536170
 30
0.000000
  0
VERTEX
  8
LAYER-1
 10
50.438688
 20
49.536170
 30
0.000000
  0
VERTEX
  8
LAYER-1
 10
50.378578
 20
49.515371
 30
0.000000
  0
SEQEND
  8
LAYER-1
  0
POLYLINE
  8
LAYER-1
 66
  1
 70
  0
 62
  7
 10
50.378578
 20
48.851962
 30
0.000000
  0
VERTEX
  8
LAYER-1
 10
50.378578
 20
48.851962
 30
0.000000
  0
VERTEX
  8
LAYER-1
 10
50.378578
 20
49.515371
 30
0.000000
  0
SEQEND
  8
LAYER-1
  0
POLYLINE
  8
LAYER-1
 66
  1
 70
  0
 62
  7
 10
50.438688
 20
48.831158
 30
0.000000
  0
VERTEX
  8
LAYER-1
 10
50.438688
 20
48.831158
 30
0.000000
  0
VERTEX
  8
LAYER-1
 10
50.378578
 20
48.851962
 30
0.000000
  0
SEQEND
  8
LAYER-1
  0
POLYLINE
  8
LAYER-1
 66
  1
 70
  0
 62
  7
 10
50.438688
 20
48.831158
 30
0.000000
  0
VERTEX
  8
LAYER-1
 10
50.438688
 20
48.831158
 30
0.000000
  0
VERTEX
  8
LAYER-1
 10
50.438688
 20
49.536170
 30
0.000000
  0
SEQEND
  8
LAYER-1
  0
POLYLINE
  8
LAYER-1
 66
  1
 70
  0
 62
  7
 10
50.545011
 20
49.076181
 30
0.000000
  0
VERTEX
  8
LAYER-1
 10
50.545011
 20
49.076181
 30
0.000000
  0
VERTEX
  8
LAYER-1
 10
50.545011
 20
49.288842
 30
0.000000
  0
SEQEND
  8
LAYER-1
  0
POLYLINE
  8
LAYER-1
 66
  1
 70
  0
 62
  7
 10
50.545002
 20
49.288842
 30
0.000000
  0
VERTEX
  8
LAYER-1
 10
50.545002
 20
49.288842
 30
0.000000
  0
VERTEX
  8
LAYER-1
 10
50.488525
 20
49.462778
 30
0.000000
  0
VERTEX
  8
LAYER-1
 10
50.438674
 20
49.536180
 30
0.000000
  0
SEQEND
  8
LAYER-1
  0
POLYLINE
  8
LAYER-1
 66
  1
 70
  0
 62
  7
 10
50.438688
 20
48.831158
 30
0.000000
  0
VERTEX
  8
LAYER-1
 10
50.438688
 20
48.831158
 30
0.000000
  0
VERTEX
  8
LAYER-1
 10
50.541509
 20
49.071031
 30
0.000000
  0
VERTEX
  8
LAYER-1
 10
50.545016
 20
49.076181
 30
0.000000
  0
SEQEND
  8
LAYER-1
  0
POLYLINE
  8
LAYER-1
 66
  1
 70
  0
 62
  7
 10
50.231347
 20
50.538377
 30
0.000000
  0
VERTEX
  8
LAYER-1
 10
50.231347
 20
50.538377
 30
0.000000
  0
VERTEX
  8
LAYER-1
 10
50.231347
 20
47.788386
 30
0.000000
  0
SEQEND
  8
LAYER-1
  0
POLYLINE
  8
LAYER-1
 66
  1
 70
  0
 62
  7
 10
50.300124
 20
50.538377
 30
0.000000
  0
VERTEX
  8
LAYER-1
 10
50.300124
 20
50.538377
 30
0.000000
  0
VERTEX
  8
LAYER-1
 10
50.300124
 20
47.788386
 30
0.000000
  0
SEQEND
  8
LAYER-1
  0
POLYLINE
  8
LAYER-1
 66
  1
 70
  0
 62
  7
 10
49.995235
 20
48.135568
 30
0.000000
  0
VERTEX
  8
LAYER-1
 10
49.995235
 20
48.135568
 30
0.000000
  0
VERTEX
  8
LAYER-1
 10
49.995235
 20
50.191125
 30
0.000000
  0
SEQEND
  8
LAYER-1
  0
POLYLINE
  8
LAYER-1
 66
  1
 70
  0
 62
  7
 10
50.231347
 20
50.288349
 30
0.000000
  0
VERTEX
  8
LAYER-1
 10
50.231347
 20
50.288349
 30
0.000000
  0
VERTEX
  8
LAYER-1
 10
49.995235
 20
50.191125
 30
0.000000
  0
SEQEND
  8
LAYER-1
  0
POLYLINE
  8
LAYER-1
 66
  1
 70
  0
 62
  7
 10
50.231347
 20
48.038349
 30
0.000000
  0
VERTEX
  8
LAYER-1
 10
50.231347
 20
48.038349
 30
0.000000
  0
VERTEX
  8
LAYER-1
 10
49.995235
 20
48.135568
 30
0.000000
  0
SEQEND
  8
LAYER-1
  0
POLYLINE
  8
LAYER-1
 66
  1
 70
  0
 62
  7
 10
50.300753
 20
49.350886
 30
0.000000
  0
VERTEX
  8
LAYER-1
 10
50.300753
 20
49.350886
 30
0.000000
  0
VERTEX
  8
LAYER-1
 10
50.231309
 20
49.350886
 30
0.000000
  0
SEQEND
  8
LAYER-1
  0
POLYLINE
  8
LAYER-1
 66
  1
 70
  0
 62
  7
 10
50.300753
 20
48.975886
 30
0.000000
  0
VERTEX
  8
LAYER-1
 10
50.300753
 20
48.975886
 30
0.000000
  0
VERTEX
  8
LAYER-1
 10
50.231309
 20
48.975886
 30
0.000000
  0
SEQEND
  8
LAYER-1
  0
POLYLINE
  8
LAYER-1
 66
  1
 70
  0
 62
  7
 10
50.300124
 20
50.538377
 30
0.000000
  0
VERTEX
  8
LAYER-1
 10
50.300124
 20
50.538377
 30
0.000000
  0
VERTEX
  8
LAYER-1
 10
50.231347
 20
50.538377
 30
0.000000
  0
SEQEND
  8
LAYER-1
  0
POLYLINE
  8
LAYER-1
 66
  1
 70
  0
 62
  7
 10
50.300124
 20
47.788386
 30
0.000000
  0
VERTEX
  8
LAYER-1
 10
50.300124
 20
47.788386
 30
0.000000
  0
VERTEX
  8
LAYER-1
 10
50.231347
 20
47.788386
 30
0.000000
  0
SEQEND
  8
LAYER-1
  0
POLYLINE
  8
LAYER-1
 66
  1
 70
  0
 62
  7
 10
50.371230
 20
47.788386
 30
0.000000
  0
VERTEX
  8
LAYER-1
 10
50.371230
 20
47.788386
 30
0.000000
  0
VERTEX
  8
LAYER-1
 10
50.371230
 20
50.538386
 30
0.000000
  0
SEQEND
  8
LAYER-1
  0
POLYLINE
  8
LAYER-1
 66
  1
 70
  0
 62
  7
 10
50.302453
 20
47.788386
 30
0.000000
  0
VERTEX
  8
LAYER-1
 10
50.302453
 20
47.788386
 30
0.000000
  0
VERTEX
  8
LAYER-1
 10
50.302453
 20
50.538386
 30
0.000000
  0
SEQEND
  8
LAYER-1
  0
POLYLINE
  8
LAYER-1
 66
  1
 70
  0
 62
  7
 10
50.607342
 20
50.191200
 30
0.000000
  0
VERTEX
  8
LAYER-1
 10
50.607342
 20
50.191200
 30
0.000000
  0
VERTEX
  8
LAYER-1
 10
50.607342
 20
48.135639
 30
0.000000
  0
SEQEND
  8
LAYER-1
  0
POLYLINE
  8
LAYER-1
 66
  1
 70
  0
 62
  7
 10
50.371230
 20
48.038415
 30
0.000000
  0
VERTEX
  8
LAYER-1
 10
50.371230
 20
48.038415
 30
0.000000
  0
VERTEX
  8
LAYER-1
 10
50.607342
 20
48.135639
 30
0.000000
  0
SEQEND
  8
LAYER-1
  0
POLYLINE
  8
LAYER-1
 66
  1
 70
  0
 62
  7
 10
50.371230
 20
50.288419
 30
0.000000
  0
VERTEX
  8
LAYER-1
 10
50.371230
 20
50.288419
 30
0.000000
  0
VERTEX
  8
LAYER-1
 10
50.607342
 20
50.191200
 30
0.000000
  0
SEQEND
  8
LAYER-1
  0
POLYLINE
  8
LAYER-1
 66
  1
 70
  0
 62
  7
 10
50.301824
 20
48.975886
 30
0.000000
  0
VERTEX
  8
LAYER-1
 10
50.301824
 20
48.975886
 30
0.000000
  0
VERTEX
  8
LAYER-1
 10
50.371267
 20
48.975886
 30
0.000000
  0
SEQEND
  8
LAYER-1
  0
POLYLINE
  8
LAYER-1
 66
  1
 70
  0
 62
  7
 10
50.301824
 20
49.350886
 30
0.000000
  0
VERTEX
  8
LAYER-1
 10
50.301824
 20
49.350886
 30
0.000000
  0
VERTEX
  8
LAYER-1
 10
50.371267
 20
49.350886
 30
0.000000
  0
SEQEND
  8
LAYER-1
  0
POLYLINE
  8
LAYER-1
 66
  1
 70
  0
 62
  7
 10
50.302453
 20
47.788386
 30
0.000000
  0
VERTEX
  8
LAYER-1
 10
50.302453
 20
47.788386
 30
0.000000
  0
VERTEX
  8
LAYER-1
 10
50.371230
 20
47.788386
 30
0.000000
  0
SEQEND
  8
LAYER-1
  0
POLYLINE
  8
LAYER-1
 66
  1
 70
  0
 62
  7
 10
50.302453
 20
50.538386
 30
0.000000
  0
VERTEX
  8
LAYER-1
 10
50.302453
 20
50.538386
 30
0.000000
  0
VERTEX
  8
LAYER-1
 10
50.371230
 20
50.538386
 30
0.000000
  0
SEQEND
  8
LAYER-1
  0
POLYLINE
  8
LAYER-1
 66
  1
 70
  1
 62
  7
  0
VERTEX
  8
LAYER-1
 10
49.945355
 20
49.461726
 30
0.000000
  0
VERTEX
  8
LAYER-1
 10
50.036696
 20
49.461726
 30
0.000000
  0
VERTEX
  8
LAYER-1
 10
50.036696
 20
48.884803
 30
0.000000
  0
VERTEX
  8
LAYER-1
 10
49.945355
 20
48.884803
 30
0.000000
  0
SEQEND
  8
LAYER-1
  0
POLYLINE
  8
LAYER-1
 66
  1
 70
  1
 62
255
  0
VERTEX
  8
LAYER-1
 10
49.679481
 20
49.429547
 30
0.000000
  0
VERTEX
  8
LAYER-1
 10
49.943378
 20
49.429547
 30
0.000000
  0
VERTEX
  8
LAYER-1
 10
49.943378
 20
48.920866
 30
0.000000
  0
VERTEX
  8
LAYER-1
 10
49.679481
 20
48.920866
 30
0.000000
  0
SEQEND
  8
LAYER-1
  0
POLYLINE
  8
LAYER-1
 66
  1
 70
  0
 62
  7
 10
49.710679
 20
49.460740
 30
0.000000
  0
VERTEX
  8
LAYER-1
 10
49.710679
 20
49.460740
 30
0.000000
  0
VERTEX
  8
LAYER-1
 10
49.912175
 20
49.460740
 30
0.000000
  0
SEQEND
  8
LAYER-1
  0
POLYLINE
  8
LAYER-1
 66
  1
 70
  0
 62
  7
 10
49.943378
 20
49.429547
 30
0.000000
  0
VERTEX
  8
LAYER-1
 10
49.943378
 20
49.429547
 30
0.000000
  0
VERTEX
  8
LAYER-1
 10
49.943378
 20
48.920866
 30
0.000000
  0
SEQEND
  8
LAYER-1
  0
POLYLINE
  8
LAYER-1
 66
  1
 70
  0
 62
  7
 10
49.709003
 20
48.891348
 30
0.000000
  0
VERTEX
  8
LAYER-1
 10
49.709003
 20
48.891348
 30
0.000000
  0
VERTEX
  8
LAYER-1
 10
49.913856
 20
48.891348
 30
0.000000
  0
SEQEND
  8
LAYER-1
  0
POLYLINE
  8
LAYER-1
 66
  1
 70
  0
 62
  7
 10
49.679481
 20
49.429547
 30
0.000000
  0
VERTEX
  8
LAYER-1
 10
49.679481
 20
49.429547
 30
0.000000
  0
VERTEX
  8
LAYER-1
 10
49.679481
 20
48.920866
 30
0.000000
  0
SEQEND
  8
LAYER-1
  0
POLYLINE
  8
LAYER-1
  6
LTYPE01
 66
  1
 70
  0
 62
  7
  6
LTYPE01
 10
49.679481
 20
49.301072
 30
0.000000
  0
VERTEX
  8
LAYER-1
  6
LTYPE01
 10
49.679481
 20
49.301072
 30
0.000000
  0
VERTEX
  8
LAYER-1
  6
LTYPE01
 10
49.943378
 20
49.301072
 30
0.000000
  0
SEQEND
  8
LAYER-1
  0
POLYLINE
  8
LAYER-1
  6
LTYPE01
 66
  1
 70
  0
 62
  7
  6
LTYPE01
 10
49.679481
 20
49.047598
 30
0.000000
  0
VERTEX
  8
LAYER-1
  6
LTYPE01
 10
49.679481
 20
49.047598
 30
0.000000
  0
VERTEX
  8
LAYER-1
  6
LTYPE01
 10
49.943378
 20
49.047598
 30
0.000000
  0
SEQEND
  8
LAYER-1
  0
ARC
  8
LAYER-1
 62
  7
 10
49.992291
 20
49.172823
 30
0.000000
 40
0.309420
 50
151.195801
 51
207.438416
  0
ARC
  8
LAYER-1
 62
  7
 10
49.660936
 20
49.176072
 30
0.000000
 40
0.275577
 50
328.049347
 51
31.950653
  0
ARC
  8
LAYER-1
 62
  7
 10
49.863056
 20
49.438725
 30
0.000000
 40
0.183801
 50
182.863251
 51
219.462448
  0
ARC
  8
LAYER-1
 62
  7
 10
49.776240
 20
49.440232
 30
0.000000
 40
0.167482
 50
315.047913
 51
356.340302
  0
ARC
  8
LAYER-1
 62
  7
 10
49.702454
 20
48.879272
 30
0.000000
 40
0.244491
 50
9.794708
 51
38.132141
  0
POLYLINE
  8
LAYER-1
 66
  1
 70
  0
 62
  7
 10
49.721154
 20
49.321909
 30
0.000000
  0
VERTEX
  8
LAYER-1
 10
49.721154
 20
49.321909
 30
0.000000
  0
VERTEX
  8
LAYER-1
 10
49.894766
 20
49.321909
 30
0.000000
  0
SEQEND
  8
LAYER-1
  0
POLYLINE
  8
LAYER-1
 66
  1
 70
  0
 62
  7
 10
49.717675
 20
49.030241
 30
0.000000
  0
VERTEX
  8
LAYER-1
 10
49.717675
 20
49.030241
 30
0.000000
  0
VERTEX
  8
LAYER-1
 10
49.894766
 20
49.030241
 30
0.000000
  0
SEQEND
  8
LAYER-1
  0
POLYLINE
  8
LAYER-1
 66
  1
 70
  0
 62
  7
 10
49.710679
 20
49.460740
 30
0.000000
  0
VERTEX
  8
LAYER-1
 10
49.710679
 20
49.460740
 30
0.000000
  0
VERTEX
  8
LAYER-1
 10
49.679481
 20
49.429547
 30
0.000000
  0
SEQEND
  8
LAYER-1
  0
POLYLINE
  8
LAYER-1
 66
  1
 70
  0
 62
  7
 10
49.912175
 20
49.460740
 30
0.000000
  0
VERTEX
  8
LAYER-1
 10
49.912175
 20
49.460740
 30
0.000000
  0
VERTEX
  8
LAYER-1
 10
49.943378
 20
49.429547
 30
0.000000
  0
SEQEND
  8
LAYER-1
  0
POLYLINE
  8
LAYER-1
 66
  1
 70
  0
 62
  7
 10
49.709003
 20
48.891348
 30
0.000000
  0
VERTEX
  8
LAYER-1
 10
49.709003
 20
48.891348
 30
0.000000
  0
VERTEX
  8
LAYER-1
 10
49.679481
 20
48.920866
 30
0.000000
  0
SEQEND
  8
LAYER-1
  0
POLYLINE
  8
LAYER-1
 66
  1
 70
  0
 62
  7
 10
49.913856
 20
48.891348
 30
0.000000
  0
VERTEX
  8
LAYER-1
 10
49.913856
 20
48.891348
 30
0.000000
  0
VERTEX
  8
LAYER-1
 10
49.943378
 20
48.920866
 30
0.000000
  0
SEQEND
  8
LAYER-1
  0
ARC
  8
LAYER-1
 62
  7
 10
49.925575
 20
48.896287
 30
0.000000
 40
0.247321
 50
147.205475
 51
174.296326
  0
POLYLINE
  8
LAYER-1
 66
  1
 70
  0
 62
  7
 10
53.106412
 20
44.936354
 30
0.000000
  0
VERTEX
  8
LAYER-1
 10
53.106412
 20
44.936354
 30
0.000000
  0
VERTEX
  8
LAYER-1
 10
48.196660
 20
44.936354
 30
0.000000
  0
SEQEND
  8
LAYER-1
  0
POLYLINE
  8
LAYER-1
 66
  1
 70
  0
 62
  7
 10
53.106412
 20
44.626991
 30
0.000000
  0
VERTEX
  8
LAYER-1
 10
53.106412
 20
44.626991
 30
0.000000
  0
VERTEX
  8
LAYER-1
 10
48.196660
 20
44.626991
 30
0.000000
  0
SEQEND
  8
LAYER-1
  0
POLYLINE
  8
LAYER-1
 66
  1
 70
  0
 62
  7
 10
53.106412
 20
51.280696
 30
0.000000
  0
VERTEX
  8
LAYER-1
 10
53.106412
 20
51.280696
 30
0.000000
  0
VERTEX
  8
LAYER-1
 10
48.196660
 20
51.280696
 30
0.000000
  0
SEQEND
  8
LAYER-1
  0
POLYLINE
  8
LAYER-1
 66
  1
 70
  0
 62
  7
 10
53.106412
 20
50.971332
 30
0.000000
  0
VERTEX
  8
LAYER-1
 10
53.106412
 20
50.971332
 30
0.000000
  0
VERTEX
  8
LAYER-1
 10
48.196660
 20
50.971332
 30
0.000000
  0
SEQEND
  8
LAYER-1
  0
TEXT
  8
LAYER-1
 62
  7
 10
58.798600
 20
54.897893
 30
0.000000
 40
0.980769
  1
140mm
 72
  5
 11
65.260139
 21
54.897893
 31
0.000000
  0
TEXT
  8
LAYER-1
 62
  7
 10
40.952446
 20
4.974816
 30
0.000000
 40
0.980769
  1
Palan ê
 72
  5
 11
47.644754
 21
4.974816
 31
0.000000
  0
TEXT
  8
LAYER-1
 62
  7
 10
40.952446
 20
2.820970
 30
0.000000
 40
0.980769
  1
chaöne
 72
  5
 11
46.875523
 21
2.820970
 31
0.000000
  0
TEXT
  8
LAYER-1
 62
  7
 10
41.106293
 20
-0.025184
 30
0.000000
 40
0.980769
  1
Chaöne
 72
  5
 11
47.413985
 21
-0.025184
 31
0.000000
  0
POLYLINE
  8
LAYER-1
 66
  1
 70
  0
 62
  7
 10
41.029367
 20
8.205580
 30
0.000000
  0
VERTEX
  8
LAYER-1
 10
41.029367
 20
8.205580
 30
0.000000
  0
VERTEX
  8
LAYER-1
 10
43.313016
 20
11.392874
 30
0.000000
  0
SEQEND
  8
LAYER-1
  0
POLYLINE
  8
LAYER-1
 66
  1
 70
  1
 62
  7
  0
VERTEX
  8
LAYER-1
 10
43.324482
 20
11.408879
 30
0.000000
  0
VERTEX
  8
LAYER-1
 10
43.288062
 20
10.961825
 30
0.000000
  0
VERTEX
  8
LAYER-1
 10
43.100473
 20
11.096229
 30
0.000000
  0
VERTEX
  8
LAYER-1
 10
42.912884
 20
11.230633
 30
0.000000
  0
VERTEX
  8
LAYER-1
 10
43.324482
 20
11.408879
 30
0.000000
  0
SEQEND
  8
LAYER-1
  0
ENDSEC
  0
EOF
