  0
SECTION
  2
HEADER
999
MacDraft 5.0\0
  9
$ACADVER
  1
AC1006
  9
$CLAYER
  8
LAYER-1
  9
$EXTMIN
 10
0.000000
 20
0.000000
  9
$EXTMAX
 10
7.682441
 20
9.372624
  9
$FASTZOOM
 70
0
  9
$FILLMODE
 70
1
  0
ENDSEC
  0
SECTION
  2
TABLES
  0
TABLE
  2
LTYPE
 70
16
  0
LTYPE
  2
CONTINUOUS
 70
64
  3
Solid Line
 72
65
 73
0
 40
0.000000
  0
LTYPE
  2
LTYPE01
 70
64
  3
CUSTOM
 72
65
 73
2
 40
0.076923
 49
0.057692
 49
-0.019231
  0
LTYPE
  2
LTYPE02
 70
64
  3
CUSTOM
 72
65
 73
2
 40
0.134615
 49
0.115385
 49
-0.019231
  0
LTYPE
  2
LTYPE03
 70
64
  3
CUSTOM
 72
65
 73
2
 40
0.259615
 49
0.230769
 49
-0.028846
  0
LTYPE
  2
LTYPE04
 70
64
  3
CUSTOM
 72
65
 73
2
 40
0.500000
 49
0.461538
 49
-0.038462
  0
LTYPE
  2
LTYPE05
 70
64
  3
CUSTOM
 72
65
 73
4
 40
0.105769
 49
0.057692
 49
-0.019231
 49
0.009615
 49
-0.019231
  0
LTYPE
  2
LTYPE06
 70
64
  3
CUSTOM
 72
65
 73
4
 40
0.163462
 49
0.115385
 49
-0.019231
 49
0.009615
 49
-0.019231
  0
LTYPE
  2
LTYPE07
 70
64
  3
CUSTOM
 72
65
 73
4
 40
0.307692
 49
0.230769
 49
-0.028846
 49
0.019231
 49
-0.028846
  0
LTYPE
  2
LTYPE08
 70
64
  3
CUSTOM
 72
65
 73
4
 40
0.557692
 49
0.461538
 49
-0.038462
 49
0.019231
 49
-0.038462
  0
LTYPE
  2
LTYPE09
 70
64
  3
CUSTOM
 72
65
 73
6
 40
0.134615
 49
0.057692
 49
-0.019231
 49
0.009615
 49
-0.019231
 49
0.009615
 49
-0.019231
  0
LTYPE
  2
LTYPE10
 70
64
  3
CUSTOM
 72
65
 73
6
 40
0.192308
 49
0.115385
 49
-0.019231
 49
0.009615
 49
-0.019231
 49
0.009615
 49
-0.019231
  0
LTYPE
  2
LTYPE11
 70
64
  3
CUSTOM
 72
65
 73
6
 40
0.346154
 49
0.230769
 49
-0.028846
 49
0.019231
 49
-0.019231
 49
0.019231
 49
-0.028846
  0
LTYPE
  2
LTYPE12
 70
64
  3
CUSTOM
 72
65
 73
6
 40
0.596154
 49
0.461538
 49
-0.038462
 49
0.019231
 49
-0.019231
 49
0.019231
 49
-0.038462
  0
LTYPE
  2
LTYPE13
 70
64
  3
CUSTOM
 72
65
 73
8
 40
0.221154
 49
0.115385
 49
-0.019231
 49
0.009615
 49
-0.019231
 49
0.009615
 49
-0.019231
 49
0.009615
 49
-0.019231
  0
LTYPE
  2
LTYPE14
 70
64
  3
CUSTOM
 72
65
 73
8
 40
0.384615
 49
0.230769
 49
-0.028846
 49
0.019231
 49
-0.019231
 49
0.019231
 49
-0.019231
 49
0.019231
 49
-0.028846
  0
LTYPE
  2
LTYPE15
 70
64
  3
CUSTOM
 72
65
 73
8
 40
0.653846
 49
0.461538
 49
-0.038462
 49
0.019231
 49
-0.028846
 49
0.019231
 49
-0.028846
 49
0.019231
 49
-0.038462
  0
ENDTAB
  0
TABLE
  2
LAYER
 70
1
  0
LAYER
  2
LAYER-1
 70
0
 62
7
  6
CONTINUOUS
  0
ENDTAB
  0
ENDSEC
  0
SECTION
  2
BLOCKS
  0
ENDSEC
  0
SECTION
  2
ENTITIES
  0
ARC
  8
LAYER-1
 62
  7
 10
5.241142
 20
8.315471
 30
0.000000
 40
0.254425
 50
270.000000
 51
90.000000
  0
POLYLINE
  8
LAYER-1
 66
  1
 70
  0
 62
  7
 10
5.241142
 20
8.569896
 30
0.000000
  0
VERTEX
  8
LAYER-1
 10
5.241142
 20
8.569896
 30
0.000000
  0
VERTEX
  8
LAYER-1
 10
1.576220
 20
8.569896
 30
0.000000
  0
SEQEND
  8
LAYER-1
  0
POLYLINE
  8
LAYER-1
 66
  1
 70
  0
 62
  7
 10
1.576220
 20
8.569896
 30
0.000000
  0
VERTEX
  8
LAYER-1
 10
1.576220
 20
8.569896
 30
0.000000
  0
VERTEX
  8
LAYER-1
 10
1.576220
 20
8.061047
 30
0.000000
  0
SEQEND
  8
LAYER-1
  0
POLYLINE
  8
LAYER-1
 66
  1
 70
  0
 62
  7
 10
5.241142
 20
8.061047
 30
0.000000
  0
VERTEX
  8
LAYER-1
 10
5.241142
 20
8.061047
 30
0.000000
  0
VERTEX
  8
LAYER-1
 10
1.576220
 20
8.061047
 30
0.000000
  0
SEQEND
  8
LAYER-1
  0
TEXT
  8
LAYER-1
 62
  7
 10
3.375000
 20
8.865385
 30
0.000000
 40
0.331731
  1
MobilFlex
 72
  5
 11
5.519231
 21
8.865385
 31
0.000000
  0
POLYLINE
  8
LAYER-1
 66
  1
 70
  1
 62
  7
  0
VERTEX
  8
LAYER-1
 10
1.577724
 20
9.371470
 30
0.000000
  0
VERTEX
  8
LAYER-1
 10
1.815571
 20
9.371470
 30
0.000000
  0
VERTEX
  8
LAYER-1
 10
1.815571
 20
8.854525
 30
0.000000
  0
VERTEX
  8
LAYER-1
 10
1.577724
 20
8.854525
 30
0.000000
  0
SEQEND
  8
LAYER-1
  0
POLYLINE
  8
LAYER-1
 66
  1
 70
  1
 62
  7
  0
VERTEX
  8
LAYER-1
 10
1.890223
 20
9.371470
 30
0.000000
  0
VERTEX
  8
LAYER-1
 10
2.128071
 20
9.371470
 30
0.000000
  0
VERTEX
  8
LAYER-1
 10
2.128071
 20
8.854525
 30
0.000000
  0
VERTEX
  8
LAYER-1
 10
1.890223
 20
8.854525
 30
0.000000
  0
SEQEND
  8
LAYER-1
  0
POLYLINE
  8
LAYER-1
 66
  1
 70
  1
 62
  7
  0
VERTEX
  8
LAYER-1
 10
2.190571
 20
9.371470
 30
0.000000
  0
VERTEX
  8
LAYER-1
 10
2.428418
 20
9.371470
 30
0.000000
  0
VERTEX
  8
LAYER-1
 10
2.428418
 20
8.854525
 30
0.000000
  0
VERTEX
  8
LAYER-1
 10
2.190571
 20
8.854525
 30
0.000000
  0
SEQEND
  8
LAYER-1
  0
POLYLINE
  8
LAYER-1
 66
  1
 70
  1
 62
  7
  0
VERTEX
  8
LAYER-1
 10
2.494390
 20
9.371470
 30
0.000000
  0
VERTEX
  8
LAYER-1
 10
2.732238
 20
9.371470
 30
0.000000
  0
VERTEX
  8
LAYER-1
 10
2.732238
 20
8.854525
 30
0.000000
  0
VERTEX
  8
LAYER-1
 10
2.494390
 20
8.854525
 30
0.000000
  0
SEQEND
  8
LAYER-1
  0
POLYLINE
  8
LAYER-1
 66
  1
 70
  1
 62
  7
  0
VERTEX
  8
LAYER-1
 10
2.811231
 20
9.367555
 30
0.000000
  0
VERTEX
  8
LAYER-1
 10
3.186665
 20
9.367555
 30
0.000000
  0
VERTEX
  8
LAYER-1
 10
3.186665
 20
9.229534
 30
0.000000
  0
VERTEX
  8
LAYER-1
 10
2.811231
 20
9.229534
 30
0.000000
  0
SEQEND
  8
LAYER-1
  0
POLYLINE
  8
LAYER-1
 66
  1
 70
  1
 62
  7
  0
VERTEX
  8
LAYER-1
 10
2.810797
 20
9.140124
 30
0.000000
  0
VERTEX
  8
LAYER-1
 10
3.118956
 20
9.140124
 30
0.000000
  0
VERTEX
  8
LAYER-1
 10
3.118956
 20
9.006010
 30
0.000000
  0
VERTEX
  8
LAYER-1
 10
2.810797
 20
9.006010
 30
0.000000
  0
SEQEND
  8
LAYER-1
  0
POLYLINE
  8
LAYER-1
 66
  1
 70
  1
 62
  7
  0
VERTEX
  8
LAYER-1
 10
1.577724
 20
8.769899
 30
0.000000
  0
VERTEX
  8
LAYER-1
 10
5.496127
 20
8.769899
 30
0.000000
  0
VERTEX
  8
LAYER-1
 10
5.496127
 20
8.726496
 30
0.000000
  0
VERTEX
  8
LAYER-1
 10
1.577724
 20
8.726496
 30
0.000000
  0
SEQEND
  8
LAYER-1
  0
TEXT
  8
LAYER-1
 62
  7
 10
1.769231
 20
8.201923
 30
0.000000
 40
0.187500
  1
PossibilitÄs de moteur
 72
  5
 11
4.451923
 21
8.201923
 31
0.000000
  0
TEXT
  8
LAYER-1
 62
  7
 10
0.028846
 20
7.298077
 30
0.000000
 40
0.187500
  1
Moteur ê arbre secondaire
 72
  5
 11
3.163462
 21
7.298077
 31
0.000000
  0
TEXT
  8
LAYER-1
 62
  7
 10
0.028846
 20
7.000000
 30
0.000000
 40
0.187500
  1
(DJ) 1/2Hp
 72
  5
 11
1.307692
 21
7.000000
 31
0.000000
  0
TEXT
  8
LAYER-1
 62
  7
 10
0.028846
 20
6.240385
 30
0.000000
 40
0.144231
  1
Porte roulante 
 72
  5
 11
1.346154
 21
6.240385
 31
0.000000
  0
TEXT
  8
LAYER-1
 62
  7
 10
1.346154
 20
6.240385
 30
0.000000
 40
0.144231
  1
au plancher
 72
  5
 11
2.471154
 21
6.240385
 31
0.000000
  0
TEXT
  8
LAYER-1
 62
  7
 10
0.028846
 20
5.576923
 30
0.000000
 40
0.144231
  1
Largeur maximale de 
 72
  5
 11
1.942308
 21
5.576923
 31
0.000000
  0
TEXT
  8
LAYER-1
 62
  7
 10
1.942308
 20
5.576923
 30
0.000000
 40
0.144231
  1
30'
 72
  5
 11
2.250000
 21
5.576923
 31
0.000000
  0
TEXT
  8
LAYER-1
 62
  7
 10
2.250000
 20
5.576923
 30
0.000000
 40
0.144231
  1
 (9,14m)
 72
  5
 11
3.028846
 21
5.576923
 31
0.000000
  0
TEXT
  8
LAYER-1
 62
  7
 10
0.028846
 20
5.134615
 30
0.000000
 40
0.144231
  1
RecommandÄ pour ouvertures de
 72
  5
 11
2.951923
 21
5.134615
 31
0.000000
  0
TEXT
  8
LAYER-1
 62
  7
 10
0.028846
 20
4.913462
 30
0.000000
 40
0.144231
  1
plus de 150pi.ca
 72
  5
 11
1.567308
 21
4.913462
 31
0.000000
  0
TEXT
  8
LAYER-1
 62
  7
 10
1.567308
 20
4.913462
 30
0.000000
 40
0.144231
  1
 (14m
 72
  5
 11
2.115385
 21
4.913462
 31
0.000000
  0
TEXT
  8
LAYER-1
 62
  7
 10
2.115385
 20
4.913462
 30
0.000000
 40
0.122596
  1
2
 72
  5
 11
2.250000
 21
4.913462
 31
0.000000
  0
TEXT
  8
LAYER-1
 62
  7
 10
2.250000
 20
4.913462
 30
0.000000
 40
0.144231
  1
)
 72
  5
 11
2.365385
 21
4.913462
 31
0.000000
  0
TEXT
  8
LAYER-1
 62
  7
 10
0.028846
 20
4.250000
 30
0.000000
 40
0.144231
  1
DÄsembrayage d'urgence
 72
  5
 11
2.394231
 21
4.250000
 31
0.000000
  0
TEXT
  8
LAYER-1
 62
  7
 10
2.394231
 20
4.250000
 30
0.000000
 40
0.144231
  1
 inclus
 72
  5
 11
2.980769
 21
4.250000
 31
0.000000
  0
TEXT
  8
LAYER-1
 62
  7
 10
0.028846
 20
4.028846
 30
0.000000
 40
0.144231
  1
pour fonctionnement manuel
 72
  5
 11
2.519231
 21
4.028846
 31
0.000000
  0
TEXT
  8
LAYER-1
 62
  7
 10
0.028846
 20
3.586538
 30
0.000000
 40
0.144231
  1
Jusqu'ê 
 72
  5
 11
0.788462
 21
3.586538
 31
0.000000
  0
TEXT
  8
LAYER-1
 62
  7
 10
0.788462
 20
3.586538
 30
0.000000
 40
0.144231
  1
2 contrÖles
 72
  5
 11
1.865385
 21
3.586538
 31
0.000000
  0
TEXT
  8
LAYER-1
 62
  7
 10
1.865385
 20
3.586538
 30
0.000000
 40
0.144231
  1
,
 72
  5
 11
1.971154
 21
3.586538
 31
0.000000
  0
TEXT
  8
LAYER-1
 62
  7
 10
0.028846
 20
3.365385
 30
0.000000
 40
0.144231
  1
1 intÄrieur et/ou 1 extÄrieur
 72
  5
 11
2.394231
 21
3.365385
 31
0.000000
  0
TEXT
  8
LAYER-1
 62
  7
 10
0.028846
 20
3.144231
 30
0.000000
 40
0.144231
  1
(bouton poussoir ou
 72
  5
 11
1.778846
 21
3.144231
 31
0.000000
  0
TEXT
  8
LAYER-1
 62
  7
 10
0.028846
 20
2.923077
 30
0.000000
 40
0.144231
  1
 interrupteurs ê clÄ)
 72
  5
 11
1.750000
 21
2.923077
 31
0.000000
  0
TEXT
  8
LAYER-1
 62
  7
 10
0.028846
 20
2.480769
 30
0.000000
 40
0.144231
  1
Capteur intÄgrÄ
 72
  5
 11
1.500000
 21
2.480769
 31
0.000000
  0
TEXT
  8
LAYER-1
 62
  7
 10
1.500000
 20
2.480769
 30
0.000000
 40
0.144231
  1
 pour 
 72
  5
 11
2.048077
 21
2.480769
 31
0.000000
  0
TEXT
  8
LAYER-1
 62
  7
 10
2.048077
 20
2.480769
 30
0.000000
 40
0.144231
  1
arrÉt du moteur
 72
  5
 11
3.528846
 21
2.480769
 31
0.000000
  0
TEXT
  8
LAYER-1
 62
  7
 10
0.028846
 20
2.259615
 30
0.000000
 40
0.144231
  1
si la barre du bas est verrouillÄe
 72
  5
 11
2.807692
 21
2.259615
 31
0.000000
  0
TEXT
  8
LAYER-1
 62
  7
 10
0.028846
 20
1.596154
 30
0.000000
 40
0.144231
  1
Espace supplÄmentaire
 72
  5
 11
2.221154
 21
1.596154
 31
0.000000
  0
TEXT
  8
LAYER-1
 62
  7
 10
2.221154
 20
1.596154
 30
0.000000
 40
0.144231
  1
 requis
 72
  5
 11
2.846154
 21
1.596154
 31
0.000000
  0
TEXT
  8
LAYER-1
 62
  7
 10
0.028846
 20
0.932692
 30
0.000000
 40
0.144231
  1
Pour barils de 
 72
  5
 11
1.317308
 21
0.932692
 31
0.000000
  0
TEXT
  8
LAYER-1
 62
  7
 10
1.317308
 20
0.932692
 30
0.000000
 40
0.144231
  1
4 1/2"
 72
  5
 11
1.884616
 21
0.932692
 31
0.000000
  0
TEXT
  8
LAYER-1
 62
  7
 10
1.884616
 20
0.932692
 30
0.000000
 40
0.144231
  1
, 
 72
  5
 11
2.048077
 21
0.932692
 31
0.000000
  0
TEXT
  8
LAYER-1
 62
  7
 10
2.048077
 20
0.932692
 30
0.000000
 40
0.144231
  1
6 5/8"
 72
  5
 11
2.615385
 21
0.932692
 31
0.000000
  0
TEXT
  8
LAYER-1
 62
  7
 10
2.615385
 20
0.932692
 30
0.000000
 40
0.144231
  1
 et 
 72
  5
 11
2.942308
 21
0.932692
 31
0.000000
  0
TEXT
  8
LAYER-1
 62
  7
 10
2.942308
 20
0.932692
 30
0.000000
 40
0.144231
  1
8 5/8"
 72
  5
 11
3.509616
 21
0.932692
 31
0.000000
  0
TEXT
  8
LAYER-1
 62
  7
 10
0.028846
 20
0.711538
 30
0.000000
 40
0.144231
  1
(114mm, 168mm et 219mm)
 72
  5
 11
2.538462
 21
0.711538
 31
0.000000
  0
TEXT
  8
LAYER-1
 62
  7
 10
0.028846
 20
0.269231
 30
0.000000
 40
0.144231
  1
Capteurs photoÄlectriques
 72
  5
 11
2.317308
 21
0.269231
 31
0.000000
  0
TEXT
  8
LAYER-1
 62
  7
 10
0.028846
 20
0.048077
 30
0.000000
 40
0.144231
  1
(
 72
  5
 11
0.144231
 21
0.048077
 31
0.000000
  0
TEXT
  8
LAYER-1
 62
  7
 10
0.144231
 20
0.048077
 30
0.000000
 40
0.144231
  1
oeil magique
 72
  5
 11
1.375000
 21
0.048077
 31
0.000000
  0
TEXT
  8
LAYER-1
 62
  7
 10
1.375000
 20
0.048077
 30
0.000000
 40
0.144231
  1
)
 72
  5
 11
1.490385
 21
0.048077
 31
0.000000
  0
TEXT
  8
LAYER-1
 62
  7
 10
3.971154
 20
7.298077
 30
0.000000
 40
0.187500
  1
Moteur tubulaire
 72
  5
 11
5.971154
 21
7.298077
 31
0.000000
  0
TEXT
  8
LAYER-1
 62
  7
 10
3.971154
 20
7.000000
 30
0.000000
 40
0.187500
  1
100Nm
 72
  5
 11
4.826923
 21
7.000000
 31
0.000000
  0
TEXT
  8
LAYER-1
 62
  7
 10
3.971154
 20
6.240385
 30
0.000000
 40
0.144231
  1
Porte roulante 
 72
  5
 11
5.288462
 21
6.240385
 31
0.000000
  0
TEXT
  8
LAYER-1
 62
  7
 10
5.288462
 20
6.240385
 30
0.000000
 40
0.144231
  1
sur comptoir
 72
  5
 11
6.519231
 21
6.240385
 31
0.000000
  0
TEXT
  8
LAYER-1
 62
  7
 10
6.519231
 20
6.240385
 30
0.000000
 40
0.144231
  1
 et
 72
  5
 11
6.788462
 21
6.240385
 31
0.000000
  0
TEXT
  8
LAYER-1
 62
  7
 10
3.971154
 20
6.019231
 30
0.000000
 40
0.144231
  1
Protection de 
 72
  5
 11
5.211539
 21
6.019231
 31
0.000000
  0
TEXT
  8
LAYER-1
 62
  7
 10
5.211539
 20
6.019231
 30
0.000000
 40
0.144231
  1
vitrines
 72
  5
 11
5.951923
 21
6.019231
 31
0.000000
  0
TEXT
  8
LAYER-1
 62
  7
 10
3.971154
 20
5.576923
 30
0.000000
 40
0.144231
  1
Largeur maximale de 
 72
  5
 11
5.884616
 21
5.576923
 31
0.000000
  0
TEXT
  8
LAYER-1
 62
  7
 10
5.884616
 20
5.576923
 30
0.000000
 40
0.144231
  1
16'
 72
  5
 11
6.192308
 21
5.576923
 31
0.000000
  0
TEXT
  8
LAYER-1
 62
  7
 10
6.192308
 20
5.576923
 30
0.000000
 40
0.144231
  1
 (4,88m)
 72
  5
 11
6.971154
 21
5.576923
 31
0.000000
  0
TEXT
  8
LAYER-1
 62
  7
 10
3.971154
 20
5.134615
 30
0.000000
 40
0.144231
  1
Jusqu'ê 100pi.ca
 72
  5
 11
5.548077
 21
5.134615
 31
0.000000
  0
TEXT
  8
LAYER-1
 62
  7
 10
5.548077
 20
5.134615
 30
0.000000
 40
0.144231
  1
 (9,3m
 72
  5
 11
6.153846
 21
5.134615
 31
0.000000
  0
TEXT
  8
LAYER-1
 62
  7
 10
6.153846
 20
5.134615
 30
0.000000
 40
0.122596
  1
2
 72
  5
 11
6.288462
 21
5.134615
 31
0.000000
  0
TEXT
  8
LAYER-1
 62
  7
 10
6.288462
 20
5.134615
 30
0.000000
 40
0.144231
  1
) ou
 72
  5
 11
6.673077
 21
5.134615
 31
0.000000
  0
TEXT
  8
LAYER-1
 62
  7
 10
3.971154
 20
4.913462
 30
0.000000
 40
0.144231
  1
Jusqu'ê 150pi.ca
 72
  5
 11
5.548077
 21
4.913462
 31
0.000000
  0
TEXT
  8
LAYER-1
 62
  7
 10
5.548077
 20
4.913462
 30
0.000000
 40
0.144231
  1
 (13m
 72
  5
 11
6.096154
 21
4.913462
 31
0.000000
  0
TEXT
  8
LAYER-1
 62
  7
 10
6.096154
 20
4.913462
 30
0.000000
 40
0.122596
  1
2
 72
  5
 11
6.230769
 21
4.913462
 31
0.000000
  0
TEXT
  8
LAYER-1
 62
  7
 10
6.230769
 20
4.913462
 30
0.000000
 40
0.144231
  1
)
 72
  5
 11
6.346154
 21
4.913462
 31
0.000000
  0
TEXT
  8
LAYER-1
 62
  7
 10
3.971154
 20
4.692308
 30
0.000000
 40
0.144231
  1
selon le modÅle
 72
  5
 11
5.355769
 21
4.692308
 31
0.000000
  0
TEXT
  8
LAYER-1
 62
  7
 10
3.971154
 20
4.250000
 30
0.000000
 40
0.144231
  1
Aucun dÄsembrayage d'urgence
 72
  5
 11
6.961539
 21
4.250000
 31
0.000000
  0
TEXT
  8
LAYER-1
 62
  7
 10
3.971154
 20
4.028846
 30
0.000000
 40
0.144231
  1
Optionnel: Manivelle
 72
  5
 11
5.750000
 21
4.028846
 31
0.000000
  0
TEXT
  8
LAYER-1
 62
  7
 10
3.971154
 20
3.586538
 30
0.000000
 40
0.144231
  1
Seulement 
 72
  5
 11
4.990385
 21
3.586538
 31
0.000000
  0
TEXT
  8
LAYER-1
 62
  7
 10
4.990385
 20
3.586538
 30
0.000000
 40
0.144231
  1
1 contrÖle
 72
  5
 11
5.961539
 21
3.586538
 31
0.000000
  0
TEXT
  8
LAYER-1
 62
  7
 10
5.961539
 20
3.586538
 30
0.000000
 40
0.144231
  1
 par moteur,
 72
  5
 11
7.067308
 21
3.586538
 31
0.000000
  0
TEXT
  8
LAYER-1
 62
  7
 10
3.971154
 20
3.365385
 30
0.000000
 40
0.144231
  1
intÄrieur ou extÄrieur
 72
  5
 11
5.788462
 21
3.365385
 31
0.000000
  0
TEXT
  8
LAYER-1
 62
  7
 10
3.971154
 20
3.144231
 30
0.000000
 40
0.144231
  1
(interrupteur ê bascule ou ê clÄ ou
 72
  5
 11
6.951923
 21
3.144231
 31
0.000000
  0
TEXT
  8
LAYER-1
 62
  7
 10
3.971154
 20
2.923077
 30
0.000000
 40
0.144231
  1
 tÄlÄcommande)
 72
  5
 11
5.403846
 21
2.923077
 31
0.000000
  0
TEXT
  8
LAYER-1
 62
  7
 10
3.971154
 20
2.480769
 30
0.000000
 40
0.144231
  1
Avec serrure dans la barre du bas,
 72
  5
 11
6.990385
 21
2.480769
 31
0.000000
  0
TEXT
  8
LAYER-1
 62
  7
 10
3.971154
 20
2.259615
 30
0.000000
 40
0.144231
  1
boitier de contrÖle
 72
  5
 11
5.711539
 21
2.259615
 31
0.000000
  0
TEXT
  8
LAYER-1
 62
  7
 10
5.711539
 20
2.259615
 30
0.000000
 40
0.144231
  1
 fixÄ au guide pour
 72
  5
 11
7.346154
 21
2.259615
 31
0.000000
  0
TEXT
  8
LAYER-1
 62
  7
 10
3.971154
 20
2.038462
 30
0.000000
 40
0.144231
  1
arrÉt du moteur
 72
  5
 11
5.451923
 21
2.038462
 31
0.000000
  0
TEXT
  8
LAYER-1
 62
  7
 10
5.451923
 20
2.038462
 30
0.000000
 40
0.144231
  1
 si la barre est verrouillÄe
 72
  5
 11
7.653846
 21
2.038462
 31
0.000000
  0
TEXT
  8
LAYER-1
 62
  7
 10
3.971154
 20
1.596154
 30
0.000000
 40
0.144231
  1
Pas d'espace
 72
  5
 11
5.221154
 21
1.596154
 31
0.000000
  0
TEXT
  8
LAYER-1
 62
  7
 10
5.221154
 20
1.596154
 30
0.000000
 40
0.144231
  1
 
 72
  5
 11
5.326923
 21
1.596154
 31
0.000000
  0
TEXT
  8
LAYER-1
 62
  7
 10
5.326923
 20
1.596154
 30
0.000000
 40
0.144231
  1
supplÄmentaire
 72
  5
 11
6.798077
 21
1.596154
 31
0.000000
  0
TEXT
  8
LAYER-1
 62
  7
 10
6.798077
 20
1.596154
 30
0.000000
 40
0.144231
  1
 requis,
 72
  5
 11
7.480769
 21
1.596154
 31
0.000000
  0
TEXT
  8
LAYER-1
 62
  7
 10
3.971154
 20
1.375000
 30
0.000000
 40
0.144231
  1
moteur installÄ ê l'intÄrieur du baril
 72
  5
 11
6.942308
 21
1.375000
 31
0.000000
  0
TEXT
  8
LAYER-1
 62
  7
 10
3.971154
 20
0.932692
 30
0.000000
 40
0.144231
  1
Pour baril de 
 72
  5
 11
5.163462
 21
0.932692
 31
0.000000
  0
TEXT
  8
LAYER-1
 62
  7
 10
5.163462
 20
0.932692
 30
0.000000
 40
0.144231
  1
4"
 72
  5
 11
5.403846
 21
0.932692
 31
0.000000
  0
TEXT
  8
LAYER-1
 62
  7
 10
5.403846
 20
0.932692
 30
0.000000
 40
0.144231
  1
 (102mm) seulement
 72
  5
 11
7.230769
 21
0.932692
 31
0.000000
  0
TEXT
  8
LAYER-1
 62
  7
 10
3.971154
 20
0.269231
 30
0.000000
 40
0.144231
  1
Pas de capteurs 
 72
  5
 11
5.548077
 21
0.269231
 31
0.000000
  0
TEXT
  8
LAYER-1
 62
  7
 10
5.548077
 20
0.269231
 30
0.000000
 40
0.144231
  1
photoÄlectriques
 72
  5
 11
7.000000
 21
0.269231
 31
0.000000
  0
ENDSEC
  0
EOF
