  0
SECTION
  2
HEADER
999
MacDraft 5.0\0
  9
$ACADVER
  1
AC1006
  9
$CLAYER
  8
LAYER-1
  9
$EXTMIN
 10
0.000000
 20
0.000000
  9
$EXTMAX
 10
6.298609
 20
7.399310
  9
$FASTZOOM
 70
0
  9
$FILLMODE
 70
1
  0
ENDSEC
  0
SECTION
  2
TABLES
  0
TABLE
  2
LTYPE
 70
16
  0
LTYPE
  2
CONTINUOUS
 70
64
  3
Solid Line
 72
65
 73
0
 40
0.000000
  0
LTYPE
  2
LTYPE01
 70
64
  3
CUSTOM
 72
65
 73
2
 40
0.111111
 49
0.083333
 49
-0.027778
  0
LTYPE
  2
LTYPE02
 70
64
  3
CUSTOM
 72
65
 73
2
 40
0.194444
 49
0.166667
 49
-0.027778
  0
LTYPE
  2
LTYPE03
 70
64
  3
CUSTOM
 72
65
 73
2
 40
0.375000
 49
0.333333
 49
-0.041667
  0
LTYPE
  2
LTYPE04
 70
64
  3
CUSTOM
 72
65
 73
2
 40
0.722222
 49
0.666667
 49
-0.055556
  0
LTYPE
  2
LTYPE05
 70
64
  3
CUSTOM
 72
65
 73
4
 40
0.152778
 49
0.083333
 49
-0.027778
 49
0.013889
 49
-0.027778
  0
LTYPE
  2
LTYPE06
 70
64
  3
CUSTOM
 72
65
 73
4
 40
0.236111
 49
0.166667
 49
-0.027778
 49
0.013889
 49
-0.027778
  0
LTYPE
  2
LTYPE07
 70
64
  3
CUSTOM
 72
65
 73
4
 40
0.444444
 49
0.333333
 49
-0.041667
 49
0.027778
 49
-0.041667
  0
LTYPE
  2
LTYPE08
 70
64
  3
CUSTOM
 72
65
 73
4
 40
0.805556
 49
0.666667
 49
-0.055556
 49
0.027778
 49
-0.055556
  0
LTYPE
  2
LTYPE09
 70
64
  3
CUSTOM
 72
65
 73
6
 40
0.194444
 49
0.083333
 49
-0.027778
 49
0.013889
 49
-0.027778
 49
0.013889
 49
-0.027778
  0
LTYPE
  2
LTYPE10
 70
64
  3
CUSTOM
 72
65
 73
6
 40
0.277778
 49
0.166667
 49
-0.027778
 49
0.013889
 49
-0.027778
 49
0.013889
 49
-0.027778
  0
LTYPE
  2
LTYPE11
 70
64
  3
CUSTOM
 72
65
 73
6
 40
0.500000
 49
0.333333
 49
-0.041667
 49
0.027778
 49
-0.027778
 49
0.027778
 49
-0.041667
  0
LTYPE
  2
LTYPE12
 70
64
  3
CUSTOM
 72
65
 73
6
 40
0.861111
 49
0.666667
 49
-0.055556
 49
0.027778
 49
-0.027778
 49
0.027778
 49
-0.055556
  0
LTYPE
  2
LTYPE13
 70
64
  3
CUSTOM
 72
65
 73
8
 40
0.319444
 49
0.166667
 49
-0.027778
 49
0.013889
 49
-0.027778
 49
0.013889
 49
-0.027778
 49
0.013889
 49
-0.027778
  0
LTYPE
  2
LTYPE14
 70
64
  3
CUSTOM
 72
65
 73
8
 40
0.555556
 49
0.333333
 49
-0.041667
 49
0.027778
 49
-0.027778
 49
0.027778
 49
-0.027778
 49
0.027778
 49
-0.041667
  0
LTYPE
  2
LTYPE15
 70
64
  3
CUSTOM
 72
65
 73
8
 40
0.944444
 49
0.666667
 49
-0.055556
 49
0.027778
 49
-0.041667
 49
0.027778
 49
-0.041667
 49
0.027778
 49
-0.055556
  0
ENDTAB
  0
TABLE
  2
LAYER
 70
1
  0
LAYER
  2
LAYER-1
 70
0
 62
7
  6
CONTINUOUS
  0
ENDTAB
  0
ENDSEC
  0
SECTION
  2
BLOCKS
  0
ENDSEC
  0
SECTION
  2
ENTITIES
  0
ARC
  8
LAYER-1
 62
  0
 10
4.861331
 20
6.339475
 30
0.000000
 40
0.254425
 50
270.000000
 51
90.000000
  0
POLYLINE
  8
LAYER-1
 66
  1
 70
  0
 62
  0
 10
4.861331
 20
6.593900
 30
0.000000
  0
VERTEX
  8
LAYER-1
 10
4.861331
 20
6.593900
 30
0.000000
  0
VERTEX
  8
LAYER-1
 10
1.196409
 20
6.593900
 30
0.000000
  0
SEQEND
  8
LAYER-1
  0
POLYLINE
  8
LAYER-1
 66
  1
 70
  0
 62
  0
 10
1.196409
 20
6.593900
 30
0.000000
  0
VERTEX
  8
LAYER-1
 10
1.196409
 20
6.593900
 30
0.000000
  0
VERTEX
  8
LAYER-1
 10
1.196409
 20
6.085051
 30
0.000000
  0
SEQEND
  8
LAYER-1
  0
POLYLINE
  8
LAYER-1
 66
  1
 70
  0
 62
  0
 10
4.861331
 20
6.085051
 30
0.000000
  0
VERTEX
  8
LAYER-1
 10
4.861331
 20
6.085051
 30
0.000000
  0
VERTEX
  8
LAYER-1
 10
1.196409
 20
6.085051
 30
0.000000
  0
SEQEND
  8
LAYER-1
  0
TEXT
  8
LAYER-1
 62
  0
 10
3.006941
 20
6.878476
 30
0.000000
 40
0.333333
  1
MobilFlex
 72
  5
 11
5.159719
 21
6.878476
 31
0.000000
  0
POLYLINE
  8
LAYER-1
 66
  1
 70
  1
 62
  0
  0
VERTEX
  8
LAYER-1
 10
1.197913
 20
7.397643
 30
0.000000
  0
VERTEX
  8
LAYER-1
 10
1.435760
 20
7.397643
 30
0.000000
  0
VERTEX
  8
LAYER-1
 10
1.435760
 20
6.880698
 30
0.000000
  0
VERTEX
  8
LAYER-1
 10
1.197913
 20
6.880698
 30
0.000000
  0
SEQEND
  8
LAYER-1
  0
POLYLINE
  8
LAYER-1
 66
  1
 70
  1
 62
  0
  0
VERTEX
  8
LAYER-1
 10
1.510413
 20
7.397643
 30
0.000000
  0
VERTEX
  8
LAYER-1
 10
1.748260
 20
7.397643
 30
0.000000
  0
VERTEX
  8
LAYER-1
 10
1.748260
 20
6.880698
 30
0.000000
  0
VERTEX
  8
LAYER-1
 10
1.510413
 20
6.880698
 30
0.000000
  0
SEQEND
  8
LAYER-1
  0
POLYLINE
  8
LAYER-1
 66
  1
 70
  1
 62
  0
  0
VERTEX
  8
LAYER-1
 10
1.810760
 20
7.397643
 30
0.000000
  0
VERTEX
  8
LAYER-1
 10
2.048607
 20
7.397643
 30
0.000000
  0
VERTEX
  8
LAYER-1
 10
2.048607
 20
6.880698
 30
0.000000
  0
VERTEX
  8
LAYER-1
 10
1.810760
 20
6.880698
 30
0.000000
  0
SEQEND
  8
LAYER-1
  0
POLYLINE
  8
LAYER-1
 66
  1
 70
  1
 62
  0
  0
VERTEX
  8
LAYER-1
 10
2.114580
 20
7.397643
 30
0.000000
  0
VERTEX
  8
LAYER-1
 10
2.352427
 20
7.397643
 30
0.000000
  0
VERTEX
  8
LAYER-1
 10
2.352427
 20
6.880698
 30
0.000000
  0
VERTEX
  8
LAYER-1
 10
2.114580
 20
6.880698
 30
0.000000
  0
SEQEND
  8
LAYER-1
  0
POLYLINE
  8
LAYER-1
 66
  1
 70
  1
 62
  0
  0
VERTEX
  8
LAYER-1
 10
2.431420
 20
7.393728
 30
0.000000
  0
VERTEX
  8
LAYER-1
 10
2.806854
 20
7.393728
 30
0.000000
  0
VERTEX
  8
LAYER-1
 10
2.806854
 20
7.255707
 30
0.000000
  0
VERTEX
  8
LAYER-1
 10
2.431420
 20
7.255707
 30
0.000000
  0
SEQEND
  8
LAYER-1
  0
POLYLINE
  8
LAYER-1
 66
  1
 70
  1
 62
  0
  0
VERTEX
  8
LAYER-1
 10
2.430986
 20
7.166297
 30
0.000000
  0
VERTEX
  8
LAYER-1
 10
2.739146
 20
7.166297
 30
0.000000
  0
VERTEX
  8
LAYER-1
 10
2.739146
 20
7.032182
 30
0.000000
  0
VERTEX
  8
LAYER-1
 10
2.430986
 20
7.032182
 30
0.000000
  0
SEQEND
  8
LAYER-1
  0
POLYLINE
  8
LAYER-1
 66
  1
 70
  1
 62
  0
  0
VERTEX
  8
LAYER-1
 10
1.197913
 20
6.796072
 30
0.000000
  0
VERTEX
  8
LAYER-1
 10
5.116316
 20
6.796072
 30
0.000000
  0
VERTEX
  8
LAYER-1
 10
5.116316
 20
6.752669
 30
0.000000
  0
VERTEX
  8
LAYER-1
 10
1.197913
 20
6.752669
 30
0.000000
  0
SEQEND
  8
LAYER-1
  0
TEXT
  8
LAYER-1
 62
  0
 10
0.048608
 20
1.350699
 30
0.000000
 40
0.125000
  1
Il carico Å maggiore quando la partizione Å in posizione impilata.
 72
  5
 11
4.993052
 21
1.350699
 31
0.000000
  0
TEXT
  8
LAYER-1
 62
  0
 10
0.048608
 20
1.059032
 30
0.000000
 40
0.125000
  1
La struttura di supporto deve essere i grando di sostenere il peso dei
 72
  5
 11
5.368052
 21
1.059032
 31
0.000000
  0
TEXT
  8
LAYER-1
 62
  0
 10
0.048608
 20
0.767365
 30
0.000000
 40
0.125000
  1
partizione completamente impilati.
 72
  5
 11
2.729163
 21
0.767365
 31
0.000000
  0
TEXT
  8
LAYER-1
 62
  0
 10
0.048608
 20
0.184032
 30
0.000000
 40
0.125000
  1
Impilati peso lineare
 72
  5
 11
1.701386
 21
0.184032
 31
0.000000
  0
TEXT
  8
LAYER-1
 62
  0
 10
1.701386
 20
0.184032
 30
0.000000
 40
0.125000
  1
  =  Peso per superficie  x  Altezza  x  8
 72
  5
 11
4.604163
 21
0.184032
 31
0.000000
  0
TEXT
  8
LAYER-1
 62
  7
 10
1.423608
 20
6.211810
 30
0.000000
 40
0.187500
  1
Peso
 72
  5
 11
2.090274
 21
6.211810
 31
0.000000
  0
TEXT
  8
LAYER-1
 62
  7
 10
2.090274
 20
6.211810
 30
0.000000
 40
0.187500
  1
  
 72
  5
 11
2.298608
 21
6.211810
 31
0.000000
  0
TEXT
  8
LAYER-1
 62
  7
 10
2.298608
 20
6.211810
 30
0.000000
 40
0.104167
  1
(PORTE SCORREVOLI)
 72
  5
 11
3.909719
 21
6.211810
 31
0.000000
  0
TEXT
  8
LAYER-1
 62
  0
 10
3.979163
 20
5.184032
 30
0.000000
 40
0.145833
  1
PESO PER SUPERFICIE
 72
  5
 11
6.229163
 21
5.184032
 31
0.000000
  0
TEXT
  8
LAYER-1
 62
  0
 10
0.215274
 20
5.184032
 30
0.000000
 40
0.145833
  1
MODELLO
 72
  5
 11
1.270830
 21
5.184032
 31
0.000000
  0
TEXT
  8
LAYER-1
 62
  0
 10
3.993052
 20
4.781254
 30
0.000000
 40
0.125000
  1
11,7 kg / m     =   2,40 lb / pi
 72
  5
 11
6.104163
 21
4.781254
 31
0.000000
  0
TEXT
  8
LAYER-1
 62
  0
 10
4.006941
 20
4.392365
 30
0.000000
 40
0.125000
  1
8,5 kg / m     =   1,75 lb / pi  
 72
  5
 11
6.104163
 21
4.392365
 31
0.000000
  0
TEXT
  8
LAYER-1
 62
  0
 10
3.993052
 20
4.003476
 30
0.000000
 40
0.125000
  1
10,5 kg / m     =   2,15 lb / pi
 72
  5
 11
6.104163
 21
4.003476
 31
0.000000
  0
TEXT
  8
LAYER-1
 62
  0
 10
3.965274
 20
3.614588
 30
0.000000
 40
0.125000
  1
9,3 kg / m     =   1,90 lb / pi   
 72
  5
 11
6.104163
 21
3.614588
 31
0.000000
  0
TEXT
  8
LAYER-1
 62
  0
 10
3.965274
 20
3.225699
 30
0.000000
 40
0.125000
  1
7,6 kg / m     =   1,55 lb / pi   
 72
  5
 11
6.104163
 21
3.225699
 31
0.000000
  0
TEXT
  8
LAYER-1
 62
  0
 10
4.006941
 20
2.836810
 30
0.000000
 40
0.125000
  1
6,1 kg / m     =   1,25 lb / pi  
 72
  5
 11
6.104163
 21
2.836810
 31
0.000000
  0
TEXT
  8
LAYER-1
 62
  0
 10
4.006941
 20
2.447921
 30
0.000000
 40
0.125000
  1
5,6 kg / m     =   1,15 lb / pi  
 72
  5
 11
6.104163
 21
2.447921
 31
0.000000
  0
POLYLINE
  8
LAYER-1
 66
  1
 70
  0
 62
  0
 40
0.027778
 41
0.027778
 10
6.270831
 20
5.092453
 30
0.000000
  0
VERTEX
  8
LAYER-1
 10
6.270831
 20
5.092453
 30
0.000000
  0
VERTEX
  8
LAYER-1
 10
0.048605
 20
5.092453
 30
0.000000
  0
SEQEND
  8
LAYER-1
  0
POLYLINE
  8
LAYER-1
 66
  1
 70
  0
 62
  0
 40
0.027778
 41
0.027778
 10
6.270831
 20
5.092453
 30
0.000000
  0
VERTEX
  8
LAYER-1
 10
6.270831
 20
5.092453
 30
0.000000
  0
VERTEX
  8
LAYER-1
 10
6.270831
 20
2.352864
 30
0.000000
  0
SEQEND
  8
LAYER-1
  0
POLYLINE
  8
LAYER-1
 66
  1
 70
  0
 62
  0
 40
0.027778
 41
0.027778
 10
6.270831
 20
2.352864
 30
0.000000
  0
VERTEX
  8
LAYER-1
 10
6.270831
 20
2.352864
 30
0.000000
  0
VERTEX
  8
LAYER-1
 10
0.048605
 20
2.352864
 30
0.000000
  0
SEQEND
  8
LAYER-1
  0
POLYLINE
  8
LAYER-1
 66
  1
 70
  0
 62
  0
 40
0.027778
 41
0.027778
 10
0.048605
 20
2.352864
 30
0.000000
  0
VERTEX
  8
LAYER-1
 10
0.048605
 20
2.352864
 30
0.000000
  0
VERTEX
  8
LAYER-1
 10
0.048605
 20
5.092453
 30
0.000000
  0
SEQEND
  8
LAYER-1
  0
TEXT
  8
LAYER-1
 62
  0
 10
0.215274
 20
4.781254
 30
0.000000
 40
0.125000
  1
ROYAL
 72
  5
 11
0.826386
 21
4.781254
 31
0.000000
  0
TEXT
  8
LAYER-1
 62
  0
 10
0.215274
 20
4.392365
 30
0.000000
 40
0.125000
  1
IMPACT
 72
  5
 11
0.881941
 21
4.392365
 31
0.000000
  0
TEXT
  8
LAYER-1
 62
  0
 10
0.215274
 20
4.003476
 30
0.000000
 40
0.125000
  1
GLOBAL
 72
  5
 11
0.937497
 21
4.003476
 31
0.000000
  0
TEXT
  8
LAYER-1
 62
  0
 10
0.215274
 20
3.614588
 30
0.000000
 40
0.125000
  1
AEROFLEX
 72
  5
 11
1.145830
 21
3.614588
 31
0.000000
  0
TEXT
  8
LAYER-1
 62
  0
 10
0.215274
 20
3.225699
 30
0.000000
 40
0.125000
  1
CONCEPT
 72
  5
 11
1.104163
 21
3.225699
 31
0.000000
  0
TEXT
  8
LAYER-1
 62
  0
 10
0.215274
 20
2.836810
 30
0.000000
 40
0.125000
  1
SYSTEM S-12, S-525
 72
  5
 11
1.881941
 21
2.836810
 31
0.000000
  0
TEXT
  8
LAYER-1
 62
  0
 10
0.215274
 20
2.447921
 30
0.000000
 40
0.125000
  1
SYSTEM S-126
 72
  5
 11
1.437497
 21
2.447921
 31
0.000000
  0
POLYLINE
  8
LAYER-1
 66
  1
 70
  0
 62
  0
 10
0.055549
 20
4.693041
 30
0.000000
  0
VERTEX
  8
LAYER-1
 10
0.055549
 20
4.693041
 30
0.000000
  0
VERTEX
  8
LAYER-1
 10
6.270832
 20
4.693041
 30
0.000000
  0
SEQEND
  8
LAYER-1
  0
POLYLINE
  8
LAYER-1
 66
  1
 70
  0
 62
  0
 10
0.055549
 20
4.303042
 30
0.000000
  0
VERTEX
  8
LAYER-1
 10
0.055549
 20
4.303042
 30
0.000000
  0
VERTEX
  8
LAYER-1
 10
6.270832
 20
4.303042
 30
0.000000
  0
SEQEND
  8
LAYER-1
  0
POLYLINE
  8
LAYER-1
 66
  1
 70
  0
 62
  0
 10
0.055549
 20
3.913039
 30
0.000000
  0
VERTEX
  8
LAYER-1
 10
0.055549
 20
3.913039
 30
0.000000
  0
VERTEX
  8
LAYER-1
 10
6.270832
 20
3.913039
 30
0.000000
  0
SEQEND
  8
LAYER-1
  0
POLYLINE
  8
LAYER-1
 66
  1
 70
  0
 62
  0
 10
0.055549
 20
3.523039
 30
0.000000
  0
VERTEX
  8
LAYER-1
 10
0.055549
 20
3.523039
 30
0.000000
  0
VERTEX
  8
LAYER-1
 10
6.270832
 20
3.523039
 30
0.000000
  0
SEQEND
  8
LAYER-1
  0
POLYLINE
  8
LAYER-1
 66
  1
 70
  0
 62
  0
 10
0.055549
 20
3.133038
 30
0.000000
  0
VERTEX
  8
LAYER-1
 10
0.055549
 20
3.133038
 30
0.000000
  0
VERTEX
  8
LAYER-1
 10
6.270832
 20
3.133038
 30
0.000000
  0
SEQEND
  8
LAYER-1
  0
POLYLINE
  8
LAYER-1
 66
  1
 70
  0
 62
  0
 10
0.055549
 20
2.743038
 30
0.000000
  0
VERTEX
  8
LAYER-1
 10
0.055549
 20
2.743038
 30
0.000000
  0
VERTEX
  8
LAYER-1
 10
6.270832
 20
2.743038
 30
0.000000
  0
SEQEND
  8
LAYER-1
  0
TEXT
  8
LAYER-1
 62
  0
 10
6.118052
 20
4.836810
 30
0.000000
 40
0.093750
  1
2
 72
  5
 11
6.256941
 21
4.836810
 31
0.000000
  0
TEXT
  8
LAYER-1
 62
  0
 10
6.118052
 20
4.447921
 30
0.000000
 40
0.093750
  1
2
 72
  5
 11
6.256941
 21
4.447921
 31
0.000000
  0
TEXT
  8
LAYER-1
 62
  0
 10
6.118052
 20
4.059032
 30
0.000000
 40
0.093750
  1
2
 72
  5
 11
6.256941
 21
4.059032
 31
0.000000
  0
TEXT
  8
LAYER-1
 62
  0
 10
6.118052
 20
3.670143
 30
0.000000
 40
0.093750
  1
2
 72
  5
 11
6.256941
 21
3.670143
 31
0.000000
  0
TEXT
  8
LAYER-1
 62
  0
 10
6.118052
 20
3.281254
 30
0.000000
 40
0.093750
  1
2
 72
  5
 11
6.256941
 21
3.281254
 31
0.000000
  0
TEXT
  8
LAYER-1
 62
  0
 10
6.118052
 20
2.892365
 30
0.000000
 40
0.093750
  1
2
 72
  5
 11
6.256941
 21
2.892365
 31
0.000000
  0
TEXT
  8
LAYER-1
 62
  0
 10
6.118052
 20
2.503476
 30
0.000000
 40
0.093750
  1
2
 72
  5
 11
6.256941
 21
2.503476
 31
0.000000
  0
TEXT
  8
LAYER-1
 62
  0
 10
4.881941
 20
4.836810
 30
0.000000
 40
0.093750
  1
2
 72
  5
 11
5.020830
 21
4.836810
 31
0.000000
  0
TEXT
  8
LAYER-1
 62
  0
 10
4.881941
 20
4.447921
 30
0.000000
 40
0.093750
  1
2
 72
  5
 11
5.020830
 21
4.447921
 31
0.000000
  0
TEXT
  8
LAYER-1
 62
  0
 10
4.881941
 20
4.059032
 30
0.000000
 40
0.093750
  1
2
 72
  5
 11
5.020830
 21
4.059032
 31
0.000000
  0
TEXT
  8
LAYER-1
 62
  0
 10
4.881941
 20
3.670143
 30
0.000000
 40
0.093750
  1
2
 72
  5
 11
5.020830
 21
3.670143
 31
0.000000
  0
TEXT
  8
LAYER-1
 62
  0
 10
4.881941
 20
3.281254
 30
0.000000
 40
0.093750
  1
2
 72
  5
 11
5.020830
 21
3.281254
 31
0.000000
  0
TEXT
  8
LAYER-1
 62
  0
 10
4.881941
 20
2.892365
 30
0.000000
 40
0.093750
  1
2
 72
  5
 11
5.020830
 21
2.892365
 31
0.000000
  0
TEXT
  8
LAYER-1
 62
  0
 10
4.881941
 20
2.503476
 30
0.000000
 40
0.093750
  1
2
 72
  5
 11
5.020830
 21
2.503476
 31
0.000000
  0
ENDSEC
  0
EOF
