  0
SECTION
  2
HEADER
999
MacDraft 5.0\0
  9
$ACADVER
  1
AC1006
  9
$CLAYER
  8
LAYER-1
  9
$EXTMIN
 10
0.000000
 20
0.000000
  9
$EXTMAX
 10
8.212446
 20
10.147605
  9
$FASTZOOM
 70
0
  9
$FILLMODE
 70
1
  0
ENDSEC
  0
SECTION
  2
TABLES
  0
TABLE
  2
LTYPE
 70
16
  0
LTYPE
  2
CONTINUOUS
 70
64
  3
Solid Line
 72
65
 73
0
 40
0.000000
  0
LTYPE
  2
LTYPE01
 70
64
  3
CUSTOM
 72
65
 73
2
 40
0.076923
 49
0.057692
 49
-0.019231
  0
LTYPE
  2
LTYPE02
 70
64
  3
CUSTOM
 72
65
 73
2
 40
0.134615
 49
0.115385
 49
-0.019231
  0
LTYPE
  2
LTYPE03
 70
64
  3
CUSTOM
 72
65
 73
2
 40
0.259615
 49
0.230769
 49
-0.028846
  0
LTYPE
  2
LTYPE04
 70
64
  3
CUSTOM
 72
65
 73
2
 40
0.500000
 49
0.461538
 49
-0.038462
  0
LTYPE
  2
LTYPE05
 70
64
  3
CUSTOM
 72
65
 73
4
 40
0.105769
 49
0.057692
 49
-0.019231
 49
0.009615
 49
-0.019231
  0
LTYPE
  2
LTYPE06
 70
64
  3
CUSTOM
 72
65
 73
4
 40
0.163462
 49
0.115385
 49
-0.019231
 49
0.009615
 49
-0.019231
  0
LTYPE
  2
LTYPE07
 70
64
  3
CUSTOM
 72
65
 73
4
 40
0.307692
 49
0.230769
 49
-0.028846
 49
0.019231
 49
-0.028846
  0
LTYPE
  2
LTYPE08
 70
64
  3
CUSTOM
 72
65
 73
4
 40
0.557692
 49
0.461538
 49
-0.038462
 49
0.019231
 49
-0.038462
  0
LTYPE
  2
LTYPE09
 70
64
  3
CUSTOM
 72
65
 73
6
 40
0.134615
 49
0.057692
 49
-0.019231
 49
0.009615
 49
-0.019231
 49
0.009615
 49
-0.019231
  0
LTYPE
  2
LTYPE10
 70
64
  3
CUSTOM
 72
65
 73
6
 40
0.192308
 49
0.115385
 49
-0.019231
 49
0.009615
 49
-0.019231
 49
0.009615
 49
-0.019231
  0
LTYPE
  2
LTYPE11
 70
64
  3
CUSTOM
 72
65
 73
6
 40
0.346154
 49
0.230769
 49
-0.028846
 49
0.019231
 49
-0.019231
 49
0.019231
 49
-0.028846
  0
LTYPE
  2
LTYPE12
 70
64
  3
CUSTOM
 72
65
 73
6
 40
0.596154
 49
0.461538
 49
-0.038462
 49
0.019231
 49
-0.019231
 49
0.019231
 49
-0.038462
  0
LTYPE
  2
LTYPE13
 70
64
  3
CUSTOM
 72
65
 73
8
 40
0.221154
 49
0.115385
 49
-0.019231
 49
0.009615
 49
-0.019231
 49
0.009615
 49
-0.019231
 49
0.009615
 49
-0.019231
  0
LTYPE
  2
LTYPE14
 70
64
  3
CUSTOM
 72
65
 73
8
 40
0.384615
 49
0.230769
 49
-0.028846
 49
0.019231
 49
-0.019231
 49
0.019231
 49
-0.019231
 49
0.019231
 49
-0.028846
  0
LTYPE
  2
LTYPE15
 70
64
  3
CUSTOM
 72
65
 73
8
 40
0.653846
 49
0.461538
 49
-0.038462
 49
0.019231
 49
-0.028846
 49
0.019231
 49
-0.028846
 49
0.019231
 49
-0.038462
  0
ENDTAB
  0
TABLE
  2
LAYER
 70
2
  0
LAYER
  2
LAYER-1
 70
0
 62
7
  6
CONTINUOUS
  0
LAYER
  2
LAYER-2
 70
0
 62
7
  6
CONTINUOUS
  0
ENDTAB
  0
ENDSEC
  0
SECTION
  2
BLOCKS
  0
ENDSEC
  0
SECTION
  2
ENTITIES
  0
ARC
  8
LAYER-1
 62
  7
 10
5.481527
 20
9.090452
 30
0.000000
 40
0.254425
 50
270.000000
 51
90.000000
  0
POLYLINE
  8
LAYER-1
 66
  1
 70
  0
 62
  7
 10
5.481527
 20
9.344877
 30
0.000000
  0
VERTEX
  8
LAYER-1
 10
5.481527
 20
9.344877
 30
0.000000
  0
VERTEX
  8
LAYER-1
 10
1.816605
 20
9.344877
 30
0.000000
  0
SEQEND
  8
LAYER-1
  0
POLYLINE
  8
LAYER-1
 66
  1
 70
  0
 62
  7
 10
1.816605
 20
9.344877
 30
0.000000
  0
VERTEX
  8
LAYER-1
 10
1.816605
 20
9.344877
 30
0.000000
  0
VERTEX
  8
LAYER-1
 10
1.816605
 20
8.836028
 30
0.000000
  0
SEQEND
  8
LAYER-1
  0
POLYLINE
  8
LAYER-1
 66
  1
 70
  0
 62
  7
 10
5.481527
 20
8.836028
 30
0.000000
  0
VERTEX
  8
LAYER-1
 10
5.481527
 20
8.836028
 30
0.000000
  0
VERTEX
  8
LAYER-1
 10
1.816605
 20
8.836028
 30
0.000000
  0
SEQEND
  8
LAYER-1
  0
TEXT
  8
LAYER-1
 62
  7
 10
3.615385
 20
9.640366
 30
0.000000
 40
0.331731
  1
MobilFlex
 72
  5
 11
5.759616
 21
9.640366
 31
0.000000
  0
POLYLINE
  8
LAYER-1
 66
  1
 70
  1
 62
  7
  0
VERTEX
  8
LAYER-1
 10
1.818108
 20
10.146452
 30
0.000000
  0
VERTEX
  8
LAYER-1
 10
2.055955
 20
10.146452
 30
0.000000
  0
VERTEX
  8
LAYER-1
 10
2.055955
 20
9.629506
 30
0.000000
  0
VERTEX
  8
LAYER-1
 10
1.818108
 20
9.629506
 30
0.000000
  0
SEQEND
  8
LAYER-1
  0
POLYLINE
  8
LAYER-1
 66
  1
 70
  1
 62
  7
  0
VERTEX
  8
LAYER-1
 10
2.130608
 20
10.146452
 30
0.000000
  0
VERTEX
  8
LAYER-1
 10
2.368456
 20
10.146452
 30
0.000000
  0
VERTEX
  8
LAYER-1
 10
2.368456
 20
9.629506
 30
0.000000
  0
VERTEX
  8
LAYER-1
 10
2.130608
 20
9.629506
 30
0.000000
  0
SEQEND
  8
LAYER-1
  0
POLYLINE
  8
LAYER-1
 66
  1
 70
  1
 62
  7
  0
VERTEX
  8
LAYER-1
 10
2.430956
 20
10.146452
 30
0.000000
  0
VERTEX
  8
LAYER-1
 10
2.668803
 20
10.146452
 30
0.000000
  0
VERTEX
  8
LAYER-1
 10
2.668803
 20
9.629506
 30
0.000000
  0
VERTEX
  8
LAYER-1
 10
2.430956
 20
9.629506
 30
0.000000
  0
SEQEND
  8
LAYER-1
  0
POLYLINE
  8
LAYER-1
 66
  1
 70
  1
 62
  7
  0
VERTEX
  8
LAYER-1
 10
2.734775
 20
10.146452
 30
0.000000
  0
VERTEX
  8
LAYER-1
 10
2.972622
 20
10.146452
 30
0.000000
  0
VERTEX
  8
LAYER-1
 10
2.972622
 20
9.629506
 30
0.000000
  0
VERTEX
  8
LAYER-1
 10
2.734775
 20
9.629506
 30
0.000000
  0
SEQEND
  8
LAYER-1
  0
POLYLINE
  8
LAYER-1
 66
  1
 70
  1
 62
  7
  0
VERTEX
  8
LAYER-1
 10
3.051615
 20
10.142536
 30
0.000000
  0
VERTEX
  8
LAYER-1
 10
3.427049
 20
10.142536
 30
0.000000
  0
VERTEX
  8
LAYER-1
 10
3.427049
 20
10.004515
 30
0.000000
  0
VERTEX
  8
LAYER-1
 10
3.051615
 20
10.004515
 30
0.000000
  0
SEQEND
  8
LAYER-1
  0
POLYLINE
  8
LAYER-1
 66
  1
 70
  1
 62
  7
  0
VERTEX
  8
LAYER-1
 10
3.051181
 20
9.915105
 30
0.000000
  0
VERTEX
  8
LAYER-1
 10
3.359341
 20
9.915105
 30
0.000000
  0
VERTEX
  8
LAYER-1
 10
3.359341
 20
9.780991
 30
0.000000
  0
VERTEX
  8
LAYER-1
 10
3.051181
 20
9.780991
 30
0.000000
  0
SEQEND
  8
LAYER-1
  0
POLYLINE
  8
LAYER-1
 66
  1
 70
  1
 62
  7
  0
VERTEX
  8
LAYER-1
 10
1.818108
 20
9.544880
 30
0.000000
  0
VERTEX
  8
LAYER-1
 10
5.736512
 20
9.544880
 30
0.000000
  0
VERTEX
  8
LAYER-1
 10
5.736512
 20
9.501477
 30
0.000000
  0
VERTEX
  8
LAYER-1
 10
1.818108
 20
9.501477
 30
0.000000
  0
SEQEND
  8
LAYER-1
  0
TEXT
  8
LAYER-1
 62
  7
 10
1.961539
 20
8.976904
 30
0.000000
 40
0.187500
  1
Tubular motor  
 72
  5
 11
3.836539
 21
8.976904
 31
0.000000
  0
TEXT
  8
LAYER-1
 62
  7
 10
3.836539
 20
8.976904
 30
0.000000
 40
0.122596
  1
(4" - 102mm dia barrel)
 72
  5
 11
5.586539
 21
8.976904
 31
0.000000
  0
POLYLINE
  8
LAYER-2
 66
  1
 70
  0
 62
  7
 10
28.046668
 20
17.093781
 30
0.000000
  0
VERTEX
  8
LAYER-2
 10
28.046668
 20
17.093781
 30
0.000000
  0
VERTEX
  8
LAYER-2
 10
28.011421
 20
17.058533
 30
0.000000
  0
SEQEND
  8
LAYER-2
  0
POLYLINE
  8
LAYER-2
 66
  1
 70
  0
 62
  7
 10
28.217034
 20
17.093781
 30
0.000000
  0
VERTEX
  8
LAYER-2
 10
28.217034
 20
17.093781
 30
0.000000
  0
VERTEX
  8
LAYER-2
 10
28.046668
 20
17.093781
 30
0.000000
  0
SEQEND
  8
LAYER-2
  0
POLYLINE
  8
LAYER-2
 66
  1
 70
  0
 62
  7
 10
28.217034
 20
17.093781
 30
0.000000
  0
VERTEX
  8
LAYER-2
 10
28.217034
 20
17.093781
 30
0.000000
  0
VERTEX
  8
LAYER-2
 10
28.264911
 20
17.116396
 30
0.000000
  0
VERTEX
  8
LAYER-2
 10
28.287530
 20
17.164276
 30
0.000000
  0
SEQEND
  8
LAYER-2
  0
POLYLINE
  8
LAYER-2
 66
  1
 70
  0
 62
  7
 10
28.287530
 20
17.164276
 30
0.000000
  0
VERTEX
  8
LAYER-2
 10
28.287530
 20
17.164276
 30
0.000000
  0
VERTEX
  8
LAYER-2
 10
28.287530
 20
19.261522
 30
0.000000
  0
SEQEND
  8
LAYER-2
  0
POLYLINE
  8
LAYER-2
 66
  1
 70
  0
 62
  7
 10
28.287530
 20
19.261522
 30
0.000000
  0
VERTEX
  8
LAYER-2
 10
28.287530
 20
19.261522
 30
0.000000
  0
VERTEX
  8
LAYER-2
 10
28.264911
 20
19.313336
 30
0.000000
  0
VERTEX
  8
LAYER-2
 10
28.217034
 20
19.332015
 30
0.000000
  0
SEQEND
  8
LAYER-2
  0
POLYLINE
  8
LAYER-2
 66
  1
 70
  0
 62
  7
 10
28.217034
 20
19.332017
 30
0.000000
  0
VERTEX
  8
LAYER-2
 10
28.217034
 20
19.332017
 30
0.000000
  0
VERTEX
  8
LAYER-2
 10
28.046668
 20
19.332017
 30
0.000000
  0
SEQEND
  8
LAYER-2
  0
POLYLINE
  8
LAYER-2
 66
  1
 70
  0
 62
  7
 10
28.011421
 20
19.367265
 30
0.000000
  0
VERTEX
  8
LAYER-2
 10
28.011421
 20
19.367265
 30
0.000000
  0
VERTEX
  8
LAYER-2
 10
28.046668
 20
19.332017
 30
0.000000
  0
SEQEND
  8
LAYER-2
  0
POLYLINE
  8
LAYER-2
 66
  1
 70
  0
 62
  7
 10
28.011421
 20
19.467135
 30
0.000000
  0
VERTEX
  8
LAYER-2
 10
28.011421
 20
19.467135
 30
0.000000
  0
VERTEX
  8
LAYER-2
 10
28.011421
 20
19.367265
 30
0.000000
  0
SEQEND
  8
LAYER-2
  0
POLYLINE
  8
LAYER-2
 66
  1
 70
  0
 62
  7
 10
28.011418
 20
19.467135
 30
0.000000
  0
VERTEX
  8
LAYER-2
 10
28.011418
 20
19.467135
 30
0.000000
  0
VERTEX
  8
LAYER-2
 10
27.976170
 20
19.502383
 30
0.000000
  0
SEQEND
  8
LAYER-2
  0
POLYLINE
  8
LAYER-2
 66
  1
 70
  0
 62
  7
 10
27.976170
 20
19.502380
 30
0.000000
  0
VERTEX
  8
LAYER-2
 10
27.976170
 20
19.502380
 30
0.000000
  0
VERTEX
  8
LAYER-2
 10
26.249019
 20
19.502380
 30
0.000000
  0
SEQEND
  8
LAYER-2
  0
POLYLINE
  8
LAYER-2
 66
  1
 70
  0
 62
  7
 10
26.249019
 20
19.502383
 30
0.000000
  0
VERTEX
  8
LAYER-2
 10
26.249019
 20
19.502383
 30
0.000000
  0
VERTEX
  8
LAYER-2
 10
26.213771
 20
19.467135
 30
0.000000
  0
SEQEND
  8
LAYER-2
  0
POLYLINE
  8
LAYER-2
 66
  1
 70
  0
 62
  7
 10
26.213776
 20
19.467135
 30
0.000000
  0
VERTEX
  8
LAYER-2
 10
26.213776
 20
19.467135
 30
0.000000
  0
VERTEX
  8
LAYER-2
 10
26.213776
 20
19.367265
 30
0.000000
  0
SEQEND
  8
LAYER-2
  0
POLYLINE
  8
LAYER-2
 66
  1
 70
  0
 62
  7
 10
26.178525
 20
19.332017
 30
0.000000
  0
VERTEX
  8
LAYER-2
 10
26.178525
 20
19.332017
 30
0.000000
  0
VERTEX
  8
LAYER-2
 10
26.213776
 20
19.367265
 30
0.000000
  0
SEQEND
  8
LAYER-2
  0
POLYLINE
  8
LAYER-2
 66
  1
 70
  0
 62
  7
 10
26.113906
 20
19.332017
 30
0.000000
  0
VERTEX
  8
LAYER-2
 10
26.113906
 20
19.332017
 30
0.000000
  0
VERTEX
  8
LAYER-2
 10
26.178525
 20
19.332017
 30
0.000000
  0
SEQEND
  8
LAYER-2
  0
POLYLINE
  8
LAYER-2
 66
  1
 70
  0
 62
  7
 10
26.113906
 20
19.332015
 30
0.000000
  0
VERTEX
  8
LAYER-2
 10
26.113906
 20
19.332015
 30
0.000000
  0
VERTEX
  8
LAYER-2
 10
26.062092
 20
19.313336
 30
0.000000
  0
VERTEX
  8
LAYER-2
 10
26.043410
 20
19.261522
 30
0.000000
  0
SEQEND
  8
LAYER-2
  0
POLYLINE
  8
LAYER-2
 66
  1
 70
  0
 62
  7
 10
26.043417
 20
19.091156
 30
0.000000
  0
VERTEX
  8
LAYER-2
 10
26.043417
 20
19.091156
 30
0.000000
  0
VERTEX
  8
LAYER-2
 10
26.043417
 20
19.261522
 30
0.000000
  0
SEQEND
  8
LAYER-2
  0
POLYLINE
  8
LAYER-2
 66
  1
 70
  0
 62
  7
 10
25.972922
 20
19.020660
 30
0.000000
  0
VERTEX
  8
LAYER-2
 10
25.972922
 20
19.020660
 30
0.000000
  0
VERTEX
  8
LAYER-2
 10
26.020799
 20
19.043279
 30
0.000000
  0
VERTEX
  8
LAYER-2
 10
26.043417
 20
19.091156
 30
0.000000
  0
SEQEND
  8
LAYER-2
  0
POLYLINE
  8
LAYER-2
 66
  1
 70
  0
 62
  7
 10
25.972922
 20
19.020660
 30
0.000000
  0
VERTEX
  8
LAYER-2
 10
25.972922
 20
19.020660
 30
0.000000
  0
VERTEX
  8
LAYER-2
 10
25.591076
 20
19.020660
 30
0.000000
  0
SEQEND
  8
LAYER-2
  0
POLYLINE
  8
LAYER-2
 66
  1
 70
  0
 62
  7
 10
25.591076
 20
19.020660
 30
0.000000
  0
VERTEX
  8
LAYER-2
 10
25.591076
 20
19.020660
 30
0.000000
  0
VERTEX
  8
LAYER-2
 10
25.544145
 20
19.013686
 30
0.000000
  0
VERTEX
  8
LAYER-2
 10
25.506028
 20
18.988216
 30
0.000000
  0
VERTEX
  8
LAYER-2
 10
25.480558
 20
18.950099
 30
0.000000
  0
VERTEX
  8
LAYER-2
 10
25.473584
 20
18.903168
 30
0.000000
  0
SEQEND
  8
LAYER-2
  0
POLYLINE
  8
LAYER-2
 66
  1
 70
  0
 62
  7
 10
25.473586
 20
17.522628
 30
0.000000
  0
VERTEX
  8
LAYER-2
 10
25.473586
 20
17.522628
 30
0.000000
  0
VERTEX
  8
LAYER-2
 10
25.473586
 20
18.903168
 30
0.000000
  0
SEQEND
  8
LAYER-2
  0
POLYLINE
  8
LAYER-2
 66
  1
 70
  0
 62
  7
 10
25.473584
 20
17.522628
 30
0.000000
  0
VERTEX
  8
LAYER-2
 10
25.473584
 20
17.522628
 30
0.000000
  0
VERTEX
  8
LAYER-2
 10
25.480558
 20
17.479633
 30
0.000000
  0
VERTEX
  8
LAYER-2
 10
25.506028
 20
17.441517
 30
0.000000
  0
VERTEX
  8
LAYER-2
 10
25.544145
 20
17.416048
 30
0.000000
  0
VERTEX
  8
LAYER-2
 10
25.591076
 20
17.405135
 30
0.000000
  0
SEQEND
  8
LAYER-2
  0
POLYLINE
  8
LAYER-2
 66
  1
 70
  0
 62
  7
 10
25.972922
 20
17.405137
 30
0.000000
  0
VERTEX
  8
LAYER-2
 10
25.972922
 20
17.405137
 30
0.000000
  0
VERTEX
  8
LAYER-2
 10
25.591076
 20
17.405137
 30
0.000000
  0
SEQEND
  8
LAYER-2
  0
POLYLINE
  8
LAYER-2
 66
  1
 70
  0
 62
  7
 10
26.043417
 20
17.334639
 30
0.000000
  0
VERTEX
  8
LAYER-2
 10
26.043417
 20
17.334639
 30
0.000000
  0
VERTEX
  8
LAYER-2
 10
26.020799
 20
17.386456
 30
0.000000
  0
VERTEX
  8
LAYER-2
 10
25.972922
 20
17.405135
 30
0.000000
  0
SEQEND
  8
LAYER-2
  0
POLYLINE
  8
LAYER-2
 66
  1
 70
  0
 62
  7
 10
26.043417
 20
17.334639
 30
0.000000
  0
VERTEX
  8
LAYER-2
 10
26.043417
 20
17.334639
 30
0.000000
  0
VERTEX
  8
LAYER-2
 10
26.043417
 20
17.164276
 30
0.000000
  0
SEQEND
  8
LAYER-2
  0
POLYLINE
  8
LAYER-2
 66
  1
 70
  0
 62
  7
 10
26.043410
 20
17.164276
 30
0.000000
  0
VERTEX
  8
LAYER-2
 10
26.043410
 20
17.164276
 30
0.000000
  0
VERTEX
  8
LAYER-2
 10
26.062092
 20
17.116396
 30
0.000000
  0
VERTEX
  8
LAYER-2
 10
26.113906
 20
17.093781
 30
0.000000
  0
SEQEND
  8
LAYER-2
  0
POLYLINE
  8
LAYER-2
 66
  1
 70
  0
 62
  7
 10
26.113906
 20
17.093781
 30
0.000000
  0
VERTEX
  8
LAYER-2
 10
26.113906
 20
17.093781
 30
0.000000
  0
VERTEX
  8
LAYER-2
 10
26.178525
 20
17.093781
 30
0.000000
  0
SEQEND
  8
LAYER-2
  0
POLYLINE
  8
LAYER-2
 66
  1
 70
  0
 62
  7
 10
26.213776
 20
17.058533
 30
0.000000
  0
VERTEX
  8
LAYER-2
 10
26.213776
 20
17.058533
 30
0.000000
  0
VERTEX
  8
LAYER-2
 10
26.178525
 20
17.093781
 30
0.000000
  0
SEQEND
  8
LAYER-2
  0
POLYLINE
  8
LAYER-2
 66
  1
 70
  0
 62
  7
 10
26.213776
 20
17.058533
 30
0.000000
  0
VERTEX
  8
LAYER-2
 10
26.213776
 20
17.058533
 30
0.000000
  0
VERTEX
  8
LAYER-2
 10
26.213776
 20
16.958663
 30
0.000000
  0
SEQEND
  8
LAYER-2
  0
POLYLINE
  8
LAYER-2
 66
  1
 70
  0
 62
  7
 10
26.213771
 20
16.958663
 30
0.000000
  0
VERTEX
  8
LAYER-2
 10
26.213771
 20
16.958663
 30
0.000000
  0
VERTEX
  8
LAYER-2
 10
26.249019
 20
16.923415
 30
0.000000
  0
SEQEND
  8
LAYER-2
  0
POLYLINE
  8
LAYER-2
 66
  1
 70
  0
 62
  7
 10
27.976170
 20
16.923417
 30
0.000000
  0
VERTEX
  8
LAYER-2
 10
27.976170
 20
16.923417
 30
0.000000
  0
VERTEX
  8
LAYER-2
 10
26.249019
 20
16.923417
 30
0.000000
  0
SEQEND
  8
LAYER-2
  0
POLYLINE
  8
LAYER-2
 66
  1
 70
  0
 62
  7
 10
27.976170
 20
16.923415
 30
0.000000
  0
VERTEX
  8
LAYER-2
 10
27.976170
 20
16.923415
 30
0.000000
  0
VERTEX
  8
LAYER-2
 10
28.011418
 20
16.958663
 30
0.000000
  0
SEQEND
  8
LAYER-2
  0
POLYLINE
  8
LAYER-2
 66
  1
 70
  0
 62
  7
 10
28.011421
 20
17.058533
 30
0.000000
  0
VERTEX
  8
LAYER-2
 10
28.011421
 20
17.058533
 30
0.000000
  0
VERTEX
  8
LAYER-2
 10
28.011421
 20
16.958663
 30
0.000000
  0
SEQEND
  8
LAYER-2
  0
CIRCLE
  8
LAYER-2
 62
  7
 10
27.089752
 20
18.186462
 30
0.000000
 40
0.182767
  0
CIRCLE
  8
LAYER-2
 62
  7
 10
27.089752
 20
18.186462
 30
0.000000
 40
0.300260
  0
CIRCLE
  8
LAYER-2
 62
  7
 10
27.624995
 20
18.186462
 30
0.000000
 40
0.065274
  0
CIRCLE
  8
LAYER-2
 62
  7
 10
26.569160
 20
18.186462
 30
0.000000
 40
0.066881
  0
CIRCLE
  8
LAYER-2
 62
  7
 10
28.024473
 20
19.095072
 30
0.000000
 40
0.096605
  0
CIRCLE
  8
LAYER-2
 62
  7
 10
28.149801
 20
18.826144
 30
0.000000
 40
0.120359
  0
CIRCLE
  8
LAYER-2
 62
  7
 10
28.024473
 20
17.277602
 30
0.000000
 40
0.096605
  0
CIRCLE
  8
LAYER-2
 62
  7
 10
28.149801
 20
17.546528
 30
0.000000
 40
0.120359
  0
CIRCLE
  8
LAYER-2
 62
  7
 10
26.170692
 20
19.095072
 30
0.000000
 40
0.096605
  0
CIRCLE
  8
LAYER-2
 62
  7
 10
25.625014
 20
18.826144
 30
0.000000
 40
0.120359
  0
CIRCLE
  8
LAYER-2
 62
  7
 10
26.170692
 20
17.277602
 30
0.000000
 40
0.096605
  0
CIRCLE
  8
LAYER-2
 62
  7
 10
25.625014
 20
17.546528
 30
0.000000
 40
0.120359
  0
POLYLINE
  8
LAYER-2
 66
  1
 70
  1
 62
  7
 10
26.157053
 20
19.152809
 30
0.000000
  0
VERTEX
  8
LAYER-2
 10
26.157053
 20
19.152809
 30
0.000000
  0
VERTEX
  8
LAYER-2
 10
26.183498
 20
19.152809
 30
0.000000
  0
VERTEX
  8
LAYER-2
 10
26.183498
 20
19.105934
 30
0.000000
  0
VERTEX
  8
LAYER-2
 10
26.230373
 20
19.105934
 30
0.000000
  0
VERTEX
  8
LAYER-2
 10
26.230373
 20
19.079489
 30
0.000000
  0
VERTEX
  8
LAYER-2
 10
26.183498
 20
19.079489
 30
0.000000
  0
VERTEX
  8
LAYER-2
 10
26.183498
 20
19.032616
 30
0.000000
  0
VERTEX
  8
LAYER-2
 10
26.157053
 20
19.032616
 30
0.000000
  0
VERTEX
  8
LAYER-2
 10
26.157053
 20
19.079489
 30
0.000000
  0
VERTEX
  8
LAYER-2
 10
26.110180
 20
19.079489
 30
0.000000
  0
VERTEX
  8
LAYER-2
 10
26.110180
 20
19.105934
 30
0.000000
  0
VERTEX
  8
LAYER-2
 10
26.157053
 20
19.105934
 30
0.000000
  0
SEQEND
  8
LAYER-2
  0
POLYLINE
  8
LAYER-2
 66
  1
 70
  1
 62
  7
 10
28.009395
 20
19.155205
 30
0.000000
  0
VERTEX
  8
LAYER-2
 10
28.009395
 20
19.155205
 30
0.000000
  0
VERTEX
  8
LAYER-2
 10
28.035839
 20
19.155205
 30
0.000000
  0
VERTEX
  8
LAYER-2
 10
28.035839
 20
19.108330
 30
0.000000
  0
VERTEX
  8
LAYER-2
 10
28.082714
 20
19.108330
 30
0.000000
  0
VERTEX
  8
LAYER-2
 10
28.082714
 20
19.081886
 30
0.000000
  0
VERTEX
  8
LAYER-2
 10
28.035839
 20
19.081886
 30
0.000000
  0
VERTEX
  8
LAYER-2
 10
28.035839
 20
19.035013
 30
0.000000
  0
VERTEX
  8
LAYER-2
 10
28.009395
 20
19.035013
 30
0.000000
  0
VERTEX
  8
LAYER-2
 10
28.009395
 20
19.081886
 30
0.000000
  0
VERTEX
  8
LAYER-2
 10
27.962517
 20
19.081886
 30
0.000000
  0
VERTEX
  8
LAYER-2
 10
27.962517
 20
19.108330
 30
0.000000
  0
VERTEX
  8
LAYER-2
 10
28.009395
 20
19.108330
 30
0.000000
  0
SEQEND
  8
LAYER-2
  0
POLYLINE
  8
LAYER-2
 66
  1
 70
  1
 62
  7
 10
28.009399
 20
17.333780
 30
0.000000
  0
VERTEX
  8
LAYER-2
 10
28.009399
 20
17.333780
 30
0.000000
  0
VERTEX
  8
LAYER-2
 10
28.035842
 20
17.333780
 30
0.000000
  0
VERTEX
  8
LAYER-2
 10
28.035842
 20
17.286905
 30
0.000000
  0
VERTEX
  8
LAYER-2
 10
28.082717
 20
17.286905
 30
0.000000
  0
VERTEX
  8
LAYER-2
 10
28.082717
 20
17.260460
 30
0.000000
  0
VERTEX
  8
LAYER-2
 10
28.035842
 20
17.260460
 30
0.000000
  0
VERTEX
  8
LAYER-2
 10
28.035842
 20
17.213588
 30
0.000000
  0
VERTEX
  8
LAYER-2
 10
28.009399
 20
17.213588
 30
0.000000
  0
VERTEX
  8
LAYER-2
 10
28.009399
 20
17.260460
 30
0.000000
  0
VERTEX
  8
LAYER-2
 10
27.962522
 20
17.260460
 30
0.000000
  0
VERTEX
  8
LAYER-2
 10
27.962522
 20
17.286905
 30
0.000000
  0
VERTEX
  8
LAYER-2
 10
28.009399
 20
17.286905
 30
0.000000
  0
SEQEND
  8
LAYER-2
  0
POLYLINE
  8
LAYER-2
 66
  1
 70
  1
 62
  7
 10
26.152837
 20
17.340593
 30
0.000000
  0
VERTEX
  8
LAYER-2
 10
26.152837
 20
17.340593
 30
0.000000
  0
VERTEX
  8
LAYER-2
 10
26.179279
 20
17.340593
 30
0.000000
  0
VERTEX
  8
LAYER-2
 10
26.179279
 20
17.293718
 30
0.000000
  0
VERTEX
  8
LAYER-2
 10
26.226154
 20
17.293718
 30
0.000000
  0
VERTEX
  8
LAYER-2
 10
26.226154
 20
17.267273
 30
0.000000
  0
VERTEX
  8
LAYER-2
 10
26.179279
 20
17.267273
 30
0.000000
  0
VERTEX
  8
LAYER-2
 10
26.179279
 20
17.220400
 30
0.000000
  0
VERTEX
  8
LAYER-2
 10
26.152837
 20
17.220400
 30
0.000000
  0
VERTEX
  8
LAYER-2
 10
26.152837
 20
17.267273
 30
0.000000
  0
VERTEX
  8
LAYER-2
 10
26.105962
 20
17.267273
 30
0.000000
  0
VERTEX
  8
LAYER-2
 10
26.105962
 20
17.293718
 30
0.000000
  0
VERTEX
  8
LAYER-2
 10
26.152837
 20
17.293718
 30
0.000000
  0
SEQEND
  8
LAYER-2
  0
POLYLINE
  8
LAYER-2
 66
  1
 70
  1
 62
  7
 10
24.084339
 20
21.200162
 30
0.000000
  0
VERTEX
  8
LAYER-2
 10
24.084339
 20
21.200162
 30
0.000000
  0
VERTEX
  8
LAYER-2
 10
30.094947
 20
21.200162
 30
0.000000
  0
VERTEX
  8
LAYER-2
 10
30.094947
 20
15.189540
 30
0.000000
  0
VERTEX
  8
LAYER-2
 10
24.084339
 20
15.189540
 30
0.000000
  0
SEQEND
  8
LAYER-2
  0
POLYLINE
  8
LAYER-2
  6
LTYPE01
 66
  1
 70
  0
 62
  7
  6
LTYPE01
 10
29.732328
 20
14.613875
 30
0.000000
  0
VERTEX
  8
LAYER-2
  6
LTYPE01
 10
29.732328
 20
14.613875
 30
0.000000
  0
VERTEX
  8
LAYER-2
  6
LTYPE01
 10
29.730847
 20
8.107530
 30
0.000000
  0
SEQEND
  8
LAYER-2
  0
POLYLINE
  8
LAYER-2
 66
  1
 70
  0
 62
  7
 10
29.730847
 20
8.107530
 30
0.000000
  0
VERTEX
  8
LAYER-2
 10
29.730847
 20
8.107530
 30
0.000000
  0
VERTEX
  8
LAYER-2
 10
30.100499
 20
8.107530
 30
0.000000
  0
SEQEND
  8
LAYER-2
  0
POLYLINE
  8
LAYER-2
 66
  1
 70
  0
 62
  7
 10
30.100499
 20
8.107530
 30
0.000000
  0
VERTEX
  8
LAYER-2
 10
30.100499
 20
8.107530
 30
0.000000
  0
VERTEX
  8
LAYER-2
 10
30.100499
 20
15.189540
 30
0.000000
  0
SEQEND
  8
LAYER-2
  0
POLYLINE
  8
LAYER-2
  6
LTYPE01
 66
  1
 70
  0
 62
  7
  6
LTYPE01
 10
30.100504
 20
15.189540
 30
0.000000
  0
VERTEX
  8
LAYER-2
  6
LTYPE01
 10
30.100504
 20
15.189540
 30
0.000000
  0
VERTEX
  8
LAYER-2
  6
LTYPE01
 10
29.994582
 20
15.134923
 30
0.000000
  0
VERTEX
  8
LAYER-2
  6
LTYPE01
 10
29.903665
 20
15.059143
 30
0.000000
  0
VERTEX
  8
LAYER-2
  6
LTYPE01
 10
29.829278
 20
14.967083
 30
0.000000
  0
VERTEX
  8
LAYER-2
  6
LTYPE01
 10
29.774283
 20
14.862279
 30
0.000000
  0
VERTEX
  8
LAYER-2
  6
LTYPE01
 10
29.740788
 20
14.748761
 30
0.000000
  0
VERTEX
  8
LAYER-2
  6
LTYPE01
 10
29.730084
 20
14.630888
 30
0.000000
  0
VERTEX
  8
LAYER-2
  6
LTYPE01
 10
29.732354
 20
14.613868
 30
0.000000
  0
SEQEND
  8
LAYER-2
  0
POLYLINE
  8
LAYER-2
  6
LTYPE01
 66
  1
 70
  0
 62
  7
  6
LTYPE01
 10
29.168847
 20
14.471121
 30
0.000000
  0
VERTEX
  8
LAYER-2
  6
LTYPE01
 10
29.168847
 20
14.471121
 30
0.000000
  0
VERTEX
  8
LAYER-2
  6
LTYPE01
 10
29.153834
 20
14.590872
 30
0.000000
  0
VERTEX
  8
LAYER-2
  6
LTYPE01
 10
29.118058
 20
14.703848
 30
0.000000
  0
VERTEX
  8
LAYER-2
  6
LTYPE01
 10
29.060932
 20
14.807674
 30
0.000000
  0
VERTEX
  8
LAYER-2
  6
LTYPE01
 10
28.984647
 20
14.898360
 30
0.000000
  0
VERTEX
  8
LAYER-2
  6
LTYPE01
 10
28.892137
 20
14.972421
 30
0.000000
  0
VERTEX
  8
LAYER-2
  6
LTYPE01
 10
28.789678
 20
15.024738
 30
0.000000
  0
SEQEND
  8
LAYER-2
  0
POLYLINE
  8
LAYER-2
  6
LTYPE01
 66
  1
 70
  0
 62
  7
  6
LTYPE01
 10
29.165861
 20
8.107530
 30
0.000000
  0
VERTEX
  8
LAYER-2
  6
LTYPE01
 10
29.165861
 20
8.107530
 30
0.000000
  0
VERTEX
  8
LAYER-2
  6
LTYPE01
 10
29.168816
 20
14.471121
 30
0.000000
  0
SEQEND
  8
LAYER-2
  0
POLYLINE
  8
LAYER-2
 66
  1
 70
  0
 62
  7
 10
28.790203
 20
8.107530
 30
0.000000
  0
VERTEX
  8
LAYER-2
 10
28.790203
 20
8.107530
 30
0.000000
  0
VERTEX
  8
LAYER-2
 10
29.165861
 20
8.107530
 30
0.000000
  0
SEQEND
  8
LAYER-2
  0
POLYLINE
  8
LAYER-2
 66
  1
 70
  0
 62
  7
 10
28.790203
 20
8.107530
 30
0.000000
  0
VERTEX
  8
LAYER-2
 10
28.790203
 20
8.107530
 30
0.000000
  0
VERTEX
  8
LAYER-2
 10
28.790203
 20
14.576313
 30
0.000000
  0
SEQEND
  8
LAYER-2
  0
POLYLINE
  8
LAYER-2
 66
  1
 70
  0
 62
  7
 10
28.790203
 20
14.576313
 30
0.000000
  0
VERTEX
  8
LAYER-2
 10
28.790203
 20
14.576313
 30
0.000000
  0
VERTEX
  8
LAYER-2
 10
28.507648
 20
15.065632
 30
0.000000
  0
SEQEND
  8
LAYER-2
  0
POLYLINE
  8
LAYER-2
 66
  1
 70
  0
 62
  7
 10
28.787614
 20
15.185831
 30
0.000000
  0
VERTEX
  8
LAYER-2
 10
28.787614
 20
15.185831
 30
0.000000
  0
VERTEX
  8
LAYER-2
 10
28.787614
 20
15.019609
 30
0.000000
  0
SEQEND
  8
LAYER-2
  0
POLYLINE
  8
LAYER-2
 66
  1
 70
  0
 62
  7
 10
29.165861
 20
8.107530
 30
0.000000
  0
VERTEX
  8
LAYER-2
 10
29.165861
 20
8.107530
 30
0.000000
  0
VERTEX
  8
LAYER-2
 10
29.730847
 20
8.107530
 30
0.000000
  0
SEQEND
  8
LAYER-2
  0
POLYLINE
  8
LAYER-2
 66
  1
 70
  0
 62
  7
 10
28.789678
 20
15.024738
 30
0.000000
  0
VERTEX
  8
LAYER-2
 10
28.789678
 20
15.024738
 30
0.000000
  0
VERTEX
  8
LAYER-2
 10
28.673941
 20
15.059880
 30
0.000000
  0
VERTEX
  8
LAYER-2
 10
28.555889
 20
15.070223
 30
0.000000
  0
VERTEX
  8
LAYER-2
 10
28.507690
 20
15.065627
 30
0.000000
  0
SEQEND
  8
LAYER-2
  0
POLYLINE
  8
LAYER-2
 66
  1
 70
  1
 62
  7
  0
VERTEX
  8
LAYER-2
 10
25.656778
 20
16.284952
 30
0.000000
  0
VERTEX
  8
LAYER-2
 10
25.859028
 20
16.284952
 30
0.000000
  0
VERTEX
  8
LAYER-2
 10
25.859028
 20
13.253960
 30
0.000000
  0
VERTEX
  8
LAYER-2
 10
25.656778
 20
13.253960
 30
0.000000
  0
SEQEND
  8
LAYER-2
  0
POLYLINE
  8
LAYER-2
 66
  1
 70
  0
 62
  7
 10
25.714550
 20
16.283461
 30
0.000000
  0
VERTEX
  8
LAYER-2
 10
25.714550
 20
16.283461
 30
0.000000
  0
VERTEX
  8
LAYER-2
 10
25.714550
 20
13.253960
 30
0.000000
  0
SEQEND
  8
LAYER-2
  0
POLYLINE
  8
LAYER-2
 66
  1
 70
  0
 62
  7
 10
25.808465
 20
16.283461
 30
0.000000
  0
VERTEX
  8
LAYER-2
 10
25.808465
 20
16.283461
 30
0.000000
  0
VERTEX
  8
LAYER-2
 10
25.808465
 20
13.253960
 30
0.000000
  0
SEQEND
  8
LAYER-2
  0
POLYLINE
  8
LAYER-2
 66
  1
 70
  0
 62
  7
 10
25.752758
 20
9.029931
 30
0.000000
  0
VERTEX
  8
LAYER-2
 10
25.752758
 20
9.029931
 30
0.000000
  0
VERTEX
  8
LAYER-2
 10
25.752758
 20
10.633059
 30
0.000000
  0
SEQEND
  8
LAYER-2
  0
POLYLINE
  8
LAYER-2
 66
  1
 70
  1
 62
  7
  0
VERTEX
  8
LAYER-2
 10
25.752758
 20
10.652743
 30
0.000000
  0
VERTEX
  8
LAYER-2
 10
25.868143
 20
10.460435
 30
0.000000
  0
VERTEX
  8
LAYER-2
 10
25.752758
 20
10.460435
 30
0.000000
  0
VERTEX
  8
LAYER-2
 10
25.637374
 20
10.460435
 30
0.000000
  0
VERTEX
  8
LAYER-2
 10
25.752758
 20
10.652743
 30
0.000000
  0
SEQEND
  8
LAYER-2
  0
POLYLINE
  8
LAYER-2
  6
LTYPE05
 66
  1
 70
  0
 62
  7
  6
LTYPE05
 10
25.755740
 20
21.138050
 30
0.000000
  0
VERTEX
  8
LAYER-2
  6
LTYPE05
 10
25.755740
 20
21.138050
 30
0.000000
  0
VERTEX
  8
LAYER-2
  6
LTYPE05
 10
25.755740
 20
19.820390
 30
0.000000
  0
SEQEND
  8
LAYER-2
  0
POLYLINE
  8
LAYER-2
 66
  1
 70
  1
 62
  7
  0
VERTEX
  8
LAYER-2
 10
25.755740
 20
19.800704
 30
0.000000
  0
VERTEX
  8
LAYER-2
 10
25.640355
 20
19.993011
 30
0.000000
  0
VERTEX
  8
LAYER-2
 10
25.755740
 20
19.993011
 30
0.000000
  0
VERTEX
  8
LAYER-2
 10
25.871124
 20
19.993011
 30
0.000000
  0
VERTEX
  8
LAYER-2
 10
25.755740
 20
19.800704
 30
0.000000
  0
SEQEND
  8
LAYER-2
  0
POLYLINE
  8
LAYER-2
  6
LTYPE05
 66
  1
 70
  0
 62
  7
  6
LTYPE05
 10
25.752735
 20
15.849800
 30
0.000000
  0
VERTEX
  8
LAYER-2
  6
LTYPE05
 10
25.752735
 20
15.849800
 30
0.000000
  0
VERTEX
  8
LAYER-2
  6
LTYPE05
 10
25.752735
 20
20.147337
 30
0.000000
  0
SEQEND
  8
LAYER-2
  0
POLYLINE
  8
LAYER-2
 66
  1
 70
  0
 62
  7
 10
25.481689
 20
12.463161
 30
0.000000
  0
VERTEX
  8
LAYER-2
 10
25.481689
 20
12.463161
 30
0.000000
  0
VERTEX
  8
LAYER-2
 10
25.503411
 20
12.515604
 30
0.000000
  0
SEQEND
  8
LAYER-2
  0
POLYLINE
  8
LAYER-2
 66
  1
 70
  0
 62
  7
 10
25.481706
 20
12.463170
 30
0.000000
  0
VERTEX
  8
LAYER-2
 10
25.481706
 20
12.463170
 30
0.000000
  0
VERTEX
  8
LAYER-2
 10
25.368612
 20
12.350095
 30
0.000000
  0
SEQEND
  8
LAYER-2
  0
POLYLINE
  8
LAYER-2
 66
  1
 70
  0
 62
  7
 10
25.368627
 20
12.350107
 30
0.000000
  0
VERTEX
  8
LAYER-2
 10
25.368627
 20
12.350107
 30
0.000000
  0
VERTEX
  8
LAYER-2
 10
25.302352
 20
12.255834
 30
0.000000
  0
VERTEX
  8
LAYER-2
 10
25.281738
 20
12.140341
 30
0.000000
  0
SEQEND
  8
LAYER-2
  0
POLYLINE
  8
LAYER-2
 66
  1
 70
  0
 62
  7
 10
25.281722
 20
12.140341
 30
0.000000
  0
VERTEX
  8
LAYER-2
 10
25.281722
 20
12.140341
 30
0.000000
  0
VERTEX
  8
LAYER-2
 10
25.281722
 20
11.356142
 30
0.000000
  0
SEQEND
  8
LAYER-2
  0
POLYLINE
  8
LAYER-2
 66
  1
 70
  0
 62
  7
 10
25.281720
 20
11.356142
 30
0.000000
  0
VERTEX
  8
LAYER-2
 10
25.281720
 20
11.356142
 30
0.000000
  0
VERTEX
  8
LAYER-2
 10
25.295819
 20
11.277334
 30
0.000000
  0
VERTEX
  8
LAYER-2
 10
25.341574
 20
11.208855
 30
0.000000
  0
VERTEX
  8
LAYER-2
 10
25.410053
 20
11.163100
 30
0.000000
  0
VERTEX
  8
LAYER-2
 10
25.492798
 20
11.145064
 30
0.000000
  0
SEQEND
  8
LAYER-2
  0
POLYLINE
  8
LAYER-2
 66
  1
 70
  0
 62
  7
 10
26.029111
 20
11.145059
 30
0.000000
  0
VERTEX
  8
LAYER-2
 10
26.029111
 20
11.145059
 30
0.000000
  0
VERTEX
  8
LAYER-2
 10
25.492798
 20
11.145059
 30
0.000000
  0
SEQEND
  8
LAYER-2
  0
POLYLINE
  8
LAYER-2
 66
  1
 70
  0
 62
  7
 10
26.029111
 20
11.145064
 30
0.000000
  0
VERTEX
  8
LAYER-2
 10
26.029111
 20
11.145064
 30
0.000000
  0
VERTEX
  8
LAYER-2
 10
26.107920
 20
11.163100
 30
0.000000
  0
VERTEX
  8
LAYER-2
 10
26.176399
 20
11.208855
 30
0.000000
  0
VERTEX
  8
LAYER-2
 10
26.222154
 20
11.277334
 30
0.000000
  0
VERTEX
  8
LAYER-2
 10
26.240190
 20
11.356142
 30
0.000000
  0
SEQEND
  8
LAYER-2
  0
POLYLINE
  8
LAYER-2
 66
  1
 70
  0
 62
  7
 10
26.240187
 20
12.140341
 30
0.000000
  0
VERTEX
  8
LAYER-2
 10
26.240187
 20
12.140341
 30
0.000000
  0
VERTEX
  8
LAYER-2
 10
26.240187
 20
11.356142
 30
0.000000
  0
SEQEND
  8
LAYER-2
  0
POLYLINE
  8
LAYER-2
 66
  1
 70
  0
 62
  7
 10
26.240169
 20
12.140341
 30
0.000000
  0
VERTEX
  8
LAYER-2
 10
26.240169
 20
12.140341
 30
0.000000
  0
VERTEX
  8
LAYER-2
 10
26.215618
 20
12.255834
 30
0.000000
  0
VERTEX
  8
LAYER-2
 10
26.153280
 20
12.350107
 30
0.000000
  0
SEQEND
  8
LAYER-2
  0
POLYLINE
  8
LAYER-2
 66
  1
 70
  0
 62
  7
 10
26.040203
 20
12.463170
 30
0.000000
  0
VERTEX
  8
LAYER-2
 10
26.040203
 20
12.463170
 30
0.000000
  0
VERTEX
  8
LAYER-2
 10
26.153294
 20
12.350095
 30
0.000000
  0
SEQEND
  8
LAYER-2
  0
POLYLINE
  8
LAYER-2
 66
  1
 70
  0
 62
  7
 10
26.018494
 20
12.515604
 30
0.000000
  0
VERTEX
  8
LAYER-2
 10
26.018494
 20
12.515604
 30
0.000000
  0
VERTEX
  8
LAYER-2
 10
26.017437
 20
12.505970
 30
0.000000
  0
VERTEX
  8
LAYER-2
 10
26.020153
 20
12.494652
 30
0.000000
  0
VERTEX
  8
LAYER-2
 10
26.024609
 20
12.483903
 30
0.000000
  0
VERTEX
  8
LAYER-2
 10
26.030689
 20
12.473980
 30
0.000000
  0
VERTEX
  8
LAYER-2
 10
26.040215
 20
12.463163
 30
0.000000
  0
SEQEND
  8
LAYER-2
  0
POLYLINE
  8
LAYER-2
 66
  1
 70
  0
 62
  7
 10
26.018480
 20
13.206142
 30
0.000000
  0
VERTEX
  8
LAYER-2
 10
26.018480
 20
13.206142
 30
0.000000
  0
VERTEX
  8
LAYER-2
 10
26.018480
 20
12.515604
 30
0.000000
  0
SEQEND
  8
LAYER-2
  0
POLYLINE
  8
LAYER-2
 66
  1
 70
  0
 62
  7
 10
26.018463
 20
13.206142
 30
0.000000
  0
VERTEX
  8
LAYER-2
 10
26.018463
 20
13.206142
 30
0.000000
  0
VERTEX
  8
LAYER-2
 10
25.994772
 20
13.260554
 30
0.000000
  0
VERTEX
  8
LAYER-2
 10
25.944298
 20
13.280306
 30
0.000000
  0
SEQEND
  8
LAYER-2
  0
POLYLINE
  8
LAYER-2
 66
  1
 70
  0
 62
  7
 10
25.944298
 20
13.280306
 30
0.000000
  0
VERTEX
  8
LAYER-2
 10
25.944298
 20
13.280306
 30
0.000000
  0
VERTEX
  8
LAYER-2
 10
25.577562
 20
13.280306
 30
0.000000
  0
SEQEND
  8
LAYER-2
  0
POLYLINE
  8
LAYER-2
 66
  1
 70
  0
 62
  7
 10
25.577562
 20
13.280306
 30
0.000000
  0
VERTEX
  8
LAYER-2
 10
25.577562
 20
13.280306
 30
0.000000
  0
VERTEX
  8
LAYER-2
 10
25.523151
 20
13.260554
 30
0.000000
  0
VERTEX
  8
LAYER-2
 10
25.503399
 20
13.206142
 30
0.000000
  0
SEQEND
  8
LAYER-2
  0
POLYLINE
  8
LAYER-2
 66
  1
 70
  0
 62
  7
 10
25.503399
 20
13.206142
 30
0.000000
  0
VERTEX
  8
LAYER-2
 10
25.503399
 20
13.206142
 30
0.000000
  0
VERTEX
  8
LAYER-2
 10
25.503411
 20
12.515604
 30
0.000000
  0
SEQEND
  8
LAYER-2
  0
POLYLINE
  8
LAYER-2
 66
  1
 70
  0
 62
  7
 10
25.569451
 20
11.881794
 30
0.000000
  0
VERTEX
  8
LAYER-2
 10
25.569451
 20
11.881794
 30
0.000000
  0
VERTEX
  8
LAYER-2
 10
25.945939
 20
11.881794
 30
0.000000
  0
SEQEND
  8
LAYER-2
  0
POLYLINE
  8
LAYER-2
 66
  1
 70
  0
 62
  7
 10
26.171690
 20
11.656043
 30
0.000000
  0
VERTEX
  8
LAYER-2
 10
26.171690
 20
11.656043
 30
0.000000
  0
VERTEX
  8
LAYER-2
 10
26.171690
 20
11.478382
 30
0.000000
  0
SEQEND
  8
LAYER-2
  0
POLYLINE
  8
LAYER-2
 66
  1
 70
  0
 62
  7
 10
25.945939
 20
11.252634
 30
0.000000
  0
VERTEX
  8
LAYER-2
 10
25.945939
 20
11.252634
 30
0.000000
  0
VERTEX
  8
LAYER-2
 10
25.569451
 20
11.252634
 30
0.000000
  0
SEQEND
  8
LAYER-2
  0
POLYLINE
  8
LAYER-2
 66
  1
 70
  0
 62
  7
 10
25.343703
 20
11.478382
 30
0.000000
  0
VERTEX
  8
LAYER-2
 10
25.343703
 20
11.478382
 30
0.000000
  0
VERTEX
  8
LAYER-2
 10
25.343703
 20
11.656043
 30
0.000000
  0
SEQEND
  8
LAYER-2
  0
ARC
  8
LAYER-2
 62
  7
 10
25.569451
 20
11.656043
 30
0.000000
 40
0.225750
 50
90.000000
 51
180.000000
  0
ARC
  8
LAYER-2
 62
  7
 10
25.569451
 20
11.478382
 30
0.000000
 40
0.225750
 50
180.000000
 51
270.000000
  0
ARC
  8
LAYER-2
 62
  7
 10
25.945939
 20
11.478382
 30
0.000000
 40
0.225750
 50
270.000000
 51
0.000000
  0
ARC
  8
LAYER-2
 62
  7
 10
25.945939
 20
11.656043
 30
0.000000
 40
0.225750
 50
0.000000
 51
90.000000
  0
POLYLINE
  8
LAYER-2
 66
  1
 70
  0
 62
  7
 10
25.653360
 20
11.399332
 30
0.000000
  0
VERTEX
  8
LAYER-2
 10
25.653360
 20
11.399332
 30
0.000000
  0
VERTEX
  8
LAYER-2
 10
25.868547
 20
11.399332
 30
0.000000
  0
SEQEND
  8
LAYER-2
  0
POLYLINE
  8
LAYER-2
 66
  1
 70
  0
 62
  7
 10
25.868547
 20
11.399320
 30
0.000000
  0
VERTEX
  8
LAYER-2
 10
25.868547
 20
11.399320
 30
0.000000
  0
VERTEX
  8
LAYER-2
 10
25.942646
 20
11.432800
 30
0.000000
  0
VERTEX
  8
LAYER-2
 10
25.976124
 20
11.506899
 30
0.000000
  0
SEQEND
  8
LAYER-2
  0
POLYLINE
  8
LAYER-2
 66
  1
 70
  0
 62
  7
 10
25.976098
 20
11.506899
 30
0.000000
  0
VERTEX
  8
LAYER-2
 10
25.976098
 20
11.506899
 30
0.000000
  0
VERTEX
  8
LAYER-2
 10
25.976098
 20
12.112429
 30
0.000000
  0
SEQEND
  8
LAYER-2
  0
POLYLINE
  8
LAYER-2
 66
  1
 70
  0
 62
  7
 10
25.976088
 20
12.112429
 30
0.000000
  0
VERTEX
  8
LAYER-2
 10
25.976088
 20
12.112429
 30
0.000000
  0
VERTEX
  8
LAYER-2
 10
25.962395
 20
12.173342
 30
0.000000
  0
VERTEX
  8
LAYER-2
 10
25.929004
 20
12.223316
 30
0.000000
  0
VERTEX
  8
LAYER-2
 10
25.879033
 20
12.256704
 30
0.000000
  0
VERTEX
  8
LAYER-2
 10
25.822057
 20
12.266461
 30
0.000000
  0
SEQEND
  8
LAYER-2
  0
POLYLINE
  8
LAYER-2
 66
  1
 70
  0
 62
  7
 10
25.822057
 20
12.266468
 30
0.000000
  0
VERTEX
  8
LAYER-2
 10
25.822057
 20
12.266468
 30
0.000000
  0
VERTEX
  8
LAYER-2
 10
25.699808
 20
12.266468
 30
0.000000
  0
SEQEND
  8
LAYER-2
  0
POLYLINE
  8
LAYER-2
 66
  1
 70
  0
 62
  7
 10
25.699808
 20
12.266461
 30
0.000000
  0
VERTEX
  8
LAYER-2
 10
25.699808
 20
12.266461
 30
0.000000
  0
VERTEX
  8
LAYER-2
 10
25.638895
 20
12.256704
 30
0.000000
  0
VERTEX
  8
LAYER-2
 10
25.588924
 20
12.223316
 30
0.000000
  0
VERTEX
  8
LAYER-2
 10
25.555533
 20
12.173342
 30
0.000000
  0
VERTEX
  8
LAYER-2
 10
25.545776
 20
12.112429
 30
0.000000
  0
SEQEND
  8
LAYER-2
  0
POLYLINE
  8
LAYER-2
 66
  1
 70
  0
 62
  7
 10
25.545812
 20
11.506899
 30
0.000000
  0
VERTEX
  8
LAYER-2
 10
25.545812
 20
11.506899
 30
0.000000
  0
VERTEX
  8
LAYER-2
 10
25.545812
 20
12.112429
 30
0.000000
  0
SEQEND
  8
LAYER-2
  0
POLYLINE
  8
LAYER-2
 66
  1
 70
  0
 62
  7
 10
25.545783
 20
11.506899
 30
0.000000
  0
VERTEX
  8
LAYER-2
 10
25.545783
 20
11.506899
 30
0.000000
  0
VERTEX
  8
LAYER-2
 10
25.575324
 20
11.432800
 30
0.000000
  0
VERTEX
  8
LAYER-2
 10
25.653360
 20
11.399320
 30
0.000000
  0
SEQEND
  8
LAYER-2
  0
LINE
  8
LAYER-2
 62
  7
 10
26.289429
 20
13.719255
 30
0.000000
 11
25.097121
 21
14.680793
 31
0.000000
  0
LINE
  8
LAYER-2
 62
  7
 10
26.407133
 20
13.865209
 30
0.000000
 11
25.214825
 21
14.826747
 31
0.000000
  0
POLYLINE
  8
LAYER-2
 66
  1
 70
  0
 62
  7
 10
27.903630
 20
20.314237
 30
0.000000
  0
VERTEX
  8
LAYER-2
 10
27.903630
 20
20.314237
 30
0.000000
  0
VERTEX
  8
LAYER-2
 10
27.172645
 20
19.534161
 30
0.000000
  0
SEQEND
  8
LAYER-2
  0
POLYLINE
  8
LAYER-2
 66
  1
 70
  1
 62
  7
  0
VERTEX
  8
LAYER-2
 10
27.159184
 20
19.519797
 30
0.000000
  0
VERTEX
  8
LAYER-2
 10
27.206484
 20
19.739018
 30
0.000000
  0
VERTEX
  8
LAYER-2
 10
27.290680
 20
19.660121
 30
0.000000
  0
VERTEX
  8
LAYER-2
 10
27.374876
 20
19.581224
 30
0.000000
  0
VERTEX
  8
LAYER-2
 10
27.159184
 20
19.519797
 30
0.000000
  0
SEQEND
  8
LAYER-2
  0
POLYLINE
  8
LAYER-2
 66
  1
 70
  0
 62
  7
 10
25.829045
 20
20.882158
 30
0.000000
  0
VERTEX
  8
LAYER-2
 10
25.829045
 20
20.882158
 30
0.000000
  0
VERTEX
  8
LAYER-2
 10
25.807181
 20
20.893951
 30
0.000000
  0
SEQEND
  8
LAYER-2
  0
POLYLINE
  8
LAYER-2
 66
  1
 70
  0
 62
  7
 10
25.829045
 20
20.882158
 30
0.000000
  0
VERTEX
  8
LAYER-2
 10
25.829045
 20
20.882158
 30
0.000000
  0
VERTEX
  8
LAYER-2
 10
25.807181
 20
20.870361
 30
0.000000
  0
SEQEND
  8
LAYER-2
  0
POLYLINE
  8
LAYER-2
 66
  1
 70
  0
 62
  7
 10
25.687291
 20
20.861187
 30
0.000000
  0
VERTEX
  8
LAYER-2
 10
25.687291
 20
20.861187
 30
0.000000
  0
VERTEX
  8
LAYER-2
 10
25.709151
 20
20.872983
 30
0.000000
  0
SEQEND
  8
LAYER-2
  0
POLYLINE
  8
LAYER-2
 66
  1
 70
  0
 62
  7
 10
25.687291
 20
20.861187
 30
0.000000
  0
VERTEX
  8
LAYER-2
 10
25.687291
 20
20.861187
 30
0.000000
  0
VERTEX
  8
LAYER-2
 10
25.709151
 20
20.849391
 30
0.000000
  0
SEQEND
  8
LAYER-2
  0
POLYLINE
  8
LAYER-2
 66
  1
 70
  0
 62
  7
 10
25.807181
 20
20.893951
 30
0.000000
  0
VERTEX
  8
LAYER-2
 10
25.807181
 20
20.893951
 30
0.000000
  0
VERTEX
  8
LAYER-2
 10
25.709151
 20
20.872983
 30
0.000000
  0
SEQEND
  8
LAYER-2
  0
POLYLINE
  8
LAYER-2
 66
  1
 70
  0
 62
  7
 10
25.829045
 20
20.882158
 30
0.000000
  0
VERTEX
  8
LAYER-2
 10
25.829045
 20
20.882158
 30
0.000000
  0
VERTEX
  8
LAYER-2
 10
25.687291
 20
20.861187
 30
0.000000
  0
SEQEND
  8
LAYER-2
  0
POLYLINE
  8
LAYER-2
 66
  1
 70
  0
 62
  7
 10
25.829045
 20
20.858753
 30
0.000000
  0
VERTEX
  8
LAYER-2
 10
25.829045
 20
20.858753
 30
0.000000
  0
VERTEX
  8
LAYER-2
 10
25.807181
 20
20.870549
 30
0.000000
  0
SEQEND
  8
LAYER-2
  0
POLYLINE
  8
LAYER-2
 66
  1
 70
  0
 62
  7
 10
25.829045
 20
20.858753
 30
0.000000
  0
VERTEX
  8
LAYER-2
 10
25.829045
 20
20.858753
 30
0.000000
  0
VERTEX
  8
LAYER-2
 10
25.807181
 20
20.846959
 30
0.000000
  0
SEQEND
  8
LAYER-2
  0
POLYLINE
  8
LAYER-2
 66
  1
 70
  0
 62
  7
 10
25.687291
 20
20.837785
 30
0.000000
  0
VERTEX
  8
LAYER-2
 10
25.687291
 20
20.837785
 30
0.000000
  0
VERTEX
  8
LAYER-2
 10
25.709151
 20
20.849581
 30
0.000000
  0
SEQEND
  8
LAYER-2
  0
POLYLINE
  8
LAYER-2
 66
  1
 70
  0
 62
  7
 10
25.687291
 20
20.837785
 30
0.000000
  0
VERTEX
  8
LAYER-2
 10
25.687291
 20
20.837785
 30
0.000000
  0
VERTEX
  8
LAYER-2
 10
25.709151
 20
20.825986
 30
0.000000
  0
SEQEND
  8
LAYER-2
  0
POLYLINE
  8
LAYER-2
 66
  1
 70
  0
 62
  7
 10
25.807181
 20
20.870549
 30
0.000000
  0
VERTEX
  8
LAYER-2
 10
25.807181
 20
20.870549
 30
0.000000
  0
VERTEX
  8
LAYER-2
 10
25.709151
 20
20.849581
 30
0.000000
  0
SEQEND
  8
LAYER-2
  0
POLYLINE
  8
LAYER-2
 66
  1
 70
  0
 62
  7
 10
25.829045
 20
20.858753
 30
0.000000
  0
VERTEX
  8
LAYER-2
 10
25.829045
 20
20.858753
 30
0.000000
  0
VERTEX
  8
LAYER-2
 10
25.687291
 20
20.837785
 30
0.000000
  0
SEQEND
  8
LAYER-2
  0
POLYLINE
  8
LAYER-2
 66
  1
 70
  0
 62
  7
 10
25.829045
 20
20.835351
 30
0.000000
  0
VERTEX
  8
LAYER-2
 10
25.829045
 20
20.835351
 30
0.000000
  0
VERTEX
  8
LAYER-2
 10
25.807181
 20
20.847147
 30
0.000000
  0
SEQEND
  8
LAYER-2
  0
POLYLINE
  8
LAYER-2
 66
  1
 70
  0
 62
  7
 10
25.829045
 20
20.835351
 30
0.000000
  0
VERTEX
  8
LAYER-2
 10
25.829045
 20
20.835351
 30
0.000000
  0
VERTEX
  8
LAYER-2
 10
25.807181
 20
20.823554
 30
0.000000
  0
SEQEND
  8
LAYER-2
  0
POLYLINE
  8
LAYER-2
 66
  1
 70
  0
 62
  7
 10
25.687291
 20
20.814380
 30
0.000000
  0
VERTEX
  8
LAYER-2
 10
25.687291
 20
20.814380
 30
0.000000
  0
VERTEX
  8
LAYER-2
 10
25.709151
 20
20.826177
 30
0.000000
  0
SEQEND
  8
LAYER-2
  0
POLYLINE
  8
LAYER-2
 66
  1
 70
  0
 62
  7
 10
25.687291
 20
20.814380
 30
0.000000
  0
VERTEX
  8
LAYER-2
 10
25.687291
 20
20.814380
 30
0.000000
  0
VERTEX
  8
LAYER-2
 10
25.709151
 20
20.802584
 30
0.000000
  0
SEQEND
  8
LAYER-2
  0
POLYLINE
  8
LAYER-2
 66
  1
 70
  0
 62
  7
 10
25.807181
 20
20.847147
 30
0.000000
  0
VERTEX
  8
LAYER-2
 10
25.807181
 20
20.847147
 30
0.000000
  0
VERTEX
  8
LAYER-2
 10
25.709151
 20
20.826177
 30
0.000000
  0
SEQEND
  8
LAYER-2
  0
POLYLINE
  8
LAYER-2
 66
  1
 70
  0
 62
  7
 10
25.829045
 20
20.835351
 30
0.000000
  0
VERTEX
  8
LAYER-2
 10
25.829045
 20
20.835351
 30
0.000000
  0
VERTEX
  8
LAYER-2
 10
25.687291
 20
20.814380
 30
0.000000
  0
SEQEND
  8
LAYER-2
  0
POLYLINE
  8
LAYER-2
 66
  1
 70
  0
 62
  7
 10
25.829045
 20
20.811948
 30
0.000000
  0
VERTEX
  8
LAYER-2
 10
25.829045
 20
20.811948
 30
0.000000
  0
VERTEX
  8
LAYER-2
 10
25.807181
 20
20.823745
 30
0.000000
  0
SEQEND
  8
LAYER-2
  0
POLYLINE
  8
LAYER-2
 66
  1
 70
  0
 62
  7
 10
25.829045
 20
20.811948
 30
0.000000
  0
VERTEX
  8
LAYER-2
 10
25.829045
 20
20.811948
 30
0.000000
  0
VERTEX
  8
LAYER-2
 10
25.807181
 20
20.800152
 30
0.000000
  0
SEQEND
  8
LAYER-2
  0
POLYLINE
  8
LAYER-2
 66
  1
 70
  0
 62
  7
 10
25.687291
 20
20.790976
 30
0.000000
  0
VERTEX
  8
LAYER-2
 10
25.687291
 20
20.790976
 30
0.000000
  0
VERTEX
  8
LAYER-2
 10
25.709151
 20
20.802774
 30
0.000000
  0
SEQEND
  8
LAYER-2
  0
POLYLINE
  8
LAYER-2
 66
  1
 70
  0
 62
  7
 10
25.687291
 20
20.790976
 30
0.000000
  0
VERTEX
  8
LAYER-2
 10
25.687291
 20
20.790976
 30
0.000000
  0
VERTEX
  8
LAYER-2
 10
25.709151
 20
20.779179
 30
0.000000
  0
SEQEND
  8
LAYER-2
  0
POLYLINE
  8
LAYER-2
 66
  1
 70
  0
 62
  7
 10
25.807181
 20
20.823745
 30
0.000000
  0
VERTEX
  8
LAYER-2
 10
25.807181
 20
20.823745
 30
0.000000
  0
VERTEX
  8
LAYER-2
 10
25.709151
 20
20.802774
 30
0.000000
  0
SEQEND
  8
LAYER-2
  0
POLYLINE
  8
LAYER-2
 66
  1
 70
  0
 62
  7
 10
25.829045
 20
20.811948
 30
0.000000
  0
VERTEX
  8
LAYER-2
 10
25.829045
 20
20.811948
 30
0.000000
  0
VERTEX
  8
LAYER-2
 10
25.687291
 20
20.790976
 30
0.000000
  0
SEQEND
  8
LAYER-2
  0
POLYLINE
  8
LAYER-2
 66
  1
 70
  0
 62
  7
 10
25.829045
 20
20.788546
 30
0.000000
  0
VERTEX
  8
LAYER-2
 10
25.829045
 20
20.788546
 30
0.000000
  0
VERTEX
  8
LAYER-2
 10
25.807181
 20
20.800340
 30
0.000000
  0
SEQEND
  8
LAYER-2
  0
POLYLINE
  8
LAYER-2
 66
  1
 70
  0
 62
  7
 10
25.829045
 20
20.788546
 30
0.000000
  0
VERTEX
  8
LAYER-2
 10
25.829045
 20
20.788546
 30
0.000000
  0
VERTEX
  8
LAYER-2
 10
25.807181
 20
20.776750
 30
0.000000
  0
SEQEND
  8
LAYER-2
  0
POLYLINE
  8
LAYER-2
 66
  1
 70
  0
 62
  7
 10
25.687291
 20
20.767576
 30
0.000000
  0
VERTEX
  8
LAYER-2
 10
25.687291
 20
20.767576
 30
0.000000
  0
VERTEX
  8
LAYER-2
 10
25.709151
 20
20.779372
 30
0.000000
  0
SEQEND
  8
LAYER-2
  0
POLYLINE
  8
LAYER-2
 66
  1
 70
  0
 62
  7
 10
25.687291
 20
20.767576
 30
0.000000
  0
VERTEX
  8
LAYER-2
 10
25.687291
 20
20.767576
 30
0.000000
  0
VERTEX
  8
LAYER-2
 10
25.709151
 20
20.755780
 30
0.000000
  0
SEQEND
  8
LAYER-2
  0
POLYLINE
  8
LAYER-2
 66
  1
 70
  0
 62
  7
 10
25.807181
 20
20.800340
 30
0.000000
  0
VERTEX
  8
LAYER-2
 10
25.807181
 20
20.800340
 30
0.000000
  0
VERTEX
  8
LAYER-2
 10
25.709151
 20
20.779372
 30
0.000000
  0
SEQEND
  8
LAYER-2
  0
POLYLINE
  8
LAYER-2
 66
  1
 70
  0
 62
  7
 10
25.829045
 20
20.788546
 30
0.000000
  0
VERTEX
  8
LAYER-2
 10
25.829045
 20
20.788546
 30
0.000000
  0
VERTEX
  8
LAYER-2
 10
25.687291
 20
20.767576
 30
0.000000
  0
SEQEND
  8
LAYER-2
  0
POLYLINE
  8
LAYER-2
 66
  1
 70
  0
 62
  7
 10
25.829045
 20
20.765141
 30
0.000000
  0
VERTEX
  8
LAYER-2
 10
25.829045
 20
20.765141
 30
0.000000
  0
VERTEX
  8
LAYER-2
 10
25.807181
 20
20.776935
 30
0.000000
  0
SEQEND
  8
LAYER-2
  0
POLYLINE
  8
LAYER-2
 66
  1
 70
  0
 62
  7
 10
25.829045
 20
20.765141
 30
0.000000
  0
VERTEX
  8
LAYER-2
 10
25.829045
 20
20.765141
 30
0.000000
  0
VERTEX
  8
LAYER-2
 10
25.807181
 20
20.753348
 30
0.000000
  0
SEQEND
  8
LAYER-2
  0
POLYLINE
  8
LAYER-2
 66
  1
 70
  0
 62
  7
 10
25.687291
 20
20.744173
 30
0.000000
  0
VERTEX
  8
LAYER-2
 10
25.687291
 20
20.744173
 30
0.000000
  0
VERTEX
  8
LAYER-2
 10
25.709151
 20
20.755970
 30
0.000000
  0
SEQEND
  8
LAYER-2
  0
POLYLINE
  8
LAYER-2
 66
  1
 70
  0
 62
  7
 10
25.687291
 20
20.744173
 30
0.000000
  0
VERTEX
  8
LAYER-2
 10
25.687291
 20
20.744173
 30
0.000000
  0
VERTEX
  8
LAYER-2
 10
25.714797
 20
20.728793
 30
0.000000
  0
SEQEND
  8
LAYER-2
  0
POLYLINE
  8
LAYER-2
 66
  1
 70
  0
 62
  7
 10
25.807181
 20
20.776935
 30
0.000000
  0
VERTEX
  8
LAYER-2
 10
25.807181
 20
20.776935
 30
0.000000
  0
VERTEX
  8
LAYER-2
 10
25.709151
 20
20.755970
 30
0.000000
  0
SEQEND
  8
LAYER-2
  0
POLYLINE
  8
LAYER-2
 66
  1
 70
  0
 62
  7
 10
25.829045
 20
20.765141
 30
0.000000
  0
VERTEX
  8
LAYER-2
 10
25.829045
 20
20.765141
 30
0.000000
  0
VERTEX
  8
LAYER-2
 10
25.687291
 20
20.744173
 30
0.000000
  0
SEQEND
  8
LAYER-2
  0
POLYLINE
  8
LAYER-2
 66
  1
 70
  0
 62
  7
 10
25.829045
 20
20.741737
 30
0.000000
  0
VERTEX
  8
LAYER-2
 10
25.829045
 20
20.741737
 30
0.000000
  0
VERTEX
  8
LAYER-2
 10
25.807181
 20
20.753533
 30
0.000000
  0
SEQEND
  8
LAYER-2
  0
POLYLINE
  8
LAYER-2
 66
  1
 70
  0
 62
  7
 10
25.829045
 20
20.741737
 30
0.000000
  0
VERTEX
  8
LAYER-2
 10
25.829045
 20
20.741737
 30
0.000000
  0
VERTEX
  8
LAYER-2
 10
25.804359
 20
20.728980
 30
0.000000
  0
SEQEND
  8
LAYER-2
  0
POLYLINE
  8
LAYER-2
 66
  1
 70
  0
 62
  7
 10
25.807181
 20
20.753533
 30
0.000000
  0
VERTEX
  8
LAYER-2
 10
25.807181
 20
20.753533
 30
0.000000
  0
VERTEX
  8
LAYER-2
 10
25.709151
 20
20.732565
 30
0.000000
  0
SEQEND
  8
LAYER-2
  0
POLYLINE
  8
LAYER-2
 66
  1
 70
  0
 62
  7
 10
25.829045
 20
20.741737
 30
0.000000
  0
VERTEX
  8
LAYER-2
 10
25.829045
 20
20.741737
 30
0.000000
  0
VERTEX
  8
LAYER-2
 10
25.709151
 20
20.732565
 30
0.000000
  0
SEQEND
  8
LAYER-2
  0
POLYLINE
  8
LAYER-2
 66
  1
 70
  0
 62
  7
 10
25.804359
 20
20.728980
 30
0.000000
  0
VERTEX
  8
LAYER-2
 10
25.804359
 20
20.728980
 30
0.000000
  0
VERTEX
  8
LAYER-2
 10
25.714797
 20
20.728793
 30
0.000000
  0
SEQEND
  8
LAYER-2
  0
POLYLINE
  8
LAYER-2
 66
  1
 70
  0
 62
  7
 10
25.829045
 20
20.905468
 30
0.000000
  0
VERTEX
  8
LAYER-2
 10
25.829045
 20
20.905468
 30
0.000000
  0
VERTEX
  8
LAYER-2
 10
25.807181
 20
20.917262
 30
0.000000
  0
SEQEND
  8
LAYER-2
  0
POLYLINE
  8
LAYER-2
 66
  1
 70
  0
 62
  7
 10
25.829045
 20
20.905468
 30
0.000000
  0
VERTEX
  8
LAYER-2
 10
25.829045
 20
20.905468
 30
0.000000
  0
VERTEX
  8
LAYER-2
 10
25.807181
 20
20.893672
 30
0.000000
  0
SEQEND
  8
LAYER-2
  0
POLYLINE
  8
LAYER-2
 66
  1
 70
  0
 62
  7
 10
25.687291
 20
20.884498
 30
0.000000
  0
VERTEX
  8
LAYER-2
 10
25.687291
 20
20.884498
 30
0.000000
  0
VERTEX
  8
LAYER-2
 10
25.709151
 20
20.896294
 30
0.000000
  0
SEQEND
  8
LAYER-2
  0
POLYLINE
  8
LAYER-2
 66
  1
 70
  0
 62
  7
 10
25.687291
 20
20.884498
 30
0.000000
  0
VERTEX
  8
LAYER-2
 10
25.687291
 20
20.884498
 30
0.000000
  0
VERTEX
  8
LAYER-2
 10
25.709151
 20
20.872702
 30
0.000000
  0
SEQEND
  8
LAYER-2
  0
POLYLINE
  8
LAYER-2
 66
  1
 70
  0
 62
  7
 10
25.807181
 20
20.917262
 30
0.000000
  0
VERTEX
  8
LAYER-2
 10
25.807181
 20
20.917262
 30
0.000000
  0
VERTEX
  8
LAYER-2
 10
25.709151
 20
20.896294
 30
0.000000
  0
SEQEND
  8
LAYER-2
  0
POLYLINE
  8
LAYER-2
 66
  1
 70
  0
 62
  7
 10
25.829045
 20
20.905468
 30
0.000000
  0
VERTEX
  8
LAYER-2
 10
25.829045
 20
20.905468
 30
0.000000
  0
VERTEX
  8
LAYER-2
 10
25.687291
 20
20.884498
 30
0.000000
  0
SEQEND
  8
LAYER-2
  0
POLYLINE
  8
LAYER-2
 66
  1
 70
  0
 62
  7
 10
25.829045
 20
20.928779
 30
0.000000
  0
VERTEX
  8
LAYER-2
 10
25.829045
 20
20.928779
 30
0.000000
  0
VERTEX
  8
LAYER-2
 10
25.807181
 20
20.940573
 30
0.000000
  0
SEQEND
  8
LAYER-2
  0
POLYLINE
  8
LAYER-2
 66
  1
 70
  0
 62
  7
 10
25.829045
 20
20.928779
 30
0.000000
  0
VERTEX
  8
LAYER-2
 10
25.829045
 20
20.928779
 30
0.000000
  0
VERTEX
  8
LAYER-2
 10
25.807181
 20
20.916983
 30
0.000000
  0
SEQEND
  8
LAYER-2
  0
POLYLINE
  8
LAYER-2
 66
  1
 70
  0
 62
  7
 10
25.687291
 20
20.907809
 30
0.000000
  0
VERTEX
  8
LAYER-2
 10
25.687291
 20
20.907809
 30
0.000000
  0
VERTEX
  8
LAYER-2
 10
25.709151
 20
20.919605
 30
0.000000
  0
SEQEND
  8
LAYER-2
  0
POLYLINE
  8
LAYER-2
 66
  1
 70
  0
 62
  7
 10
25.687291
 20
20.907809
 30
0.000000
  0
VERTEX
  8
LAYER-2
 10
25.687291
 20
20.907809
 30
0.000000
  0
VERTEX
  8
LAYER-2
 10
25.709151
 20
20.896010
 30
0.000000
  0
SEQEND
  8
LAYER-2
  0
POLYLINE
  8
LAYER-2
 66
  1
 70
  0
 62
  7
 10
25.807181
 20
20.940573
 30
0.000000
  0
VERTEX
  8
LAYER-2
 10
25.807181
 20
20.940573
 30
0.000000
  0
VERTEX
  8
LAYER-2
 10
25.709151
 20
20.919605
 30
0.000000
  0
SEQEND
  8
LAYER-2
  0
POLYLINE
  8
LAYER-2
 66
  1
 70
  0
 62
  7
 10
25.829045
 20
20.928779
 30
0.000000
  0
VERTEX
  8
LAYER-2
 10
25.829045
 20
20.928779
 30
0.000000
  0
VERTEX
  8
LAYER-2
 10
25.687291
 20
20.907809
 30
0.000000
  0
SEQEND
  8
LAYER-2
  0
POLYLINE
  8
LAYER-2
 66
  1
 70
  0
 62
  7
 10
25.829045
 20
20.952087
 30
0.000000
  0
VERTEX
  8
LAYER-2
 10
25.829045
 20
20.952087
 30
0.000000
  0
VERTEX
  8
LAYER-2
 10
25.807181
 20
20.963884
 30
0.000000
  0
SEQEND
  8
LAYER-2
  0
POLYLINE
  8
LAYER-2
 66
  1
 70
  0
 62
  7
 10
25.829045
 20
20.952087
 30
0.000000
  0
VERTEX
  8
LAYER-2
 10
25.829045
 20
20.952087
 30
0.000000
  0
VERTEX
  8
LAYER-2
 10
25.807181
 20
20.940291
 30
0.000000
  0
SEQEND
  8
LAYER-2
  0
POLYLINE
  8
LAYER-2
 66
  1
 70
  0
 62
  7
 10
25.687291
 20
20.931119
 30
0.000000
  0
VERTEX
  8
LAYER-2
 10
25.687291
 20
20.931119
 30
0.000000
  0
VERTEX
  8
LAYER-2
 10
25.709151
 20
20.942913
 30
0.000000
  0
SEQEND
  8
LAYER-2
  0
POLYLINE
  8
LAYER-2
 66
  1
 70
  0
 62
  7
 10
25.687291
 20
20.931119
 30
0.000000
  0
VERTEX
  8
LAYER-2
 10
25.687291
 20
20.931119
 30
0.000000
  0
VERTEX
  8
LAYER-2
 10
25.709151
 20
20.919321
 30
0.000000
  0
SEQEND
  8
LAYER-2
  0
POLYLINE
  8
LAYER-2
 66
  1
 70
  0
 62
  7
 10
25.807181
 20
20.963884
 30
0.000000
  0
VERTEX
  8
LAYER-2
 10
25.807181
 20
20.963884
 30
0.000000
  0
VERTEX
  8
LAYER-2
 10
25.709151
 20
20.942913
 30
0.000000
  0
SEQEND
  8
LAYER-2
  0
POLYLINE
  8
LAYER-2
 66
  1
 70
  0
 62
  7
 10
25.829045
 20
20.952087
 30
0.000000
  0
VERTEX
  8
LAYER-2
 10
25.829045
 20
20.952087
 30
0.000000
  0
VERTEX
  8
LAYER-2
 10
25.687291
 20
20.931119
 30
0.000000
  0
SEQEND
  8
LAYER-2
  0
POLYLINE
  8
LAYER-2
 66
  1
 70
  0
 62
  7
 10
25.829045
 20
20.975398
 30
0.000000
  0
VERTEX
  8
LAYER-2
 10
25.829045
 20
20.975398
 30
0.000000
  0
VERTEX
  8
LAYER-2
 10
25.807181
 20
20.987194
 30
0.000000
  0
SEQEND
  8
LAYER-2
  0
POLYLINE
  8
LAYER-2
 66
  1
 70
  0
 62
  7
 10
25.829045
 20
20.975398
 30
0.000000
  0
VERTEX
  8
LAYER-2
 10
25.829045
 20
20.975398
 30
0.000000
  0
VERTEX
  8
LAYER-2
 10
25.807181
 20
20.963602
 30
0.000000
  0
SEQEND
  8
LAYER-2
  0
POLYLINE
  8
LAYER-2
 66
  1
 70
  0
 62
  7
 10
25.687291
 20
20.954430
 30
0.000000
  0
VERTEX
  8
LAYER-2
 10
25.687291
 20
20.954430
 30
0.000000
  0
VERTEX
  8
LAYER-2
 10
25.709151
 20
20.966224
 30
0.000000
  0
SEQEND
  8
LAYER-2
  0
POLYLINE
  8
LAYER-2
 66
  1
 70
  0
 62
  7
 10
25.687291
 20
20.954430
 30
0.000000
  0
VERTEX
  8
LAYER-2
 10
25.687291
 20
20.954430
 30
0.000000
  0
VERTEX
  8
LAYER-2
 10
25.709151
 20
20.942632
 30
0.000000
  0
SEQEND
  8
LAYER-2
  0
POLYLINE
  8
LAYER-2
 66
  1
 70
  0
 62
  7
 10
25.807181
 20
20.987194
 30
0.000000
  0
VERTEX
  8
LAYER-2
 10
25.807181
 20
20.987194
 30
0.000000
  0
VERTEX
  8
LAYER-2
 10
25.709151
 20
20.966224
 30
0.000000
  0
SEQEND
  8
LAYER-2
  0
POLYLINE
  8
LAYER-2
 66
  1
 70
  0
 62
  7
 10
25.829045
 20
20.975398
 30
0.000000
  0
VERTEX
  8
LAYER-2
 10
25.829045
 20
20.975398
 30
0.000000
  0
VERTEX
  8
LAYER-2
 10
25.687291
 20
20.954430
 30
0.000000
  0
SEQEND
  8
LAYER-2
  0
POLYLINE
  8
LAYER-2
 66
  1
 70
  0
 62
  7
 10
25.829045
 20
20.998709
 30
0.000000
  0
VERTEX
  8
LAYER-2
 10
25.829045
 20
20.998709
 30
0.000000
  0
VERTEX
  8
LAYER-2
 10
25.807181
 20
21.010505
 30
0.000000
  0
SEQEND
  8
LAYER-2
  0
POLYLINE
  8
LAYER-2
 66
  1
 70
  0
 62
  7
 10
25.829045
 20
20.998709
 30
0.000000
  0
VERTEX
  8
LAYER-2
 10
25.829045
 20
20.998709
 30
0.000000
  0
VERTEX
  8
LAYER-2
 10
25.807181
 20
20.986913
 30
0.000000
  0
SEQEND
  8
LAYER-2
  0
POLYLINE
  8
LAYER-2
 66
  1
 70
  0
 62
  7
 10
25.687291
 20
20.977741
 30
0.000000
  0
VERTEX
  8
LAYER-2
 10
25.687291
 20
20.977741
 30
0.000000
  0
VERTEX
  8
LAYER-2
 10
25.709151
 20
20.989535
 30
0.000000
  0
SEQEND
  8
LAYER-2
  0
POLYLINE
  8
LAYER-2
 66
  1
 70
  0
 62
  7
 10
25.687291
 20
20.977741
 30
0.000000
  0
VERTEX
  8
LAYER-2
 10
25.687291
 20
20.977741
 30
0.000000
  0
VERTEX
  8
LAYER-2
 10
25.709151
 20
20.965940
 30
0.000000
  0
SEQEND
  8
LAYER-2
  0
POLYLINE
  8
LAYER-2
 66
  1
 70
  0
 62
  7
 10
25.807181
 20
21.010505
 30
0.000000
  0
VERTEX
  8
LAYER-2
 10
25.807181
 20
21.010505
 30
0.000000
  0
VERTEX
  8
LAYER-2
 10
25.709151
 20
20.989535
 30
0.000000
  0
SEQEND
  8
LAYER-2
  0
POLYLINE
  8
LAYER-2
 66
  1
 70
  0
 62
  7
 10
25.829045
 20
20.998709
 30
0.000000
  0
VERTEX
  8
LAYER-2
 10
25.829045
 20
20.998709
 30
0.000000
  0
VERTEX
  8
LAYER-2
 10
25.687291
 20
20.977741
 30
0.000000
  0
SEQEND
  8
LAYER-2
  0
POLYLINE
  8
LAYER-2
 66
  1
 70
  0
 62
  7
 10
25.902466
 20
21.010374
 30
0.000000
  0
VERTEX
  8
LAYER-2
 10
25.902466
 20
21.010374
 30
0.000000
  0
VERTEX
  8
LAYER-2
 10
25.620706
 20
21.010374
 30
0.000000
  0
SEQEND
  8
LAYER-2
  0
POLYLINE
  8
LAYER-2
 66
  1
 70
  0
 62
  7
 10
25.902466
 20
21.025649
 30
0.000000
  0
VERTEX
  8
LAYER-2
 10
25.902466
 20
21.025649
 30
0.000000
  0
VERTEX
  8
LAYER-2
 10
25.620706
 20
21.025649
 30
0.000000
  0
SEQEND
  8
LAYER-2
  0
POLYLINE
  8
LAYER-2
 66
  1
 70
  0
 62
  7
 10
25.809218
 20
21.080867
 30
0.000000
  0
VERTEX
  8
LAYER-2
 10
25.809218
 20
21.080867
 30
0.000000
  0
VERTEX
  8
LAYER-2
 10
25.714050
 20
21.080867
 30
0.000000
  0
SEQEND
  8
LAYER-2
  0
POLYLINE
  8
LAYER-2
 66
  1
 70
  0
 62
  7
 10
25.902466
 20
21.025649
 30
0.000000
  0
VERTEX
  8
LAYER-2
 10
25.902466
 20
21.025649
 30
0.000000
  0
VERTEX
  8
LAYER-2
 10
25.866727
 20
21.061911
 30
0.000000
  0
VERTEX
  8
LAYER-2
 10
25.822404
 20
21.080674
 30
0.000000
  0
VERTEX
  8
LAYER-2
 10
25.809216
 20
21.080872
 30
0.000000
  0
SEQEND
  8
LAYER-2
  0
POLYLINE
  8
LAYER-2
 66
  1
 70
  0
 62
  7
 10
25.714050
 20
21.080874
 30
0.000000
  0
VERTEX
  8
LAYER-2
 10
25.714050
 20
21.080874
 30
0.000000
  0
VERTEX
  8
LAYER-2
 10
25.658039
 20
21.062831
 30
0.000000
  0
VERTEX
  8
LAYER-2
 10
25.620706
 20
21.025651
 30
0.000000
  0
SEQEND
  8
LAYER-2
  0
POLYLINE
  8
LAYER-2
 66
  1
 70
  0
 62
  7
 10
25.902468
 20
21.010374
 30
0.000000
  0
VERTEX
  8
LAYER-2
 10
25.902468
 20
21.010374
 30
0.000000
  0
VERTEX
  8
LAYER-2
 10
25.901722
 20
21.015273
 30
0.000000
  0
VERTEX
  8
LAYER-2
 10
25.902348
 20
21.018388
 30
0.000000
  0
VERTEX
  8
LAYER-2
 10
25.902348
 20
21.021569
 30
0.000000
  0
VERTEX
  8
LAYER-2
 10
25.901722
 20
21.024684
 30
0.000000
  0
VERTEX
  8
LAYER-2
 10
25.900499
 20
21.027616
 30
0.000000
  0
VERTEX
  8
LAYER-2
 10
25.902468
 20
21.025649
 30
0.000000
  0
SEQEND
  8
LAYER-2
  0
POLYLINE
  8
LAYER-2
 66
  1
 70
  0
 62
  7
 10
25.620706
 20
21.025649
 30
0.000000
  0
VERTEX
  8
LAYER-2
 10
25.620706
 20
21.025649
 30
0.000000
  0
VERTEX
  8
LAYER-2
 10
25.615953
 20
21.015127
 30
0.000000
  0
VERTEX
  8
LAYER-2
 10
25.620706
 20
21.010374
 30
0.000000
  0
SEQEND
  8
LAYER-2
  0
POLYLINE
  8
LAYER-2
 66
  1
 70
  0
 62
  7
 10
25.709151
 20
20.989535
 30
0.000000
  0
VERTEX
  8
LAYER-2
 10
25.709151
 20
20.989535
 30
0.000000
  0
VERTEX
  8
LAYER-2
 10
25.709151
 20
21.010374
 30
0.000000
  0
SEQEND
  8
LAYER-2
  0
POLYLINE
  8
LAYER-2
 66
  1
 70
  1
 62
  7
  0
VERTEX
  8
LAYER-2
 10
25.604483
 20
21.010742
 30
0.000000
  0
VERTEX
  8
LAYER-2
 10
25.916518
 20
21.010742
 30
0.000000
  0
VERTEX
  8
LAYER-2
 10
25.916518
 20
20.976987
 30
0.000000
  0
VERTEX
  8
LAYER-2
 10
25.604483
 20
20.976987
 30
0.000000
  0
SEQEND
  8
LAYER-2
  0
POLYLINE
  8
LAYER-2
 66
  1
 70
  0
 62
  7
 10
27.185171
 20
16.920539
 30
0.000000
  0
VERTEX
  8
LAYER-2
 10
27.185171
 20
16.920539
 30
0.000000
  0
VERTEX
  8
LAYER-2
 10
27.185171
 20
15.780499
 30
0.000000
  0
SEQEND
  8
LAYER-2
  0
POLYLINE
  8
LAYER-2
 66
  1
 70
  0
 62
  7
 10
26.997340
 20
15.780499
 30
0.000000
  0
VERTEX
  8
LAYER-2
 10
26.997340
 20
15.780499
 30
0.000000
  0
VERTEX
  8
LAYER-2
 10
26.997340
 20
16.920539
 30
0.000000
  0
SEQEND
  8
LAYER-2
  0
POLYLINE
  8
LAYER-2
 66
  1
 70
  0
 62
  7
 10
26.998129
 20
15.776285
 30
0.000000
  0
VERTEX
  8
LAYER-2
 10
26.998129
 20
15.776285
 30
0.000000
  0
VERTEX
  8
LAYER-2
 10
27.035696
 20
15.452299
 30
0.000000
  0
VERTEX
  8
LAYER-2
 10
27.138062
 20
15.140317
 30
0.000000
  0
VERTEX
  8
LAYER-2
 10
27.299326
 20
14.854304
 30
0.000000
  0
VERTEX
  8
LAYER-2
 10
27.302084
 20
14.851206
 30
0.000000
  0
SEQEND
  8
LAYER-2
  0
POLYLINE
  8
LAYER-2
 66
  1
 70
  0
 62
  7
 10
27.185169
 20
15.780499
 30
0.000000
  0
VERTEX
  8
LAYER-2
 10
27.185169
 20
15.780499
 30
0.000000
  0
VERTEX
  8
LAYER-2
 10
27.218318
 20
15.492922
 30
0.000000
  0
VERTEX
  8
LAYER-2
 10
27.309249
 20
15.215790
 30
0.000000
  0
VERTEX
  8
LAYER-2
 10
27.452498
 20
14.961722
 30
0.000000
  0
VERTEX
  8
LAYER-2
 10
27.455172
 20
14.958747
 30
0.000000
  0
SEQEND
  8
LAYER-2
  0
TEXT
  8
LAYER-2
 62
  7
 10
0.115386
 20
20.561462
 30
0.000000
 40
0.663462
  1
Motor details:
 72
  5
 11
6.115386
 21
20.561462
 31
0.000000
  0
TEXT
  8
LAYER-2
 62
  7
 10
0.115386
 20
19.138385
 30
0.000000
 40
0.576923
  1
Torque 100 Nm
 72
  5
 11
5.653847
 21
19.138385
 31
0.000000
  0
TEXT
  8
LAYER-2
 62
  7
 10
0.115386
 20
17.830693
 30
0.000000
 40
0.576923
  1
120 V Ac, 60 Hz, 2.94 A
 72
  5
 11
8.576924
 21
17.830693
 31
0.000000
  0
TEXT
  8
LAYER-2
 62
  7
 10
0.115386
 20
16.523001
 30
0.000000
 40
0.576923
  1
Mechanic Limit Adjustment
 72
  5
 11
9.500001
 21
16.523001
 31
0.000000
  0
TEXT
  8
LAYER-2
 62
  7
 10
0.115386
 20
15.215309
 30
0.000000
 40
0.576923
  1
Limit switch capacity: 22 turns
 72
  5
 11
10.576924
 21
15.215309
 31
0.000000
  0
TEXT
  8
LAYER-2
 62
  7
 10
0.115386
 20
13.907616
 30
0.000000
 40
0.576923
  1
Thermal protection: 4 min running time
 72
  5
 11
13.538463
 21
13.907616
 31
0.000000
  0
TEXT
  8
LAYER-2
 62
  7
 10
0.115386
 20
12.599924
 30
0.000000
 40
0.576923
  1
1:30 Gear ratio for manual override
 72
  5
 11
12.384617
 21
12.599924
 31
0.000000
  0
TEXT
  8
LAYER-2
 62
  7
 10
0.115386
 20
11.292232
 30
0.000000
 40
0.576923
  1
Speed 11 rpm
 72
  5
 11
5.153847
 21
11.292232
 31
0.000000
  0
TEXT
  8
LAYER-2
 62
  7
 10
3.846155
 20
31.484539
 30
0.000000
 40
0.490385
  1
Motor
 72
  5
 11
5.615386
 21
31.484539
 31
0.000000
  0
TEXT
  8
LAYER-2
 62
  7
 10
3.846155
 20
30.715309
 30
0.000000
 40
0.490385
  1
head
 72
  5
 11
5.423078
 21
30.715309
 31
0.000000
  0
TEXT
  8
LAYER-2
 62
  7
 10
22.769232
 20
25.215309
 30
0.000000
 40
0.490385
  1
Drive
 72
  5
 11
24.423078
 21
25.215309
 31
0.000000
  0
TEXT
  8
LAYER-2
 62
  7
 10
6.615386
 20
25.215309
 30
0.000000
 40
0.490385
  1
Crown
 72
  5
 11
8.615386
 21
25.215309
 31
0.000000
  0
TEXT
  8
LAYER-2
 62
  7
 10
22.615386
 20
31.484539
 30
0.000000
 40
0.490385
  1
4" (102mm) dia
 72
  5
 11
27.115386
 21
31.484539
 31
0.000000
  0
TEXT
  8
LAYER-2
 62
  7
 10
22.615386
 20
30.715309
 30
0.000000
 40
0.490385
  1
Barrel
 72
  5
 11
24.500001
 21
30.715309
 31
0.000000
  0
TEXT
  8
LAYER-2
 62
  7
 10
3.807694
 20
23.984539
 30
0.000000
 40
0.490385
  1
Pass cable through
 72
  5
 11
9.384617
 21
23.984539
 31
0.000000
  0
TEXT
  8
LAYER-2
 62
  7
 10
3.807694
 20
23.215309
 30
0.000000
 40
0.490385
  1
rubber grommet
 72
  5
 11
8.461540
 21
23.215309
 31
0.000000
  0
TEXT
  8
LAYER-2
 62
  7
 10
3.807694
 20
33.599924
 30
0.000000
 40
0.490385
  1
3/16" (5mm)
 72
  5
 11
7.461540
 21
33.599924
 31
0.000000
  0
TEXT
  8
LAYER-2
 62
  7
 10
3.807694
 20
32.830693
 30
0.000000
 40
0.490385
  1
End plate
 72
  5
 11
6.615386
 21
32.830693
 31
0.000000
  0
POLYLINE
  8
LAYER-2
 66
  1
 70
  0
 62
  7
 10
3.691435
 20
31.123009
 30
0.000000
  0
VERTEX
  8
LAYER-2
 10
3.691435
 20
31.123009
 30
0.000000
  0
VERTEX
  8
LAYER-2
 10
3.207113
 20
29.964240
 30
0.000000
  0
SEQEND
  8
LAYER-2
  0
POLYLINE
  8
LAYER-2
 66
  1
 70
  1
 62
  7
  0
VERTEX
  8
LAYER-2
 10
3.199522
 20
29.946078
 30
0.000000
  0
VERTEX
  8
LAYER-2
 10
3.167223
 20
30.168006
 30
0.000000
  0
VERTEX
  8
LAYER-2
 10
3.273683
 20
30.123512
 30
0.000000
  0
VERTEX
  8
LAYER-2
 10
3.380142
 20
30.079012
 30
0.000000
  0
VERTEX
  8
LAYER-2
 10
3.199522
 20
29.946078
 30
0.000000
  0
SEQEND
  8
LAYER-2
  0
POLYLINE
  8
LAYER-2
 66
  1
 70
  0
 62
  7
 10
27.632294
 20
31.176856
 30
0.000000
  0
VERTEX
  8
LAYER-2
 10
27.632294
 20
31.176856
 30
0.000000
  0
VERTEX
  8
LAYER-2
 10
28.618373
 20
30.190772
 30
0.000000
  0
SEQEND
  8
LAYER-2
  0
POLYLINE
  8
LAYER-2
 66
  1
 70
  1
 62
  7
  0
VERTEX
  8
LAYER-2
 10
28.632294
 20
30.176854
 30
0.000000
  0
VERTEX
  8
LAYER-2
 10
28.414722
 20
30.231246
 30
0.000000
  0
VERTEX
  8
LAYER-2
 10
28.496310
 20
30.312836
 30
0.000000
  0
VERTEX
  8
LAYER-2
 10
28.577897
 20
30.394426
 30
0.000000
  0
VERTEX
  8
LAYER-2
 10
28.632294
 20
30.176854
 30
0.000000
  0
SEQEND
  8
LAYER-2
  0
POLYLINE
  8
LAYER-2
 66
  1
 70
  0
 62
  7
 10
6.366907
 20
25.422999
 30
0.000000
  0
VERTEX
  8
LAYER-2
 10
6.366907
 20
25.422999
 30
0.000000
  0
VERTEX
  8
LAYER-2
 10
5.229678
 20
26.758024
 30
0.000000
  0
SEQEND
  8
LAYER-2
  0
POLYLINE
  8
LAYER-2
 66
  1
 70
  1
 62
  7
  0
VERTEX
  8
LAYER-2
 10
5.216913
 20
26.773008
 30
0.000000
  0
VERTEX
  8
LAYER-2
 10
5.429453
 20
26.701435
 30
0.000000
  0
VERTEX
  8
LAYER-2
 10
5.341617
 20
26.626615
 30
0.000000
  0
VERTEX
  8
LAYER-2
 10
5.253781
 20
26.551791
 30
0.000000
  0
VERTEX
  8
LAYER-2
 10
5.216913
 20
26.773008
 30
0.000000
  0
SEQEND
  8
LAYER-2
  0
POLYLINE
  8
LAYER-2
 66
  1
 70
  0
 62
  7
 10
3.692309
 20
24.292232
 30
0.000000
  0
VERTEX
  8
LAYER-2
 10
3.692309
 20
24.292232
 30
0.000000
  0
VERTEX
  8
LAYER-2
 10
2.885921
 20
25.291809
 30
0.000000
  0
SEQEND
  8
LAYER-2
  0
POLYLINE
  8
LAYER-2
 66
  1
 70
  1
 62
  7
  0
VERTEX
  8
LAYER-2
 10
2.873561
 20
25.307131
 30
0.000000
  0
VERTEX
  8
LAYER-2
 10
3.084112
 20
25.229905
 30
0.000000
  0
VERTEX
  8
LAYER-2
 10
2.994307
 20
25.157457
 30
0.000000
  0
VERTEX
  8
LAYER-2
 10
2.904503
 20
25.085008
 30
0.000000
  0
VERTEX
  8
LAYER-2
 10
2.873561
 20
25.307131
 30
0.000000
  0
SEQEND
  8
LAYER-2
  0
POLYLINE
  8
LAYER-2
 66
  1
 70
  0
 62
  7
 10
3.766830
 20
33.234549
 30
0.000000
  0
VERTEX
  8
LAYER-2
 10
3.766830
 20
33.234549
 30
0.000000
  0
VERTEX
  8
LAYER-2
 10
2.690430
 20
32.228757
 30
0.000000
  0
SEQEND
  8
LAYER-2
  0
POLYLINE
  8
LAYER-2
 66
  1
 70
  1
 62
  7
  0
VERTEX
  8
LAYER-2
 10
2.676047
 20
32.215318
 30
0.000000
  0
VERTEX
  8
LAYER-2
 10
2.737783
 20
32.430922
 30
0.000000
  0
VERTEX
  8
LAYER-2
 10
2.816560
 20
32.346614
 30
0.000000
  0
VERTEX
  8
LAYER-2
 10
2.895336
 20
32.262306
 30
0.000000
  0
VERTEX
  8
LAYER-2
 10
2.676047
 20
32.215318
 30
0.000000
  0
SEQEND
  8
LAYER-2
  0
POLYLINE
  8
LAYER-2
 66
  1
 70
  0
 62
  7
 10
24.670755
 20
25.369155
 30
0.000000
  0
VERTEX
  8
LAYER-2
 10
24.670755
 20
25.369155
 30
0.000000
  0
VERTEX
  8
LAYER-2
 10
25.849584
 20
26.624042
 30
0.000000
  0
SEQEND
  8
LAYER-2
  0
POLYLINE
  8
LAYER-2
 66
  1
 70
  1
 62
  7
  0
VERTEX
  8
LAYER-2
 10
25.863063
 20
26.638390
 30
0.000000
  0
VERTEX
  8
LAYER-2
 10
25.815493
 20
26.419225
 30
0.000000
  0
VERTEX
  8
LAYER-2
 10
25.731396
 20
26.498225
 30
0.000000
  0
VERTEX
  8
LAYER-2
 10
25.647299
 20
26.577226
 30
0.000000
  0
VERTEX
  8
LAYER-2
 10
25.863063
 20
26.638390
 30
0.000000
  0
SEQEND
  8
LAYER-2
  0
TEXT
  8
LAYER-2
 62
  7
 10
20.807694
 20
5.099924
 30
0.000000
 40
0.490385
  1
Turn the
 72
  5
 11
23.307694
 21
5.099924
 31
0.000000
  0
TEXT
  8
LAYER-2
 62
  7
 10
20.807694
 20
4.330693
 30
0.000000
 40
0.490385
  1
emergency
 72
  5
 11
24.153847
 21
4.330693
 31
0.000000
  0
TEXT
  8
LAYER-2
 62
  7
 10
20.807694
 20
3.561462
 30
0.000000
 40
0.490385
  1
crank handle
 72
  5
 11
24.615386
 21
3.561462
 31
0.000000
  0
TEXT
  8
LAYER-2
 62
  7
 10
20.807694
 20
2.792232
 30
0.000000
 40
0.490385
  1
to operate the
 72
  5
 11
24.846155
 21
2.792232
 31
0.000000
  0
TEXT
  8
LAYER-2
 62
  7
 10
20.807694
 20
2.023001
 30
0.000000
 40
0.490385
  1
rolling closure
 72
  5
 11
24.884617
 21
2.023001
 31
0.000000
  0
TEXT
  8
LAYER-2
 62
  7
 10
26.538463
 20
12.176847
 30
0.000000
 40
0.490385
  1
Crank
 72
  5
 11
28.423078
 21
12.176847
 31
0.000000
  0
TEXT
  8
LAYER-2
 62
  7
 10
26.538463
 20
11.407616
 30
0.000000
 40
0.490385
  1
loop
 72
  5
 11
27.884617
 21
11.407616
 31
0.000000
  0
TEXT
  8
LAYER-2
 62
  7
 10
24.192309
 20
8.061462
 30
0.000000
 40
0.490385
  1
Insert hook
 72
  5
 11
27.500001
 21
8.061462
 31
0.000000
  0
TEXT
  8
LAYER-2
 62
  7
 10
24.192309
 20
7.292232
 30
0.000000
 40
0.490385
  1
into motor
 72
  5
 11
27.153847
 21
7.292232
 31
0.000000
  0
TEXT
  8
LAYER-2
 62
  7
 10
28.038463
 20
20.484539
 30
0.000000
 40
0.490385
  1
Motor
 72
  5
 11
29.807694
 21
20.484539
 31
0.000000
  0
TEXT
  8
LAYER-2
 62
  7
 10
28.038463
 20
19.715309
 30
0.000000
 40
0.490385
  1
head
 72
  5
 11
29.615386
 21
19.715309
 31
0.000000
  0
POLYLINE
  8
LAYER-2
 66
  1
 70
  0
 62
  7
 10
25.176817
 20
12.027496
 30
0.000000
  0
VERTEX
  8
LAYER-2
 10
25.176817
 20
12.027496
 30
0.000000
  0
VERTEX
  8
LAYER-2
 10
23.751411
 20
12.736814
 30
0.000000
  0
SEQEND
  8
LAYER-2
  0
POLYLINE
  8
LAYER-2
 66
  1
 70
  1
 62
  7
  0
VERTEX
  8
LAYER-2
 10
25.194439
 20
12.018726
 30
0.000000
  0
VERTEX
  8
LAYER-2
 10
25.073676
 20
12.207703
 30
0.000000
  0
VERTEX
  8
LAYER-2
 10
25.022271
 20
12.104401
 30
0.000000
  0
VERTEX
  8
LAYER-2
 10
24.970865
 20
12.001099
 30
0.000000
  0
VERTEX
  8
LAYER-2
 10
25.194439
 20
12.018726
 30
0.000000
  0
SEQEND
  8
LAYER-2
  0
POLYLINE
  8
LAYER-2
 66
  1
 70
  1
 62
  7
  0
VERTEX
  8
LAYER-2
 10
2.494156
 20
32.215318
 30
0.000000
  0
VERTEX
  8
LAYER-2
 10
2.686464
 20
32.215318
 30
0.000000
  0
VERTEX
  8
LAYER-2
 10
2.686464
 20
24.176838
 30
0.000000
  0
VERTEX
  8
LAYER-2
 10
2.494156
 20
24.176838
 30
0.000000
  0
SEQEND
  8
LAYER-2
  0
POLYLINE
  8
LAYER-2
 66
  1
 70
  1
 62
255
 10
2.706373
 20
27.063092
 30
0.000000
  0
VERTEX
  8
LAYER-2
 10
2.706373
 20
27.063092
 30
0.000000
  0
VERTEX
  8
LAYER-2
 10
2.731007
 20
27.100673
 30
0.000000
  0
VERTEX
  8
LAYER-2
 10
2.755244
 20
27.063092
 30
0.000000
  0
VERTEX
  8
LAYER-2
 10
2.779873
 20
27.100673
 30
0.000000
  0
VERTEX
  8
LAYER-2
 10
2.804111
 20
27.063092
 30
0.000000
  0
VERTEX
  8
LAYER-2
 10
2.828744
 20
27.100673
 30
0.000000
  0
VERTEX
  8
LAYER-2
 10
2.852979
 20
27.063092
 30
0.000000
  0
VERTEX
  8
LAYER-2
 10
2.877610
 20
27.100673
 30
0.000000
  0
VERTEX
  8
LAYER-2
 10
2.901847
 20
27.063092
 30
0.000000
  0
VERTEX
  8
LAYER-2
 10
2.926478
 20
27.100673
 30
0.000000
  0
VERTEX
  8
LAYER-2
 10
2.950716
 20
27.063092
 30
0.000000
  0
VERTEX
  8
LAYER-2
 10
2.975347
 20
27.100673
 30
0.000000
  0
VERTEX
  8
LAYER-2
 10
2.999585
 20
27.063092
 30
0.000000
  0
VERTEX
  8
LAYER-2
 10
3.024216
 20
27.100673
 30
0.000000
  0
VERTEX
  8
LAYER-2
 10
3.048847
 20
27.063092
 30
0.000000
  0
VERTEX
  8
LAYER-2
 10
3.050125
 20
27.063092
 30
0.000000
  0
VERTEX
  8
LAYER-2
 10
3.074758
 20
27.100673
 30
0.000000
  0
VERTEX
  8
LAYER-2
 10
3.098995
 20
27.063092
 30
0.000000
  0
VERTEX
  8
LAYER-2
 10
3.123624
 20
27.100673
 30
0.000000
  0
VERTEX
  8
LAYER-2
 10
3.147861
 20
27.063092
 30
0.000000
  0
VERTEX
  8
LAYER-2
 10
3.172494
 20
27.100673
 30
0.000000
  0
VERTEX
  8
LAYER-2
 10
3.196729
 20
27.063092
 30
0.000000
  0
VERTEX
  8
LAYER-2
 10
3.221360
 20
27.100673
 30
0.000000
  0
VERTEX
  8
LAYER-2
 10
3.245598
 20
27.063092
 30
0.000000
  0
VERTEX
  8
LAYER-2
 10
3.270229
 20
27.100673
 30
0.000000
  0
VERTEX
  8
LAYER-2
 10
3.294466
 20
27.063092
 30
0.000000
  0
VERTEX
  8
LAYER-2
 10
3.319098
 20
27.100673
 30
0.000000
  0
VERTEX
  8
LAYER-2
 10
3.343334
 20
27.063092
 30
0.000000
  0
VERTEX
  8
LAYER-2
 10
3.367966
 20
27.100673
 30
0.000000
  0
VERTEX
  8
LAYER-2
 10
3.392204
 20
27.063092
 30
0.000000
  0
VERTEX
  8
LAYER-2
 10
3.416835
 20
27.100673
 30
0.000000
  0
VERTEX
  8
LAYER-2
 10
3.441072
 20
27.063092
 30
0.000000
  0
VERTEX
  8
LAYER-2
 10
3.465704
 20
27.100673
 30
0.000000
  0
VERTEX
  8
LAYER-2
 10
3.489940
 20
27.063092
 30
0.000000
  0
VERTEX
  8
LAYER-2
 10
3.514572
 20
27.100673
 30
0.000000
  0
VERTEX
  8
LAYER-2
 10
3.538810
 20
27.063092
 30
0.000000
  0
VERTEX
  8
LAYER-2
 10
3.563441
 20
27.100673
 30
0.000000
  0
VERTEX
  8
LAYER-2
 10
3.587678
 20
27.063092
 30
0.000000
  0
VERTEX
  8
LAYER-2
 10
3.612309
 20
27.100673
 30
0.000000
  0
VERTEX
  8
LAYER-2
 10
3.636547
 20
27.063092
 30
0.000000
  0
VERTEX
  8
LAYER-2
 10
3.661178
 20
27.100673
 30
0.000000
  0
VERTEX
  8
LAYER-2
 10
3.685415
 20
27.063092
 30
0.000000
  0
VERTEX
  8
LAYER-2
 10
3.710047
 20
27.100673
 30
0.000000
  0
VERTEX
  8
LAYER-2
 10
3.734678
 20
27.063092
 30
0.000000
  0
VERTEX
  8
LAYER-2
 10
3.734678
 20
26.872502
 30
0.000000
  0
VERTEX
  8
LAYER-2
 10
3.714864
 20
26.856877
 30
0.000000
  0
VERTEX
  8
LAYER-2
 10
3.690888
 20
26.894583
 30
0.000000
  0
VERTEX
  8
LAYER-2
 10
3.666257
 20
26.857004
 30
0.000000
  0
VERTEX
  8
LAYER-2
 10
3.641626
 20
26.894583
 30
0.000000
  0
VERTEX
  8
LAYER-2
 10
3.617388
 20
26.857004
 30
0.000000
  0
VERTEX
  8
LAYER-2
 10
3.592757
 20
26.894583
 30
0.000000
  0
VERTEX
  8
LAYER-2
 10
3.568520
 20
26.857004
 30
0.000000
  0
VERTEX
  8
LAYER-2
 10
3.543888
 20
26.894583
 30
0.000000
  0
VERTEX
  8
LAYER-2
 10
3.519651
 20
26.857004
 30
0.000000
  0
VERTEX
  8
LAYER-2
 10
3.495019
 20
26.894583
 30
0.000000
  0
VERTEX
  8
LAYER-2
 10
3.470782
 20
26.857004
 30
0.000000
  0
VERTEX
  8
LAYER-2
 10
3.446151
 20
26.894583
 30
0.000000
  0
VERTEX
  8
LAYER-2
 10
3.421914
 20
26.857004
 30
0.000000
  0
VERTEX
  8
LAYER-2
 10
3.397284
 20
26.894583
 30
0.000000
  0
VERTEX
  8
LAYER-2
 10
3.373047
 20
26.857004
 30
0.000000
  0
VERTEX
  8
LAYER-2
 10
3.348414
 20
26.894583
 30
0.000000
  0
VERTEX
  8
LAYER-2
 10
3.324176
 20
26.857004
 30
0.000000
  0
VERTEX
  8
LAYER-2
 10
3.299547
 20
26.894583
 30
0.000000
  0
VERTEX
  8
LAYER-2
 10
3.275310
 20
26.857004
 30
0.000000
  0
VERTEX
  8
LAYER-2
 10
3.250677
 20
26.894583
 30
0.000000
  0
VERTEX
  8
LAYER-2
 10
3.226439
 20
26.857004
 30
0.000000
  0
VERTEX
  8
LAYER-2
 10
3.201810
 20
26.894583
 30
0.000000
  0
VERTEX
  8
LAYER-2
 10
3.177573
 20
26.857004
 30
0.000000
  0
VERTEX
  8
LAYER-2
 10
3.152940
 20
26.894583
 30
0.000000
  0
VERTEX
  8
LAYER-2
 10
3.128703
 20
26.857004
 30
0.000000
  0
VERTEX
  8
LAYER-2
 10
3.104074
 20
26.894583
 30
0.000000
  0
VERTEX
  8
LAYER-2
 10
3.079837
 20
26.857004
 30
0.000000
  0
VERTEX
  8
LAYER-2
 10
3.055204
 20
26.894583
 30
0.000000
  0
VERTEX
  8
LAYER-2
 10
3.030967
 20
26.857004
 30
0.000000
  0
VERTEX
  8
LAYER-2
 10
2.983579
 20
26.861812
 30
0.000000
  0
VERTEX
  8
LAYER-2
 10
2.980426
 20
26.857004
 30
0.000000
  0
VERTEX
  8
LAYER-2
 10
2.976825
 20
26.862497
 30
0.000000
  0
VERTEX
  8
LAYER-2
 10
2.937667
 20
26.866474
 30
0.000000
  0
VERTEX
  8
LAYER-2
 10
2.931560
 20
26.857004
 30
0.000000
  0
VERTEX
  8
LAYER-2
 10
2.924475
 20
26.867812
 30
0.000000
  0
VERTEX
  8
LAYER-2
 10
2.891799
 20
26.871127
 30
0.000000
  0
VERTEX
  8
LAYER-2
 10
2.882689
 20
26.857004
 30
0.000000
  0
VERTEX
  8
LAYER-2
 10
2.872123
 20
26.873127
 30
0.000000
  0
VERTEX
  8
LAYER-2
 10
2.845936
 20
26.875784
 30
0.000000
  0
VERTEX
  8
LAYER-2
 10
2.833822
 20
26.857004
 30
0.000000
  0
VERTEX
  8
LAYER-2
 10
2.819771
 20
26.878439
 30
0.000000
  0
VERTEX
  8
LAYER-2
 10
2.800067
 20
26.880439
 30
0.000000
  0
VERTEX
  8
LAYER-2
 10
2.784952
 20
26.857004
 30
0.000000
  0
VERTEX
  8
LAYER-2
 10
2.767421
 20
26.883752
 30
0.000000
  0
VERTEX
  8
LAYER-2
 10
2.754203
 20
26.885094
 30
0.000000
  0
VERTEX
  8
LAYER-2
 10
2.736086
 20
26.857004
 30
0.000000
  0
VERTEX
  8
LAYER-2
 10
2.715069
 20
26.889066
 30
0.000000
  0
VERTEX
  8
LAYER-2
 10
2.708335
 20
26.889752
 30
0.000000
  0
VERTEX
  8
LAYER-2
 10
2.687215
 20
26.857004
 30
0.000000
  0
VERTEX
  8
LAYER-2
 10
2.660717
 20
26.894583
 30
0.000000
  0
VERTEX
  8
LAYER-2
 10
2.519734
 20
26.786522
 30
0.000000
  0
VERTEX
  8
LAYER-2
 10
2.493718
 20
26.786522
 30
0.000000
  0
VERTEX
  8
LAYER-2
 10
2.493718
 20
27.183742
 30
0.000000
  0
VERTEX
  8
LAYER-2
 10
2.519734
 20
27.183742
 30
0.000000
  0
VERTEX
  8
LAYER-2
 10
2.660717
 20
27.063092
 30
0.000000
  0
SEQEND
  8
LAYER-2
  0
POLYLINE
  8
LAYER-2
 66
  1
 70
  0
 62
  7
 10
3.373047
 20
26.857004
 30
0.000000
  0
VERTEX
  8
LAYER-2
 10
3.373047
 20
26.857004
 30
0.000000
  0
VERTEX
  8
LAYER-2
 10
3.348414
 20
26.894583
 30
0.000000
  0
SEQEND
  8
LAYER-2
  0
POLYLINE
  8
LAYER-2
 66
  1
 70
  0
 62
  7
 10
3.373047
 20
26.857004
 30
0.000000
  0
VERTEX
  8
LAYER-2
 10
3.373047
 20
26.857004
 30
0.000000
  0
VERTEX
  8
LAYER-2
 10
3.397677
 20
26.894583
 30
0.000000
  0
SEQEND
  8
LAYER-2
  0
POLYLINE
  8
LAYER-2
 66
  1
 70
  0
 62
  7
 10
3.416835
 20
27.100673
 30
0.000000
  0
VERTEX
  8
LAYER-2
 10
3.416835
 20
27.100673
 30
0.000000
  0
VERTEX
  8
LAYER-2
 10
3.392204
 20
27.063092
 30
0.000000
  0
SEQEND
  8
LAYER-2
  0
POLYLINE
  8
LAYER-2
 66
  1
 70
  0
 62
  7
 10
3.416835
 20
27.100673
 30
0.000000
  0
VERTEX
  8
LAYER-2
 10
3.416835
 20
27.100673
 30
0.000000
  0
VERTEX
  8
LAYER-2
 10
3.441466
 20
27.063092
 30
0.000000
  0
SEQEND
  8
LAYER-2
  0
POLYLINE
  8
LAYER-2
 66
  1
 70
  0
 62
  7
 10
3.348414
 20
26.894583
 30
0.000000
  0
VERTEX
  8
LAYER-2
 10
3.348414
 20
26.894583
 30
0.000000
  0
VERTEX
  8
LAYER-2
 10
3.392204
 20
27.063092
 30
0.000000
  0
SEQEND
  8
LAYER-2
  0
POLYLINE
  8
LAYER-2
 66
  1
 70
  0
 62
  7
 10
3.373047
 20
26.857004
 30
0.000000
  0
VERTEX
  8
LAYER-2
 10
3.373047
 20
26.857004
 30
0.000000
  0
VERTEX
  8
LAYER-2
 10
3.416835
 20
27.100673
 30
0.000000
  0
SEQEND
  8
LAYER-2
  0
POLYLINE
  8
LAYER-2
 66
  1
 70
  0
 62
  7
 10
3.421914
 20
26.857004
 30
0.000000
  0
VERTEX
  8
LAYER-2
 10
3.421914
 20
26.857004
 30
0.000000
  0
VERTEX
  8
LAYER-2
 10
3.397284
 20
26.894583
 30
0.000000
  0
SEQEND
  8
LAYER-2
  0
POLYLINE
  8
LAYER-2
 66
  1
 70
  0
 62
  7
 10
3.421914
 20
26.857004
 30
0.000000
  0
VERTEX
  8
LAYER-2
 10
3.421914
 20
26.857004
 30
0.000000
  0
VERTEX
  8
LAYER-2
 10
3.446545
 20
26.894583
 30
0.000000
  0
SEQEND
  8
LAYER-2
  0
POLYLINE
  8
LAYER-2
 66
  1
 70
  0
 62
  7
 10
3.465704
 20
27.100673
 30
0.000000
  0
VERTEX
  8
LAYER-2
 10
3.465704
 20
27.100673
 30
0.000000
  0
VERTEX
  8
LAYER-2
 10
3.441072
 20
27.063092
 30
0.000000
  0
SEQEND
  8
LAYER-2
  0
POLYLINE
  8
LAYER-2
 66
  1
 70
  0
 62
  7
 10
3.465704
 20
27.100673
 30
0.000000
  0
VERTEX
  8
LAYER-2
 10
3.465704
 20
27.100673
 30
0.000000
  0
VERTEX
  8
LAYER-2
 10
3.490334
 20
27.063092
 30
0.000000
  0
SEQEND
  8
LAYER-2
  0
POLYLINE
  8
LAYER-2
 66
  1
 70
  0
 62
  7
 10
3.397284
 20
26.894583
 30
0.000000
  0
VERTEX
  8
LAYER-2
 10
3.397284
 20
26.894583
 30
0.000000
  0
VERTEX
  8
LAYER-2
 10
3.441072
 20
27.063092
 30
0.000000
  0
SEQEND
  8
LAYER-2
  0
POLYLINE
  8
LAYER-2
 66
  1
 70
  0
 62
  7
 10
3.421914
 20
26.857004
 30
0.000000
  0
VERTEX
  8
LAYER-2
 10
3.421914
 20
26.857004
 30
0.000000
  0
VERTEX
  8
LAYER-2
 10
3.465704
 20
27.100673
 30
0.000000
  0
SEQEND
  8
LAYER-2
  0
POLYLINE
  8
LAYER-2
 66
  1
 70
  0
 62
  7
 10
3.470782
 20
26.857004
 30
0.000000
  0
VERTEX
  8
LAYER-2
 10
3.470782
 20
26.857004
 30
0.000000
  0
VERTEX
  8
LAYER-2
 10
3.446151
 20
26.894583
 30
0.000000
  0
SEQEND
  8
LAYER-2
  0
POLYLINE
  8
LAYER-2
 66
  1
 70
  0
 62
  7
 10
3.470782
 20
26.857004
 30
0.000000
  0
VERTEX
  8
LAYER-2
 10
3.470782
 20
26.857004
 30
0.000000
  0
VERTEX
  8
LAYER-2
 10
3.495413
 20
26.894583
 30
0.000000
  0
SEQEND
  8
LAYER-2
  0
POLYLINE
  8
LAYER-2
 66
  1
 70
  0
 62
  7
 10
3.514572
 20
27.100673
 30
0.000000
  0
VERTEX
  8
LAYER-2
 10
3.514572
 20
27.100673
 30
0.000000
  0
VERTEX
  8
LAYER-2
 10
3.489940
 20
27.063092
 30
0.000000
  0
SEQEND
  8
LAYER-2
  0
POLYLINE
  8
LAYER-2
 66
  1
 70
  0
 62
  7
 10
3.514572
 20
27.100673
 30
0.000000
  0
VERTEX
  8
LAYER-2
 10
3.514572
 20
27.100673
 30
0.000000
  0
VERTEX
  8
LAYER-2
 10
3.539204
 20
27.063092
 30
0.000000
  0
SEQEND
  8
LAYER-2
  0
POLYLINE
  8
LAYER-2
 66
  1
 70
  0
 62
  7
 10
3.446151
 20
26.894583
 30
0.000000
  0
VERTEX
  8
LAYER-2
 10
3.446151
 20
26.894583
 30
0.000000
  0
VERTEX
  8
LAYER-2
 10
3.489940
 20
27.063092
 30
0.000000
  0
SEQEND
  8
LAYER-2
  0
POLYLINE
  8
LAYER-2
 66
  1
 70
  0
 62
  7
 10
3.470782
 20
26.857004
 30
0.000000
  0
VERTEX
  8
LAYER-2
 10
3.470782
 20
26.857004
 30
0.000000
  0
VERTEX
  8
LAYER-2
 10
3.514572
 20
27.100673
 30
0.000000
  0
SEQEND
  8
LAYER-2
  0
POLYLINE
  8
LAYER-2
 66
  1
 70
  0
 62
  7
 10
3.519651
 20
26.857004
 30
0.000000
  0
VERTEX
  8
LAYER-2
 10
3.519651
 20
26.857004
 30
0.000000
  0
VERTEX
  8
LAYER-2
 10
3.495019
 20
26.894583
 30
0.000000
  0
SEQEND
  8
LAYER-2
  0
POLYLINE
  8
LAYER-2
 66
  1
 70
  0
 62
  7
 10
3.519651
 20
26.857004
 30
0.000000
  0
VERTEX
  8
LAYER-2
 10
3.519651
 20
26.857004
 30
0.000000
  0
VERTEX
  8
LAYER-2
 10
3.544283
 20
26.894583
 30
0.000000
  0
SEQEND
  8
LAYER-2
  0
POLYLINE
  8
LAYER-2
 66
  1
 70
  0
 62
  7
 10
3.563441
 20
27.100673
 30
0.000000
  0
VERTEX
  8
LAYER-2
 10
3.563441
 20
27.100673
 30
0.000000
  0
VERTEX
  8
LAYER-2
 10
3.538810
 20
27.063092
 30
0.000000
  0
SEQEND
  8
LAYER-2
  0
POLYLINE
  8
LAYER-2
 66
  1
 70
  0
 62
  7
 10
3.563441
 20
27.100673
 30
0.000000
  0
VERTEX
  8
LAYER-2
 10
3.563441
 20
27.100673
 30
0.000000
  0
VERTEX
  8
LAYER-2
 10
3.588073
 20
27.063092
 30
0.000000
  0
SEQEND
  8
LAYER-2
  0
POLYLINE
  8
LAYER-2
 66
  1
 70
  0
 62
  7
 10
3.495019
 20
26.894583
 30
0.000000
  0
VERTEX
  8
LAYER-2
 10
3.495019
 20
26.894583
 30
0.000000
  0
VERTEX
  8
LAYER-2
 10
3.538810
 20
27.063092
 30
0.000000
  0
SEQEND
  8
LAYER-2
  0
POLYLINE
  8
LAYER-2
 66
  1
 70
  0
 62
  7
 10
3.519651
 20
26.857004
 30
0.000000
  0
VERTEX
  8
LAYER-2
 10
3.519651
 20
26.857004
 30
0.000000
  0
VERTEX
  8
LAYER-2
 10
3.563441
 20
27.100673
 30
0.000000
  0
SEQEND
  8
LAYER-2
  0
POLYLINE
  8
LAYER-2
 66
  1
 70
  0
 62
  7
 10
3.568520
 20
26.857004
 30
0.000000
  0
VERTEX
  8
LAYER-2
 10
3.568520
 20
26.857004
 30
0.000000
  0
VERTEX
  8
LAYER-2
 10
3.543888
 20
26.894583
 30
0.000000
  0
SEQEND
  8
LAYER-2
  0
POLYLINE
  8
LAYER-2
 66
  1
 70
  0
 62
  7
 10
3.568520
 20
26.857004
 30
0.000000
  0
VERTEX
  8
LAYER-2
 10
3.568520
 20
26.857004
 30
0.000000
  0
VERTEX
  8
LAYER-2
 10
3.593151
 20
26.894583
 30
0.000000
  0
SEQEND
  8
LAYER-2
  0
POLYLINE
  8
LAYER-2
 66
  1
 70
  0
 62
  7
 10
3.612309
 20
27.100673
 30
0.000000
  0
VERTEX
  8
LAYER-2
 10
3.612309
 20
27.100673
 30
0.000000
  0
VERTEX
  8
LAYER-2
 10
3.587678
 20
27.063092
 30
0.000000
  0
SEQEND
  8
LAYER-2
  0
POLYLINE
  8
LAYER-2
 66
  1
 70
  0
 62
  7
 10
3.612309
 20
27.100673
 30
0.000000
  0
VERTEX
  8
LAYER-2
 10
3.612309
 20
27.100673
 30
0.000000
  0
VERTEX
  8
LAYER-2
 10
3.636941
 20
27.063092
 30
0.000000
  0
SEQEND
  8
LAYER-2
  0
POLYLINE
  8
LAYER-2
 66
  1
 70
  0
 62
  7
 10
3.543888
 20
26.894583
 30
0.000000
  0
VERTEX
  8
LAYER-2
 10
3.543888
 20
26.894583
 30
0.000000
  0
VERTEX
  8
LAYER-2
 10
3.587678
 20
27.063092
 30
0.000000
  0
SEQEND
  8
LAYER-2
  0
POLYLINE
  8
LAYER-2
 66
  1
 70
  0
 62
  7
 10
3.568520
 20
26.857004
 30
0.000000
  0
VERTEX
  8
LAYER-2
 10
3.568520
 20
26.857004
 30
0.000000
  0
VERTEX
  8
LAYER-2
 10
3.612309
 20
27.100673
 30
0.000000
  0
SEQEND
  8
LAYER-2
  0
POLYLINE
  8
LAYER-2
 66
  1
 70
  0
 62
  7
 10
3.617388
 20
26.857004
 30
0.000000
  0
VERTEX
  8
LAYER-2
 10
3.617388
 20
26.857004
 30
0.000000
  0
VERTEX
  8
LAYER-2
 10
3.592757
 20
26.894583
 30
0.000000
  0
SEQEND
  8
LAYER-2
  0
POLYLINE
  8
LAYER-2
 66
  1
 70
  0
 62
  7
 10
3.617388
 20
26.857004
 30
0.000000
  0
VERTEX
  8
LAYER-2
 10
3.617388
 20
26.857004
 30
0.000000
  0
VERTEX
  8
LAYER-2
 10
3.642019
 20
26.894583
 30
0.000000
  0
SEQEND
  8
LAYER-2
  0
POLYLINE
  8
LAYER-2
 66
  1
 70
  0
 62
  7
 10
3.661178
 20
27.100673
 30
0.000000
  0
VERTEX
  8
LAYER-2
 10
3.661178
 20
27.100673
 30
0.000000
  0
VERTEX
  8
LAYER-2
 10
3.636547
 20
27.063092
 30
0.000000
  0
SEQEND
  8
LAYER-2
  0
POLYLINE
  8
LAYER-2
 66
  1
 70
  0
 62
  7
 10
3.661178
 20
27.100673
 30
0.000000
  0
VERTEX
  8
LAYER-2
 10
3.661178
 20
27.100673
 30
0.000000
  0
VERTEX
  8
LAYER-2
 10
3.685809
 20
27.063092
 30
0.000000
  0
SEQEND
  8
LAYER-2
  0
POLYLINE
  8
LAYER-2
 66
  1
 70
  0
 62
  7
 10
3.592757
 20
26.894583
 30
0.000000
  0
VERTEX
  8
LAYER-2
 10
3.592757
 20
26.894583
 30
0.000000
  0
VERTEX
  8
LAYER-2
 10
3.636547
 20
27.063092
 30
0.000000
  0
SEQEND
  8
LAYER-2
  0
POLYLINE
  8
LAYER-2
 66
  1
 70
  0
 62
  7
 10
3.617388
 20
26.857004
 30
0.000000
  0
VERTEX
  8
LAYER-2
 10
3.617388
 20
26.857004
 30
0.000000
  0
VERTEX
  8
LAYER-2
 10
3.661178
 20
27.100673
 30
0.000000
  0
SEQEND
  8
LAYER-2
  0
POLYLINE
  8
LAYER-2
 66
  1
 70
  0
 62
  7
 10
3.666257
 20
26.857004
 30
0.000000
  0
VERTEX
  8
LAYER-2
 10
3.666257
 20
26.857004
 30
0.000000
  0
VERTEX
  8
LAYER-2
 10
3.641626
 20
26.894583
 30
0.000000
  0
SEQEND
  8
LAYER-2
  0
POLYLINE
  8
LAYER-2
 66
  1
 70
  0
 62
  7
 10
3.666257
 20
26.857004
 30
0.000000
  0
VERTEX
  8
LAYER-2
 10
3.666257
 20
26.857004
 30
0.000000
  0
VERTEX
  8
LAYER-2
 10
3.710047
 20
27.100673
 30
0.000000
  0
SEQEND
  8
LAYER-2
  0
POLYLINE
  8
LAYER-2
 66
  1
 70
  0
 62
  7
 10
3.666257
 20
26.857004
 30
0.000000
  0
VERTEX
  8
LAYER-2
 10
3.666257
 20
26.857004
 30
0.000000
  0
VERTEX
  8
LAYER-2
 10
3.690888
 20
26.894583
 30
0.000000
  0
SEQEND
  8
LAYER-2
  0
POLYLINE
  8
LAYER-2
 66
  1
 70
  0
 62
  7
 10
3.710047
 20
27.100673
 30
0.000000
  0
VERTEX
  8
LAYER-2
 10
3.710047
 20
27.100673
 30
0.000000
  0
VERTEX
  8
LAYER-2
 10
3.685415
 20
27.063092
 30
0.000000
  0
SEQEND
  8
LAYER-2
  0
POLYLINE
  8
LAYER-2
 66
  1
 70
  0
 62
  7
 10
3.710047
 20
27.100673
 30
0.000000
  0
VERTEX
  8
LAYER-2
 10
3.710047
 20
27.100673
 30
0.000000
  0
VERTEX
  8
LAYER-2
 10
3.734678
 20
27.063092
 30
0.000000
  0
SEQEND
  8
LAYER-2
  0
POLYLINE
  8
LAYER-2
 66
  1
 70
  0
 62
  7
 10
3.641626
 20
26.894583
 30
0.000000
  0
VERTEX
  8
LAYER-2
 10
3.641626
 20
26.894583
 30
0.000000
  0
VERTEX
  8
LAYER-2
 10
3.685415
 20
27.063092
 30
0.000000
  0
SEQEND
  8
LAYER-2
  0
POLYLINE
  8
LAYER-2
 66
  1
 70
  0
 62
  7
 10
3.734678
 20
27.063092
 30
0.000000
  0
VERTEX
  8
LAYER-2
 10
3.734678
 20
27.063092
 30
0.000000
  0
VERTEX
  8
LAYER-2
 10
3.734678
 20
26.872502
 30
0.000000
  0
SEQEND
  8
LAYER-2
  0
POLYLINE
  8
LAYER-2
 66
  1
 70
  0
 62
  7
 10
3.690888
 20
26.894583
 30
0.000000
  0
VERTEX
  8
LAYER-2
 10
3.690888
 20
26.894583
 30
0.000000
  0
VERTEX
  8
LAYER-2
 10
3.734678
 20
27.063092
 30
0.000000
  0
SEQEND
  8
LAYER-2
  0
POLYLINE
  8
LAYER-2
 66
  1
 70
  0
 62
  7
 10
3.714864
 20
26.856877
 30
0.000000
  0
VERTEX
  8
LAYER-2
 10
3.714864
 20
26.856877
 30
0.000000
  0
VERTEX
  8
LAYER-2
 10
3.690888
 20
26.894583
 30
0.000000
  0
SEQEND
  8
LAYER-2
  0
POLYLINE
  8
LAYER-2
 66
  1
 70
  0
 62
  7
 10
3.714864
 20
26.856877
 30
0.000000
  0
VERTEX
  8
LAYER-2
 10
3.714864
 20
26.856877
 30
0.000000
  0
VERTEX
  8
LAYER-2
 10
3.734830
 20
26.968856
 30
0.000000
  0
SEQEND
  8
LAYER-2
  0
POLYLINE
  8
LAYER-2
 66
  1
 70
  0
 62
  7
 10
3.714864
 20
26.856877
 30
0.000000
  0
VERTEX
  8
LAYER-2
 10
3.714864
 20
26.856877
 30
0.000000
  0
VERTEX
  8
LAYER-2
 10
3.734678
 20
26.872502
 30
0.000000
  0
SEQEND
  8
LAYER-2
  0
POLYLINE
  8
LAYER-2
 66
  1
 70
  0
 62
  7
 10
2.493718
 20
26.786522
 30
0.000000
  0
VERTEX
  8
LAYER-2
 10
2.493718
 20
26.786522
 30
0.000000
  0
VERTEX
  8
LAYER-2
 10
2.493718
 20
27.183742
 30
0.000000
  0
SEQEND
  8
LAYER-2
  0
POLYLINE
  8
LAYER-2
 66
  1
 70
  0
 62
  7
 10
2.660732
 20
26.894545
 30
0.000000
  0
VERTEX
  8
LAYER-2
 10
2.660732
 20
26.894545
 30
0.000000
  0
VERTEX
  8
LAYER-2
 10
2.519734
 20
26.786522
 30
0.000000
  0
SEQEND
  8
LAYER-2
  0
POLYLINE
  8
LAYER-2
 66
  1
 70
  0
 62
  7
 10
2.660717
 20
27.063092
 30
0.000000
  0
VERTEX
  8
LAYER-2
 10
2.660717
 20
27.063092
 30
0.000000
  0
VERTEX
  8
LAYER-2
 10
2.519734
 20
27.183742
 30
0.000000
  0
SEQEND
  8
LAYER-2
  0
POLYLINE
  8
LAYER-2
 66
  1
 70
  0
 62
  7
 10
2.493718
 20
26.786522
 30
0.000000
  0
VERTEX
  8
LAYER-2
 10
2.493718
 20
26.786522
 30
0.000000
  0
VERTEX
  8
LAYER-2
 10
2.519734
 20
26.786522
 30
0.000000
  0
SEQEND
  8
LAYER-2
  0
POLYLINE
  8
LAYER-2
 66
  1
 70
  0
 62
  7
 10
2.493718
 20
27.183742
 30
0.000000
  0
VERTEX
  8
LAYER-2
 10
2.493718
 20
27.183742
 30
0.000000
  0
VERTEX
  8
LAYER-2
 10
2.519734
 20
27.183742
 30
0.000000
  0
SEQEND
  8
LAYER-2
  0
POLYLINE
  8
LAYER-2
 66
  1
 70
  0
 62
  7
 10
2.519734
 20
26.786522
 30
0.000000
  0
VERTEX
  8
LAYER-2
 10
2.519734
 20
26.786522
 30
0.000000
  0
VERTEX
  8
LAYER-2
 10
2.519734
 20
27.183742
 30
0.000000
  0
SEQEND
  8
LAYER-2
  0
POLYLINE
  8
LAYER-2
 66
  1
 70
  0
 62
  7
 10
3.030967
 20
26.857004
 30
0.000000
  0
VERTEX
  8
LAYER-2
 10
3.030967
 20
26.857004
 30
0.000000
  0
VERTEX
  8
LAYER-2
 10
3.006337
 20
26.894583
 30
0.000000
  0
SEQEND
  8
LAYER-2
  0
POLYLINE
  8
LAYER-2
 66
  1
 70
  0
 62
  7
 10
3.030967
 20
26.857004
 30
0.000000
  0
VERTEX
  8
LAYER-2
 10
3.030967
 20
26.857004
 30
0.000000
  0
VERTEX
  8
LAYER-2
 10
3.055600
 20
26.894583
 30
0.000000
  0
SEQEND
  8
LAYER-2
  0
POLYLINE
  8
LAYER-2
 66
  1
 70
  0
 62
  7
 10
3.074758
 20
27.100673
 30
0.000000
  0
VERTEX
  8
LAYER-2
 10
3.074758
 20
27.100673
 30
0.000000
  0
VERTEX
  8
LAYER-2
 10
3.050125
 20
27.063092
 30
0.000000
  0
SEQEND
  8
LAYER-2
  0
POLYLINE
  8
LAYER-2
 66
  1
 70
  0
 62
  7
 10
3.074758
 20
27.100673
 30
0.000000
  0
VERTEX
  8
LAYER-2
 10
3.074758
 20
27.100673
 30
0.000000
  0
VERTEX
  8
LAYER-2
 10
3.099387
 20
27.063092
 30
0.000000
  0
SEQEND
  8
LAYER-2
  0
POLYLINE
  8
LAYER-2
 66
  1
 70
  0
 62
  7
 10
3.006337
 20
26.894583
 30
0.000000
  0
VERTEX
  8
LAYER-2
 10
3.006337
 20
26.894583
 30
0.000000
  0
VERTEX
  8
LAYER-2
 10
3.050125
 20
27.063092
 30
0.000000
  0
SEQEND
  8
LAYER-2
  0
POLYLINE
  8
LAYER-2
 66
  1
 70
  0
 62
  7
 10
3.030967
 20
26.857004
 30
0.000000
  0
VERTEX
  8
LAYER-2
 10
3.030967
 20
26.857004
 30
0.000000
  0
VERTEX
  8
LAYER-2
 10
3.074758
 20
27.100673
 30
0.000000
  0
SEQEND
  8
LAYER-2
  0
POLYLINE
  8
LAYER-2
 66
  1
 70
  0
 62
  7
 10
3.079837
 20
26.857004
 30
0.000000
  0
VERTEX
  8
LAYER-2
 10
3.079837
 20
26.857004
 30
0.000000
  0
VERTEX
  8
LAYER-2
 10
3.055204
 20
26.894583
 30
0.000000
  0
SEQEND
  8
LAYER-2
  0
POLYLINE
  8
LAYER-2
 66
  1
 70
  0
 62
  7
 10
3.079837
 20
26.857004
 30
0.000000
  0
VERTEX
  8
LAYER-2
 10
3.079837
 20
26.857004
 30
0.000000
  0
VERTEX
  8
LAYER-2
 10
3.104466
 20
26.894583
 30
0.000000
  0
SEQEND
  8
LAYER-2
  0
POLYLINE
  8
LAYER-2
 66
  1
 70
  0
 62
  7
 10
3.123624
 20
27.100673
 30
0.000000
  0
VERTEX
  8
LAYER-2
 10
3.123624
 20
27.100673
 30
0.000000
  0
VERTEX
  8
LAYER-2
 10
3.098995
 20
27.063092
 30
0.000000
  0
SEQEND
  8
LAYER-2
  0
POLYLINE
  8
LAYER-2
 66
  1
 70
  0
 62
  7
 10
3.123624
 20
27.100673
 30
0.000000
  0
VERTEX
  8
LAYER-2
 10
3.123624
 20
27.100673
 30
0.000000
  0
VERTEX
  8
LAYER-2
 10
3.148257
 20
27.063092
 30
0.000000
  0
SEQEND
  8
LAYER-2
  0
POLYLINE
  8
LAYER-2
 66
  1
 70
  0
 62
  7
 10
3.055204
 20
26.894583
 30
0.000000
  0
VERTEX
  8
LAYER-2
 10
3.055204
 20
26.894583
 30
0.000000
  0
VERTEX
  8
LAYER-2
 10
3.098995
 20
27.063092
 30
0.000000
  0
SEQEND
  8
LAYER-2
  0
POLYLINE
  8
LAYER-2
 66
  1
 70
  0
 62
  7
 10
3.079837
 20
26.857004
 30
0.000000
  0
VERTEX
  8
LAYER-2
 10
3.079837
 20
26.857004
 30
0.000000
  0
VERTEX
  8
LAYER-2
 10
3.123624
 20
27.100673
 30
0.000000
  0
SEQEND
  8
LAYER-2
  0
POLYLINE
  8
LAYER-2
 66
  1
 70
  0
 62
  7
 10
3.128703
 20
26.857004
 30
0.000000
  0
VERTEX
  8
LAYER-2
 10
3.128703
 20
26.857004
 30
0.000000
  0
VERTEX
  8
LAYER-2
 10
3.104074
 20
26.894583
 30
0.000000
  0
SEQEND
  8
LAYER-2
  0
POLYLINE
  8
LAYER-2
 66
  1
 70
  0
 62
  7
 10
3.128703
 20
26.857004
 30
0.000000
  0
VERTEX
  8
LAYER-2
 10
3.128703
 20
26.857004
 30
0.000000
  0
VERTEX
  8
LAYER-2
 10
3.153336
 20
26.894583
 30
0.000000
  0
SEQEND
  8
LAYER-2
  0
POLYLINE
  8
LAYER-2
 66
  1
 70
  0
 62
  7
 10
3.172494
 20
27.100673
 30
0.000000
  0
VERTEX
  8
LAYER-2
 10
3.172494
 20
27.100673
 30
0.000000
  0
VERTEX
  8
LAYER-2
 10
3.147861
 20
27.063092
 30
0.000000
  0
SEQEND
  8
LAYER-2
  0
POLYLINE
  8
LAYER-2
 66
  1
 70
  0
 62
  7
 10
3.172494
 20
27.100673
 30
0.000000
  0
VERTEX
  8
LAYER-2
 10
3.172494
 20
27.100673
 30
0.000000
  0
VERTEX
  8
LAYER-2
 10
3.197123
 20
27.063092
 30
0.000000
  0
SEQEND
  8
LAYER-2
  0
POLYLINE
  8
LAYER-2
 66
  1
 70
  0
 62
  7
 10
3.104074
 20
26.894583
 30
0.000000
  0
VERTEX
  8
LAYER-2
 10
3.104074
 20
26.894583
 30
0.000000
  0
VERTEX
  8
LAYER-2
 10
3.147861
 20
27.063092
 30
0.000000
  0
SEQEND
  8
LAYER-2
  0
POLYLINE
  8
LAYER-2
 66
  1
 70
  0
 62
  7
 10
3.128703
 20
26.857004
 30
0.000000
  0
VERTEX
  8
LAYER-2
 10
3.128703
 20
26.857004
 30
0.000000
  0
VERTEX
  8
LAYER-2
 10
3.172494
 20
27.100673
 30
0.000000
  0
SEQEND
  8
LAYER-2
  0
POLYLINE
  8
LAYER-2
 66
  1
 70
  0
 62
  7
 10
3.177573
 20
26.857004
 30
0.000000
  0
VERTEX
  8
LAYER-2
 10
3.177573
 20
26.857004
 30
0.000000
  0
VERTEX
  8
LAYER-2
 10
3.152940
 20
26.894583
 30
0.000000
  0
SEQEND
  8
LAYER-2
  0
POLYLINE
  8
LAYER-2
 66
  1
 70
  0
 62
  7
 10
3.177573
 20
26.857004
 30
0.000000
  0
VERTEX
  8
LAYER-2
 10
3.177573
 20
26.857004
 30
0.000000
  0
VERTEX
  8
LAYER-2
 10
3.202202
 20
26.894583
 30
0.000000
  0
SEQEND
  8
LAYER-2
  0
POLYLINE
  8
LAYER-2
 66
  1
 70
  0
 62
  7
 10
3.221360
 20
27.100673
 30
0.000000
  0
VERTEX
  8
LAYER-2
 10
3.221360
 20
27.100673
 30
0.000000
  0
VERTEX
  8
LAYER-2
 10
3.196729
 20
27.063092
 30
0.000000
  0
SEQEND
  8
LAYER-2
  0
POLYLINE
  8
LAYER-2
 66
  1
 70
  0
 62
  7
 10
3.221360
 20
27.100673
 30
0.000000
  0
VERTEX
  8
LAYER-2
 10
3.221360
 20
27.100673
 30
0.000000
  0
VERTEX
  8
LAYER-2
 10
3.245992
 20
27.063092
 30
0.000000
  0
SEQEND
  8
LAYER-2
  0
POLYLINE
  8
LAYER-2
 66
  1
 70
  0
 62
  7
 10
3.152940
 20
26.894583
 30
0.000000
  0
VERTEX
  8
LAYER-2
 10
3.152940
 20
26.894583
 30
0.000000
  0
VERTEX
  8
LAYER-2
 10
3.196729
 20
27.063092
 30
0.000000
  0
SEQEND
  8
LAYER-2
  0
POLYLINE
  8
LAYER-2
 66
  1
 70
  0
 62
  7
 10
3.177573
 20
26.857004
 30
0.000000
  0
VERTEX
  8
LAYER-2
 10
3.177573
 20
26.857004
 30
0.000000
  0
VERTEX
  8
LAYER-2
 10
3.221360
 20
27.100673
 30
0.000000
  0
SEQEND
  8
LAYER-2
  0
POLYLINE
  8
LAYER-2
 66
  1
 70
  0
 62
  7
 10
3.226439
 20
26.857004
 30
0.000000
  0
VERTEX
  8
LAYER-2
 10
3.226439
 20
26.857004
 30
0.000000
  0
VERTEX
  8
LAYER-2
 10
3.201810
 20
26.894583
 30
0.000000
  0
SEQEND
  8
LAYER-2
  0
POLYLINE
  8
LAYER-2
 66
  1
 70
  0
 62
  7
 10
3.226439
 20
26.857004
 30
0.000000
  0
VERTEX
  8
LAYER-2
 10
3.226439
 20
26.857004
 30
0.000000
  0
VERTEX
  8
LAYER-2
 10
3.251073
 20
26.894583
 30
0.000000
  0
SEQEND
  8
LAYER-2
  0
POLYLINE
  8
LAYER-2
 66
  1
 70
  0
 62
  7
 10
3.270229
 20
27.100673
 30
0.000000
  0
VERTEX
  8
LAYER-2
 10
3.270229
 20
27.100673
 30
0.000000
  0
VERTEX
  8
LAYER-2
 10
3.245598
 20
27.063092
 30
0.000000
  0
SEQEND
  8
LAYER-2
  0
POLYLINE
  8
LAYER-2
 66
  1
 70
  0
 62
  7
 10
3.270229
 20
27.100673
 30
0.000000
  0
VERTEX
  8
LAYER-2
 10
3.270229
 20
27.100673
 30
0.000000
  0
VERTEX
  8
LAYER-2
 10
3.294860
 20
27.063092
 30
0.000000
  0
SEQEND
  8
LAYER-2
  0
POLYLINE
  8
LAYER-2
 66
  1
 70
  0
 62
  7
 10
3.201810
 20
26.894583
 30
0.000000
  0
VERTEX
  8
LAYER-2
 10
3.201810
 20
26.894583
 30
0.000000
  0
VERTEX
  8
LAYER-2
 10
3.245598
 20
27.063092
 30
0.000000
  0
SEQEND
  8
LAYER-2
  0
POLYLINE
  8
LAYER-2
 66
  1
 70
  0
 62
  7
 10
3.226439
 20
26.857004
 30
0.000000
  0
VERTEX
  8
LAYER-2
 10
3.226439
 20
26.857004
 30
0.000000
  0
VERTEX
  8
LAYER-2
 10
3.270229
 20
27.100673
 30
0.000000
  0
SEQEND
  8
LAYER-2
  0
POLYLINE
  8
LAYER-2
 66
  1
 70
  0
 62
  7
 10
3.275310
 20
26.857004
 30
0.000000
  0
VERTEX
  8
LAYER-2
 10
3.275310
 20
26.857004
 30
0.000000
  0
VERTEX
  8
LAYER-2
 10
3.250677
 20
26.894583
 30
0.000000
  0
SEQEND
  8
LAYER-2
  0
POLYLINE
  8
LAYER-2
 66
  1
 70
  0
 62
  7
 10
3.275310
 20
26.857004
 30
0.000000
  0
VERTEX
  8
LAYER-2
 10
3.275310
 20
26.857004
 30
0.000000
  0
VERTEX
  8
LAYER-2
 10
3.299939
 20
26.894583
 30
0.000000
  0
SEQEND
  8
LAYER-2
  0
POLYLINE
  8
LAYER-2
 66
  1
 70
  0
 62
  7
 10
3.319098
 20
27.100673
 30
0.000000
  0
VERTEX
  8
LAYER-2
 10
3.319098
 20
27.100673
 30
0.000000
  0
VERTEX
  8
LAYER-2
 10
3.294466
 20
27.063092
 30
0.000000
  0
SEQEND
  8
LAYER-2
  0
POLYLINE
  8
LAYER-2
 66
  1
 70
  0
 62
  7
 10
3.319098
 20
27.100673
 30
0.000000
  0
VERTEX
  8
LAYER-2
 10
3.319098
 20
27.100673
 30
0.000000
  0
VERTEX
  8
LAYER-2
 10
3.343729
 20
27.063092
 30
0.000000
  0
SEQEND
  8
LAYER-2
  0
POLYLINE
  8
LAYER-2
 66
  1
 70
  0
 62
  7
 10
3.250677
 20
26.894583
 30
0.000000
  0
VERTEX
  8
LAYER-2
 10
3.250677
 20
26.894583
 30
0.000000
  0
VERTEX
  8
LAYER-2
 10
3.294466
 20
27.063092
 30
0.000000
  0
SEQEND
  8
LAYER-2
  0
POLYLINE
  8
LAYER-2
 66
  1
 70
  0
 62
  7
 10
3.275310
 20
26.857004
 30
0.000000
  0
VERTEX
  8
LAYER-2
 10
3.275310
 20
26.857004
 30
0.000000
  0
VERTEX
  8
LAYER-2
 10
3.319098
 20
27.100673
 30
0.000000
  0
SEQEND
  8
LAYER-2
  0
POLYLINE
  8
LAYER-2
 66
  1
 70
  0
 62
  7
 10
3.324176
 20
26.857004
 30
0.000000
  0
VERTEX
  8
LAYER-2
 10
3.324176
 20
26.857004
 30
0.000000
  0
VERTEX
  8
LAYER-2
 10
3.299547
 20
26.894583
 30
0.000000
  0
SEQEND
  8
LAYER-2
  0
POLYLINE
  8
LAYER-2
 66
  1
 70
  0
 62
  7
 10
3.324176
 20
26.857004
 30
0.000000
  0
VERTEX
  8
LAYER-2
 10
3.324176
 20
26.857004
 30
0.000000
  0
VERTEX
  8
LAYER-2
 10
3.348809
 20
26.894583
 30
0.000000
  0
SEQEND
  8
LAYER-2
  0
POLYLINE
  8
LAYER-2
 66
  1
 70
  0
 62
  7
 10
3.367966
 20
27.100673
 30
0.000000
  0
VERTEX
  8
LAYER-2
 10
3.367966
 20
27.100673
 30
0.000000
  0
VERTEX
  8
LAYER-2
 10
3.343334
 20
27.063092
 30
0.000000
  0
SEQEND
  8
LAYER-2
  0
POLYLINE
  8
LAYER-2
 66
  1
 70
  0
 62
  7
 10
3.367966
 20
27.100673
 30
0.000000
  0
VERTEX
  8
LAYER-2
 10
3.367966
 20
27.100673
 30
0.000000
  0
VERTEX
  8
LAYER-2
 10
3.392598
 20
27.063092
 30
0.000000
  0
SEQEND
  8
LAYER-2
  0
POLYLINE
  8
LAYER-2
 66
  1
 70
  0
 62
  7
 10
3.299547
 20
26.894583
 30
0.000000
  0
VERTEX
  8
LAYER-2
 10
3.299547
 20
26.894583
 30
0.000000
  0
VERTEX
  8
LAYER-2
 10
3.343334
 20
27.063092
 30
0.000000
  0
SEQEND
  8
LAYER-2
  0
POLYLINE
  8
LAYER-2
 66
  1
 70
  0
 62
  7
 10
3.324176
 20
26.857004
 30
0.000000
  0
VERTEX
  8
LAYER-2
 10
3.324176
 20
26.857004
 30
0.000000
  0
VERTEX
  8
LAYER-2
 10
3.367966
 20
27.100673
 30
0.000000
  0
SEQEND
  8
LAYER-2
  0
POLYLINE
  8
LAYER-2
 66
  1
 70
  0
 62
  7
 10
2.687215
 20
26.857004
 30
0.000000
  0
VERTEX
  8
LAYER-2
 10
2.687215
 20
26.857004
 30
0.000000
  0
VERTEX
  8
LAYER-2
 10
2.662585
 20
26.894583
 30
0.000000
  0
SEQEND
  8
LAYER-2
  0
POLYLINE
  8
LAYER-2
 66
  1
 70
  0
 62
  7
 10
2.687215
 20
26.857004
 30
0.000000
  0
VERTEX
  8
LAYER-2
 10
2.687215
 20
26.857004
 30
0.000000
  0
VERTEX
  8
LAYER-2
 10
2.711848
 20
26.894583
 30
0.000000
  0
SEQEND
  8
LAYER-2
  0
POLYLINE
  8
LAYER-2
 66
  1
 70
  0
 62
  7
 10
2.731007
 20
27.100673
 30
0.000000
  0
VERTEX
  8
LAYER-2
 10
2.731007
 20
27.100673
 30
0.000000
  0
VERTEX
  8
LAYER-2
 10
2.706373
 20
27.063092
 30
0.000000
  0
SEQEND
  8
LAYER-2
  0
POLYLINE
  8
LAYER-2
 66
  1
 70
  0
 62
  7
 10
2.731007
 20
27.100673
 30
0.000000
  0
VERTEX
  8
LAYER-2
 10
2.731007
 20
27.100673
 30
0.000000
  0
VERTEX
  8
LAYER-2
 10
2.755636
 20
27.063092
 30
0.000000
  0
SEQEND
  8
LAYER-2
  0
POLYLINE
  8
LAYER-2
 66
  1
 70
  0
 62
  7
 10
2.662585
 20
26.894583
 30
0.000000
  0
VERTEX
  8
LAYER-2
 10
2.662585
 20
26.894583
 30
0.000000
  0
VERTEX
  8
LAYER-2
 10
2.706373
 20
27.063092
 30
0.000000
  0
SEQEND
  8
LAYER-2
  0
POLYLINE
  8
LAYER-2
 66
  1
 70
  0
 62
  7
 10
2.687215
 20
26.857004
 30
0.000000
  0
VERTEX
  8
LAYER-2
 10
2.687215
 20
26.857004
 30
0.000000
  0
VERTEX
  8
LAYER-2
 10
2.731007
 20
27.100673
 30
0.000000
  0
SEQEND
  8
LAYER-2
  0
POLYLINE
  8
LAYER-2
 66
  1
 70
  0
 62
  7
 10
2.736086
 20
26.857004
 30
0.000000
  0
VERTEX
  8
LAYER-2
 10
2.736086
 20
26.857004
 30
0.000000
  0
VERTEX
  8
LAYER-2
 10
2.711452
 20
26.894583
 30
0.000000
  0
SEQEND
  8
LAYER-2
  0
POLYLINE
  8
LAYER-2
 66
  1
 70
  0
 62
  7
 10
2.736086
 20
26.857004
 30
0.000000
  0
VERTEX
  8
LAYER-2
 10
2.736086
 20
26.857004
 30
0.000000
  0
VERTEX
  8
LAYER-2
 10
2.760715
 20
26.894583
 30
0.000000
  0
SEQEND
  8
LAYER-2
  0
POLYLINE
  8
LAYER-2
 66
  1
 70
  0
 62
  7
 10
2.779873
 20
27.100673
 30
0.000000
  0
VERTEX
  8
LAYER-2
 10
2.779873
 20
27.100673
 30
0.000000
  0
VERTEX
  8
LAYER-2
 10
2.755244
 20
27.063092
 30
0.000000
  0
SEQEND
  8
LAYER-2
  0
POLYLINE
  8
LAYER-2
 66
  1
 70
  0
 62
  7
 10
2.779873
 20
27.100673
 30
0.000000
  0
VERTEX
  8
LAYER-2
 10
2.779873
 20
27.100673
 30
0.000000
  0
VERTEX
  8
LAYER-2
 10
2.804507
 20
27.063092
 30
0.000000
  0
SEQEND
  8
LAYER-2
  0
POLYLINE
  8
LAYER-2
 66
  1
 70
  0
 62
  7
 10
2.711452
 20
26.894583
 30
0.000000
  0
VERTEX
  8
LAYER-2
 10
2.711452
 20
26.894583
 30
0.000000
  0
VERTEX
  8
LAYER-2
 10
2.755244
 20
27.063092
 30
0.000000
  0
SEQEND
  8
LAYER-2
  0
POLYLINE
  8
LAYER-2
 66
  1
 70
  0
 62
  7
 10
2.736086
 20
26.857004
 30
0.000000
  0
VERTEX
  8
LAYER-2
 10
2.736086
 20
26.857004
 30
0.000000
  0
VERTEX
  8
LAYER-2
 10
2.779873
 20
27.100673
 30
0.000000
  0
SEQEND
  8
LAYER-2
  0
POLYLINE
  8
LAYER-2
 66
  1
 70
  0
 62
  7
 10
2.784952
 20
26.857004
 30
0.000000
  0
VERTEX
  8
LAYER-2
 10
2.784952
 20
26.857004
 30
0.000000
  0
VERTEX
  8
LAYER-2
 10
2.760323
 20
26.894583
 30
0.000000
  0
SEQEND
  8
LAYER-2
  0
POLYLINE
  8
LAYER-2
 66
  1
 70
  0
 62
  7
 10
2.784952
 20
26.857004
 30
0.000000
  0
VERTEX
  8
LAYER-2
 10
2.784952
 20
26.857004
 30
0.000000
  0
VERTEX
  8
LAYER-2
 10
2.809586
 20
26.894583
 30
0.000000
  0
SEQEND
  8
LAYER-2
  0
POLYLINE
  8
LAYER-2
 66
  1
 70
  0
 62
  7
 10
2.828744
 20
27.100673
 30
0.000000
  0
VERTEX
  8
LAYER-2
 10
2.828744
 20
27.100673
 30
0.000000
  0
VERTEX
  8
LAYER-2
 10
2.804111
 20
27.063092
 30
0.000000
  0
SEQEND
  8
LAYER-2
  0
POLYLINE
  8
LAYER-2
 66
  1
 70
  0
 62
  7
 10
2.828744
 20
27.100673
 30
0.000000
  0
VERTEX
  8
LAYER-2
 10
2.828744
 20
27.100673
 30
0.000000
  0
VERTEX
  8
LAYER-2
 10
2.853373
 20
27.063092
 30
0.000000
  0
SEQEND
  8
LAYER-2
  0
POLYLINE
  8
LAYER-2
 66
  1
 70
  0
 62
  7
 10
2.760323
 20
26.894583
 30
0.000000
  0
VERTEX
  8
LAYER-2
 10
2.760323
 20
26.894583
 30
0.000000
  0
VERTEX
  8
LAYER-2
 10
2.804111
 20
27.063092
 30
0.000000
  0
SEQEND
  8
LAYER-2
  0
POLYLINE
  8
LAYER-2
 66
  1
 70
  0
 62
  7
 10
2.784952
 20
26.857004
 30
0.000000
  0
VERTEX
  8
LAYER-2
 10
2.784952
 20
26.857004
 30
0.000000
  0
VERTEX
  8
LAYER-2
 10
2.828744
 20
27.100673
 30
0.000000
  0
SEQEND
  8
LAYER-2
  0
POLYLINE
  8
LAYER-2
 66
  1
 70
  0
 62
  7
 10
2.833822
 20
26.857004
 30
0.000000
  0
VERTEX
  8
LAYER-2
 10
2.833822
 20
26.857004
 30
0.000000
  0
VERTEX
  8
LAYER-2
 10
2.809189
 20
26.894583
 30
0.000000
  0
SEQEND
  8
LAYER-2
  0
POLYLINE
  8
LAYER-2
 66
  1
 70
  0
 62
  7
 10
2.833822
 20
26.857004
 30
0.000000
  0
VERTEX
  8
LAYER-2
 10
2.833822
 20
26.857004
 30
0.000000
  0
VERTEX
  8
LAYER-2
 10
2.858452
 20
26.894583
 30
0.000000
  0
SEQEND
  8
LAYER-2
  0
POLYLINE
  8
LAYER-2
 66
  1
 70
  0
 62
  7
 10
2.877610
 20
27.100673
 30
0.000000
  0
VERTEX
  8
LAYER-2
 10
2.877610
 20
27.100673
 30
0.000000
  0
VERTEX
  8
LAYER-2
 10
2.852979
 20
27.063092
 30
0.000000
  0
SEQEND
  8
LAYER-2
  0
POLYLINE
  8
LAYER-2
 66
  1
 70
  0
 62
  7
 10
2.877610
 20
27.100673
 30
0.000000
  0
VERTEX
  8
LAYER-2
 10
2.877610
 20
27.100673
 30
0.000000
  0
VERTEX
  8
LAYER-2
 10
2.902242
 20
27.063092
 30
0.000000
  0
SEQEND
  8
LAYER-2
  0
POLYLINE
  8
LAYER-2
 66
  1
 70
  0
 62
  7
 10
2.809189
 20
26.894583
 30
0.000000
  0
VERTEX
  8
LAYER-2
 10
2.809189
 20
26.894583
 30
0.000000
  0
VERTEX
  8
LAYER-2
 10
2.852979
 20
27.063092
 30
0.000000
  0
SEQEND
  8
LAYER-2
  0
POLYLINE
  8
LAYER-2
 66
  1
 70
  0
 62
  7
 10
2.833822
 20
26.857004
 30
0.000000
  0
VERTEX
  8
LAYER-2
 10
2.833822
 20
26.857004
 30
0.000000
  0
VERTEX
  8
LAYER-2
 10
2.877610
 20
27.100673
 30
0.000000
  0
SEQEND
  8
LAYER-2
  0
POLYLINE
  8
LAYER-2
 66
  1
 70
  0
 62
  7
 10
2.882689
 20
26.857004
 30
0.000000
  0
VERTEX
  8
LAYER-2
 10
2.882689
 20
26.857004
 30
0.000000
  0
VERTEX
  8
LAYER-2
 10
2.858060
 20
26.894583
 30
0.000000
  0
SEQEND
  8
LAYER-2
  0
POLYLINE
  8
LAYER-2
 66
  1
 70
  0
 62
  7
 10
2.882689
 20
26.857004
 30
0.000000
  0
VERTEX
  8
LAYER-2
 10
2.882689
 20
26.857004
 30
0.000000
  0
VERTEX
  8
LAYER-2
 10
2.907322
 20
26.894583
 30
0.000000
  0
SEQEND
  8
LAYER-2
  0
POLYLINE
  8
LAYER-2
 66
  1
 70
  0
 62
  7
 10
2.926478
 20
27.100673
 30
0.000000
  0
VERTEX
  8
LAYER-2
 10
2.926478
 20
27.100673
 30
0.000000
  0
VERTEX
  8
LAYER-2
 10
2.901847
 20
27.063092
 30
0.000000
  0
SEQEND
  8
LAYER-2
  0
POLYLINE
  8
LAYER-2
 66
  1
 70
  0
 62
  7
 10
2.926478
 20
27.100673
 30
0.000000
  0
VERTEX
  8
LAYER-2
 10
2.926478
 20
27.100673
 30
0.000000
  0
VERTEX
  8
LAYER-2
 10
2.951110
 20
27.063092
 30
0.000000
  0
SEQEND
  8
LAYER-2
  0
POLYLINE
  8
LAYER-2
 66
  1
 70
  0
 62
  7
 10
2.858060
 20
26.894583
 30
0.000000
  0
VERTEX
  8
LAYER-2
 10
2.858060
 20
26.894583
 30
0.000000
  0
VERTEX
  8
LAYER-2
 10
2.901847
 20
27.063092
 30
0.000000
  0
SEQEND
  8
LAYER-2
  0
POLYLINE
  8
LAYER-2
 66
  1
 70
  0
 62
  7
 10
2.882689
 20
26.857004
 30
0.000000
  0
VERTEX
  8
LAYER-2
 10
2.882689
 20
26.857004
 30
0.000000
  0
VERTEX
  8
LAYER-2
 10
2.926478
 20
27.100673
 30
0.000000
  0
SEQEND
  8
LAYER-2
  0
POLYLINE
  8
LAYER-2
 66
  1
 70
  0
 62
  7
 10
2.931560
 20
26.857004
 30
0.000000
  0
VERTEX
  8
LAYER-2
 10
2.931560
 20
26.857004
 30
0.000000
  0
VERTEX
  8
LAYER-2
 10
2.906926
 20
26.894583
 30
0.000000
  0
SEQEND
  8
LAYER-2
  0
POLYLINE
  8
LAYER-2
 66
  1
 70
  0
 62
  7
 10
2.931560
 20
26.857004
 30
0.000000
  0
VERTEX
  8
LAYER-2
 10
2.931560
 20
26.857004
 30
0.000000
  0
VERTEX
  8
LAYER-2
 10
2.956189
 20
26.894583
 30
0.000000
  0
SEQEND
  8
LAYER-2
  0
POLYLINE
  8
LAYER-2
 66
  1
 70
  0
 62
  7
 10
2.975347
 20
27.100673
 30
0.000000
  0
VERTEX
  8
LAYER-2
 10
2.975347
 20
27.100673
 30
0.000000
  0
VERTEX
  8
LAYER-2
 10
2.950716
 20
27.063092
 30
0.000000
  0
SEQEND
  8
LAYER-2
  0
POLYLINE
  8
LAYER-2
 66
  1
 70
  0
 62
  7
 10
2.975347
 20
27.100673
 30
0.000000
  0
VERTEX
  8
LAYER-2
 10
2.975347
 20
27.100673
 30
0.000000
  0
VERTEX
  8
LAYER-2
 10
2.999979
 20
27.063092
 30
0.000000
  0
SEQEND
  8
LAYER-2
  0
POLYLINE
  8
LAYER-2
 66
  1
 70
  0
 62
  7
 10
2.906926
 20
26.894583
 30
0.000000
  0
VERTEX
  8
LAYER-2
 10
2.906926
 20
26.894583
 30
0.000000
  0
VERTEX
  8
LAYER-2
 10
2.950716
 20
27.063092
 30
0.000000
  0
SEQEND
  8
LAYER-2
  0
POLYLINE
  8
LAYER-2
 66
  1
 70
  0
 62
  7
 10
2.931560
 20
26.857004
 30
0.000000
  0
VERTEX
  8
LAYER-2
 10
2.931560
 20
26.857004
 30
0.000000
  0
VERTEX
  8
LAYER-2
 10
2.975347
 20
27.100673
 30
0.000000
  0
SEQEND
  8
LAYER-2
  0
POLYLINE
  8
LAYER-2
 66
  1
 70
  0
 62
  7
 10
2.980426
 20
26.857004
 30
0.000000
  0
VERTEX
  8
LAYER-2
 10
2.980426
 20
26.857004
 30
0.000000
  0
VERTEX
  8
LAYER-2
 10
2.955796
 20
26.894583
 30
0.000000
  0
SEQEND
  8
LAYER-2
  0
POLYLINE
  8
LAYER-2
 66
  1
 70
  0
 62
  7
 10
2.980426
 20
26.857004
 30
0.000000
  0
VERTEX
  8
LAYER-2
 10
2.980426
 20
26.857004
 30
0.000000
  0
VERTEX
  8
LAYER-2
 10
3.005060
 20
26.894583
 30
0.000000
  0
SEQEND
  8
LAYER-2
  0
POLYLINE
  8
LAYER-2
 66
  1
 70
  0
 62
  7
 10
3.024216
 20
27.100673
 30
0.000000
  0
VERTEX
  8
LAYER-2
 10
3.024216
 20
27.100673
 30
0.000000
  0
VERTEX
  8
LAYER-2
 10
2.999585
 20
27.063092
 30
0.000000
  0
SEQEND
  8
LAYER-2
  0
POLYLINE
  8
LAYER-2
 66
  1
 70
  0
 62
  7
 10
3.024216
 20
27.100673
 30
0.000000
  0
VERTEX
  8
LAYER-2
 10
3.024216
 20
27.100673
 30
0.000000
  0
VERTEX
  8
LAYER-2
 10
3.048847
 20
27.063092
 30
0.000000
  0
SEQEND
  8
LAYER-2
  0
POLYLINE
  8
LAYER-2
 66
  1
 70
  0
 62
  7
 10
2.955796
 20
26.894583
 30
0.000000
  0
VERTEX
  8
LAYER-2
 10
2.955796
 20
26.894583
 30
0.000000
  0
VERTEX
  8
LAYER-2
 10
2.999585
 20
27.063092
 30
0.000000
  0
SEQEND
  8
LAYER-2
  0
POLYLINE
  8
LAYER-2
 66
  1
 70
  0
 62
  7
 10
2.980426
 20
26.857004
 30
0.000000
  0
VERTEX
  8
LAYER-2
 10
2.980426
 20
26.857004
 30
0.000000
  0
VERTEX
  8
LAYER-2
 10
3.024216
 20
27.100673
 30
0.000000
  0
SEQEND
  8
LAYER-2
  0
POLYLINE
  8
LAYER-2
 66
  1
 70
  0
 62
  7
 10
2.660717
 20
27.063092
 30
0.000000
  0
VERTEX
  8
LAYER-2
 10
2.660717
 20
27.063092
 30
0.000000
  0
VERTEX
  8
LAYER-2
 10
2.660717
 20
26.894583
 30
0.000000
  0
SEQEND
  8
LAYER-2
  0
POLYLINE
  8
LAYER-2
 66
  1
 70
  0
 62
  7
 10
2.660717
 20
27.063092
 30
0.000000
  0
VERTEX
  8
LAYER-2
 10
2.660717
 20
27.063092
 30
0.000000
  0
VERTEX
  8
LAYER-2
 10
2.706373
 20
27.063092
 30
0.000000
  0
SEQEND
  8
LAYER-2
  0
POLYLINE
  8
LAYER-2
 66
  1
 70
  1
 62
255
 10
2.706373
 20
29.481835
 30
0.000000
  0
VERTEX
  8
LAYER-2
 10
2.706373
 20
29.481835
 30
0.000000
  0
VERTEX
  8
LAYER-2
 10
2.731007
 20
29.519419
 30
0.000000
  0
VERTEX
  8
LAYER-2
 10
2.755244
 20
29.481835
 30
0.000000
  0
VERTEX
  8
LAYER-2
 10
2.779873
 20
29.519419
 30
0.000000
  0
VERTEX
  8
LAYER-2
 10
2.804111
 20
29.481835
 30
0.000000
  0
VERTEX
  8
LAYER-2
 10
2.828744
 20
29.519419
 30
0.000000
  0
VERTEX
  8
LAYER-2
 10
2.852979
 20
29.481835
 30
0.000000
  0
VERTEX
  8
LAYER-2
 10
2.877610
 20
29.519419
 30
0.000000
  0
VERTEX
  8
LAYER-2
 10
2.901847
 20
29.481835
 30
0.000000
  0
VERTEX
  8
LAYER-2
 10
2.926478
 20
29.519419
 30
0.000000
  0
VERTEX
  8
LAYER-2
 10
2.950716
 20
29.481835
 30
0.000000
  0
VERTEX
  8
LAYER-2
 10
2.975347
 20
29.519419
 30
0.000000
  0
VERTEX
  8
LAYER-2
 10
2.999585
 20
29.481835
 30
0.000000
  0
VERTEX
  8
LAYER-2
 10
3.024216
 20
29.519419
 30
0.000000
  0
VERTEX
  8
LAYER-2
 10
3.048847
 20
29.481835
 30
0.000000
  0
VERTEX
  8
LAYER-2
 10
3.050125
 20
29.481835
 30
0.000000
  0
VERTEX
  8
LAYER-2
 10
3.074758
 20
29.519419
 30
0.000000
  0
VERTEX
  8
LAYER-2
 10
3.098995
 20
29.481835
 30
0.000000
  0
VERTEX
  8
LAYER-2
 10
3.123624
 20
29.519419
 30
0.000000
  0
VERTEX
  8
LAYER-2
 10
3.147861
 20
29.481835
 30
0.000000
  0
VERTEX
  8
LAYER-2
 10
3.172494
 20
29.519419
 30
0.000000
  0
VERTEX
  8
LAYER-2
 10
3.196729
 20
29.481835
 30
0.000000
  0
VERTEX
  8
LAYER-2
 10
3.221360
 20
29.519419
 30
0.000000
  0
VERTEX
  8
LAYER-2
 10
3.245598
 20
29.481835
 30
0.000000
  0
VERTEX
  8
LAYER-2
 10
3.270229
 20
29.519419
 30
0.000000
  0
VERTEX
  8
LAYER-2
 10
3.294466
 20
29.481835
 30
0.000000
  0
VERTEX
  8
LAYER-2
 10
3.319098
 20
29.519419
 30
0.000000
  0
VERTEX
  8
LAYER-2
 10
3.343334
 20
29.481835
 30
0.000000
  0
VERTEX
  8
LAYER-2
 10
3.367966
 20
29.519419
 30
0.000000
  0
VERTEX
  8
LAYER-2
 10
3.392204
 20
29.481835
 30
0.000000
  0
VERTEX
  8
LAYER-2
 10
3.416835
 20
29.519419
 30
0.000000
  0
VERTEX
  8
LAYER-2
 10
3.441072
 20
29.481835
 30
0.000000
  0
VERTEX
  8
LAYER-2
 10
3.465704
 20
29.519419
 30
0.000000
  0
VERTEX
  8
LAYER-2
 10
3.489940
 20
29.481835
 30
0.000000
  0
VERTEX
  8
LAYER-2
 10
3.514572
 20
29.519419
 30
0.000000
  0
VERTEX
  8
LAYER-2
 10
3.538810
 20
29.481835
 30
0.000000
  0
VERTEX
  8
LAYER-2
 10
3.563441
 20
29.519419
 30
0.000000
  0
VERTEX
  8
LAYER-2
 10
3.587678
 20
29.481835
 30
0.000000
  0
VERTEX
  8
LAYER-2
 10
3.612309
 20
29.519419
 30
0.000000
  0
VERTEX
  8
LAYER-2
 10
3.636547
 20
29.481835
 30
0.000000
  0
VERTEX
  8
LAYER-2
 10
3.661178
 20
29.519419
 30
0.000000
  0
VERTEX
  8
LAYER-2
 10
3.685415
 20
29.481835
 30
0.000000
  0
VERTEX
  8
LAYER-2
 10
3.710047
 20
29.519419
 30
0.000000
  0
VERTEX
  8
LAYER-2
 10
3.734678
 20
29.481835
 30
0.000000
  0
VERTEX
  8
LAYER-2
 10
3.734678
 20
29.291246
 30
0.000000
  0
VERTEX
  8
LAYER-2
 10
3.714864
 20
29.275621
 30
0.000000
  0
VERTEX
  8
LAYER-2
 10
3.690888
 20
29.313329
 30
0.000000
  0
VERTEX
  8
LAYER-2
 10
3.666257
 20
29.275747
 30
0.000000
  0
VERTEX
  8
LAYER-2
 10
3.641626
 20
29.313329
 30
0.000000
  0
VERTEX
  8
LAYER-2
 10
3.617388
 20
29.275747
 30
0.000000
  0
VERTEX
  8
LAYER-2
 10
3.592757
 20
29.313329
 30
0.000000
  0
VERTEX
  8
LAYER-2
 10
3.568520
 20
29.275747
 30
0.000000
  0
VERTEX
  8
LAYER-2
 10
3.543888
 20
29.313329
 30
0.000000
  0
VERTEX
  8
LAYER-2
 10
3.519651
 20
29.275747
 30
0.000000
  0
VERTEX
  8
LAYER-2
 10
3.495019
 20
29.313329
 30
0.000000
  0
VERTEX
  8
LAYER-2
 10
3.470782
 20
29.275747
 30
0.000000
  0
VERTEX
  8
LAYER-2
 10
3.446151
 20
29.313329
 30
0.000000
  0
VERTEX
  8
LAYER-2
 10
3.421914
 20
29.275747
 30
0.000000
  0
VERTEX
  8
LAYER-2
 10
3.397284
 20
29.313329
 30
0.000000
  0
VERTEX
  8
LAYER-2
 10
3.373047
 20
29.275747
 30
0.000000
  0
VERTEX
  8
LAYER-2
 10
3.348414
 20
29.313329
 30
0.000000
  0
VERTEX
  8
LAYER-2
 10
3.324176
 20
29.275747
 30
0.000000
  0
VERTEX
  8
LAYER-2
 10
3.299547
 20
29.313329
 30
0.000000
  0
VERTEX
  8
LAYER-2
 10
3.275310
 20
29.275747
 30
0.000000
  0
VERTEX
  8
LAYER-2
 10
3.250677
 20
29.313329
 30
0.000000
  0
VERTEX
  8
LAYER-2
 10
3.226439
 20
29.275747
 30
0.000000
  0
VERTEX
  8
LAYER-2
 10
3.201810
 20
29.313329
 30
0.000000
  0
VERTEX
  8
LAYER-2
 10
3.177573
 20
29.275747
 30
0.000000
  0
VERTEX
  8
LAYER-2
 10
3.152940
 20
29.313329
 30
0.000000
  0
VERTEX
  8
LAYER-2
 10
3.128703
 20
29.275747
 30
0.000000
  0
VERTEX
  8
LAYER-2
 10
3.104074
 20
29.313329
 30
0.000000
  0
VERTEX
  8
LAYER-2
 10
3.079837
 20
29.275747
 30
0.000000
  0
VERTEX
  8
LAYER-2
 10
3.055204
 20
29.313329
 30
0.000000
  0
VERTEX
  8
LAYER-2
 10
3.030967
 20
29.275747
 30
0.000000
  0
VERTEX
  8
LAYER-2
 10
2.983579
 20
29.280557
 30
0.000000
  0
VERTEX
  8
LAYER-2
 10
2.980426
 20
29.275747
 30
0.000000
  0
VERTEX
  8
LAYER-2
 10
2.976825
 20
29.281243
 30
0.000000
  0
VERTEX
  8
LAYER-2
 10
2.937667
 20
29.285217
 30
0.000000
  0
VERTEX
  8
LAYER-2
 10
2.931560
 20
29.275747
 30
0.000000
  0
VERTEX
  8
LAYER-2
 10
2.924475
 20
29.286555
 30
0.000000
  0
VERTEX
  8
LAYER-2
 10
2.891799
 20
29.289875
 30
0.000000
  0
VERTEX
  8
LAYER-2
 10
2.882689
 20
29.275747
 30
0.000000
  0
VERTEX
  8
LAYER-2
 10
2.872123
 20
29.291870
 30
0.000000
  0
VERTEX
  8
LAYER-2
 10
2.845936
 20
29.294527
 30
0.000000
  0
VERTEX
  8
LAYER-2
 10
2.833822
 20
29.275747
 30
0.000000
  0
VERTEX
  8
LAYER-2
 10
2.819771
 20
29.297185
 30
0.000000
  0
VERTEX
  8
LAYER-2
 10
2.800067
 20
29.299185
 30
0.000000
  0
VERTEX
  8
LAYER-2
 10
2.784952
 20
29.275747
 30
0.000000
  0
VERTEX
  8
LAYER-2
 10
2.767421
 20
29.302500
 30
0.000000
  0
VERTEX
  8
LAYER-2
 10
2.754203
 20
29.303840
 30
0.000000
  0
VERTEX
  8
LAYER-2
 10
2.736086
 20
29.275747
 30
0.000000
  0
VERTEX
  8
LAYER-2
 10
2.715069
 20
29.307812
 30
0.000000
  0
VERTEX
  8
LAYER-2
 10
2.708335
 20
29.308495
 30
0.000000
  0
VERTEX
  8
LAYER-2
 10
2.687215
 20
29.275747
 30
0.000000
  0
VERTEX
  8
LAYER-2
 10
2.660717
 20
29.313329
 30
0.000000
  0
VERTEX
  8
LAYER-2
 10
2.519734
 20
29.205266
 30
0.000000
  0
VERTEX
  8
LAYER-2
 10
2.493718
 20
29.205266
 30
0.000000
  0
VERTEX
  8
LAYER-2
 10
2.493718
 20
29.602487
 30
0.000000
  0
VERTEX
  8
LAYER-2
 10
2.519734
 20
29.602487
 30
0.000000
  0
VERTEX
  8
LAYER-2
 10
2.660717
 20
29.481835
 30
0.000000
  0
SEQEND
  8
LAYER-2
  0
POLYLINE
  8
LAYER-2
 66
  1
 70
  0
 62
  7
 10
3.373047
 20
29.275747
 30
0.000000
  0
VERTEX
  8
LAYER-2
 10
3.373047
 20
29.275747
 30
0.000000
  0
VERTEX
  8
LAYER-2
 10
3.348414
 20
29.313329
 30
0.000000
  0
SEQEND
  8
LAYER-2
  0
POLYLINE
  8
LAYER-2
 66
  1
 70
  0
 62
  7
 10
3.373047
 20
29.275747
 30
0.000000
  0
VERTEX
  8
LAYER-2
 10
3.373047
 20
29.275747
 30
0.000000
  0
VERTEX
  8
LAYER-2
 10
3.397677
 20
29.313329
 30
0.000000
  0
SEQEND
  8
LAYER-2
  0
POLYLINE
  8
LAYER-2
 66
  1
 70
  0
 62
  7
 10
3.416835
 20
29.519419
 30
0.000000
  0
VERTEX
  8
LAYER-2
 10
3.416835
 20
29.519419
 30
0.000000
  0
VERTEX
  8
LAYER-2
 10
3.392204
 20
29.481835
 30
0.000000
  0
SEQEND
  8
LAYER-2
  0
POLYLINE
  8
LAYER-2
 66
  1
 70
  0
 62
  7
 10
3.416835
 20
29.519419
 30
0.000000
  0
VERTEX
  8
LAYER-2
 10
3.416835
 20
29.519419
 30
0.000000
  0
VERTEX
  8
LAYER-2
 10
3.441466
 20
29.481835
 30
0.000000
  0
SEQEND
  8
LAYER-2
  0
POLYLINE
  8
LAYER-2
 66
  1
 70
  0
 62
  7
 10
3.348414
 20
29.313329
 30
0.000000
  0
VERTEX
  8
LAYER-2
 10
3.348414
 20
29.313329
 30
0.000000
  0
VERTEX
  8
LAYER-2
 10
3.392204
 20
29.481835
 30
0.000000
  0
SEQEND
  8
LAYER-2
  0
POLYLINE
  8
LAYER-2
 66
  1
 70
  0
 62
  7
 10
3.373047
 20
29.275747
 30
0.000000
  0
VERTEX
  8
LAYER-2
 10
3.373047
 20
29.275747
 30
0.000000
  0
VERTEX
  8
LAYER-2
 10
3.416835
 20
29.519419
 30
0.000000
  0
SEQEND
  8
LAYER-2
  0
POLYLINE
  8
LAYER-2
 66
  1
 70
  0
 62
  7
 10
3.421914
 20
29.275747
 30
0.000000
  0
VERTEX
  8
LAYER-2
 10
3.421914
 20
29.275747
 30
0.000000
  0
VERTEX
  8
LAYER-2
 10
3.397284
 20
29.313329
 30
0.000000
  0
SEQEND
  8
LAYER-2
  0
POLYLINE
  8
LAYER-2
 66
  1
 70
  0
 62
  7
 10
3.421914
 20
29.275747
 30
0.000000
  0
VERTEX
  8
LAYER-2
 10
3.421914
 20
29.275747
 30
0.000000
  0
VERTEX
  8
LAYER-2
 10
3.446545
 20
29.313329
 30
0.000000
  0
SEQEND
  8
LAYER-2
  0
POLYLINE
  8
LAYER-2
 66
  1
 70
  0
 62
  7
 10
3.465704
 20
29.519419
 30
0.000000
  0
VERTEX
  8
LAYER-2
 10
3.465704
 20
29.519419
 30
0.000000
  0
VERTEX
  8
LAYER-2
 10
3.441072
 20
29.481835
 30
0.000000
  0
SEQEND
  8
LAYER-2
  0
POLYLINE
  8
LAYER-2
 66
  1
 70
  0
 62
  7
 10
3.465704
 20
29.519419
 30
0.000000
  0
VERTEX
  8
LAYER-2
 10
3.465704
 20
29.519419
 30
0.000000
  0
VERTEX
  8
LAYER-2
 10
3.490334
 20
29.481835
 30
0.000000
  0
SEQEND
  8
LAYER-2
  0
POLYLINE
  8
LAYER-2
 66
  1
 70
  0
 62
  7
 10
3.397284
 20
29.313329
 30
0.000000
  0
VERTEX
  8
LAYER-2
 10
3.397284
 20
29.313329
 30
0.000000
  0
VERTEX
  8
LAYER-2
 10
3.441072
 20
29.481835
 30
0.000000
  0
SEQEND
  8
LAYER-2
  0
POLYLINE
  8
LAYER-2
 66
  1
 70
  0
 62
  7
 10
3.421914
 20
29.275747
 30
0.000000
  0
VERTEX
  8
LAYER-2
 10
3.421914
 20
29.275747
 30
0.000000
  0
VERTEX
  8
LAYER-2
 10
3.465704
 20
29.519419
 30
0.000000
  0
SEQEND
  8
LAYER-2
  0
POLYLINE
  8
LAYER-2
 66
  1
 70
  0
 62
  7
 10
3.470782
 20
29.275747
 30
0.000000
  0
VERTEX
  8
LAYER-2
 10
3.470782
 20
29.275747
 30
0.000000
  0
VERTEX
  8
LAYER-2
 10
3.446151
 20
29.313329
 30
0.000000
  0
SEQEND
  8
LAYER-2
  0
POLYLINE
  8
LAYER-2
 66
  1
 70
  0
 62
  7
 10
3.470782
 20
29.275747
 30
0.000000
  0
VERTEX
  8
LAYER-2
 10
3.470782
 20
29.275747
 30
0.000000
  0
VERTEX
  8
LAYER-2
 10
3.495413
 20
29.313329
 30
0.000000
  0
SEQEND
  8
LAYER-2
  0
POLYLINE
  8
LAYER-2
 66
  1
 70
  0
 62
  7
 10
3.514572
 20
29.519419
 30
0.000000
  0
VERTEX
  8
LAYER-2
 10
3.514572
 20
29.519419
 30
0.000000
  0
VERTEX
  8
LAYER-2
 10
3.489940
 20
29.481835
 30
0.000000
  0
SEQEND
  8
LAYER-2
  0
POLYLINE
  8
LAYER-2
 66
  1
 70
  0
 62
  7
 10
3.514572
 20
29.519419
 30
0.000000
  0
VERTEX
  8
LAYER-2
 10
3.514572
 20
29.519419
 30
0.000000
  0
VERTEX
  8
LAYER-2
 10
3.539204
 20
29.481835
 30
0.000000
  0
SEQEND
  8
LAYER-2
  0
POLYLINE
  8
LAYER-2
 66
  1
 70
  0
 62
  7
 10
3.446151
 20
29.313329
 30
0.000000
  0
VERTEX
  8
LAYER-2
 10
3.446151
 20
29.313329
 30
0.000000
  0
VERTEX
  8
LAYER-2
 10
3.489940
 20
29.481835
 30
0.000000
  0
SEQEND
  8
LAYER-2
  0
POLYLINE
  8
LAYER-2
 66
  1
 70
  0
 62
  7
 10
3.470782
 20
29.275747
 30
0.000000
  0
VERTEX
  8
LAYER-2
 10
3.470782
 20
29.275747
 30
0.000000
  0
VERTEX
  8
LAYER-2
 10
3.514572
 20
29.519419
 30
0.000000
  0
SEQEND
  8
LAYER-2
  0
POLYLINE
  8
LAYER-2
 66
  1
 70
  0
 62
  7
 10
3.519651
 20
29.275747
 30
0.000000
  0
VERTEX
  8
LAYER-2
 10
3.519651
 20
29.275747
 30
0.000000
  0
VERTEX
  8
LAYER-2
 10
3.495019
 20
29.313329
 30
0.000000
  0
SEQEND
  8
LAYER-2
  0
POLYLINE
  8
LAYER-2
 66
  1
 70
  0
 62
  7
 10
3.519651
 20
29.275747
 30
0.000000
  0
VERTEX
  8
LAYER-2
 10
3.519651
 20
29.275747
 30
0.000000
  0
VERTEX
  8
LAYER-2
 10
3.544283
 20
29.313329
 30
0.000000
  0
SEQEND
  8
LAYER-2
  0
POLYLINE
  8
LAYER-2
 66
  1
 70
  0
 62
  7
 10
3.563441
 20
29.519419
 30
0.000000
  0
VERTEX
  8
LAYER-2
 10
3.563441
 20
29.519419
 30
0.000000
  0
VERTEX
  8
LAYER-2
 10
3.538810
 20
29.481835
 30
0.000000
  0
SEQEND
  8
LAYER-2
  0
POLYLINE
  8
LAYER-2
 66
  1
 70
  0
 62
  7
 10
3.563441
 20
29.519419
 30
0.000000
  0
VERTEX
  8
LAYER-2
 10
3.563441
 20
29.519419
 30
0.000000
  0
VERTEX
  8
LAYER-2
 10
3.588073
 20
29.481835
 30
0.000000
  0
SEQEND
  8
LAYER-2
  0
POLYLINE
  8
LAYER-2
 66
  1
 70
  0
 62
  7
 10
3.495019
 20
29.313329
 30
0.000000
  0
VERTEX
  8
LAYER-2
 10
3.495019
 20
29.313329
 30
0.000000
  0
VERTEX
  8
LAYER-2
 10
3.538810
 20
29.481835
 30
0.000000
  0
SEQEND
  8
LAYER-2
  0
POLYLINE
  8
LAYER-2
 66
  1
 70
  0
 62
  7
 10
3.519651
 20
29.275747
 30
0.000000
  0
VERTEX
  8
LAYER-2
 10
3.519651
 20
29.275747
 30
0.000000
  0
VERTEX
  8
LAYER-2
 10
3.563441
 20
29.519419
 30
0.000000
  0
SEQEND
  8
LAYER-2
  0
POLYLINE
  8
LAYER-2
 66
  1
 70
  0
 62
  7
 10
3.568520
 20
29.275747
 30
0.000000
  0
VERTEX
  8
LAYER-2
 10
3.568520
 20
29.275747
 30
0.000000
  0
VERTEX
  8
LAYER-2
 10
3.543888
 20
29.313329
 30
0.000000
  0
SEQEND
  8
LAYER-2
  0
POLYLINE
  8
LAYER-2
 66
  1
 70
  0
 62
  7
 10
3.568520
 20
29.275747
 30
0.000000
  0
VERTEX
  8
LAYER-2
 10
3.568520
 20
29.275747
 30
0.000000
  0
VERTEX
  8
LAYER-2
 10
3.593151
 20
29.313329
 30
0.000000
  0
SEQEND
  8
LAYER-2
  0
POLYLINE
  8
LAYER-2
 66
  1
 70
  0
 62
  7
 10
3.612309
 20
29.519419
 30
0.000000
  0
VERTEX
  8
LAYER-2
 10
3.612309
 20
29.519419
 30
0.000000
  0
VERTEX
  8
LAYER-2
 10
3.587678
 20
29.481835
 30
0.000000
  0
SEQEND
  8
LAYER-2
  0
POLYLINE
  8
LAYER-2
 66
  1
 70
  0
 62
  7
 10
3.612309
 20
29.519419
 30
0.000000
  0
VERTEX
  8
LAYER-2
 10
3.612309
 20
29.519419
 30
0.000000
  0
VERTEX
  8
LAYER-2
 10
3.636941
 20
29.481835
 30
0.000000
  0
SEQEND
  8
LAYER-2
  0
POLYLINE
  8
LAYER-2
 66
  1
 70
  0
 62
  7
 10
3.543888
 20
29.313329
 30
0.000000
  0
VERTEX
  8
LAYER-2
 10
3.543888
 20
29.313329
 30
0.000000
  0
VERTEX
  8
LAYER-2
 10
3.587678
 20
29.481835
 30
0.000000
  0
SEQEND
  8
LAYER-2
  0
POLYLINE
  8
LAYER-2
 66
  1
 70
  0
 62
  7
 10
3.568520
 20
29.275747
 30
0.000000
  0
VERTEX
  8
LAYER-2
 10
3.568520
 20
29.275747
 30
0.000000
  0
VERTEX
  8
LAYER-2
 10
3.612309
 20
29.519419
 30
0.000000
  0
SEQEND
  8
LAYER-2
  0
POLYLINE
  8
LAYER-2
 66
  1
 70
  0
 62
  7
 10
3.617388
 20
29.275747
 30
0.000000
  0
VERTEX
  8
LAYER-2
 10
3.617388
 20
29.275747
 30
0.000000
  0
VERTEX
  8
LAYER-2
 10
3.592757
 20
29.313329
 30
0.000000
  0
SEQEND
  8
LAYER-2
  0
POLYLINE
  8
LAYER-2
 66
  1
 70
  0
 62
  7
 10
3.617388
 20
29.275747
 30
0.000000
  0
VERTEX
  8
LAYER-2
 10
3.617388
 20
29.275747
 30
0.000000
  0
VERTEX
  8
LAYER-2
 10
3.642019
 20
29.313329
 30
0.000000
  0
SEQEND
  8
LAYER-2
  0
POLYLINE
  8
LAYER-2
 66
  1
 70
  0
 62
  7
 10
3.661178
 20
29.519419
 30
0.000000
  0
VERTEX
  8
LAYER-2
 10
3.661178
 20
29.519419
 30
0.000000
  0
VERTEX
  8
LAYER-2
 10
3.636547
 20
29.481835
 30
0.000000
  0
SEQEND
  8
LAYER-2
  0
POLYLINE
  8
LAYER-2
 66
  1
 70
  0
 62
  7
 10
3.661178
 20
29.519419
 30
0.000000
  0
VERTEX
  8
LAYER-2
 10
3.661178
 20
29.519419
 30
0.000000
  0
VERTEX
  8
LAYER-2
 10
3.685809
 20
29.481835
 30
0.000000
  0
SEQEND
  8
LAYER-2
  0
POLYLINE
  8
LAYER-2
 66
  1
 70
  0
 62
  7
 10
3.592757
 20
29.313329
 30
0.000000
  0
VERTEX
  8
LAYER-2
 10
3.592757
 20
29.313329
 30
0.000000
  0
VERTEX
  8
LAYER-2
 10
3.636547
 20
29.481835
 30
0.000000
  0
SEQEND
  8
LAYER-2
  0
POLYLINE
  8
LAYER-2
 66
  1
 70
  0
 62
  7
 10
3.617388
 20
29.275747
 30
0.000000
  0
VERTEX
  8
LAYER-2
 10
3.617388
 20
29.275747
 30
0.000000
  0
VERTEX
  8
LAYER-2
 10
3.661178
 20
29.519419
 30
0.000000
  0
SEQEND
  8
LAYER-2
  0
POLYLINE
  8
LAYER-2
 66
  1
 70
  0
 62
  7
 10
3.666257
 20
29.275747
 30
0.000000
  0
VERTEX
  8
LAYER-2
 10
3.666257
 20
29.275747
 30
0.000000
  0
VERTEX
  8
LAYER-2
 10
3.641626
 20
29.313329
 30
0.000000
  0
SEQEND
  8
LAYER-2
  0
POLYLINE
  8
LAYER-2
 66
  1
 70
  0
 62
  7
 10
3.666257
 20
29.275747
 30
0.000000
  0
VERTEX
  8
LAYER-2
 10
3.666257
 20
29.275747
 30
0.000000
  0
VERTEX
  8
LAYER-2
 10
3.710047
 20
29.519419
 30
0.000000
  0
SEQEND
  8
LAYER-2
  0
POLYLINE
  8
LAYER-2
 66
  1
 70
  0
 62
  7
 10
3.666257
 20
29.275747
 30
0.000000
  0
VERTEX
  8
LAYER-2
 10
3.666257
 20
29.275747
 30
0.000000
  0
VERTEX
  8
LAYER-2
 10
3.690888
 20
29.313329
 30
0.000000
  0
SEQEND
  8
LAYER-2
  0
POLYLINE
  8
LAYER-2
 66
  1
 70
  0
 62
  7
 10
3.710047
 20
29.519419
 30
0.000000
  0
VERTEX
  8
LAYER-2
 10
3.710047
 20
29.519419
 30
0.000000
  0
VERTEX
  8
LAYER-2
 10
3.685415
 20
29.481835
 30
0.000000
  0
SEQEND
  8
LAYER-2
  0
POLYLINE
  8
LAYER-2
 66
  1
 70
  0
 62
  7
 10
3.710047
 20
29.519419
 30
0.000000
  0
VERTEX
  8
LAYER-2
 10
3.710047
 20
29.519419
 30
0.000000
  0
VERTEX
  8
LAYER-2
 10
3.734678
 20
29.481835
 30
0.000000
  0
SEQEND
  8
LAYER-2
  0
POLYLINE
  8
LAYER-2
 66
  1
 70
  0
 62
  7
 10
3.641626
 20
29.313329
 30
0.000000
  0
VERTEX
  8
LAYER-2
 10
3.641626
 20
29.313329
 30
0.000000
  0
VERTEX
  8
LAYER-2
 10
3.685415
 20
29.481835
 30
0.000000
  0
SEQEND
  8
LAYER-2
  0
POLYLINE
  8
LAYER-2
 66
  1
 70
  0
 62
  7
 10
3.734678
 20
29.481835
 30
0.000000
  0
VERTEX
  8
LAYER-2
 10
3.734678
 20
29.481835
 30
0.000000
  0
VERTEX
  8
LAYER-2
 10
3.734678
 20
29.291246
 30
0.000000
  0
SEQEND
  8
LAYER-2
  0
POLYLINE
  8
LAYER-2
 66
  1
 70
  0
 62
  7
 10
3.690888
 20
29.313329
 30
0.000000
  0
VERTEX
  8
LAYER-2
 10
3.690888
 20
29.313329
 30
0.000000
  0
VERTEX
  8
LAYER-2
 10
3.734678
 20
29.481835
 30
0.000000
  0
SEQEND
  8
LAYER-2
  0
POLYLINE
  8
LAYER-2
 66
  1
 70
  0
 62
  7
 10
3.714864
 20
29.275621
 30
0.000000
  0
VERTEX
  8
LAYER-2
 10
3.714864
 20
29.275621
 30
0.000000
  0
VERTEX
  8
LAYER-2
 10
3.690888
 20
29.313329
 30
0.000000
  0
SEQEND
  8
LAYER-2
  0
POLYLINE
  8
LAYER-2
 66
  1
 70
  0
 62
  7
 10
3.714864
 20
29.275621
 30
0.000000
  0
VERTEX
  8
LAYER-2
 10
3.714864
 20
29.275621
 30
0.000000
  0
VERTEX
  8
LAYER-2
 10
3.734830
 20
29.387601
 30
0.000000
  0
SEQEND
  8
LAYER-2
  0
POLYLINE
  8
LAYER-2
 66
  1
 70
  0
 62
  7
 10
3.714864
 20
29.275621
 30
0.000000
  0
VERTEX
  8
LAYER-2
 10
3.714864
 20
29.275621
 30
0.000000
  0
VERTEX
  8
LAYER-2
 10
3.734678
 20
29.291246
 30
0.000000
  0
SEQEND
  8
LAYER-2
  0
POLYLINE
  8
LAYER-2
 66
  1
 70
  0
 62
  7
 10
2.493718
 20
29.205266
 30
0.000000
  0
VERTEX
  8
LAYER-2
 10
2.493718
 20
29.205266
 30
0.000000
  0
VERTEX
  8
LAYER-2
 10
2.493718
 20
29.602487
 30
0.000000
  0
SEQEND
  8
LAYER-2
  0
POLYLINE
  8
LAYER-2
 66
  1
 70
  0
 62
  7
 10
2.660732
 20
29.313293
 30
0.000000
  0
VERTEX
  8
LAYER-2
 10
2.660732
 20
29.313293
 30
0.000000
  0
VERTEX
  8
LAYER-2
 10
2.519734
 20
29.205266
 30
0.000000
  0
SEQEND
  8
LAYER-2
  0
POLYLINE
  8
LAYER-2
 66
  1
 70
  0
 62
  7
 10
2.660717
 20
29.481835
 30
0.000000
  0
VERTEX
  8
LAYER-2
 10
2.660717
 20
29.481835
 30
0.000000
  0
VERTEX
  8
LAYER-2
 10
2.519734
 20
29.602487
 30
0.000000
  0
SEQEND
  8
LAYER-2
  0
POLYLINE
  8
LAYER-2
 66
  1
 70
  0
 62
  7
 10
2.493718
 20
29.205266
 30
0.000000
  0
VERTEX
  8
LAYER-2
 10
2.493718
 20
29.205266
 30
0.000000
  0
VERTEX
  8
LAYER-2
 10
2.519734
 20
29.205266
 30
0.000000
  0
SEQEND
  8
LAYER-2
  0
POLYLINE
  8
LAYER-2
 66
  1
 70
  0
 62
  7
 10
2.493718
 20
29.602487
 30
0.000000
  0
VERTEX
  8
LAYER-2
 10
2.493718
 20
29.602487
 30
0.000000
  0
VERTEX
  8
LAYER-2
 10
2.519734
 20
29.602487
 30
0.000000
  0
SEQEND
  8
LAYER-2
  0
POLYLINE
  8
LAYER-2
 66
  1
 70
  0
 62
  7
 10
2.519734
 20
29.205266
 30
0.000000
  0
VERTEX
  8
LAYER-2
 10
2.519734
 20
29.205266
 30
0.000000
  0
VERTEX
  8
LAYER-2
 10
2.519734
 20
29.602487
 30
0.000000
  0
SEQEND
  8
LAYER-2
  0
POLYLINE
  8
LAYER-2
 66
  1
 70
  0
 62
  7
 10
3.030967
 20
29.275747
 30
0.000000
  0
VERTEX
  8
LAYER-2
 10
3.030967
 20
29.275747
 30
0.000000
  0
VERTEX
  8
LAYER-2
 10
3.006337
 20
29.313329
 30
0.000000
  0
SEQEND
  8
LAYER-2
  0
POLYLINE
  8
LAYER-2
 66
  1
 70
  0
 62
  7
 10
3.030967
 20
29.275747
 30
0.000000
  0
VERTEX
  8
LAYER-2
 10
3.030967
 20
29.275747
 30
0.000000
  0
VERTEX
  8
LAYER-2
 10
3.055600
 20
29.313329
 30
0.000000
  0
SEQEND
  8
LAYER-2
  0
POLYLINE
  8
LAYER-2
 66
  1
 70
  0
 62
  7
 10
3.074758
 20
29.519419
 30
0.000000
  0
VERTEX
  8
LAYER-2
 10
3.074758
 20
29.519419
 30
0.000000
  0
VERTEX
  8
LAYER-2
 10
3.050125
 20
29.481835
 30
0.000000
  0
SEQEND
  8
LAYER-2
  0
POLYLINE
  8
LAYER-2
 66
  1
 70
  0
 62
  7
 10
3.074758
 20
29.519419
 30
0.000000
  0
VERTEX
  8
LAYER-2
 10
3.074758
 20
29.519419
 30
0.000000
  0
VERTEX
  8
LAYER-2
 10
3.099387
 20
29.481835
 30
0.000000
  0
SEQEND
  8
LAYER-2
  0
POLYLINE
  8
LAYER-2
 66
  1
 70
  0
 62
  7
 10
3.006337
 20
29.313329
 30
0.000000
  0
VERTEX
  8
LAYER-2
 10
3.006337
 20
29.313329
 30
0.000000
  0
VERTEX
  8
LAYER-2
 10
3.050125
 20
29.481835
 30
0.000000
  0
SEQEND
  8
LAYER-2
  0
POLYLINE
  8
LAYER-2
 66
  1
 70
  0
 62
  7
 10
3.030967
 20
29.275747
 30
0.000000
  0
VERTEX
  8
LAYER-2
 10
3.030967
 20
29.275747
 30
0.000000
  0
VERTEX
  8
LAYER-2
 10
3.074758
 20
29.519419
 30
0.000000
  0
SEQEND
  8
LAYER-2
  0
POLYLINE
  8
LAYER-2
 66
  1
 70
  0
 62
  7
 10
3.079837
 20
29.275747
 30
0.000000
  0
VERTEX
  8
LAYER-2
 10
3.079837
 20
29.275747
 30
0.000000
  0
VERTEX
  8
LAYER-2
 10
3.055204
 20
29.313329
 30
0.000000
  0
SEQEND
  8
LAYER-2
  0
POLYLINE
  8
LAYER-2
 66
  1
 70
  0
 62
  7
 10
3.079837
 20
29.275747
 30
0.000000
  0
VERTEX
  8
LAYER-2
 10
3.079837
 20
29.275747
 30
0.000000
  0
VERTEX
  8
LAYER-2
 10
3.104466
 20
29.313329
 30
0.000000
  0
SEQEND
  8
LAYER-2
  0
POLYLINE
  8
LAYER-2
 66
  1
 70
  0
 62
  7
 10
3.123624
 20
29.519419
 30
0.000000
  0
VERTEX
  8
LAYER-2
 10
3.123624
 20
29.519419
 30
0.000000
  0
VERTEX
  8
LAYER-2
 10
3.098995
 20
29.481835
 30
0.000000
  0
SEQEND
  8
LAYER-2
  0
POLYLINE
  8
LAYER-2
 66
  1
 70
  0
 62
  7
 10
3.123624
 20
29.519419
 30
0.000000
  0
VERTEX
  8
LAYER-2
 10
3.123624
 20
29.519419
 30
0.000000
  0
VERTEX
  8
LAYER-2
 10
3.148257
 20
29.481835
 30
0.000000
  0
SEQEND
  8
LAYER-2
  0
POLYLINE
  8
LAYER-2
 66
  1
 70
  0
 62
  7
 10
3.055204
 20
29.313329
 30
0.000000
  0
VERTEX
  8
LAYER-2
 10
3.055204
 20
29.313329
 30
0.000000
  0
VERTEX
  8
LAYER-2
 10
3.098995
 20
29.481835
 30
0.000000
  0
SEQEND
  8
LAYER-2
  0
POLYLINE
  8
LAYER-2
 66
  1
 70
  0
 62
  7
 10
3.079837
 20
29.275747
 30
0.000000
  0
VERTEX
  8
LAYER-2
 10
3.079837
 20
29.275747
 30
0.000000
  0
VERTEX
  8
LAYER-2
 10
3.123624
 20
29.519419
 30
0.000000
  0
SEQEND
  8
LAYER-2
  0
POLYLINE
  8
LAYER-2
 66
  1
 70
  0
 62
  7
 10
3.128703
 20
29.275747
 30
0.000000
  0
VERTEX
  8
LAYER-2
 10
3.128703
 20
29.275747
 30
0.000000
  0
VERTEX
  8
LAYER-2
 10
3.104074
 20
29.313329
 30
0.000000
  0
SEQEND
  8
LAYER-2
  0
POLYLINE
  8
LAYER-2
 66
  1
 70
  0
 62
  7
 10
3.128703
 20
29.275747
 30
0.000000
  0
VERTEX
  8
LAYER-2
 10
3.128703
 20
29.275747
 30
0.000000
  0
VERTEX
  8
LAYER-2
 10
3.153336
 20
29.313329
 30
0.000000
  0
SEQEND
  8
LAYER-2
  0
POLYLINE
  8
LAYER-2
 66
  1
 70
  0
 62
  7
 10
3.172494
 20
29.519419
 30
0.000000
  0
VERTEX
  8
LAYER-2
 10
3.172494
 20
29.519419
 30
0.000000
  0
VERTEX
  8
LAYER-2
 10
3.147861
 20
29.481835
 30
0.000000
  0
SEQEND
  8
LAYER-2
  0
POLYLINE
  8
LAYER-2
 66
  1
 70
  0
 62
  7
 10
3.172494
 20
29.519419
 30
0.000000
  0
VERTEX
  8
LAYER-2
 10
3.172494
 20
29.519419
 30
0.000000
  0
VERTEX
  8
LAYER-2
 10
3.197123
 20
29.481835
 30
0.000000
  0
SEQEND
  8
LAYER-2
  0
POLYLINE
  8
LAYER-2
 66
  1
 70
  0
 62
  7
 10
3.104074
 20
29.313329
 30
0.000000
  0
VERTEX
  8
LAYER-2
 10
3.104074
 20
29.313329
 30
0.000000
  0
VERTEX
  8
LAYER-2
 10
3.147861
 20
29.481835
 30
0.000000
  0
SEQEND
  8
LAYER-2
  0
POLYLINE
  8
LAYER-2
 66
  1
 70
  0
 62
  7
 10
3.128703
 20
29.275747
 30
0.000000
  0
VERTEX
  8
LAYER-2
 10
3.128703
 20
29.275747
 30
0.000000
  0
VERTEX
  8
LAYER-2
 10
3.172494
 20
29.519419
 30
0.000000
  0
SEQEND
  8
LAYER-2
  0
POLYLINE
  8
LAYER-2
 66
  1
 70
  0
 62
  7
 10
3.177573
 20
29.275747
 30
0.000000
  0
VERTEX
  8
LAYER-2
 10
3.177573
 20
29.275747
 30
0.000000
  0
VERTEX
  8
LAYER-2
 10
3.152940
 20
29.313329
 30
0.000000
  0
SEQEND
  8
LAYER-2
  0
POLYLINE
  8
LAYER-2
 66
  1
 70
  0
 62
  7
 10
3.177573
 20
29.275747
 30
0.000000
  0
VERTEX
  8
LAYER-2
 10
3.177573
 20
29.275747
 30
0.000000
  0
VERTEX
  8
LAYER-2
 10
3.202202
 20
29.313329
 30
0.000000
  0
SEQEND
  8
LAYER-2
  0
POLYLINE
  8
LAYER-2
 66
  1
 70
  0
 62
  7
 10
3.221360
 20
29.519419
 30
0.000000
  0
VERTEX
  8
LAYER-2
 10
3.221360
 20
29.519419
 30
0.000000
  0
VERTEX
  8
LAYER-2
 10
3.196729
 20
29.481835
 30
0.000000
  0
SEQEND
  8
LAYER-2
  0
POLYLINE
  8
LAYER-2
 66
  1
 70
  0
 62
  7
 10
3.221360
 20
29.519419
 30
0.000000
  0
VERTEX
  8
LAYER-2
 10
3.221360
 20
29.519419
 30
0.000000
  0
VERTEX
  8
LAYER-2
 10
3.245992
 20
29.481835
 30
0.000000
  0
SEQEND
  8
LAYER-2
  0
POLYLINE
  8
LAYER-2
 66
  1
 70
  0
 62
  7
 10
3.152940
 20
29.313329
 30
0.000000
  0
VERTEX
  8
LAYER-2
 10
3.152940
 20
29.313329
 30
0.000000
  0
VERTEX
  8
LAYER-2
 10
3.196729
 20
29.481835
 30
0.000000
  0
SEQEND
  8
LAYER-2
  0
POLYLINE
  8
LAYER-2
 66
  1
 70
  0
 62
  7
 10
3.177573
 20
29.275747
 30
0.000000
  0
VERTEX
  8
LAYER-2
 10
3.177573
 20
29.275747
 30
0.000000
  0
VERTEX
  8
LAYER-2
 10
3.221360
 20
29.519419
 30
0.000000
  0
SEQEND
  8
LAYER-2
  0
POLYLINE
  8
LAYER-2
 66
  1
 70
  0
 62
  7
 10
3.226439
 20
29.275747
 30
0.000000
  0
VERTEX
  8
LAYER-2
 10
3.226439
 20
29.275747
 30
0.000000
  0
VERTEX
  8
LAYER-2
 10
3.201810
 20
29.313329
 30
0.000000
  0
SEQEND
  8
LAYER-2
  0
POLYLINE
  8
LAYER-2
 66
  1
 70
  0
 62
  7
 10
3.226439
 20
29.275747
 30
0.000000
  0
VERTEX
  8
LAYER-2
 10
3.226439
 20
29.275747
 30
0.000000
  0
VERTEX
  8
LAYER-2
 10
3.251073
 20
29.313329
 30
0.000000
  0
SEQEND
  8
LAYER-2
  0
POLYLINE
  8
LAYER-2
 66
  1
 70
  0
 62
  7
 10
3.270229
 20
29.519419
 30
0.000000
  0
VERTEX
  8
LAYER-2
 10
3.270229
 20
29.519419
 30
0.000000
  0
VERTEX
  8
LAYER-2
 10
3.245598
 20
29.481835
 30
0.000000
  0
SEQEND
  8
LAYER-2
  0
POLYLINE
  8
LAYER-2
 66
  1
 70
  0
 62
  7
 10
3.270229
 20
29.519419
 30
0.000000
  0
VERTEX
  8
LAYER-2
 10
3.270229
 20
29.519419
 30
0.000000
  0
VERTEX
  8
LAYER-2
 10
3.294860
 20
29.481835
 30
0.000000
  0
SEQEND
  8
LAYER-2
  0
POLYLINE
  8
LAYER-2
 66
  1
 70
  0
 62
  7
 10
3.201810
 20
29.313329
 30
0.000000
  0
VERTEX
  8
LAYER-2
 10
3.201810
 20
29.313329
 30
0.000000
  0
VERTEX
  8
LAYER-2
 10
3.245598
 20
29.481835
 30
0.000000
  0
SEQEND
  8
LAYER-2
  0
POLYLINE
  8
LAYER-2
 66
  1
 70
  0
 62
  7
 10
3.226439
 20
29.275747
 30
0.000000
  0
VERTEX
  8
LAYER-2
 10
3.226439
 20
29.275747
 30
0.000000
  0
VERTEX
  8
LAYER-2
 10
3.270229
 20
29.519419
 30
0.000000
  0
SEQEND
  8
LAYER-2
  0
POLYLINE
  8
LAYER-2
 66
  1
 70
  0
 62
  7
 10
3.275310
 20
29.275747
 30
0.000000
  0
VERTEX
  8
LAYER-2
 10
3.275310
 20
29.275747
 30
0.000000
  0
VERTEX
  8
LAYER-2
 10
3.250677
 20
29.313329
 30
0.000000
  0
SEQEND
  8
LAYER-2
  0
POLYLINE
  8
LAYER-2
 66
  1
 70
  0
 62
  7
 10
3.275310
 20
29.275747
 30
0.000000
  0
VERTEX
  8
LAYER-2
 10
3.275310
 20
29.275747
 30
0.000000
  0
VERTEX
  8
LAYER-2
 10
3.299939
 20
29.313329
 30
0.000000
  0
SEQEND
  8
LAYER-2
  0
POLYLINE
  8
LAYER-2
 66
  1
 70
  0
 62
  7
 10
3.319098
 20
29.519419
 30
0.000000
  0
VERTEX
  8
LAYER-2
 10
3.319098
 20
29.519419
 30
0.000000
  0
VERTEX
  8
LAYER-2
 10
3.294466
 20
29.481835
 30
0.000000
  0
SEQEND
  8
LAYER-2
  0
POLYLINE
  8
LAYER-2
 66
  1
 70
  0
 62
  7
 10
3.319098
 20
29.519419
 30
0.000000
  0
VERTEX
  8
LAYER-2
 10
3.319098
 20
29.519419
 30
0.000000
  0
VERTEX
  8
LAYER-2
 10
3.343729
 20
29.481835
 30
0.000000
  0
SEQEND
  8
LAYER-2
  0
POLYLINE
  8
LAYER-2
 66
  1
 70
  0
 62
  7
 10
3.250677
 20
29.313329
 30
0.000000
  0
VERTEX
  8
LAYER-2
 10
3.250677
 20
29.313329
 30
0.000000
  0
VERTEX
  8
LAYER-2
 10
3.294466
 20
29.481835
 30
0.000000
  0
SEQEND
  8
LAYER-2
  0
POLYLINE
  8
LAYER-2
 66
  1
 70
  0
 62
  7
 10
3.275310
 20
29.275747
 30
0.000000
  0
VERTEX
  8
LAYER-2
 10
3.275310
 20
29.275747
 30
0.000000
  0
VERTEX
  8
LAYER-2
 10
3.319098
 20
29.519419
 30
0.000000
  0
SEQEND
  8
LAYER-2
  0
POLYLINE
  8
LAYER-2
 66
  1
 70
  0
 62
  7
 10
3.324176
 20
29.275747
 30
0.000000
  0
VERTEX
  8
LAYER-2
 10
3.324176
 20
29.275747
 30
0.000000
  0
VERTEX
  8
LAYER-2
 10
3.299547
 20
29.313329
 30
0.000000
  0
SEQEND
  8
LAYER-2
  0
POLYLINE
  8
LAYER-2
 66
  1
 70
  0
 62
  7
 10
3.324176
 20
29.275747
 30
0.000000
  0
VERTEX
  8
LAYER-2
 10
3.324176
 20
29.275747
 30
0.000000
  0
VERTEX
  8
LAYER-2
 10
3.348809
 20
29.313329
 30
0.000000
  0
SEQEND
  8
LAYER-2
  0
POLYLINE
  8
LAYER-2
 66
  1
 70
  0
 62
  7
 10
3.367966
 20
29.519419
 30
0.000000
  0
VERTEX
  8
LAYER-2
 10
3.367966
 20
29.519419
 30
0.000000
  0
VERTEX
  8
LAYER-2
 10
3.343334
 20
29.481835
 30
0.000000
  0
SEQEND
  8
LAYER-2
  0
POLYLINE
  8
LAYER-2
 66
  1
 70
  0
 62
  7
 10
3.367966
 20
29.519419
 30
0.000000
  0
VERTEX
  8
LAYER-2
 10
3.367966
 20
29.519419
 30
0.000000
  0
VERTEX
  8
LAYER-2
 10
3.392598
 20
29.481835
 30
0.000000
  0
SEQEND
  8
LAYER-2
  0
POLYLINE
  8
LAYER-2
 66
  1
 70
  0
 62
  7
 10
3.299547
 20
29.313329
 30
0.000000
  0
VERTEX
  8
LAYER-2
 10
3.299547
 20
29.313329
 30
0.000000
  0
VERTEX
  8
LAYER-2
 10
3.343334
 20
29.481835
 30
0.000000
  0
SEQEND
  8
LAYER-2
  0
POLYLINE
  8
LAYER-2
 66
  1
 70
  0
 62
  7
 10
3.324176
 20
29.275747
 30
0.000000
  0
VERTEX
  8
LAYER-2
 10
3.324176
 20
29.275747
 30
0.000000
  0
VERTEX
  8
LAYER-2
 10
3.367966
 20
29.519419
 30
0.000000
  0
SEQEND
  8
LAYER-2
  0
POLYLINE
  8
LAYER-2
 66
  1
 70
  0
 62
  7
 10
2.687215
 20
29.275747
 30
0.000000
  0
VERTEX
  8
LAYER-2
 10
2.687215
 20
29.275747
 30
0.000000
  0
VERTEX
  8
LAYER-2
 10
2.662585
 20
29.313329
 30
0.000000
  0
SEQEND
  8
LAYER-2
  0
POLYLINE
  8
LAYER-2
 66
  1
 70
  0
 62
  7
 10
2.687215
 20
29.275747
 30
0.000000
  0
VERTEX
  8
LAYER-2
 10
2.687215
 20
29.275747
 30
0.000000
  0
VERTEX
  8
LAYER-2
 10
2.711848
 20
29.313329
 30
0.000000
  0
SEQEND
  8
LAYER-2
  0
POLYLINE
  8
LAYER-2
 66
  1
 70
  0
 62
  7
 10
2.731007
 20
29.519419
 30
0.000000
  0
VERTEX
  8
LAYER-2
 10
2.731007
 20
29.519419
 30
0.000000
  0
VERTEX
  8
LAYER-2
 10
2.706373
 20
29.481835
 30
0.000000
  0
SEQEND
  8
LAYER-2
  0
POLYLINE
  8
LAYER-2
 66
  1
 70
  0
 62
  7
 10
2.731007
 20
29.519419
 30
0.000000
  0
VERTEX
  8
LAYER-2
 10
2.731007
 20
29.519419
 30
0.000000
  0
VERTEX
  8
LAYER-2
 10
2.755636
 20
29.481835
 30
0.000000
  0
SEQEND
  8
LAYER-2
  0
POLYLINE
  8
LAYER-2
 66
  1
 70
  0
 62
  7
 10
2.662585
 20
29.313329
 30
0.000000
  0
VERTEX
  8
LAYER-2
 10
2.662585
 20
29.313329
 30
0.000000
  0
VERTEX
  8
LAYER-2
 10
2.706373
 20
29.481835
 30
0.000000
  0
SEQEND
  8
LAYER-2
  0
POLYLINE
  8
LAYER-2
 66
  1
 70
  0
 62
  7
 10
2.687215
 20
29.275747
 30
0.000000
  0
VERTEX
  8
LAYER-2
 10
2.687215
 20
29.275747
 30
0.000000
  0
VERTEX
  8
LAYER-2
 10
2.731007
 20
29.519419
 30
0.000000
  0
SEQEND
  8
LAYER-2
  0
POLYLINE
  8
LAYER-2
 66
  1
 70
  0
 62
  7
 10
2.736086
 20
29.275747
 30
0.000000
  0
VERTEX
  8
LAYER-2
 10
2.736086
 20
29.275747
 30
0.000000
  0
VERTEX
  8
LAYER-2
 10
2.711452
 20
29.313329
 30
0.000000
  0
SEQEND
  8
LAYER-2
  0
POLYLINE
  8
LAYER-2
 66
  1
 70
  0
 62
  7
 10
2.736086
 20
29.275747
 30
0.000000
  0
VERTEX
  8
LAYER-2
 10
2.736086
 20
29.275747
 30
0.000000
  0
VERTEX
  8
LAYER-2
 10
2.760715
 20
29.313329
 30
0.000000
  0
SEQEND
  8
LAYER-2
  0
POLYLINE
  8
LAYER-2
 66
  1
 70
  0
 62
  7
 10
2.779873
 20
29.519419
 30
0.000000
  0
VERTEX
  8
LAYER-2
 10
2.779873
 20
29.519419
 30
0.000000
  0
VERTEX
  8
LAYER-2
 10
2.755244
 20
29.481835
 30
0.000000
  0
SEQEND
  8
LAYER-2
  0
POLYLINE
  8
LAYER-2
 66
  1
 70
  0
 62
  7
 10
2.779873
 20
29.519419
 30
0.000000
  0
VERTEX
  8
LAYER-2
 10
2.779873
 20
29.519419
 30
0.000000
  0
VERTEX
  8
LAYER-2
 10
2.804507
 20
29.481835
 30
0.000000
  0
SEQEND
  8
LAYER-2
  0
POLYLINE
  8
LAYER-2
 66
  1
 70
  0
 62
  7
 10
2.711452
 20
29.313329
 30
0.000000
  0
VERTEX
  8
LAYER-2
 10
2.711452
 20
29.313329
 30
0.000000
  0
VERTEX
  8
LAYER-2
 10
2.755244
 20
29.481835
 30
0.000000
  0
SEQEND
  8
LAYER-2
  0
POLYLINE
  8
LAYER-2
 66
  1
 70
  0
 62
  7
 10
2.736086
 20
29.275747
 30
0.000000
  0
VERTEX
  8
LAYER-2
 10
2.736086
 20
29.275747
 30
0.000000
  0
VERTEX
  8
LAYER-2
 10
2.779873
 20
29.519419
 30
0.000000
  0
SEQEND
  8
LAYER-2
  0
POLYLINE
  8
LAYER-2
 66
  1
 70
  0
 62
  7
 10
2.784952
 20
29.275747
 30
0.000000
  0
VERTEX
  8
LAYER-2
 10
2.784952
 20
29.275747
 30
0.000000
  0
VERTEX
  8
LAYER-2
 10
2.760323
 20
29.313329
 30
0.000000
  0
SEQEND
  8
LAYER-2
  0
POLYLINE
  8
LAYER-2
 66
  1
 70
  0
 62
  7
 10
2.784952
 20
29.275747
 30
0.000000
  0
VERTEX
  8
LAYER-2
 10
2.784952
 20
29.275747
 30
0.000000
  0
VERTEX
  8
LAYER-2
 10
2.809586
 20
29.313329
 30
0.000000
  0
SEQEND
  8
LAYER-2
  0
POLYLINE
  8
LAYER-2
 66
  1
 70
  0
 62
  7
 10
2.828744
 20
29.519419
 30
0.000000
  0
VERTEX
  8
LAYER-2
 10
2.828744
 20
29.519419
 30
0.000000
  0
VERTEX
  8
LAYER-2
 10
2.804111
 20
29.481835
 30
0.000000
  0
SEQEND
  8
LAYER-2
  0
POLYLINE
  8
LAYER-2
 66
  1
 70
  0
 62
  7
 10
2.828744
 20
29.519419
 30
0.000000
  0
VERTEX
  8
LAYER-2
 10
2.828744
 20
29.519419
 30
0.000000
  0
VERTEX
  8
LAYER-2
 10
2.853373
 20
29.481835
 30
0.000000
  0
SEQEND
  8
LAYER-2
  0
POLYLINE
  8
LAYER-2
 66
  1
 70
  0
 62
  7
 10
2.760323
 20
29.313329
 30
0.000000
  0
VERTEX
  8
LAYER-2
 10
2.760323
 20
29.313329
 30
0.000000
  0
VERTEX
  8
LAYER-2
 10
2.804111
 20
29.481835
 30
0.000000
  0
SEQEND
  8
LAYER-2
  0
POLYLINE
  8
LAYER-2
 66
  1
 70
  0
 62
  7
 10
2.784952
 20
29.275747
 30
0.000000
  0
VERTEX
  8
LAYER-2
 10
2.784952
 20
29.275747
 30
0.000000
  0
VERTEX
  8
LAYER-2
 10
2.828744
 20
29.519419
 30
0.000000
  0
SEQEND
  8
LAYER-2
  0
POLYLINE
  8
LAYER-2
 66
  1
 70
  0
 62
  7
 10
2.833822
 20
29.275747
 30
0.000000
  0
VERTEX
  8
LAYER-2
 10
2.833822
 20
29.275747
 30
0.000000
  0
VERTEX
  8
LAYER-2
 10
2.809189
 20
29.313329
 30
0.000000
  0
SEQEND
  8
LAYER-2
  0
POLYLINE
  8
LAYER-2
 66
  1
 70
  0
 62
  7
 10
2.833822
 20
29.275747
 30
0.000000
  0
VERTEX
  8
LAYER-2
 10
2.833822
 20
29.275747
 30
0.000000
  0
VERTEX
  8
LAYER-2
 10
2.858452
 20
29.313329
 30
0.000000
  0
SEQEND
  8
LAYER-2
  0
POLYLINE
  8
LAYER-2
 66
  1
 70
  0
 62
  7
 10
2.877610
 20
29.519419
 30
0.000000
  0
VERTEX
  8
LAYER-2
 10
2.877610
 20
29.519419
 30
0.000000
  0
VERTEX
  8
LAYER-2
 10
2.852979
 20
29.481835
 30
0.000000
  0
SEQEND
  8
LAYER-2
  0
POLYLINE
  8
LAYER-2
 66
  1
 70
  0
 62
  7
 10
2.877610
 20
29.519419
 30
0.000000
  0
VERTEX
  8
LAYER-2
 10
2.877610
 20
29.519419
 30
0.000000
  0
VERTEX
  8
LAYER-2
 10
2.902242
 20
29.481835
 30
0.000000
  0
SEQEND
  8
LAYER-2
  0
POLYLINE
  8
LAYER-2
 66
  1
 70
  0
 62
  7
 10
2.809189
 20
29.313329
 30
0.000000
  0
VERTEX
  8
LAYER-2
 10
2.809189
 20
29.313329
 30
0.000000
  0
VERTEX
  8
LAYER-2
 10
2.852979
 20
29.481835
 30
0.000000
  0
SEQEND
  8
LAYER-2
  0
POLYLINE
  8
LAYER-2
 66
  1
 70
  0
 62
  7
 10
2.833822
 20
29.275747
 30
0.000000
  0
VERTEX
  8
LAYER-2
 10
2.833822
 20
29.275747
 30
0.000000
  0
VERTEX
  8
LAYER-2
 10
2.877610
 20
29.519419
 30
0.000000
  0
SEQEND
  8
LAYER-2
  0
POLYLINE
  8
LAYER-2
 66
  1
 70
  0
 62
  7
 10
2.882689
 20
29.275747
 30
0.000000
  0
VERTEX
  8
LAYER-2
 10
2.882689
 20
29.275747
 30
0.000000
  0
VERTEX
  8
LAYER-2
 10
2.858060
 20
29.313329
 30
0.000000
  0
SEQEND
  8
LAYER-2
  0
POLYLINE
  8
LAYER-2
 66
  1
 70
  0
 62
  7
 10
2.882689
 20
29.275747
 30
0.000000
  0
VERTEX
  8
LAYER-2
 10
2.882689
 20
29.275747
 30
0.000000
  0
VERTEX
  8
LAYER-2
 10
2.907322
 20
29.313329
 30
0.000000
  0
SEQEND
  8
LAYER-2
  0
POLYLINE
  8
LAYER-2
 66
  1
 70
  0
 62
  7
 10
2.926478
 20
29.519419
 30
0.000000
  0
VERTEX
  8
LAYER-2
 10
2.926478
 20
29.519419
 30
0.000000
  0
VERTEX
  8
LAYER-2
 10
2.901847
 20
29.481835
 30
0.000000
  0
SEQEND
  8
LAYER-2
  0
POLYLINE
  8
LAYER-2
 66
  1
 70
  0
 62
  7
 10
2.926478
 20
29.519419
 30
0.000000
  0
VERTEX
  8
LAYER-2
 10
2.926478
 20
29.519419
 30
0.000000
  0
VERTEX
  8
LAYER-2
 10
2.951110
 20
29.481835
 30
0.000000
  0
SEQEND
  8
LAYER-2
  0
POLYLINE
  8
LAYER-2
 66
  1
 70
  0
 62
  7
 10
2.858060
 20
29.313329
 30
0.000000
  0
VERTEX
  8
LAYER-2
 10
2.858060
 20
29.313329
 30
0.000000
  0
VERTEX
  8
LAYER-2
 10
2.901847
 20
29.481835
 30
0.000000
  0
SEQEND
  8
LAYER-2
  0
POLYLINE
  8
LAYER-2
 66
  1
 70
  0
 62
  7
 10
2.882689
 20
29.275747
 30
0.000000
  0
VERTEX
  8
LAYER-2
 10
2.882689
 20
29.275747
 30
0.000000
  0
VERTEX
  8
LAYER-2
 10
2.926478
 20
29.519419
 30
0.000000
  0
SEQEND
  8
LAYER-2
  0
POLYLINE
  8
LAYER-2
 66
  1
 70
  0
 62
  7
 10
2.931560
 20
29.275747
 30
0.000000
  0
VERTEX
  8
LAYER-2
 10
2.931560
 20
29.275747
 30
0.000000
  0
VERTEX
  8
LAYER-2
 10
2.906926
 20
29.313329
 30
0.000000
  0
SEQEND
  8
LAYER-2
  0
POLYLINE
  8
LAYER-2
 66
  1
 70
  0
 62
  7
 10
2.931560
 20
29.275747
 30
0.000000
  0
VERTEX
  8
LAYER-2
 10
2.931560
 20
29.275747
 30
0.000000
  0
VERTEX
  8
LAYER-2
 10
2.956189
 20
29.313329
 30
0.000000
  0
SEQEND
  8
LAYER-2
  0
POLYLINE
  8
LAYER-2
 66
  1
 70
  0
 62
  7
 10
2.975347
 20
29.519419
 30
0.000000
  0
VERTEX
  8
LAYER-2
 10
2.975347
 20
29.519419
 30
0.000000
  0
VERTEX
  8
LAYER-2
 10
2.950716
 20
29.481835
 30
0.000000
  0
SEQEND
  8
LAYER-2
  0
POLYLINE
  8
LAYER-2
 66
  1
 70
  0
 62
  7
 10
2.975347
 20
29.519419
 30
0.000000
  0
VERTEX
  8
LAYER-2
 10
2.975347
 20
29.519419
 30
0.000000
  0
VERTEX
  8
LAYER-2
 10
2.999979
 20
29.481835
 30
0.000000
  0
SEQEND
  8
LAYER-2
  0
POLYLINE
  8
LAYER-2
 66
  1
 70
  0
 62
  7
 10
2.906926
 20
29.313329
 30
0.000000
  0
VERTEX
  8
LAYER-2
 10
2.906926
 20
29.313329
 30
0.000000
  0
VERTEX
  8
LAYER-2
 10
2.950716
 20
29.481835
 30
0.000000
  0
SEQEND
  8
LAYER-2
  0
POLYLINE
  8
LAYER-2
 66
  1
 70
  0
 62
  7
 10
2.931560
 20
29.275747
 30
0.000000
  0
VERTEX
  8
LAYER-2
 10
2.931560
 20
29.275747
 30
0.000000
  0
VERTEX
  8
LAYER-2
 10
2.975347
 20
29.519419
 30
0.000000
  0
SEQEND
  8
LAYER-2
  0
POLYLINE
  8
LAYER-2
 66
  1
 70
  0
 62
  7
 10
2.980426
 20
29.275747
 30
0.000000
  0
VERTEX
  8
LAYER-2
 10
2.980426
 20
29.275747
 30
0.000000
  0
VERTEX
  8
LAYER-2
 10
2.955796
 20
29.313329
 30
0.000000
  0
SEQEND
  8
LAYER-2
  0
POLYLINE
  8
LAYER-2
 66
  1
 70
  0
 62
  7
 10
2.980426
 20
29.275747
 30
0.000000
  0
VERTEX
  8
LAYER-2
 10
2.980426
 20
29.275747
 30
0.000000
  0
VERTEX
  8
LAYER-2
 10
3.005060
 20
29.313329
 30
0.000000
  0
SEQEND
  8
LAYER-2
  0
POLYLINE
  8
LAYER-2
 66
  1
 70
  0
 62
  7
 10
3.024216
 20
29.519419
 30
0.000000
  0
VERTEX
  8
LAYER-2
 10
3.024216
 20
29.519419
 30
0.000000
  0
VERTEX
  8
LAYER-2
 10
2.999585
 20
29.481835
 30
0.000000
  0
SEQEND
  8
LAYER-2
  0
POLYLINE
  8
LAYER-2
 66
  1
 70
  0
 62
  7
 10
3.024216
 20
29.519419
 30
0.000000
  0
VERTEX
  8
LAYER-2
 10
3.024216
 20
29.519419
 30
0.000000
  0
VERTEX
  8
LAYER-2
 10
3.048847
 20
29.481835
 30
0.000000
  0
SEQEND
  8
LAYER-2
  0
POLYLINE
  8
LAYER-2
 66
  1
 70
  0
 62
  7
 10
2.955796
 20
29.313329
 30
0.000000
  0
VERTEX
  8
LAYER-2
 10
2.955796
 20
29.313329
 30
0.000000
  0
VERTEX
  8
LAYER-2
 10
2.999585
 20
29.481835
 30
0.000000
  0
SEQEND
  8
LAYER-2
  0
POLYLINE
  8
LAYER-2
 66
  1
 70
  0
 62
  7
 10
2.980426
 20
29.275747
 30
0.000000
  0
VERTEX
  8
LAYER-2
 10
2.980426
 20
29.275747
 30
0.000000
  0
VERTEX
  8
LAYER-2
 10
3.024216
 20
29.519419
 30
0.000000
  0
SEQEND
  8
LAYER-2
  0
POLYLINE
  8
LAYER-2
 66
  1
 70
  0
 62
  7
 10
2.660717
 20
29.481835
 30
0.000000
  0
VERTEX
  8
LAYER-2
 10
2.660717
 20
29.481835
 30
0.000000
  0
VERTEX
  8
LAYER-2
 10
2.660717
 20
29.313329
 30
0.000000
  0
SEQEND
  8
LAYER-2
  0
POLYLINE
  8
LAYER-2
 66
  1
 70
  0
 62
  7
 10
2.660717
 20
29.481835
 30
0.000000
  0
VERTEX
  8
LAYER-2
 10
2.660717
 20
29.481835
 30
0.000000
  0
VERTEX
  8
LAYER-2
 10
2.706373
 20
29.481835
 30
0.000000
  0
SEQEND
  8
LAYER-2
  0
ARC
  8
LAYER-2
 62
  7
 10
26.176230
 20
29.329956
 30
0.000000
 40
3.805654
 50
353.482910
 51
13.028381
  0
ARC
  8
LAYER-2
 62
  7
 10
21.414523
 20
30.057249
 30
0.000000
 40
8.621060
 50
343.905182
 51
352.272278
  0
ARC
  8
LAYER-2
 62
  7
 10
32.847818
 20
26.692439
 30
0.000000
 40
3.297724
 50
162.791931
 51
182.596436
  0
ARC
  8
LAYER-2
 62
  7
 10
29.862762
 20
26.578977
 30
0.000000
 40
0.311491
 50
186.771973
 51
273.894714
  0
ARC
  8
LAYER-2
 62
  7
 10
29.768968
 20
26.570115
 30
0.000000
 40
0.323053
 50
290.844269
 51
358.467255
  0
ARC
  8
LAYER-2
 62
  7
 10
26.185512
 20
26.767292
 30
0.000000
 40
3.911811
 50
356.984070
 51
20.819244
  0
POLYLINE
  8
LAYER-2
 66
  1
 70
  1
 62
255
  0
VERTEX
  8
LAYER-2
 10
5.255443
 20
28.580696
 30
0.000000
  0
VERTEX
  8
LAYER-2
 10
25.909093
 20
28.580696
 30
0.000000
  0
VERTEX
  8
LAYER-2
 10
25.909093
 20
26.994164
 30
0.000000
  0
VERTEX
  8
LAYER-2
 10
5.255443
 20
26.994164
 30
0.000000
  0
SEQEND
  8
LAYER-2
  0
POLYLINE
  8
LAYER-2
 66
  1
 70
  1
 62
255
  0
VERTEX
  8
LAYER-2
 10
5.255443
 20
28.904147
 30
0.000000
  0
VERTEX
  8
LAYER-2
 10
25.909093
 20
28.904147
 30
0.000000
  0
VERTEX
  8
LAYER-2
 10
25.909093
 20
28.792232
 30
0.000000
  0
VERTEX
  8
LAYER-2
 10
5.255443
 20
28.792232
 30
0.000000
  0
SEQEND
  8
LAYER-2
  0
POLYLINE
  8
LAYER-2
 66
  1
 70
  1
 62
255
  0
VERTEX
  8
LAYER-2
 10
5.255443
 20
28.792232
 30
0.000000
  0
VERTEX
  8
LAYER-2
 10
25.909093
 20
28.792232
 30
0.000000
  0
VERTEX
  8
LAYER-2
 10
25.909093
 20
28.724933
 30
0.000000
  0
VERTEX
  8
LAYER-2
 10
5.255443
 20
28.724933
 30
0.000000
  0
SEQEND
  8
LAYER-2
  0
POLYLINE
  8
LAYER-2
 66
  1
 70
  1
 62
255
  0
VERTEX
  8
LAYER-2
 10
5.255443
 20
28.982145
 30
0.000000
  0
VERTEX
  8
LAYER-2
 10
25.909093
 20
28.982145
 30
0.000000
  0
VERTEX
  8
LAYER-2
 10
25.909093
 20
28.904147
 30
0.000000
  0
VERTEX
  8
LAYER-2
 10
5.255443
 20
28.904147
 30
0.000000
  0
SEQEND
  8
LAYER-2
  0
POLYLINE
  8
LAYER-2
 66
  1
 70
  1
 62
  7
  0
VERTEX
  8
LAYER-2
 10
3.832831
 20
29.379319
 30
0.000000
  0
VERTEX
  8
LAYER-2
 10
5.249495
 20
29.379319
 30
0.000000
  0
VERTEX
  8
LAYER-2
 10
5.249495
 20
26.948768
 30
0.000000
  0
VERTEX
  8
LAYER-2
 10
3.832831
 20
26.948768
 30
0.000000
  0
SEQEND
  8
LAYER-2
  0
POLYLINE
  8
LAYER-2
 66
  1
 70
  1
 62
  7
  0
VERTEX
  8
LAYER-2
 10
3.832831
 20
27.872378
 30
0.000000
  0
VERTEX
  8
LAYER-2
 10
4.909218
 20
27.872378
 30
0.000000
  0
VERTEX
  8
LAYER-2
 10
4.909218
 20
27.650151
 30
0.000000
  0
VERTEX
  8
LAYER-2
 10
3.832831
 20
27.650151
 30
0.000000
  0
SEQEND
  8
LAYER-2
  0
POLYLINE
  8
LAYER-2
 66
  1
 70
  1
 62
  7
 10
4.909218
 20
27.650151
 30
0.000000
  0
VERTEX
  8
LAYER-2
 10
4.909218
 20
27.650151
 30
0.000000
  0
VERTEX
  8
LAYER-2
 10
5.061996
 20
27.684878
 30
0.000000
  0
VERTEX
  8
LAYER-2
 10
5.061996
 20
27.830712
 30
0.000000
  0
VERTEX
  8
LAYER-2
 10
4.909218
 20
27.872378
 30
0.000000
  0
SEQEND
  8
LAYER-2
  0
POLYLINE
  8
LAYER-2
 66
  1
 70
  0
 62
  7
 10
4.909218
 20
27.809878
 30
0.000000
  0
VERTEX
  8
LAYER-2
 10
4.909218
 20
27.809878
 30
0.000000
  0
VERTEX
  8
LAYER-2
 10
3.832831
 20
27.809878
 30
0.000000
  0
SEQEND
  8
LAYER-2
  0
POLYLINE
  8
LAYER-2
 66
  1
 70
  0
 62
  7
 10
3.962983
 20
30.187876
 30
0.000000
  0
VERTEX
  8
LAYER-2
 10
3.962983
 20
30.187876
 30
0.000000
  0
VERTEX
  8
LAYER-2
 10
3.962983
 20
26.149414
 30
0.000000
  0
SEQEND
  8
LAYER-2
  0
POLYLINE
  8
LAYER-2
 66
  1
 70
  0
 62
  7
 10
25.919797
 20
30.066763
 30
0.000000
  0
VERTEX
  8
LAYER-2
 10
25.919797
 20
30.066763
 30
0.000000
  0
VERTEX
  8
LAYER-2
 10
25.919797
 20
26.271322
 30
0.000000
  0
SEQEND
  8
LAYER-2
  0
POLYLINE
  8
LAYER-2
 66
  1
 70
  1
 62
  7
  0
VERTEX
  8
LAYER-2
 10
3.834096
 20
30.187876
 30
0.000000
  0
VERTEX
  8
LAYER-2
 10
3.962983
 20
30.187876
 30
0.000000
  0
VERTEX
  8
LAYER-2
 10
3.962983
 20
26.151015
 30
0.000000
  0
VERTEX
  8
LAYER-2
 10
3.834096
 20
26.151015
 30
0.000000
  0
SEQEND
  8
LAYER-2
  0
POLYLINE
  8
LAYER-2
 66
  1
 70
  1
 62
  7
  0
VERTEX
  8
LAYER-2
 10
3.962983
 20
30.065082
 30
0.000000
  0
VERTEX
  8
LAYER-2
 10
5.177845
 20
30.065082
 30
0.000000
  0
VERTEX
  8
LAYER-2
 10
5.177845
 20
26.268203
 30
0.000000
  0
VERTEX
  8
LAYER-2
 10
3.962983
 20
26.268203
 30
0.000000
  0
SEQEND
  8
LAYER-2
  0
POLYLINE
  8
LAYER-2
 66
  1
 70
  0
 62
  7
 10
3.455851
 20
26.731013
 30
0.000000
  0
VERTEX
  8
LAYER-2
 10
3.455851
 20
26.731013
 30
0.000000
  0
VERTEX
  8
LAYER-2
 10
3.455851
 20
26.092111
 30
0.000000
  0
SEQEND
  8
LAYER-2
  0
POLYLINE
  8
LAYER-2
 66
  1
 70
  0
 62
  7
 10
3.705851
 20
26.731013
 30
0.000000
  0
VERTEX
  8
LAYER-2
 10
3.705851
 20
26.731013
 30
0.000000
  0
VERTEX
  8
LAYER-2
 10
3.705851
 20
26.092111
 30
0.000000
  0
SEQEND
  8
LAYER-2
  0
ARC
  8
LAYER-2
 62
  7
 10
2.989079
 20
26.125183
 30
0.000000
 40
0.467455
 50
280.179626
 51
356.901917
  0
ARC
  8
LAYER-2
 62
  7
 10
3.026791
 20
26.092698
 30
0.000000
 40
0.679099
 50
273.791351
 51
0.609375
  0
ARC
  8
LAYER-2
 62
  7
 10
2.195438
 20
24.803983
 30
0.000000
 40
0.862203
 50
86.892548
 51
167.421814
  0
ARC
  8
LAYER-2
 62
  7
 10
0.859498
 20
24.085001
 30
0.000000
 40
0.379796
 50
188.441589
 51
351.558411
  0
ARC
  8
LAYER-2
 62
  7
 10
2.195435
 20
24.803988
 30
0.000000
 40
0.614399
 50
86.892273
 51
167.422180
  0
ARC
  8
LAYER-2
 62
  7
 10
0.857635
 20
24.087745
 30
0.000000
 40
0.628813
 50
188.153015
 51
351.446869
  0
POLYLINE
  8
LAYER-2
 66
  1
 70
  0
 62
  7
 10
1.353928
 20
24.991746
 30
0.000000
  0
VERTEX
  8
LAYER-2
 10
1.353928
 20
24.991746
 30
0.000000
  0
VERTEX
  8
LAYER-2
 10
1.235179
 20
24.029245
 30
0.000000
  0
SEQEND
  8
LAYER-2
  0
POLYLINE
  8
LAYER-2
 66
  1
 70
  0
 62
  7
 10
1.602577
 20
24.961069
 30
0.000000
  0
VERTEX
  8
LAYER-2
 10
1.602577
 20
24.961069
 30
0.000000
  0
VERTEX
  8
LAYER-2
 10
1.483828
 20
23.998568
 30
0.000000
  0
SEQEND
  8
LAYER-2
  0
POLYLINE
  8
LAYER-2
 66
  1
 70
  0
 62
  7
 10
0.376816
 20
24.922434
 30
0.000000
  0
VERTEX
  8
LAYER-2
 10
0.376816
 20
24.922434
 30
0.000000
  0
VERTEX
  8
LAYER-2
 10
0.483817
 20
24.029245
 30
0.000000
  0
SEQEND
  8
LAYER-2
  0
POLYLINE
  8
LAYER-2
 66
  1
 70
  0
 62
  7
 10
0.102712
 20
24.922436
 30
0.000000
  0
VERTEX
  8
LAYER-2
 10
0.102712
 20
24.922436
 30
0.000000
  0
VERTEX
  8
LAYER-2
 10
0.235177
 20
23.998568
 30
0.000000
  0
SEQEND
  8
LAYER-2
  0
POLYLINE
  8
LAYER-2
 66
  1
 70
  0
 62
  7
 10
0.192912
 20
24.927565
 30
0.000000
  0
VERTEX
  8
LAYER-2
 10
0.192912
 20
24.927565
 30
0.000000
  0
VERTEX
  8
LAYER-2
 10
0.172847
 20
24.930979
 30
0.000000
  0
VERTEX
  8
LAYER-2
 10
0.154694
 20
24.931185
 30
0.000000
  0
VERTEX
  8
LAYER-2
 10
0.136570
 20
24.930155
 30
0.000000
  0
VERTEX
  8
LAYER-2
 10
0.118559
 20
24.927889
 30
0.000000
  0
VERTEX
  8
LAYER-2
 10
0.100743
 20
24.924406
 30
0.000000
  0
VERTEX
  8
LAYER-2
 10
0.102712
 20
24.922436
 30
0.000000
  0
SEQEND
  8
LAYER-2
  0
POLYLINE
  8
LAYER-2
 66
  1
 70
  0
 62
  7
 10
0.278985
 20
24.909410
 30
0.000000
  0
VERTEX
  8
LAYER-2
 10
0.278985
 20
24.909410
 30
0.000000
  0
VERTEX
  8
LAYER-2
 10
0.260027
 20
24.916011
 30
0.000000
  0
VERTEX
  8
LAYER-2
 10
0.242912
 20
24.920147
 30
0.000000
  0
VERTEX
  8
LAYER-2
 10
0.225684
 20
24.923781
 30
0.000000
  0
VERTEX
  8
LAYER-2
 10
0.208357
 20
24.926913
 30
0.000000
  0
VERTEX
  8
LAYER-2
 10
0.190946
 20
24.929533
 30
0.000000
  0
VERTEX
  8
LAYER-2
 10
0.192916
 20
24.927565
 30
0.000000
  0
SEQEND
  8
LAYER-2
  0
POLYLINE
  8
LAYER-2
 66
  1
 70
  0
 62
  7
 10
0.278981
 20
24.909410
 30
0.000000
  0
VERTEX
  8
LAYER-2
 10
0.278981
 20
24.909410
 30
0.000000
  0
VERTEX
  8
LAYER-2
 10
0.292390
 20
24.907191
 30
0.000000
  0
VERTEX
  8
LAYER-2
 10
0.308022
 20
24.904076
 30
0.000000
  0
VERTEX
  8
LAYER-2
 10
0.323831
 20
24.902053
 30
0.000000
  0
VERTEX
  8
LAYER-2
 10
0.339743
 20
24.901121
 30
0.000000
  0
VERTEX
  8
LAYER-2
 10
0.355681
 20
24.901292
 30
0.000000
  0
VERTEX
  8
LAYER-2
 10
0.357650
 20
24.899325
 30
0.000000
  0
SEQEND
  8
LAYER-2
  0
POLYLINE
  8
LAYER-2
 66
  1
 70
  0
 62
  7
 10
0.357650
 20
24.899325
 30
0.000000
  0
VERTEX
  8
LAYER-2
 10
0.357650
 20
24.899325
 30
0.000000
  0
VERTEX
  8
LAYER-2
 10
0.362041
 20
24.903055
 30
0.000000
  0
VERTEX
  8
LAYER-2
 10
0.367581
 20
24.906640
 30
0.000000
  0
VERTEX
  8
LAYER-2
 10
0.371793
 20
24.911720
 30
0.000000
  0
VERTEX
  8
LAYER-2
 10
0.374291
 20
24.917828
 30
0.000000
  0
VERTEX
  8
LAYER-2
 10
0.376812
 20
24.922436
 30
0.000000
  0
SEQEND
  8
LAYER-2
  0
POLYLINE
  8
LAYER-2
 66
  1
 70
  0
 62
  7
 10
0.376816
 20
24.922434
 30
0.000000
  0
VERTEX
  8
LAYER-2
 10
0.376816
 20
24.922434
 30
0.000000
  0
VERTEX
  8
LAYER-2
 10
0.372383
 20
24.929115
 30
0.000000
  0
VERTEX
  8
LAYER-2
 10
0.368884
 20
24.933124
 30
0.000000
  0
VERTEX
  8
LAYER-2
 10
0.364544
 20
24.936202
 30
0.000000
  0
VERTEX
  8
LAYER-2
 10
0.359605
 20
24.938178
 30
0.000000
  0
VERTEX
  8
LAYER-2
 10
0.356308
 20
24.936979
 30
0.000000
  0
SEQEND
  8
LAYER-2
  0
POLYLINE
  8
LAYER-2
 66
  1
 70
  0
 62
  7
 10
0.356308
 20
24.936977
 30
0.000000
  0
VERTEX
  8
LAYER-2
 10
0.356308
 20
24.936977
 30
0.000000
  0
VERTEX
  8
LAYER-2
 10
0.248702
 20
24.923659
 30
0.000000
  0
VERTEX
  8
LAYER-2
 10
0.244689
 20
24.919495
 30
0.000000
  0
SEQEND
  8
LAYER-2
  0
POLYLINE
  8
LAYER-2
 66
  1
 70
  1
 62
  7
  0
VERTEX
  8
LAYER-2
 10
5.255443
 20
29.327238
 30
0.000000
  0
VERTEX
  8
LAYER-2
 10
25.909093
 20
29.327238
 30
0.000000
  0
VERTEX
  8
LAYER-2
 10
25.909093
 20
26.994164
 30
0.000000
  0
VERTEX
  8
LAYER-2
 10
5.255443
 20
26.994164
 30
0.000000
  0
SEQEND
  8
LAYER-2
  0
POLYLINE
  8
LAYER-2
 66
  1
 70
  1
 62
255
  0
VERTEX
  8
LAYER-2
 10
5.255443
 20
29.327238
 30
0.000000
  0
VERTEX
  8
LAYER-2
 10
25.909093
 20
29.327238
 30
0.000000
  0
VERTEX
  8
LAYER-2
 10
25.909093
 20
29.114089
 30
0.000000
  0
VERTEX
  8
LAYER-2
 10
5.255443
 20
29.114089
 30
0.000000
  0
SEQEND
  8
LAYER-2
  0
CIRCLE
  8
LAYER-2
 62
  7
 10
25.687582
 20
28.128782
 30
0.000000
 40
0.091346
  0
CIRCLE
  8
LAYER-2
 62
  9
 10
25.687582
 20
28.148006
 30
0.000000
 40
0.063435
  0
POLYLINE
  8
LAYER-2
 66
  1
 70
  0
 62
  7
 10
25.564986
 20
27.244173
 30
0.000000
  0
VERTEX
  8
LAYER-2
 10
25.564986
 20
27.244173
 30
0.000000
  0
VERTEX
  8
LAYER-2
 10
25.909093
 20
27.244173
 30
0.000000
  0
SEQEND
  8
LAYER-2
  0
POLYLINE
  8
LAYER-2
 66
  1
 70
  0
 62
  7
 10
25.909093
 20
27.244173
 30
0.000000
  0
VERTEX
  8
LAYER-2
 10
25.909093
 20
27.244173
 30
0.000000
  0
VERTEX
  8
LAYER-2
 10
25.909093
 20
27.373979
 30
0.000000
  0
SEQEND
  8
LAYER-2
  0
POLYLINE
  8
LAYER-2
 66
  1
 70
  0
 62
  7
 10
25.909093
 20
27.373979
 30
0.000000
  0
VERTEX
  8
LAYER-2
 10
25.909093
 20
27.373979
 30
0.000000
  0
VERTEX
  8
LAYER-2
 10
25.564986
 20
27.373979
 30
0.000000
  0
SEQEND
  8
LAYER-2
  0
ARC
  8
LAYER-2
 62
  7
 10
25.564986
 20
27.309077
 30
0.000000
 40
0.064903
 50
90.000000
 51
270.000000
  0
POLYLINE
  8
LAYER-2
 66
  1
 70
  1
 62
  7
  0
VERTEX
  8
LAYER-2
 10
25.911140
 20
28.744162
 30
0.000000
  0
VERTEX
  8
LAYER-2
 10
27.132294
 20
28.744162
 30
0.000000
  0
VERTEX
  8
LAYER-2
 10
27.132294
 20
27.580698
 30
0.000000
  0
VERTEX
  8
LAYER-2
 10
25.911140
 20
27.580698
 30
0.000000
  0
SEQEND
  8
LAYER-2
  0
POLYLINE
  8
LAYER-2
 66
  1
 70
  1
 62
  7
  0
VERTEX
  8
LAYER-2
 10
27.189988
 20
28.744162
 30
0.000000
  0
VERTEX
  8
LAYER-2
 10
27.319794
 20
28.744162
 30
0.000000
  0
VERTEX
  8
LAYER-2
 10
27.319794
 20
27.580698
 30
0.000000
  0
VERTEX
  8
LAYER-2
 10
27.189988
 20
27.580698
 30
0.000000
  0
SEQEND
  8
LAYER-2
  0
POLYLINE
  8
LAYER-2
 66
  1
 70
  1
 62
  7
  0
VERTEX
  8
LAYER-2
 10
27.132294
 20
28.679253
 30
0.000000
  0
VERTEX
  8
LAYER-2
 10
27.189988
 20
28.679253
 30
0.000000
  0
VERTEX
  8
LAYER-2
 10
27.189988
 20
27.648001
 30
0.000000
  0
VERTEX
  8
LAYER-2
 10
27.132294
 20
27.648001
 30
0.000000
  0
SEQEND
  8
LAYER-2
  0
POLYLINE
  8
LAYER-2
 66
  1
 70
  0
 62
  7
 10
26.310178
 20
28.162436
 30
0.000000
  0
VERTEX
  8
LAYER-2
 10
26.310178
 20
28.162436
 30
0.000000
  0
VERTEX
  8
LAYER-2
 10
26.923159
 20
28.162436
 30
0.000000
  0
SEQEND
  8
LAYER-2
  0
POLYLINE
  8
LAYER-2
 66
  1
 70
  0
 62
  7
 10
27.019313
 20
28.066282
 30
0.000000
  0
VERTEX
  8
LAYER-2
 10
27.019313
 20
28.066282
 30
0.000000
  0
VERTEX
  8
LAYER-2
 10
27.019313
 20
28.066282
 30
0.000000
  0
SEQEND
  8
LAYER-2
  0
POLYLINE
  8
LAYER-2
 66
  1
 70
  0
 62
  7
 10
26.923159
 20
27.970128
 30
0.000000
  0
VERTEX
  8
LAYER-2
 10
26.923159
 20
27.970128
 30
0.000000
  0
VERTEX
  8
LAYER-2
 10
26.310178
 20
27.970128
 30
0.000000
  0
SEQEND
  8
LAYER-2
  0
POLYLINE
  8
LAYER-2
 66
  1
 70
  0
 62
  7
 10
26.214024
 20
28.066282
 30
0.000000
  0
VERTEX
  8
LAYER-2
 10
26.214024
 20
28.066282
 30
0.000000
  0
VERTEX
  8
LAYER-2
 10
26.214024
 20
28.066282
 30
0.000000
  0
SEQEND
  8
LAYER-2
  0
ARC
  8
LAYER-2
 62
  7
 10
26.310178
 20
28.066282
 30
0.000000
 40
0.096154
 50
90.000000
 51
180.000000
  0
ARC
  8
LAYER-2
 62
  7
 10
26.310178
 20
28.066282
 30
0.000000
 40
0.096154
 50
180.000000
 51
270.000000
  0
ARC
  8
LAYER-2
 62
  7
 10
26.923159
 20
28.066282
 30
0.000000
 40
0.096154
 50
270.000000
 51
0.000000
  0
ARC
  8
LAYER-2
 62
  7
 10
26.923159
 20
28.066282
 30
0.000000
 40
0.096154
 50
0.000000
 51
90.000000
  0
POLYLINE
  8
LAYER-2
 66
  1
 70
  1
 62
  7
  0
VERTEX
  8
LAYER-2
 10
25.921208
 20
28.915959
 30
0.000000
  0
VERTEX
  8
LAYER-2
 10
27.117422
 20
28.915959
 30
0.000000
  0
VERTEX
  8
LAYER-2
 10
27.117422
 20
28.748972
 30
0.000000
  0
VERTEX
  8
LAYER-2
 10
25.921208
 20
28.748972
 30
0.000000
  0
SEQEND
  8
LAYER-2
  0
POLYLINE
  8
LAYER-2
 66
  1
 70
  1
 62
  7
  0
VERTEX
  8
LAYER-2
 10
25.922424
 20
30.066763
 30
0.000000
  0
VERTEX
  8
LAYER-2
 10
27.117422
 20
30.066763
 30
0.000000
  0
VERTEX
  8
LAYER-2
 10
27.117422
 20
29.920929
 30
0.000000
  0
VERTEX
  8
LAYER-2
 10
25.922424
 20
29.920929
 30
0.000000
  0
SEQEND
  8
LAYER-2
  0
POLYLINE
  8
LAYER-2
 66
  1
 70
  1
 62
  7
  0
VERTEX
  8
LAYER-2
 10
27.117422
 20
27.408921
 30
0.000000
  0
VERTEX
  8
LAYER-2
 10
25.921208
 20
27.408921
 30
0.000000
  0
VERTEX
  8
LAYER-2
 10
25.921208
 20
27.575907
 30
0.000000
  0
VERTEX
  8
LAYER-2
 10
27.117422
 20
27.575907
 30
0.000000
  0
SEQEND
  8
LAYER-2
  0
POLYLINE
  8
LAYER-2
 66
  1
 70
  1
 62
  7
  0
VERTEX
  8
LAYER-2
 10
27.117422
 20
26.271322
 30
0.000000
  0
VERTEX
  8
LAYER-2
 10
25.922424
 20
26.271322
 30
0.000000
  0
VERTEX
  8
LAYER-2
 10
25.922424
 20
26.414156
 30
0.000000
  0
VERTEX
  8
LAYER-2
 10
27.117422
 20
26.414156
 30
0.000000
  0
SEQEND
  8
LAYER-2
  0
POLYLINE
  8
LAYER-2
 66
  1
 70
  1
 62
  7
  0
VERTEX
  8
LAYER-2
 10
25.922424
 20
29.920929
 30
0.000000
  0
VERTEX
  8
LAYER-2
 10
27.117422
 20
29.920929
 30
0.000000
  0
VERTEX
  8
LAYER-2
 10
27.117422
 20
28.915959
 30
0.000000
  0
VERTEX
  8
LAYER-2
 10
25.922424
 20
28.915959
 30
0.000000
  0
SEQEND
  8
LAYER-2
  0
POLYLINE
  8
LAYER-2
 66
  1
 70
  1
 62
  7
  0
VERTEX
  8
LAYER-2
 10
25.921208
 20
27.408921
 30
0.000000
  0
VERTEX
  8
LAYER-2
 10
27.117422
 20
27.408921
 30
0.000000
  0
VERTEX
  8
LAYER-2
 10
27.117422
 20
26.414156
 30
0.000000
  0
VERTEX
  8
LAYER-2
 10
25.921208
 20
26.414156
 30
0.000000
  0
SEQEND
  8
LAYER-2
  0
POLYLINE
  8
LAYER-2
 66
  1
 70
  1
 62
  7
  0
VERTEX
  8
LAYER-2
 10
27.146717
 20
28.816279
 30
0.000000
  0
VERTEX
  8
LAYER-2
 10
27.175563
 20
28.816279
 30
0.000000
  0
VERTEX
  8
LAYER-2
 10
27.175563
 20
27.498972
 30
0.000000
  0
VERTEX
  8
LAYER-2
 10
27.146717
 20
27.498972
 30
0.000000
  0
SEQEND
  8
LAYER-2
  0
POLYLINE
  8
LAYER-2
 66
  1
 70
  0
 62
  7
 10
3.077947
 20
25.665086
 30
0.000000
  0
VERTEX
  8
LAYER-2
 10
3.077947
 20
25.665086
 30
0.000000
  0
VERTEX
  8
LAYER-2
 10
2.223423
 20
25.665086
 30
0.000000
  0
SEQEND
  8
LAYER-2
  0
POLYLINE
  8
LAYER-2
 66
  1
 70
  0
 62
  7
 10
3.077947
 20
25.415086
 30
0.000000
  0
VERTEX
  8
LAYER-2
 10
3.077947
 20
25.415086
 30
0.000000
  0
VERTEX
  8
LAYER-2
 10
2.223423
 20
25.415086
 30
0.000000
  0
SEQEND
  8
LAYER-2
  0
POLYLINE
  8
LAYER-2
 66
  1
 70
  0
 62
  7
 10
2.496962
 20
26.063622
 30
0.000000
  0
VERTEX
  8
LAYER-2
 10
2.496962
 20
26.063622
 30
0.000000
  0
VERTEX
  8
LAYER-2
 10
2.468836
 20
26.063622
 30
0.000000
  0
SEQEND
  8
LAYER-2
  0
ARC
  8
LAYER-2
 62
  7
 10
2.468836
 20
25.969872
 30
0.000000
 40
0.093750
 50
90.000000
 51
180.000000
  0
POLYLINE
  8
LAYER-2
 66
  1
 70
  0
 62
  7
 10
2.375086
 20
25.969872
 30
0.000000
  0
VERTEX
  8
LAYER-2
 10
2.375086
 20
25.969872
 30
0.000000
  0
VERTEX
  8
LAYER-2
 10
2.375086
 20
25.151123
 30
0.000000
  0
SEQEND
  8
LAYER-2
  0
ARC
  8
LAYER-2
 62
  7
 10
2.468836
 20
25.151123
 30
0.000000
 40
0.093750
 50
180.000000
 51
270.000000
  0
POLYLINE
  8
LAYER-2
 66
  1
 70
  0
 62
  7
 10
2.496962
 20
25.057373
 30
0.000000
  0
VERTEX
  8
LAYER-2
 10
2.496962
 20
25.057373
 30
0.000000
  0
VERTEX
  8
LAYER-2
 10
2.468836
 20
25.057373
 30
0.000000
  0
SEQEND
  8
LAYER-2
  0
POLYLINE
  8
LAYER-2
 66
  1
 70
  0
 62
  7
 10
2.496962
 20
25.057373
 30
0.000000
  0
VERTEX
  8
LAYER-2
 10
2.496962
 20
25.057373
 30
0.000000
  0
VERTEX
  8
LAYER-2
 10
2.496962
 20
26.063622
 30
0.000000
  0
SEQEND
  8
LAYER-2
  0
POLYLINE
  8
LAYER-2
 66
  1
 70
  0
 62
  7
 10
2.687590
 20
26.063622
 30
0.000000
  0
VERTEX
  8
LAYER-2
 10
2.687590
 20
26.063622
 30
0.000000
  0
VERTEX
  8
LAYER-2
 10
2.715716
 20
26.063622
 30
0.000000
  0
SEQEND
  8
LAYER-2
  0
ARC
  8
LAYER-2
 62
  7
 10
2.715716
 20
25.969872
 30
0.000000
 40
0.093750
 50
0.000000
 51
90.000000
  0
POLYLINE
  8
LAYER-2
 66
  1
 70
  0
 62
  7
 10
2.809466
 20
25.969872
 30
0.000000
  0
VERTEX
  8
LAYER-2
 10
2.809466
 20
25.969872
 30
0.000000
  0
VERTEX
  8
LAYER-2
 10
2.809466
 20
25.151123
 30
0.000000
  0
SEQEND
  8
LAYER-2
  0
ARC
  8
LAYER-2
 62
  7
 10
2.715716
 20
25.151123
 30
0.000000
 40
0.093750
 50
270.000000
 51
0.000000
  0
POLYLINE
  8
LAYER-2
 66
  1
 70
  0
 62
  7
 10
2.687590
 20
25.057373
 30
0.000000
  0
VERTEX
  8
LAYER-2
 10
2.687590
 20
25.057373
 30
0.000000
  0
VERTEX
  8
LAYER-2
 10
2.715716
 20
25.057373
 30
0.000000
  0
SEQEND
  8
LAYER-2
  0
POLYLINE
  8
LAYER-2
 66
  1
 70
  0
 62
  7
 10
2.687590
 20
25.057373
 30
0.000000
  0
VERTEX
  8
LAYER-2
 10
2.687590
 20
25.057373
 30
0.000000
  0
VERTEX
  8
LAYER-2
 10
2.687590
 20
26.063622
 30
0.000000
  0
SEQEND
  8
LAYER-2
  0
POLYLINE
  8
LAYER-2
 66
  1
 70
  1
 62
  7
  0
VERTEX
  8
LAYER-2
 10
2.496962
 20
25.938622
 30
0.000000
  0
VERTEX
  8
LAYER-2
 10
2.687587
 20
25.938622
 30
0.000000
  0
VERTEX
  8
LAYER-2
 10
2.687587
 20
25.182373
 30
0.000000
  0
VERTEX
  8
LAYER-2
 10
2.496962
 20
25.182373
 30
0.000000
  0
SEQEND
  8
LAYER-2
  0
POLYLINE
  8
LAYER-2
 66
  1
 70
  1
 62
255
  0
VERTEX
  8
LAYER-2
 10
5.255443
 20
29.114089
 30
0.000000
  0
VERTEX
  8
LAYER-2
 10
25.909093
 20
29.114089
 30
0.000000
  0
VERTEX
  8
LAYER-2
 10
25.909093
 20
29.051856
 30
0.000000
  0
VERTEX
  8
LAYER-2
 10
5.255443
 20
29.051856
 30
0.000000
  0
SEQEND
  8
LAYER-2
  0
POLYLINE
  8
LAYER-2
 66
  1
 70
  1
 62
255
  0
VERTEX
  8
LAYER-2
 10
5.255443
 20
28.648010
 30
0.000000
  0
VERTEX
  8
LAYER-2
 10
25.909093
 20
28.648010
 30
0.000000
  0
VERTEX
  8
LAYER-2
 10
25.909093
 20
28.580696
 30
0.000000
  0
VERTEX
  8
LAYER-2
 10
5.255443
 20
28.580696
 30
0.000000
  0
SEQEND
  8
LAYER-2
  0
POLYLINE
  8
LAYER-2
 66
  1
 70
  1
 62
255
  0
VERTEX
  8
LAYER-2
 10
5.255443
 20
29.051856
 30
0.000000
  0
VERTEX
  8
LAYER-2
 10
25.909093
 20
29.051856
 30
0.000000
  0
VERTEX
  8
LAYER-2
 10
25.909093
 20
28.982145
 30
0.000000
  0
VERTEX
  8
LAYER-2
 10
5.255443
 20
28.982145
 30
0.000000
  0
SEQEND
  8
LAYER-2
  0
POLYLINE
  8
LAYER-2
 66
  1
 70
  1
 62
255
  0
VERTEX
  8
LAYER-2
 10
5.255443
 20
28.724933
 30
0.000000
  0
VERTEX
  8
LAYER-2
 10
25.909093
 20
28.724933
 30
0.000000
  0
VERTEX
  8
LAYER-2
 10
25.909093
 20
28.648010
 30
0.000000
  0
VERTEX
  8
LAYER-2
 10
5.255443
 20
28.648010
 30
0.000000
  0
SEQEND
  8
LAYER-2
  0
POLYLINE
  8
LAYER-2
 66
  1
 70
  1
 62
  7
  0
VERTEX
  8
LAYER-2
 10
2.686522
 20
29.944125
 30
0.000000
  0
VERTEX
  8
LAYER-2
 10
3.832675
 20
29.944125
 30
0.000000
  0
VERTEX
  8
LAYER-2
 10
3.832675
 20
26.513320
 30
0.000000
  0
VERTEX
  8
LAYER-2
 10
2.686522
 20
26.513320
 30
0.000000
  0
SEQEND
  8
LAYER-2
  0
POLYLINE
  8
LAYER-2
 66
  1
 70
  0
 62
  7
 10
3.832675
 20
29.717987
 30
0.000000
  0
VERTEX
  8
LAYER-2
 10
3.832675
 20
29.717987
 30
0.000000
  0
VERTEX
  8
LAYER-2
 10
2.683813
 20
29.717987
 30
0.000000
  0
SEQEND
  8
LAYER-2
  0
POLYLINE
  8
LAYER-2
 66
  1
 70
  0
 62
  7
 10
3.832675
 20
26.745990
 30
0.000000
  0
VERTEX
  8
LAYER-2
 10
3.832675
 20
26.745990
 30
0.000000
  0
VERTEX
  8
LAYER-2
 10
2.683813
 20
26.745990
 30
0.000000
  0
SEQEND
  8
LAYER-2
  0
POLYLINE
  8
LAYER-2
 66
  1
 70
  0
 62
  7
 10
3.256821
 20
29.942242
 30
0.000000
  0
VERTEX
  8
LAYER-2
 10
3.256821
 20
29.942242
 30
0.000000
  0
VERTEX
  8
LAYER-2
 10
3.256821
 20
26.513385
 30
0.000000
  0
SEQEND
  8
LAYER-2
  0
POLYLINE
  8
LAYER-2
 66
  1
 70
  1
 62
  7
  0
VERTEX
  8
LAYER-2
 10
3.633416
 20
29.534119
 30
0.000000
  0
VERTEX
  8
LAYER-2
 10
3.833625
 20
29.534119
 30
0.000000
  0
VERTEX
  8
LAYER-2
 10
3.833625
 20
29.301734
 30
0.000000
  0
VERTEX
  8
LAYER-2
 10
3.633416
 20
29.301734
 30
0.000000
  0
SEQEND
  8
LAYER-2
  0
POLYLINE
  8
LAYER-2
 66
  1
 70
  1
 62
  7
  0
VERTEX
  8
LAYER-2
 10
3.633416
 20
27.155212
 30
0.000000
  0
VERTEX
  8
LAYER-2
 10
3.833625
 20
27.155212
 30
0.000000
  0
VERTEX
  8
LAYER-2
 10
3.833625
 20
26.922828
 30
0.000000
  0
VERTEX
  8
LAYER-2
 10
3.633416
 20
26.922828
 30
0.000000
  0
SEQEND
  8
LAYER-2
  0
POLYLINE
  8
LAYER-2
 66
  1
 70
  0
 62
  7
 10
3.833625
 20
27.156720
 30
0.000000
  0
VERTEX
  8
LAYER-2
 10
3.833625
 20
27.156720
 30
0.000000
  0
VERTEX
  8
LAYER-2
 10
2.686422
 20
27.156720
 30
0.000000
  0
SEQEND
  8
LAYER-2
  0
POLYLINE
  8
LAYER-2
 66
  1
 70
  0
 62
  7
 10
3.833625
 20
29.301734
 30
0.000000
  0
VERTEX
  8
LAYER-2
 10
3.833625
 20
29.301734
 30
0.000000
  0
VERTEX
  8
LAYER-2
 10
2.686483
 20
29.301734
 30
0.000000
  0
SEQEND
  8
LAYER-2
  0
POLYLINE
  8
LAYER-2
 66
  1
 70
  0
 62
  7
 10
22.794128
 20
12.301352
 30
0.000000
  0
VERTEX
  8
LAYER-2
 10
22.794128
 20
12.301352
 30
0.000000
  0
VERTEX
  8
LAYER-2
 10
22.413663
 20
12.496880
 30
0.000000
  0
SEQEND
  8
LAYER-2
  0
POLYLINE
  8
LAYER-2
 66
  1
 70
  0
 62
  7
 10
22.413663
 20
12.496880
 30
0.000000
  0
VERTEX
  8
LAYER-2
 10
22.413663
 20
12.496880
 30
0.000000
  0
VERTEX
  8
LAYER-2
 10
18.869980
 20
5.601077
 30
0.000000
  0
SEQEND
  8
LAYER-2
  0
POLYLINE
  8
LAYER-2
 66
  1
 70
  0
 62
  7
 10
18.513875
 20
5.299053
 30
0.000000
  0
VERTEX
  8
LAYER-2
 10
18.513875
 20
5.299053
 30
0.000000
  0
VERTEX
  8
LAYER-2
 10
18.621642
 20
5.348569
 30
0.000000
  0
VERTEX
  8
LAYER-2
 10
18.719993
 20
5.416614
 30
0.000000
  0
VERTEX
  8
LAYER-2
 10
18.803179
 20
5.502538
 30
0.000000
  0
VERTEX
  8
LAYER-2
 10
18.869973
 20
5.601070
 30
0.000000
  0
SEQEND
  8
LAYER-2
  0
POLYLINE
  8
LAYER-2
 66
  1
 70
  0
 62
  7
 10
22.794128
 20
12.301352
 30
0.000000
  0
VERTEX
  8
LAYER-2
 10
22.794128
 20
12.301352
 30
0.000000
  0
VERTEX
  8
LAYER-2
 10
19.196208
 20
5.299988
 30
0.000000
  0
SEQEND
  8
LAYER-2
  0
POLYLINE
  8
LAYER-2
 66
  1
 70
  0
 62
  7
 10
18.757666
 20
4.928061
 30
0.000000
  0
VERTEX
  8
LAYER-2
 10
18.757666
 20
4.928061
 30
0.000000
  0
VERTEX
  8
LAYER-2
 10
18.890840
 20
4.988584
 30
0.000000
  0
VERTEX
  8
LAYER-2
 10
19.011962
 20
5.072381
 30
0.000000
  0
VERTEX
  8
LAYER-2
 10
19.114409
 20
5.178199
 30
0.000000
  0
VERTEX
  8
LAYER-2
 10
19.196210
 20
5.300000
 30
0.000000
  0
SEQEND
  8
LAYER-2
  0
POLYLINE
  8
LAYER-2
 66
  1
 70
  0
 62
  7
 10
13.903391
 20
3.818643
 30
0.000000
  0
VERTEX
  8
LAYER-2
 10
13.903391
 20
3.818643
 30
0.000000
  0
VERTEX
  8
LAYER-2
 10
18.513873
 20
5.299065
 30
0.000000
  0
SEQEND
  8
LAYER-2
  0
POLYLINE
  8
LAYER-2
 66
  1
 70
  0
 62
  7
 10
13.903373
 20
3.818632
 30
0.000000
  0
VERTEX
  8
LAYER-2
 10
13.903373
 20
3.818632
 30
0.000000
  0
VERTEX
  8
LAYER-2
 10
13.766261
 20
3.762045
 30
0.000000
  0
VERTEX
  8
LAYER-2
 10
13.645140
 20
3.678248
 30
0.000000
  0
VERTEX
  8
LAYER-2
 10
13.542693
 20
3.572430
 30
0.000000
  0
VERTEX
  8
LAYER-2
 10
13.464827
 20
3.446693
 30
0.000000
  0
SEQEND
  8
LAYER-2
  0
POLYLINE
  8
LAYER-2
 66
  1
 70
  0
 62
  7
 10
18.757668
 20
4.928049
 30
0.000000
  0
VERTEX
  8
LAYER-2
 10
18.757668
 20
4.928049
 30
0.000000
  0
VERTEX
  8
LAYER-2
 10
14.147166
 20
3.447641
 30
0.000000
  0
SEQEND
  8
LAYER-2
  0
POLYLINE
  8
LAYER-2
 66
  1
 70
  0
 62
  7
 10
14.147142
 20
3.447622
 30
0.000000
  0
VERTEX
  8
LAYER-2
 10
14.147142
 20
3.447622
 30
0.000000
  0
VERTEX
  8
LAYER-2
 10
14.035438
 20
3.402043
 30
0.000000
  0
VERTEX
  8
LAYER-2
 10
13.937087
 20
3.333998
 30
0.000000
  0
VERTEX
  8
LAYER-2
 10
13.853899
 20
3.248077
 30
0.000000
  0
VERTEX
  8
LAYER-2
 10
13.789073
 20
3.147574
 30
0.000000
  0
VERTEX
  8
LAYER-2
 10
13.791041
 20
3.145606
 30
0.000000
  0
SEQEND
  8
LAYER-2
  0
POLYLINE
  8
LAYER-2
 66
  1
 70
  1
 62
  7
  0
VERTEX
  8
LAYER-2
 10
13.100474
 20
2.972933
 30
0.000000
  0
VERTEX
  8
LAYER-2
 10
13.676854
 20
2.676734
 30
0.000000
  0
VERTEX
  8
LAYER-2
 10
12.303680
 20
0.004611
 30
0.000000
  0
VERTEX
  8
LAYER-2
 10
11.727295
 20
0.300809
 30
0.000000
  0
SEQEND
  8
LAYER-2
  0
POLYLINE
  8
LAYER-2
 66
  1
 70
  0
 62
  7
 10
13.196561
 20
2.924664
 30
0.000000
  0
VERTEX
  8
LAYER-2
 10
13.196561
 20
2.924664
 30
0.000000
  0
VERTEX
  8
LAYER-2
 10
13.464854
 20
3.446705
 30
0.000000
  0
SEQEND
  8
LAYER-2
  0
POLYLINE
  8
LAYER-2
 66
  1
 70
  0
 62
  7
 10
13.577025
 20
2.729140
 30
0.000000
  0
VERTEX
  8
LAYER-2
 10
13.577025
 20
2.729140
 30
0.000000
  0
VERTEX
  8
LAYER-2
 10
13.836446
 20
3.233943
 30
0.000000
  0
SEQEND
  8
LAYER-2
  0
POLYLINE
  8
LAYER-2
 66
  1
 70
  1
 62
  7
  0
VERTEX
  8
LAYER-2
 10
20.470072
 20
8.967489
 30
0.000000
  0
VERTEX
  8
LAYER-2
 10
21.046427
 20
8.671305
 30
0.000000
  0
VERTEX
  8
LAYER-2
 10
19.673266
 20
5.999223
 30
0.000000
  0
VERTEX
  8
LAYER-2
 10
19.096909
 20
6.295401
 30
0.000000
  0
SEQEND
  8
LAYER-2
  0
LINE
  8
LAYER-2
 62
  7
 10
22.332642
 20
9.821289
 30
0.000000
 11
20.746554
 21
11.133376
 31
0.000000
  0
LINE
  8
LAYER-2
 62
  7
 10
22.531835
 20
10.062077
 30
0.000000
 11
20.945747
 21
11.374164
 31
0.000000
  0
POLYLINE
  8
LAYER-2
 66
  1
 70
  0
 62
  7
 10
16.527696
 20
3.747178
 30
0.000000
  0
VERTEX
  8
LAYER-2
 10
16.527696
 20
3.747178
 30
0.000000
  0
VERTEX
  8
LAYER-2
 10
16.587130
 20
3.558390
 30
0.000000
  0
VERTEX
  8
LAYER-2
 10
16.660560
 20
3.405053
 30
0.000000
  0
VERTEX
  8
LAYER-2
 10
16.743199
 20
3.295020
 30
0.000000
  0
VERTEX
  8
LAYER-2
 10
16.831867
 20
3.232530
 30
0.000000
  0
VERTEX
  8
LAYER-2
 10
16.923159
 20
3.219971
 30
0.000000
  0
VERTEX
  8
LAYER-2
 10
17.013566
 20
3.257834
 30
0.000000
  0
VERTEX
  8
LAYER-2
 10
17.099615
 20
3.344663
 30
0.000000
  0
VERTEX
  8
LAYER-2
 10
17.177998
 20
3.477124
 30
0.000000
  0
VERTEX
  8
LAYER-2
 10
17.245702
 20
3.650121
 30
0.000000
  0
VERTEX
  8
LAYER-2
 10
17.300129
 20
3.857009
 30
0.000000
  0
VERTEX
  8
LAYER-2
 10
17.339181
 20
4.089834
 30
0.000000
  0
VERTEX
  8
LAYER-2
 10
17.361361
 20
4.339654
 30
0.000000
  0
VERTEX
  8
LAYER-2
 10
17.365819
 20
4.596867
 30
0.000000
  0
VERTEX
  8
LAYER-2
 10
17.352379
 20
4.851586
 30
0.000000
  0
VERTEX
  8
LAYER-2
 10
17.321560
 20
5.094022
 30
0.000000
  0
VERTEX
  8
LAYER-2
 10
17.274547
 20
5.314859
 30
0.000000
  0
VERTEX
  8
LAYER-2
 10
17.213145
 20
5.505618
 30
0.000000
  0
VERTEX
  8
LAYER-2
 10
17.139714
 20
5.658952
 30
0.000000
  0
VERTEX
  8
LAYER-2
 10
17.057076
 20
5.768984
 30
0.000000
  0
VERTEX
  8
LAYER-2
 10
16.968408
 20
5.831477
 30
0.000000
  0
VERTEX
  8
LAYER-2
 10
16.877115
 20
5.844034
 30
0.000000
  0
VERTEX
  8
LAYER-2
 10
16.786708
 20
5.806171
 30
0.000000
  0
VERTEX
  8
LAYER-2
 10
16.700659
 20
5.719342
 30
0.000000
  0
VERTEX
  8
LAYER-2
 10
16.622277
 20
5.586884
 30
0.000000
  0
VERTEX
  8
LAYER-2
 10
16.554572
 20
5.413884
 30
0.000000
  0
VERTEX
  8
LAYER-2
 10
16.508825
 20
5.235636
 30
0.000000
  0
SEQEND
  8
LAYER-2
  0
POLYLINE
  8
LAYER-2
 66
  1
 70
  1
 62
  7
 10
16.508840
 20
5.235629
 30
0.000000
  0
VERTEX
  8
LAYER-2
 10
16.508840
 20
5.235629
 30
0.000000
  0
VERTEX
  8
LAYER-2
 10
16.676705
 20
5.356478
 30
0.000000
  0
VERTEX
  8
LAYER-2
 10
16.496407
 20
5.656994
 30
0.000000
  0
SEQEND
  8
LAYER-2
  0
POLYLINE
  8
LAYER-2
 66
  1
 70
  1
 62
  7
 10
16.508840
 20
3.838874
 30
0.000000
  0
VERTEX
  8
LAYER-2
 10
16.508840
 20
3.838874
 30
0.000000
  0
VERTEX
  8
LAYER-2
 10
16.676705
 20
3.718027
 30
0.000000
  0
VERTEX
  8
LAYER-2
 10
16.496407
 20
3.417506
 30
0.000000
  0
SEQEND
  8
LAYER-2
  0
POLYLINE
  8
LAYER-2
 66
  1
 70
  0
 62
  7
 10
22.533297
 20
13.344499
 30
0.000000
  0
VERTEX
  8
LAYER-2
 10
22.533297
 20
13.344499
 30
0.000000
  0
VERTEX
  8
LAYER-2
 10
22.494016
 20
12.663173
 30
0.000000
  0
SEQEND
  8
LAYER-2
  0
POLYLINE
  8
LAYER-2
 66
  1
 70
  0
 62
  7
 10
22.604450
 20
13.738528
 30
0.000000
  0
VERTEX
  8
LAYER-2
 10
22.604450
 20
13.738528
 30
0.000000
  0
VERTEX
  8
LAYER-2
 10
22.547596
 20
13.548091
 30
0.000000
  0
VERTEX
  8
LAYER-2
 10
22.531302
 20
13.348677
 30
0.000000
  0
VERTEX
  8
LAYER-2
 10
22.533309
 20
13.344497
 30
0.000000
  0
SEQEND
  8
LAYER-2
  0
POLYLINE
  8
LAYER-2
 66
  1
 70
  0
 62
  7
 10
23.210820
 20
14.492803
 30
0.000000
  0
VERTEX
  8
LAYER-2
 10
23.210820
 20
14.492803
 30
0.000000
  0
VERTEX
  8
LAYER-2
 10
23.003613
 20
14.354161
 30
0.000000
  0
VERTEX
  8
LAYER-2
 10
22.829745
 20
14.176216
 30
0.000000
  0
VERTEX
  8
LAYER-2
 10
22.693937
 20
13.967766
 30
0.000000
  0
VERTEX
  8
LAYER-2
 10
22.604443
 20
13.738528
 30
0.000000
  0
SEQEND
  8
LAYER-2
  0
POLYLINE
  8
LAYER-2
 66
  1
 70
  0
 62
  7
 10
23.713668
 20
14.374493
 30
0.000000
  0
VERTEX
  8
LAYER-2
 10
23.713668
 20
14.374493
 30
0.000000
  0
VERTEX
  8
LAYER-2
 10
23.574505
 20
14.482072
 30
0.000000
  0
VERTEX
  8
LAYER-2
 10
23.407337
 20
14.527140
 30
0.000000
  0
VERTEX
  8
LAYER-2
 10
23.235650
 20
14.504805
 30
0.000000
  0
VERTEX
  8
LAYER-2
 10
23.210820
 20
14.492812
 30
0.000000
  0
SEQEND
  8
LAYER-2
  0
POLYLINE
  8
LAYER-2
 66
  1
 70
  0
 62
  7
 10
23.891144
 20
13.856851
 30
0.000000
  0
VERTEX
  8
LAYER-2
 10
23.891144
 20
13.856851
 30
0.000000
  0
VERTEX
  8
LAYER-2
 10
23.888202
 20
13.990042
 30
0.000000
  0
VERTEX
  8
LAYER-2
 10
23.861650
 20
14.118554
 30
0.000000
  0
VERTEX
  8
LAYER-2
 10
23.810535
 20
14.239415
 30
0.000000
  0
VERTEX
  8
LAYER-2
 10
23.736823
 20
14.347983
 30
0.000000
  0
VERTEX
  8
LAYER-2
 10
23.713668
 20
14.374488
 30
0.000000
  0
SEQEND
  8
LAYER-2
  0
POLYLINE
  8
LAYER-2
 66
  1
 70
  0
 62
  7
 10
23.812200
 20
13.398858
 30
0.000000
  0
VERTEX
  8
LAYER-2
 10
23.812200
 20
13.398858
 30
0.000000
  0
VERTEX
  8
LAYER-2
 10
23.891139
 20
13.856851
 30
0.000000
  0
SEQEND
  8
LAYER-2
  0
POLYLINE
  8
LAYER-2
 66
  1
 70
  0
 62
  7
 10
23.635336
 20
12.958759
 30
0.000000
  0
VERTEX
  8
LAYER-2
 10
23.635336
 20
12.958759
 30
0.000000
  0
VERTEX
  8
LAYER-2
 10
23.812200
 20
13.398858
 30
0.000000
  0
SEQEND
  8
LAYER-2
  0
POLYLINE
  8
LAYER-2
 66
  1
 70
  0
 62
  7
 10
23.635336
 20
12.958759
 30
0.000000
  0
VERTEX
  8
LAYER-2
 10
23.635336
 20
12.958759
 30
0.000000
  0
VERTEX
  8
LAYER-2
 10
23.513045
 20
12.973008
 30
0.000000
  0
SEQEND
  8
LAYER-2
  0
POLYLINE
  8
LAYER-2
 66
  1
 70
  0
 62
  7
 10
23.513045
 20
12.973008
 30
0.000000
  0
VERTEX
  8
LAYER-2
 10
23.513045
 20
12.973008
 30
0.000000
  0
VERTEX
  8
LAYER-2
 10
23.509003
 20
13.434169
 30
0.000000
  0
SEQEND
  8
LAYER-2
  0
POLYLINE
  8
LAYER-2
 66
  1
 70
  0
 62
  7
 10
23.509003
 20
13.434169
 30
0.000000
  0
VERTEX
  8
LAYER-2
 10
23.509003
 20
13.434169
 30
0.000000
  0
VERTEX
  8
LAYER-2
 10
23.572155
 20
13.780447
 30
0.000000
  0
SEQEND
  8
LAYER-2
  0
POLYLINE
  8
LAYER-2
 66
  1
 70
  0
 62
  7
 10
23.572160
 20
13.780450
 30
0.000000
  0
VERTEX
  8
LAYER-2
 10
23.572160
 20
13.780450
 30
0.000000
  0
VERTEX
  8
LAYER-2
 10
23.576489
 20
13.976283
 30
0.000000
  0
VERTEX
  8
LAYER-2
 10
23.536192
 20
14.108276
 30
0.000000
  0
SEQEND
  8
LAYER-2
  0
POLYLINE
  8
LAYER-2
 66
  1
 70
  0
 62
  7
 10
23.536189
 20
14.108281
 30
0.000000
  0
VERTEX
  8
LAYER-2
 10
23.536189
 20
14.108281
 30
0.000000
  0
VERTEX
  8
LAYER-2
 10
23.505939
 20
14.156912
 30
0.000000
  0
VERTEX
  8
LAYER-2
 10
23.461952
 20
14.189197
 30
0.000000
  0
VERTEX
  8
LAYER-2
 10
23.408957
 20
14.202193
 30
0.000000
  0
VERTEX
  8
LAYER-2
 10
23.355025
 20
14.193918
 30
0.000000
  0
VERTEX
  8
LAYER-2
 10
23.308364
 20
14.165635
 30
0.000000
  0
VERTEX
  8
LAYER-2
 10
23.299554
 20
14.152649
 30
0.000000
  0
SEQEND
  8
LAYER-2
  0
POLYLINE
  8
LAYER-2
 66
  1
 70
  0
 62
  7
 10
23.299546
 20
14.152642
 30
0.000000
  0
VERTEX
  8
LAYER-2
 10
23.299546
 20
14.152642
 30
0.000000
  0
VERTEX
  8
LAYER-2
 10
23.092003
 20
13.913459
 30
0.000000
  0
VERTEX
  8
LAYER-2
 10
22.937423
 20
13.636834
 30
0.000000
  0
VERTEX
  8
LAYER-2
 10
22.915016
 20
13.575846
 30
0.000000
  0
SEQEND
  8
LAYER-2
  0
POLYLINE
  8
LAYER-2
 66
  1
 70
  0
 62
  7
 10
22.915020
 20
13.575846
 30
0.000000
  0
VERTEX
  8
LAYER-2
 10
22.915020
 20
13.575846
 30
0.000000
  0
VERTEX
  8
LAYER-2
 10
22.870610
 20
13.426490
 30
0.000000
  0
VERTEX
  8
LAYER-2
 10
22.860382
 20
13.273067
 30
0.000000
  0
SEQEND
  8
LAYER-2
  0
POLYLINE
  8
LAYER-2
 66
  1
 70
  0
 62
  7
 10
22.860380
 20
13.273064
 30
0.000000
  0
VERTEX
  8
LAYER-2
 10
22.860380
 20
13.273064
 30
0.000000
  0
VERTEX
  8
LAYER-2
 10
22.827524
 20
12.623962
 30
0.000000
  0
SEQEND
  8
LAYER-2
  0
POLYLINE
  8
LAYER-2
 66
  1
 70
  0
 62
  7
 10
22.756958
 20
12.305676
 30
0.000000
  0
VERTEX
  8
LAYER-2
 10
22.756958
 20
12.305676
 30
0.000000
  0
VERTEX
  8
LAYER-2
 10
22.803582
 20
12.443730
 30
0.000000
  0
VERTEX
  8
LAYER-2
 10
22.824691
 20
12.586684
 30
0.000000
  0
VERTEX
  8
LAYER-2
 10
22.827517
 20
12.623962
 30
0.000000
  0
SEQEND
  8
LAYER-2
  0
POLYLINE
  8
LAYER-2
 66
  1
 70
  0
 62
  7
 10
22.756958
 20
12.305673
 30
0.000000
  0
VERTEX
  8
LAYER-2
 10
22.756958
 20
12.305673
 30
0.000000
  0
VERTEX
  8
LAYER-2
 10
22.464480
 20
12.455956
 30
0.000000
  0
SEQEND
  8
LAYER-2
  0
POLYLINE
  8
LAYER-2
 66
  1
 70
  0
 62
  7
 10
22.464487
 20
12.455958
 30
0.000000
  0
VERTEX
  8
LAYER-2
 10
22.464487
 20
12.455958
 30
0.000000
  0
VERTEX
  8
LAYER-2
 10
22.488589
 20
12.585386
 30
0.000000
  0
VERTEX
  8
LAYER-2
 10
22.494021
 20
12.663175
 30
0.000000
  0
SEQEND
  8
LAYER-2
  0
POLYLINE
  8
LAYER-2
 66
  1
 70
  1
 62
  7
 10
23.299554
 20
14.152647
 30
0.000000
  0
VERTEX
  8
LAYER-2
 10
23.299554
 20
14.152647
 30
0.000000
  0
VERTEX
  8
LAYER-2
 10
23.536189
 20
14.108276
 30
0.000000
  0
VERTEX
  8
LAYER-2
 10
23.572155
 20
13.780447
 30
0.000000
  0
SEQEND
  8
LAYER-2
  0
POLYLINE
  8
LAYER-2
 66
  1
 70
  1
 62
  7
  0
VERTEX
  8
LAYER-2
 10
3.962983
 20
26.268203
 30
0.000000
  0
VERTEX
  8
LAYER-2
 10
29.889693
 20
26.268203
 30
0.000000
  0
VERTEX
  8
LAYER-2
 10
29.889693
 20
26.151015
 30
0.000000
  0
VERTEX
  8
LAYER-2
 10
3.962983
 20
26.151015
 30
0.000000
  0
SEQEND
  8
LAYER-2
  0
POLYLINE
  8
LAYER-2
 66
  1
 70
  1
 62
  7
  0
VERTEX
  8
LAYER-2
 10
3.962983
 20
30.186476
 30
0.000000
  0
VERTEX
  8
LAYER-2
 10
29.889693
 20
30.186476
 30
0.000000
  0
VERTEX
  8
LAYER-2
 10
29.889693
 20
30.069289
 30
0.000000
  0
VERTEX
  8
LAYER-2
 10
3.962983
 20
30.069289
 30
0.000000
  0
SEQEND
  8
LAYER-2
  0
TEXT
  8
LAYER-2
 62
  7
 10
0.115386
 20
9.176847
 30
0.000000
 40
0.576923
  1
Controls:
 72
  5
 11
3.730771
 21
9.176847
 31
0.000000
  0
POLYLINE
  8
LAYER-2
 66
  1
 70
  1
 62
  7
  0
VERTEX
  8
LAYER-2
 10
1.273631
 20
5.109823
 30
0.000000
  0
VERTEX
  8
LAYER-2
 10
4.023630
 20
5.109823
 30
0.000000
  0
VERTEX
  8
LAYER-2
 10
4.023630
 20
0.609826
 30
0.000000
  0
VERTEX
  8
LAYER-2
 10
1.273631
 20
0.609826
 30
0.000000
  0
SEQEND
  8
LAYER-2
  0
POLYLINE
  8
LAYER-2
 66
  1
 70
  1
 62
253
  0
VERTEX
  8
LAYER-2
 10
1.398631
 20
4.984823
 30
0.000000
  0
VERTEX
  8
LAYER-2
 10
3.898630
 20
4.984823
 30
0.000000
  0
VERTEX
  8
LAYER-2
 10
3.898630
 20
0.734826
 30
0.000000
  0
VERTEX
  8
LAYER-2
 10
1.398631
 20
0.734826
 30
0.000000
  0
SEQEND
  8
LAYER-2
  0
POLYLINE
  8
LAYER-2
 66
  1
 70
  0
 62
  7
 10
2.074971
 20
4.172316
 30
0.000000
  0
VERTEX
  8
LAYER-2
 10
2.074971
 20
4.172316
 30
0.000000
  0
VERTEX
  8
LAYER-2
 10
3.213366
 20
4.172316
 30
0.000000
  0
SEQEND
  8
LAYER-2
  0
POLYLINE
  8
LAYER-2
 66
  1
 70
  0
 62
  7
 10
3.300419
 20
4.085264
 30
0.000000
  0
VERTEX
  8
LAYER-2
 10
3.300419
 20
4.085264
 30
0.000000
  0
VERTEX
  8
LAYER-2
 10
3.300419
 20
1.634367
 30
0.000000
  0
SEQEND
  8
LAYER-2
  0
POLYLINE
  8
LAYER-2
 66
  1
 70
  0
 62
  7
 10
3.213366
 20
1.547316
 30
0.000000
  0
VERTEX
  8
LAYER-2
 10
3.213366
 20
1.547316
 30
0.000000
  0
VERTEX
  8
LAYER-2
 10
2.074971
 20
1.547316
 30
0.000000
  0
SEQEND
  8
LAYER-2
  0
POLYLINE
  8
LAYER-2
 66
  1
 70
  0
 62
  7
 10
1.987918
 20
1.634367
 30
0.000000
  0
VERTEX
  8
LAYER-2
 10
1.987918
 20
1.634367
 30
0.000000
  0
VERTEX
  8
LAYER-2
 10
1.987918
 20
4.085264
 30
0.000000
  0
SEQEND
  8
LAYER-2
  0
ARC
  8
LAYER-2
 62
  7
 10
2.074971
 20
4.085264
 30
0.000000
 40
0.087053
 50
90.000000
 51
180.000000
  0
ARC
  8
LAYER-2
 62
  7
 10
2.074971
 20
1.634367
 30
0.000000
 40
0.087053
 50
180.000000
 51
270.000000
  0
ARC
  8
LAYER-2
 62
  7
 10
3.213366
 20
1.634367
 30
0.000000
 40
0.087053
 50
270.000000
 51
0.000000
  0
ARC
  8
LAYER-2
 62
  7
 10
3.213366
 20
4.085264
 30
0.000000
 40
0.087053
 50
0.000000
 51
90.000000
  0
POLYLINE
  8
LAYER-2
 66
  1
 70
  0
 62
  7
 10
2.102076
 20
4.145534
 30
0.000000
  0
VERTEX
  8
LAYER-2
 10
2.102076
 20
4.145534
 30
0.000000
  0
VERTEX
  8
LAYER-2
 10
3.186261
 20
4.145534
 30
0.000000
  0
SEQEND
  8
LAYER-2
  0
POLYLINE
  8
LAYER-2
 66
  1
 70
  0
 62
  7
 10
3.269169
 20
4.062627
 30
0.000000
  0
VERTEX
  8
LAYER-2
 10
3.269169
 20
4.062627
 30
0.000000
  0
VERTEX
  8
LAYER-2
 10
3.269169
 20
1.657015
 30
0.000000
  0
SEQEND
  8
LAYER-2
  0
POLYLINE
  8
LAYER-2
 66
  1
 70
  0
 62
  7
 10
3.186261
 20
1.574106
 30
0.000000
  0
VERTEX
  8
LAYER-2
 10
3.186261
 20
1.574106
 30
0.000000
  0
VERTEX
  8
LAYER-2
 10
2.102076
 20
1.574106
 30
0.000000
  0
SEQEND
  8
LAYER-2
  0
POLYLINE
  8
LAYER-2
 66
  1
 70
  0
 62
  7
 10
2.019168
 20
1.657015
 30
0.000000
  0
VERTEX
  8
LAYER-2
 10
2.019168
 20
1.657015
 30
0.000000
  0
VERTEX
  8
LAYER-2
 10
2.019168
 20
4.062627
 30
0.000000
  0
SEQEND
  8
LAYER-2
  0
ARC
  8
LAYER-2
 62
  7
 10
2.102076
 20
4.062627
 30
0.000000
 40
0.082908
 50
90.000000
 51
180.000000
  0
ARC
  8
LAYER-2
 62
  7
 10
2.102076
 20
1.657015
 30
0.000000
 40
0.082908
 50
180.000000
 51
270.000000
  0
ARC
  8
LAYER-2
 62
  7
 10
3.186261
 20
1.657015
 30
0.000000
 40
0.082908
 50
270.000000
 51
0.000000
  0
ARC
  8
LAYER-2
 62
  7
 10
3.186261
 20
4.062627
 30
0.000000
 40
0.082908
 50
0.000000
 51
90.000000
  0
POLYLINE
  8
LAYER-2
 66
  1
 70
  0
 62
  7
 10
2.171268
 20
4.065179
 30
0.000000
  0
VERTEX
  8
LAYER-2
 10
2.171268
 20
4.065179
 30
0.000000
  0
VERTEX
  8
LAYER-2
 10
3.108140
 20
4.065179
 30
0.000000
  0
SEQEND
  8
LAYER-2
  0
POLYLINE
  8
LAYER-2
 66
  1
 70
  0
 62
  7
 10
3.170955
 20
4.002364
 30
0.000000
  0
VERTEX
  8
LAYER-2
 10
3.170955
 20
4.002364
 30
0.000000
  0
VERTEX
  8
LAYER-2
 10
3.170955
 20
1.735131
 30
0.000000
  0
SEQEND
  8
LAYER-2
  0
POLYLINE
  8
LAYER-2
 66
  1
 70
  0
 62
  7
 10
3.108140
 20
1.672316
 30
0.000000
  0
VERTEX
  8
LAYER-2
 10
3.108140
 20
1.672316
 30
0.000000
  0
VERTEX
  8
LAYER-2
 10
2.171268
 20
1.672316
 30
0.000000
  0
SEQEND
  8
LAYER-2
  0
POLYLINE
  8
LAYER-2
 66
  1
 70
  0
 62
  7
 10
2.108453
 20
1.735131
 30
0.000000
  0
VERTEX
  8
LAYER-2
 10
2.108453
 20
1.735131
 30
0.000000
  0
VERTEX
  8
LAYER-2
 10
2.108453
 20
4.002364
 30
0.000000
  0
SEQEND
  8
LAYER-2
  0
ARC
  8
LAYER-2
 62
  7
 10
2.171268
 20
4.002364
 30
0.000000
 40
0.062815
 50
90.000000
 51
180.000000
  0
ARC
  8
LAYER-2
 62
  7
 10
2.171268
 20
1.735131
 30
0.000000
 40
0.062815
 50
180.000000
 51
270.000000
  0
ARC
  8
LAYER-2
 62
  7
 10
3.108140
 20
1.735131
 30
0.000000
 40
0.062815
 50
270.000000
 51
0.000000
  0
ARC
  8
LAYER-2
 62
  7
 10
3.108140
 20
4.002364
 30
0.000000
 40
0.062815
 50
0.000000
 51
90.000000
  0
POLYLINE
  8
LAYER-2
 66
  1
 70
  0
 62
  7
 10
2.177963
 20
4.047323
 30
0.000000
  0
VERTEX
  8
LAYER-2
 10
2.177963
 20
4.047323
 30
0.000000
  0
VERTEX
  8
LAYER-2
 10
3.092514
 20
4.047323
 30
0.000000
  0
SEQEND
  8
LAYER-2
  0
POLYLINE
  8
LAYER-2
 66
  1
 70
  0
 62
  7
 10
3.144169
 20
3.995671
 30
0.000000
  0
VERTEX
  8
LAYER-2
 10
3.144169
 20
3.995671
 30
0.000000
  0
VERTEX
  8
LAYER-2
 10
3.144169
 20
1.750751
 30
0.000000
  0
SEQEND
  8
LAYER-2
  0
POLYLINE
  8
LAYER-2
 66
  1
 70
  0
 62
  7
 10
3.092514
 20
1.699097
 30
0.000000
  0
VERTEX
  8
LAYER-2
 10
3.092514
 20
1.699097
 30
0.000000
  0
VERTEX
  8
LAYER-2
 10
2.177963
 20
1.699097
 30
0.000000
  0
SEQEND
  8
LAYER-2
  0
POLYLINE
  8
LAYER-2
 66
  1
 70
  0
 62
  7
 10
2.126308
 20
1.750751
 30
0.000000
  0
VERTEX
  8
LAYER-2
 10
2.126308
 20
1.750751
 30
0.000000
  0
VERTEX
  8
LAYER-2
 10
2.126308
 20
3.995671
 30
0.000000
  0
SEQEND
  8
LAYER-2
  0
ARC
  8
LAYER-2
 62
  7
 10
2.177963
 20
3.995671
 30
0.000000
 40
0.051655
 50
90.000000
 51
180.000000
  0
ARC
  8
LAYER-2
 62
  7
 10
2.177963
 20
1.750751
 30
0.000000
 40
0.051655
 50
180.000000
 51
270.000000
  0
ARC
  8
LAYER-2
 62
  7
 10
3.092514
 20
1.750751
 30
0.000000
 40
0.051655
 50
270.000000
 51
0.000000
  0
ARC
  8
LAYER-2
 62
  7
 10
3.092514
 20
3.995671
 30
0.000000
 40
0.051655
 50
0.000000
 51
90.000000
  0
POLYLINE
  8
LAYER-2
 66
  1
 70
  0
 62
253
 10
2.130772
 20
2.859826
 30
0.000000
  0
VERTEX
  8
LAYER-2
 10
2.130772
 20
2.859826
 30
0.000000
  0
VERTEX
  8
LAYER-2
 10
3.148629
 20
2.859826
 30
0.000000
  0
SEQEND
  8
LAYER-2
  0
POLYLINE
  8
LAYER-2
 66
  1
 70
  0
 62
253
 10
3.898630
 20
4.984823
 30
0.000000
  0
VERTEX
  8
LAYER-2
 10
3.898630
 20
4.984823
 30
0.000000
  0
VERTEX
  8
LAYER-2
 10
4.023630
 20
5.109823
 30
0.000000
  0
SEQEND
  8
LAYER-2
  0
POLYLINE
  8
LAYER-2
 66
  1
 70
  0
 62
253
 10
1.398631
 20
4.984823
 30
0.000000
  0
VERTEX
  8
LAYER-2
 10
1.398631
 20
4.984823
 30
0.000000
  0
VERTEX
  8
LAYER-2
 10
1.273631
 20
5.109823
 30
0.000000
  0
SEQEND
  8
LAYER-2
  0
POLYLINE
  8
LAYER-2
 66
  1
 70
  0
 62
253
 10
1.398631
 20
0.734826
 30
0.000000
  0
VERTEX
  8
LAYER-2
 10
1.398631
 20
0.734826
 30
0.000000
  0
VERTEX
  8
LAYER-2
 10
1.273631
 20
0.609826
 30
0.000000
  0
SEQEND
  8
LAYER-2
  0
POLYLINE
  8
LAYER-2
 66
  1
 70
  0
 62
253
 10
3.898630
 20
0.734826
 30
0.000000
  0
VERTEX
  8
LAYER-2
 10
3.898630
 20
0.734826
 30
0.000000
  0
VERTEX
  8
LAYER-2
 10
4.023630
 20
0.609826
 30
0.000000
  0
SEQEND
  8
LAYER-2
  0
CIRCLE
  8
LAYER-2
 62
  7
 10
2.648629
 20
4.797323
 30
0.000000
 40
0.125000
  0
CIRCLE
  8
LAYER-2
 62
  7
 10
2.648629
 20
0.922316
 30
0.000000
 40
0.125000
  0
POLYLINE
  8
LAYER-2
 66
  1
 70
  0
 62
  7
 10
2.648629
 20
4.922323
 30
0.000000
  0
VERTEX
  8
LAYER-2
 10
2.648629
 20
4.922323
 30
0.000000
  0
VERTEX
  8
LAYER-2
 10
2.648629
 20
4.672323
 30
0.000000
  0
SEQEND
  8
LAYER-2
  0
POLYLINE
  8
LAYER-2
 66
  1
 70
  0
 62
  7
 10
2.648629
 20
1.047316
 30
0.000000
  0
VERTEX
  8
LAYER-2
 10
2.648629
 20
1.047316
 30
0.000000
  0
VERTEX
  8
LAYER-2
 10
2.648629
 20
0.797316
 30
0.000000
  0
SEQEND
  8
LAYER-2
  0
TEXT
  8
LAYER-2
 62
  7
 10
0.153847
 20
8.023001
 30
0.000000
 40
0.490385
  1
Constant pressure
 72
  5
 11
5.461540
 21
8.023001
 31
0.000000
  0
TEXT
  8
LAYER-2
 62
  7
 10
0.153847
 20
7.253770
 30
0.000000
 40
0.490385
  1
Paddle switch,
 72
  5
 11
4.384617
 21
7.253770
 31
0.000000
  0
TEXT
  8
LAYER-2
 62
  7
 10
0.153847
 20
6.484539
 30
0.000000
 40
0.490385
  1
white (standard)
 72
  5
 11
4.846155
 21
6.484539
 31
0.000000
  0
TEXT
  8
LAYER-2
 62
  7
 10
0.153847
 20
5.715309
 30
0.000000
 40
0.490385
  1
(option: key switch)
 72
  5
 11
6.000001
 21
5.715309
 31
0.000000
  0
TEXT
  8
LAYER-2
 62
  7
 10
8.000001
 20
8.023001
 30
0.000000
 40
0.490385
  1
Remote
 72
  5
 11
10.307694
 21
8.023001
 31
0.000000
  0
TEXT
  8
LAYER-2
 62
  7
 10
8.000001
 20
7.253770
 30
0.000000
 40
0.490385
  1
control
 72
  5
 11
10.076924
 21
7.253770
 31
0.000000
  0
TEXT
  8
LAYER-2
 62
  7
 10
6.346155
 20
7.638385
 30
0.000000
 40
0.490385
  1
OR
 72
  5
 11
7.500001
 21
7.638385
 31
0.000000
  0
POLYLINE
  8
LAYER-2
 66
  1
 70
  0
 62
  7
 10
8.545732
 20
5.715302
 30
0.000000
  0
VERTEX
  8
LAYER-2
 10
8.545732
 20
5.715302
 30
0.000000
  0
VERTEX
  8
LAYER-2
 10
9.687464
 20
5.715302
 30
0.000000
  0
SEQEND
  8
LAYER-2
  0
POLYLINE
  8
LAYER-2
 66
  1
 70
  0
 62
  7
 10
10.002424
 20
5.400339
 30
0.000000
  0
VERTEX
  8
LAYER-2
 10
10.002424
 20
5.400339
 30
0.000000
  0
VERTEX
  8
LAYER-2
 10
10.002424
 20
0.912152
 30
0.000000
  0
SEQEND
  8
LAYER-2
  0
POLYLINE
  8
LAYER-2
 66
  1
 70
  0
 62
  7
 10
9.687464
 20
0.597191
 30
0.000000
  0
VERTEX
  8
LAYER-2
 10
9.687464
 20
0.597191
 30
0.000000
  0
VERTEX
  8
LAYER-2
 10
8.545732
 20
0.597191
 30
0.000000
  0
SEQEND
  8
LAYER-2
  0
POLYLINE
  8
LAYER-2
 66
  1
 70
  0
 62
  7
 10
8.230770
 20
0.912152
 30
0.000000
  0
VERTEX
  8
LAYER-2
 10
8.230770
 20
0.912152
 30
0.000000
  0
VERTEX
  8
LAYER-2
 10
8.230770
 20
5.400339
 30
0.000000
  0
SEQEND
  8
LAYER-2
  0
ARC
  8
LAYER-2
 62
  7
 10
8.545732
 20
5.400339
 30
0.000000
 40
0.314961
 50
90.000000
 51
180.000000
  0
ARC
  8
LAYER-2
 62
  7
 10
8.545732
 20
0.912152
 30
0.000000
 40
0.314961
 50
180.000000
 51
270.000000
  0
ARC
  8
LAYER-2
 62
  7
 10
9.687464
 20
0.912152
 30
0.000000
 40
0.314961
 50
270.000000
 51
0.000000
  0
ARC
  8
LAYER-2
 62
  7
 10
9.687464
 20
5.400339
 30
0.000000
 40
0.314961
 50
0.000000
 51
90.000000
  0
POLYLINE
  8
LAYER-2
 66
  1
 70
  0
 62
  7
 10
8.545732
 20
5.675931
 30
0.000000
  0
VERTEX
  8
LAYER-2
 10
8.545732
 20
5.675931
 30
0.000000
  0
VERTEX
  8
LAYER-2
 10
9.687464
 20
5.675931
 30
0.000000
  0
SEQEND
  8
LAYER-2
  0
POLYLINE
  8
LAYER-2
 66
  1
 70
  0
 62
  7
 10
9.963054
 20
5.400339
 30
0.000000
  0
VERTEX
  8
LAYER-2
 10
9.963054
 20
5.400339
 30
0.000000
  0
VERTEX
  8
LAYER-2
 10
9.963054
 20
0.912152
 30
0.000000
  0
SEQEND
  8
LAYER-2
  0
POLYLINE
  8
LAYER-2
 66
  1
 70
  0
 62
  7
 10
9.687464
 20
0.636559
 30
0.000000
  0
VERTEX
  8
LAYER-2
 10
9.687464
 20
0.636559
 30
0.000000
  0
VERTEX
  8
LAYER-2
 10
8.545732
 20
0.636559
 30
0.000000
  0
SEQEND
  8
LAYER-2
  0
POLYLINE
  8
LAYER-2
 66
  1
 70
  0
 62
  7
 10
8.270140
 20
0.912152
 30
0.000000
  0
VERTEX
  8
LAYER-2
 10
8.270140
 20
0.912152
 30
0.000000
  0
VERTEX
  8
LAYER-2
 10
8.270140
 20
5.400339
 30
0.000000
  0
SEQEND
  8
LAYER-2
  0
ARC
  8
LAYER-2
 62
  7
 10
8.545732
 20
5.400339
 30
0.000000
 40
0.275591
 50
90.000000
 51
180.000000
  0
ARC
  8
LAYER-2
 62
  7
 10
8.545732
 20
0.912152
 30
0.000000
 40
0.275591
 50
180.000000
 51
270.000000
  0
ARC
  8
LAYER-2
 62
  7
 10
9.687464
 20
0.912152
 30
0.000000
 40
0.275591
 50
270.000000
 51
0.000000
  0
ARC
  8
LAYER-2
 62
  7
 10
9.687464
 20
5.400339
 30
0.000000
 40
0.275591
 50
0.000000
 51
90.000000
  0
POLYLINE
  8
LAYER-2
 66
  1
 70
  1
 62
  7
  0
VERTEX
  8
LAYER-2
 10
8.427622
 20
5.400339
 30
0.000000
  0
VERTEX
  8
LAYER-2
 10
9.805574
 20
5.400339
 30
0.000000
  0
VERTEX
  8
LAYER-2
 10
9.805574
 20
4.376718
 30
0.000000
  0
VERTEX
  8
LAYER-2
 10
8.427622
 20
4.376718
 30
0.000000
  0
SEQEND
  8
LAYER-2
  0
POLYLINE
  8
LAYER-2
 66
  1
 70
  1
 62
  7
  0
VERTEX
  8
LAYER-2
 10
8.427622
 20
4.219238
 30
0.000000
  0
VERTEX
  8
LAYER-2
 10
9.805574
 20
4.219238
 30
0.000000
  0
VERTEX
  8
LAYER-2
 10
9.805574
 20
4.199552
 30
0.000000
  0
VERTEX
  8
LAYER-2
 10
8.427622
 20
4.199552
 30
0.000000
  0
SEQEND
  8
LAYER-2
  0
POLYLINE
  8
LAYER-2
 66
  1
 70
  1
 62
  7
  0
VERTEX
  8
LAYER-2
 10
8.427622
 20
3.679868
 30
0.000000
  0
VERTEX
  8
LAYER-2
 10
9.805574
 20
3.679868
 30
0.000000
  0
VERTEX
  8
LAYER-2
 10
9.805574
 20
3.660182
 30
0.000000
  0
VERTEX
  8
LAYER-2
 10
8.427622
 20
3.660182
 30
0.000000
  0
SEQEND
  8
LAYER-2
  0
POLYLINE
  8
LAYER-2
 66
  1
 70
  1
 62
  7
  0
VERTEX
  8
LAYER-2
 10
8.427622
 20
3.140498
 30
0.000000
  0
VERTEX
  8
LAYER-2
 10
9.805574
 20
3.140498
 30
0.000000
  0
VERTEX
  8
LAYER-2
 10
9.805574
 20
3.120812
 30
0.000000
  0
VERTEX
  8
LAYER-2
 10
8.427622
 20
3.120812
 30
0.000000
  0
SEQEND
  8
LAYER-2
  0
POLYLINE
  8
LAYER-2
 66
  1
 70
  1
 62
  7
  0
VERTEX
  8
LAYER-2
 10
8.427622
 20
2.601126
 30
0.000000
  0
VERTEX
  8
LAYER-2
 10
9.805574
 20
2.601126
 30
0.000000
  0
VERTEX
  8
LAYER-2
 10
9.805574
 20
2.581444
 30
0.000000
  0
VERTEX
  8
LAYER-2
 10
8.427622
 20
2.581444
 30
0.000000
  0
SEQEND
  8
LAYER-2
  0
POLYLINE
  8
LAYER-2
 66
  1
 70
  1
 62
  7
  0
VERTEX
  8
LAYER-2
 10
8.427622
 20
2.061758
 30
0.000000
  0
VERTEX
  8
LAYER-2
 10
9.805574
 20
2.061758
 30
0.000000
  0
VERTEX
  8
LAYER-2
 10
9.805574
 20
2.042072
 30
0.000000
  0
VERTEX
  8
LAYER-2
 10
8.427622
 20
2.042072
 30
0.000000
  0
SEQEND
  8
LAYER-2
  0
POLYLINE
  8
LAYER-2
 66
  1
 70
  1
 62
  7
  0
VERTEX
  8
LAYER-2
 10
9.106755
 20
2.042072
 30
0.000000
  0
VERTEX
  8
LAYER-2
 10
9.106755
 20
2.581444
 30
0.000000
  0
VERTEX
  8
LAYER-2
 10
9.126440
 20
2.581444
 30
0.000000
  0
VERTEX
  8
LAYER-2
 10
9.126440
 20
2.042072
 30
0.000000
  0
SEQEND
  8
LAYER-2
  0
POLYLINE
  8
LAYER-2
 66
  1
 70
  1
 62
253
  0
VERTEX
  8
LAYER-2
 10
9.037857
 20
3.407776
 30
0.000000
  0
VERTEX
  8
LAYER-2
 10
9.195337
 20
3.407776
 30
0.000000
  0
VERTEX
  8
LAYER-2
 10
9.195337
 20
3.392026
 30
0.000000
  0
VERTEX
  8
LAYER-2
 10
9.037857
 20
3.392026
 30
0.000000
  0
SEQEND
  8
LAYER-2
  0
POLYLINE
  8
LAYER-2
 66
  1
 70
  1
 62
253
  0
VERTEX
  8
LAYER-2
 10
9.037042
 20
3.919525
 30
0.000000
  0
VERTEX
  8
LAYER-2
 10
9.116979
 20
3.972983
 30
0.000000
  0
VERTEX
  8
LAYER-2
 10
9.125735
 20
3.959895
 30
0.000000
  0
VERTEX
  8
LAYER-2
 10
9.045796
 20
3.906433
 30
0.000000
  0
SEQEND
  8
LAYER-2
  0
POLYLINE
  8
LAYER-2
 66
  1
 70
  1
 62
253
  0
VERTEX
  8
LAYER-2
 10
9.117155
 20
3.972983
 30
0.000000
  0
VERTEX
  8
LAYER-2
 10
9.197091
 20
3.919525
 30
0.000000
  0
VERTEX
  8
LAYER-2
 10
9.188337
 20
3.906433
 30
0.000000
  0
VERTEX
  8
LAYER-2
 10
9.108401
 20
3.959895
 30
0.000000
  0
SEQEND
  8
LAYER-2
  0
POLYLINE
  8
LAYER-2
 66
  1
 70
  1
 62
253
  0
VERTEX
  8
LAYER-2
 10
9.116979
 20
2.827693
 30
0.000000
  0
VERTEX
  8
LAYER-2
 10
9.037042
 20
2.881155
 30
0.000000
  0
VERTEX
  8
LAYER-2
 10
9.045796
 20
2.894245
 30
0.000000
  0
VERTEX
  8
LAYER-2
 10
9.125735
 20
2.840783
 30
0.000000
  0
SEQEND
  8
LAYER-2
  0
POLYLINE
  8
LAYER-2
 66
  1
 70
  1
 62
253
  0
VERTEX
  8
LAYER-2
 10
9.197091
 20
2.881155
 30
0.000000
  0
VERTEX
  8
LAYER-2
 10
9.117155
 20
2.827693
 30
0.000000
  0
VERTEX
  8
LAYER-2
 10
9.108401
 20
2.840783
 30
0.000000
  0
VERTEX
  8
LAYER-2
 10
9.188337
 20
2.894245
 30
0.000000
  0
SEQEND
  8
LAYER-2
  0
POLYLINE
  8
LAYER-2
 66
  1
 70
  1
 62
253
  0
VERTEX
  8
LAYER-2
 10
8.677930
 20
2.241399
 30
0.000000
  0
VERTEX
  8
LAYER-2
 10
8.624472
 20
2.321336
 30
0.000000
  0
VERTEX
  8
LAYER-2
 10
8.637563
 20
2.330092
 30
0.000000
  0
VERTEX
  8
LAYER-2
 10
8.691022
 20
2.250155
 30
0.000000
  0
SEQEND
  8
LAYER-2
  0
POLYLINE
  8
LAYER-2
 66
  1
 70
  1
 62
253
  0
VERTEX
  8
LAYER-2
 10
8.624472
 20
2.321510
 30
0.000000
  0
VERTEX
  8
LAYER-2
 10
8.677930
 20
2.401447
 30
0.000000
  0
VERTEX
  8
LAYER-2
 10
8.691022
 20
2.392696
 30
0.000000
  0
VERTEX
  8
LAYER-2
 10
8.637563
 20
2.312758
 30
0.000000
  0
SEQEND
  8
LAYER-2
  0
POLYLINE
  8
LAYER-2
 66
  1
 70
  1
 62
253
  0
VERTEX
  8
LAYER-2
 10
9.607982
 20
2.321336
 30
0.000000
  0
VERTEX
  8
LAYER-2
 10
9.554524
 20
2.241399
 30
0.000000
  0
VERTEX
  8
LAYER-2
 10
9.541433
 20
2.250155
 30
0.000000
  0
VERTEX
  8
LAYER-2
 10
9.594890
 20
2.330092
 30
0.000000
  0
SEQEND
  8
LAYER-2
  0
POLYLINE
  8
LAYER-2
 66
  1
 70
  1
 62
253
  0
VERTEX
  8
LAYER-2
 10
9.554524
 20
2.401447
 30
0.000000
  0
VERTEX
  8
LAYER-2
 10
9.607982
 20
2.321510
 30
0.000000
  0
VERTEX
  8
LAYER-2
 10
9.594890
 20
2.312758
 30
0.000000
  0
VERTEX
  8
LAYER-2
 10
9.541433
 20
2.392696
 30
0.000000
  0
SEQEND
  8
LAYER-2
  0
ENDSEC
  0
EOF
