  0
SECTION
  2
HEADER
999
MacDraft 5.0\0
  9
$ACADVER
  1
AC1006
  9
$CLAYER
  8
LAYER-1
  9
$EXTMIN
 10
0.000000
 20
0.000000
  9
$EXTMAX
 10
6.763574
 20
10.027996
  9
$FASTZOOM
 70
0
  9
$FILLMODE
 70
1
  0
ENDSEC
  0
SECTION
  2
TABLES
  0
TABLE
  2
LTYPE
 70
16
  0
LTYPE
  2
CONTINUOUS
 70
64
  3
Solid Line
 72
65
 73
0
 40
0.000000
  0
LTYPE
  2
LTYPE01
 70
64
  3
CUSTOM
 72
65
 73
2
 40
0.111111
 49
0.083333
 49
-0.027778
  0
LTYPE
  2
LTYPE02
 70
64
  3
CUSTOM
 72
65
 73
2
 40
0.194444
 49
0.166667
 49
-0.027778
  0
LTYPE
  2
LTYPE03
 70
64
  3
CUSTOM
 72
65
 73
2
 40
0.375000
 49
0.333333
 49
-0.041667
  0
LTYPE
  2
LTYPE04
 70
64
  3
CUSTOM
 72
65
 73
2
 40
0.722222
 49
0.666667
 49
-0.055556
  0
LTYPE
  2
LTYPE05
 70
64
  3
CUSTOM
 72
65
 73
4
 40
0.152778
 49
0.083333
 49
-0.027778
 49
0.013889
 49
-0.027778
  0
LTYPE
  2
LTYPE06
 70
64
  3
CUSTOM
 72
65
 73
4
 40
0.236111
 49
0.166667
 49
-0.027778
 49
0.013889
 49
-0.027778
  0
LTYPE
  2
LTYPE07
 70
64
  3
CUSTOM
 72
65
 73
4
 40
0.444444
 49
0.333333
 49
-0.041667
 49
0.027778
 49
-0.041667
  0
LTYPE
  2
LTYPE08
 70
64
  3
CUSTOM
 72
65
 73
4
 40
0.805556
 49
0.666667
 49
-0.055556
 49
0.027778
 49
-0.055556
  0
LTYPE
  2
LTYPE09
 70
64
  3
CUSTOM
 72
65
 73
6
 40
0.194444
 49
0.083333
 49
-0.027778
 49
0.013889
 49
-0.027778
 49
0.013889
 49
-0.027778
  0
LTYPE
  2
LTYPE10
 70
64
  3
CUSTOM
 72
65
 73
6
 40
0.277778
 49
0.166667
 49
-0.027778
 49
0.013889
 49
-0.027778
 49
0.013889
 49
-0.027778
  0
LTYPE
  2
LTYPE11
 70
64
  3
CUSTOM
 72
65
 73
6
 40
0.500000
 49
0.333333
 49
-0.041667
 49
0.027778
 49
-0.027778
 49
0.027778
 49
-0.041667
  0
LTYPE
  2
LTYPE12
 70
64
  3
CUSTOM
 72
65
 73
6
 40
0.861111
 49
0.666667
 49
-0.055556
 49
0.027778
 49
-0.027778
 49
0.027778
 49
-0.055556
  0
LTYPE
  2
LTYPE13
 70
64
  3
CUSTOM
 72
65
 73
8
 40
0.319444
 49
0.166667
 49
-0.027778
 49
0.013889
 49
-0.027778
 49
0.013889
 49
-0.027778
 49
0.013889
 49
-0.027778
  0
LTYPE
  2
LTYPE14
 70
64
  3
CUSTOM
 72
65
 73
8
 40
0.555556
 49
0.333333
 49
-0.041667
 49
0.027778
 49
-0.027778
 49
0.027778
 49
-0.027778
 49
0.027778
 49
-0.041667
  0
LTYPE
  2
LTYPE15
 70
64
  3
CUSTOM
 72
65
 73
8
 40
0.944444
 49
0.666667
 49
-0.055556
 49
0.027778
 49
-0.041667
 49
0.027778
 49
-0.041667
 49
0.027778
 49
-0.055556
  0
ENDTAB
  0
TABLE
  2
LAYER
 70
1
  0
LAYER
  2
LAYER-1
 70
0
 62
7
  6
CONTINUOUS
  0
ENDTAB
  0
ENDSEC
  0
SECTION
  2
BLOCKS
  0
ENDSEC
  0
SECTION
  2
ENTITIES
  0
POLYLINE
  8
LAYER-1
 66
  1
 70
  1
 62
  0
  0
VERTEX
  8
LAYER-1
 10
3.674881
 20
0.341079
 30
0.000000
  0
VERTEX
  8
LAYER-1
 10
3.707831
 20
0.341079
 30
0.000000
  0
VERTEX
  8
LAYER-1
 10
3.707831
 20
0.246346
 30
0.000000
  0
VERTEX
  8
LAYER-1
 10
3.674881
 20
0.246346
 30
0.000000
  0
SEQEND
  8
LAYER-1
  0
ARC
  8
LAYER-1
 62
  0
 10
5.444354
 20
8.965681
 30
0.000000
 40
0.254425
 50
270.000000
 51
90.000000
  0
POLYLINE
  8
LAYER-1
 66
  1
 70
  0
 62
  0
 10
5.444354
 20
9.220106
 30
0.000000
  0
VERTEX
  8
LAYER-1
 10
5.444354
 20
9.220106
 30
0.000000
  0
VERTEX
  8
LAYER-1
 10
1.779433
 20
9.220106
 30
0.000000
  0
SEQEND
  8
LAYER-1
  0
POLYLINE
  8
LAYER-1
 66
  1
 70
  0
 62
  0
 10
1.779433
 20
9.220106
 30
0.000000
  0
VERTEX
  8
LAYER-1
 10
1.779433
 20
9.220106
 30
0.000000
  0
VERTEX
  8
LAYER-1
 10
1.779433
 20
8.711256
 30
0.000000
  0
SEQEND
  8
LAYER-1
  0
POLYLINE
  8
LAYER-1
 66
  1
 70
  0
 62
  0
 10
5.444354
 20
8.711256
 30
0.000000
  0
VERTEX
  8
LAYER-1
 10
5.444354
 20
8.711256
 30
0.000000
  0
VERTEX
  8
LAYER-1
 10
1.779433
 20
8.711256
 30
0.000000
  0
SEQEND
  8
LAYER-1
  0
TEXT
  8
LAYER-1
 62
  0
 10
3.583019
 20
9.507162
 30
0.000000
 40
0.333333
  1
MobilFlex
 72
  5
 11
5.735797
 21
9.507162
 31
0.000000
  0
POLYLINE
  8
LAYER-1
 66
  1
 70
  1
 62
  0
  0
VERTEX
  8
LAYER-1
 10
1.780936
 20
10.026329
 30
0.000000
  0
VERTEX
  8
LAYER-1
 10
2.018783
 20
10.026329
 30
0.000000
  0
VERTEX
  8
LAYER-1
 10
2.018783
 20
9.509384
 30
0.000000
  0
VERTEX
  8
LAYER-1
 10
1.780936
 20
9.509384
 30
0.000000
  0
SEQEND
  8
LAYER-1
  0
POLYLINE
  8
LAYER-1
 66
  1
 70
  1
 62
  0
  0
VERTEX
  8
LAYER-1
 10
2.093436
 20
10.026329
 30
0.000000
  0
VERTEX
  8
LAYER-1
 10
2.331283
 20
10.026329
 30
0.000000
  0
VERTEX
  8
LAYER-1
 10
2.331283
 20
9.509384
 30
0.000000
  0
VERTEX
  8
LAYER-1
 10
2.093436
 20
9.509384
 30
0.000000
  0
SEQEND
  8
LAYER-1
  0
POLYLINE
  8
LAYER-1
 66
  1
 70
  1
 62
  0
  0
VERTEX
  8
LAYER-1
 10
2.393783
 20
10.026329
 30
0.000000
  0
VERTEX
  8
LAYER-1
 10
2.631631
 20
10.026329
 30
0.000000
  0
VERTEX
  8
LAYER-1
 10
2.631631
 20
9.509384
 30
0.000000
  0
VERTEX
  8
LAYER-1
 10
2.393783
 20
9.509384
 30
0.000000
  0
SEQEND
  8
LAYER-1
  0
POLYLINE
  8
LAYER-1
 66
  1
 70
  1
 62
  0
  0
VERTEX
  8
LAYER-1
 10
2.697603
 20
10.026329
 30
0.000000
  0
VERTEX
  8
LAYER-1
 10
2.935450
 20
10.026329
 30
0.000000
  0
VERTEX
  8
LAYER-1
 10
2.935450
 20
9.509384
 30
0.000000
  0
VERTEX
  8
LAYER-1
 10
2.697603
 20
9.509384
 30
0.000000
  0
SEQEND
  8
LAYER-1
  0
POLYLINE
  8
LAYER-1
 66
  1
 70
  1
 62
  0
  0
VERTEX
  8
LAYER-1
 10
3.014443
 20
10.022413
 30
0.000000
  0
VERTEX
  8
LAYER-1
 10
3.389877
 20
10.022413
 30
0.000000
  0
VERTEX
  8
LAYER-1
 10
3.389877
 20
9.884393
 30
0.000000
  0
VERTEX
  8
LAYER-1
 10
3.014443
 20
9.884393
 30
0.000000
  0
SEQEND
  8
LAYER-1
  0
POLYLINE
  8
LAYER-1
 66
  1
 70
  1
 62
  0
  0
VERTEX
  8
LAYER-1
 10
3.014009
 20
9.794983
 30
0.000000
  0
VERTEX
  8
LAYER-1
 10
3.322169
 20
9.794983
 30
0.000000
  0
VERTEX
  8
LAYER-1
 10
3.322169
 20
9.660868
 30
0.000000
  0
VERTEX
  8
LAYER-1
 10
3.014009
 20
9.660868
 30
0.000000
  0
SEQEND
  8
LAYER-1
  0
POLYLINE
  8
LAYER-1
 66
  1
 70
  1
 62
  0
  0
VERTEX
  8
LAYER-1
 10
1.780936
 20
9.424757
 30
0.000000
  0
VERTEX
  8
LAYER-1
 10
5.699339
 20
9.424757
 30
0.000000
  0
VERTEX
  8
LAYER-1
 10
5.699339
 20
9.381354
 30
0.000000
  0
VERTEX
  8
LAYER-1
 10
1.780936
 20
9.381354
 30
0.000000
  0
SEQEND
  8
LAYER-1
  0
POLYLINE
  8
LAYER-1
 66
  1
 70
  1
 62
  7
  0
VERTEX
  8
LAYER-1
 10
5.484826
 20
7.189333
 30
0.000000
  0
VERTEX
  8
LAYER-1
 10
5.654965
 20
7.189333
 30
0.000000
  0
VERTEX
  8
LAYER-1
 10
5.654965
 20
6.367141
 30
0.000000
  0
VERTEX
  8
LAYER-1
 10
5.484826
 20
6.367141
 30
0.000000
  0
SEQEND
  8
LAYER-1
  0
POLYLINE
  8
LAYER-1
 66
  1
 70
  1
 62
  7
  0
VERTEX
  8
LAYER-1
 10
5.075346
 20
7.189333
 30
0.000000
  0
VERTEX
  8
LAYER-1
 10
5.245485
 20
7.189333
 30
0.000000
  0
VERTEX
  8
LAYER-1
 10
5.245485
 20
6.367141
 30
0.000000
  0
VERTEX
  8
LAYER-1
 10
5.075346
 20
6.367141
 30
0.000000
  0
SEQEND
  8
LAYER-1
  0
POLYLINE
  8
LAYER-1
 66
  1
 70
  1
 62
  7
  0
VERTEX
  8
LAYER-1
 10
4.666735
 20
7.189333
 30
0.000000
  0
VERTEX
  8
LAYER-1
 10
4.836875
 20
7.189333
 30
0.000000
  0
VERTEX
  8
LAYER-1
 10
4.836875
 20
6.367141
 30
0.000000
  0
VERTEX
  8
LAYER-1
 10
4.666735
 20
6.367141
 30
0.000000
  0
SEQEND
  8
LAYER-1
  0
POLYLINE
  8
LAYER-1
 66
  1
 70
  1
 62
  7
  0
VERTEX
  8
LAYER-1
 10
4.259861
 20
7.189333
 30
0.000000
  0
VERTEX
  8
LAYER-1
 10
4.430000
 20
7.189333
 30
0.000000
  0
VERTEX
  8
LAYER-1
 10
4.430000
 20
6.367141
 30
0.000000
  0
VERTEX
  8
LAYER-1
 10
4.259861
 20
6.367141
 30
0.000000
  0
SEQEND
  8
LAYER-1
  0
POLYLINE
  8
LAYER-1
 66
  1
 70
  1
 62
  7
  0
VERTEX
  8
LAYER-1
 10
3.851248
 20
7.189333
 30
0.000000
  0
VERTEX
  8
LAYER-1
 10
4.021388
 20
7.189333
 30
0.000000
  0
VERTEX
  8
LAYER-1
 10
4.021388
 20
6.367141
 30
0.000000
  0
VERTEX
  8
LAYER-1
 10
3.851248
 20
6.367141
 30
0.000000
  0
SEQEND
  8
LAYER-1
  0
POLYLINE
  8
LAYER-1
 66
  1
 70
  1
 62
  7
  0
VERTEX
  8
LAYER-1
 10
4.056422
 20
6.367498
 30
0.000000
  0
VERTEX
  8
LAYER-1
 10
4.226561
 20
6.367498
 30
0.000000
  0
VERTEX
  8
LAYER-1
 10
4.226561
 20
5.545307
 30
0.000000
  0
VERTEX
  8
LAYER-1
 10
4.056422
 20
5.545307
 30
0.000000
  0
SEQEND
  8
LAYER-1
  0
POLYLINE
  8
LAYER-1
 66
  1
 70
  1
 62
  7
  0
VERTEX
  8
LAYER-1
 10
4.463298
 20
6.367498
 30
0.000000
  0
VERTEX
  8
LAYER-1
 10
4.633437
 20
6.367498
 30
0.000000
  0
VERTEX
  8
LAYER-1
 10
4.633437
 20
5.545307
 30
0.000000
  0
VERTEX
  8
LAYER-1
 10
4.463298
 20
5.545307
 30
0.000000
  0
SEQEND
  8
LAYER-1
  0
POLYLINE
  8
LAYER-1
 66
  1
 70
  1
 62
  7
  0
VERTEX
  8
LAYER-1
 10
4.869306
 20
6.367498
 30
0.000000
  0
VERTEX
  8
LAYER-1
 10
5.039445
 20
6.367498
 30
0.000000
  0
VERTEX
  8
LAYER-1
 10
5.039445
 20
5.545307
 30
0.000000
  0
VERTEX
  8
LAYER-1
 10
4.869306
 20
5.545307
 30
0.000000
  0
SEQEND
  8
LAYER-1
  0
POLYLINE
  8
LAYER-1
 66
  1
 70
  1
 62
  7
  0
VERTEX
  8
LAYER-1
 10
5.279652
 20
6.367498
 30
0.000000
  0
VERTEX
  8
LAYER-1
 10
5.449791
 20
6.367498
 30
0.000000
  0
VERTEX
  8
LAYER-1
 10
5.449791
 20
5.545307
 30
0.000000
  0
VERTEX
  8
LAYER-1
 10
5.279652
 20
5.545307
 30
0.000000
  0
SEQEND
  8
LAYER-1
  0
POLYLINE
  8
LAYER-1
 66
  1
 70
  1
 62
  7
  0
VERTEX
  8
LAYER-1
 10
5.484826
 20
5.545304
 30
0.000000
  0
VERTEX
  8
LAYER-1
 10
5.654965
 20
5.545304
 30
0.000000
  0
VERTEX
  8
LAYER-1
 10
5.654965
 20
4.723113
 30
0.000000
  0
VERTEX
  8
LAYER-1
 10
5.484826
 20
4.723113
 30
0.000000
  0
SEQEND
  8
LAYER-1
  0
POLYLINE
  8
LAYER-1
 66
  1
 70
  1
 62
  7
  0
VERTEX
  8
LAYER-1
 10
5.074478
 20
5.545304
 30
0.000000
  0
VERTEX
  8
LAYER-1
 10
5.244617
 20
5.545304
 30
0.000000
  0
VERTEX
  8
LAYER-1
 10
5.244617
 20
4.723113
 30
0.000000
  0
VERTEX
  8
LAYER-1
 10
5.074478
 20
4.723113
 30
0.000000
  0
SEQEND
  8
LAYER-1
  0
POLYLINE
  8
LAYER-1
 66
  1
 70
  1
 62
  7
  0
VERTEX
  8
LAYER-1
 10
4.666735
 20
5.545304
 30
0.000000
  0
VERTEX
  8
LAYER-1
 10
4.836875
 20
5.545304
 30
0.000000
  0
VERTEX
  8
LAYER-1
 10
4.836875
 20
4.723113
 30
0.000000
  0
VERTEX
  8
LAYER-1
 10
4.666735
 20
4.723113
 30
0.000000
  0
SEQEND
  8
LAYER-1
  0
POLYLINE
  8
LAYER-1
 66
  1
 70
  1
 62
  7
  0
VERTEX
  8
LAYER-1
 10
4.259861
 20
5.545304
 30
0.000000
  0
VERTEX
  8
LAYER-1
 10
4.430000
 20
5.545304
 30
0.000000
  0
VERTEX
  8
LAYER-1
 10
4.430000
 20
4.723113
 30
0.000000
  0
VERTEX
  8
LAYER-1
 10
4.259861
 20
4.723113
 30
0.000000
  0
SEQEND
  8
LAYER-1
  0
POLYLINE
  8
LAYER-1
 66
  1
 70
  1
 62
  7
  0
VERTEX
  8
LAYER-1
 10
3.851248
 20
5.545304
 30
0.000000
  0
VERTEX
  8
LAYER-1
 10
4.021388
 20
5.545304
 30
0.000000
  0
VERTEX
  8
LAYER-1
 10
4.021388
 20
4.723113
 30
0.000000
  0
VERTEX
  8
LAYER-1
 10
3.851248
 20
4.723113
 30
0.000000
  0
SEQEND
  8
LAYER-1
  0
POLYLINE
  8
LAYER-1
 66
  1
 70
  1
 62
  7
  0
VERTEX
  8
LAYER-1
 10
4.056422
 20
4.723470
 30
0.000000
  0
VERTEX
  8
LAYER-1
 10
4.226561
 20
4.723470
 30
0.000000
  0
VERTEX
  8
LAYER-1
 10
4.226561
 20
3.901279
 30
0.000000
  0
VERTEX
  8
LAYER-1
 10
4.056422
 20
3.901279
 30
0.000000
  0
SEQEND
  8
LAYER-1
  0
POLYLINE
  8
LAYER-1
 66
  1
 70
  1
 62
  7
  0
VERTEX
  8
LAYER-1
 10
4.463298
 20
4.723470
 30
0.000000
  0
VERTEX
  8
LAYER-1
 10
4.633437
 20
4.723470
 30
0.000000
  0
VERTEX
  8
LAYER-1
 10
4.633437
 20
3.901279
 30
0.000000
  0
VERTEX
  8
LAYER-1
 10
4.463298
 20
3.901279
 30
0.000000
  0
SEQEND
  8
LAYER-1
  0
POLYLINE
  8
LAYER-1
 66
  1
 70
  1
 62
  7
  0
VERTEX
  8
LAYER-1
 10
4.870174
 20
4.723470
 30
0.000000
  0
VERTEX
  8
LAYER-1
 10
5.040313
 20
4.723470
 30
0.000000
  0
VERTEX
  8
LAYER-1
 10
5.040313
 20
3.901279
 30
0.000000
  0
VERTEX
  8
LAYER-1
 10
4.870174
 20
3.901279
 30
0.000000
  0
SEQEND
  8
LAYER-1
  0
POLYLINE
  8
LAYER-1
 66
  1
 70
  1
 62
  7
  0
VERTEX
  8
LAYER-1
 10
5.279652
 20
4.723470
 30
0.000000
  0
VERTEX
  8
LAYER-1
 10
5.449791
 20
4.723470
 30
0.000000
  0
VERTEX
  8
LAYER-1
 10
5.449791
 20
3.901279
 30
0.000000
  0
VERTEX
  8
LAYER-1
 10
5.279652
 20
3.901279
 30
0.000000
  0
SEQEND
  8
LAYER-1
  0
POLYLINE
  8
LAYER-1
 66
  1
 70
  1
 62
  7
  0
VERTEX
  8
LAYER-1
 10
5.484826
 20
3.901276
 30
0.000000
  0
VERTEX
  8
LAYER-1
 10
5.654965
 20
3.901276
 30
0.000000
  0
VERTEX
  8
LAYER-1
 10
5.654965
 20
3.079085
 30
0.000000
  0
VERTEX
  8
LAYER-1
 10
5.484826
 20
3.079085
 30
0.000000
  0
SEQEND
  8
LAYER-1
  0
POLYLINE
  8
LAYER-1
 66
  1
 70
  1
 62
  7
  0
VERTEX
  8
LAYER-1
 10
5.075346
 20
3.901276
 30
0.000000
  0
VERTEX
  8
LAYER-1
 10
5.245485
 20
3.901276
 30
0.000000
  0
VERTEX
  8
LAYER-1
 10
5.245485
 20
3.079085
 30
0.000000
  0
VERTEX
  8
LAYER-1
 10
5.075346
 20
3.079085
 30
0.000000
  0
SEQEND
  8
LAYER-1
  0
POLYLINE
  8
LAYER-1
 66
  1
 70
  1
 62
  7
  0
VERTEX
  8
LAYER-1
 10
4.666735
 20
3.901276
 30
0.000000
  0
VERTEX
  8
LAYER-1
 10
4.836875
 20
3.901276
 30
0.000000
  0
VERTEX
  8
LAYER-1
 10
4.836875
 20
3.079085
 30
0.000000
  0
VERTEX
  8
LAYER-1
 10
4.666735
 20
3.079085
 30
0.000000
  0
SEQEND
  8
LAYER-1
  0
POLYLINE
  8
LAYER-1
 66
  1
 70
  1
 62
  7
  0
VERTEX
  8
LAYER-1
 10
4.259861
 20
3.901276
 30
0.000000
  0
VERTEX
  8
LAYER-1
 10
4.430000
 20
3.901276
 30
0.000000
  0
VERTEX
  8
LAYER-1
 10
4.430000
 20
3.079085
 30
0.000000
  0
VERTEX
  8
LAYER-1
 10
4.259861
 20
3.079085
 30
0.000000
  0
SEQEND
  8
LAYER-1
  0
POLYLINE
  8
LAYER-1
 66
  1
 70
  1
 62
  7
  0
VERTEX
  8
LAYER-1
 10
3.851248
 20
3.901276
 30
0.000000
  0
VERTEX
  8
LAYER-1
 10
4.021388
 20
3.901276
 30
0.000000
  0
VERTEX
  8
LAYER-1
 10
4.021388
 20
3.079085
 30
0.000000
  0
VERTEX
  8
LAYER-1
 10
3.851248
 20
3.079085
 30
0.000000
  0
SEQEND
  8
LAYER-1
  0
POLYLINE
  8
LAYER-1
 66
  1
 70
  1
 62
  7
  0
VERTEX
  8
LAYER-1
 10
4.056422
 20
3.079441
 30
0.000000
  0
VERTEX
  8
LAYER-1
 10
4.226561
 20
3.079441
 30
0.000000
  0
VERTEX
  8
LAYER-1
 10
4.226561
 20
2.257247
 30
0.000000
  0
VERTEX
  8
LAYER-1
 10
4.056422
 20
2.257247
 30
0.000000
  0
SEQEND
  8
LAYER-1
  0
POLYLINE
  8
LAYER-1
 66
  1
 70
  1
 62
  7
  0
VERTEX
  8
LAYER-1
 10
4.463298
 20
3.079441
 30
0.000000
  0
VERTEX
  8
LAYER-1
 10
4.633437
 20
3.079441
 30
0.000000
  0
VERTEX
  8
LAYER-1
 10
4.633437
 20
2.257247
 30
0.000000
  0
VERTEX
  8
LAYER-1
 10
4.463298
 20
2.257247
 30
0.000000
  0
SEQEND
  8
LAYER-1
  0
POLYLINE
  8
LAYER-1
 66
  1
 70
  1
 62
  7
  0
VERTEX
  8
LAYER-1
 10
4.870174
 20
3.079441
 30
0.000000
  0
VERTEX
  8
LAYER-1
 10
5.040313
 20
3.079441
 30
0.000000
  0
VERTEX
  8
LAYER-1
 10
5.040313
 20
2.257247
 30
0.000000
  0
VERTEX
  8
LAYER-1
 10
4.870174
 20
2.257247
 30
0.000000
  0
SEQEND
  8
LAYER-1
  0
POLYLINE
  8
LAYER-1
 66
  1
 70
  1
 62
  7
  0
VERTEX
  8
LAYER-1
 10
5.279652
 20
3.079441
 30
0.000000
  0
VERTEX
  8
LAYER-1
 10
5.449791
 20
3.079441
 30
0.000000
  0
VERTEX
  8
LAYER-1
 10
5.449791
 20
2.257247
 30
0.000000
  0
VERTEX
  8
LAYER-1
 10
5.279652
 20
2.257247
 30
0.000000
  0
SEQEND
  8
LAYER-1
  0
POLYLINE
  8
LAYER-1
 66
  1
 70
  1
 62
  7
  0
VERTEX
  8
LAYER-1
 10
5.484826
 20
2.257245
 30
0.000000
  0
VERTEX
  8
LAYER-1
 10
5.654965
 20
2.257245
 30
0.000000
  0
VERTEX
  8
LAYER-1
 10
5.654965
 20
1.435054
 30
0.000000
  0
VERTEX
  8
LAYER-1
 10
5.484826
 20
1.435054
 30
0.000000
  0
SEQEND
  8
LAYER-1
  0
POLYLINE
  8
LAYER-1
 66
  1
 70
  1
 62
  7
  0
VERTEX
  8
LAYER-1
 10
5.075346
 20
2.257245
 30
0.000000
  0
VERTEX
  8
LAYER-1
 10
5.245485
 20
2.257245
 30
0.000000
  0
VERTEX
  8
LAYER-1
 10
5.245485
 20
1.435054
 30
0.000000
  0
VERTEX
  8
LAYER-1
 10
5.075346
 20
1.435054
 30
0.000000
  0
SEQEND
  8
LAYER-1
  0
POLYLINE
  8
LAYER-1
 66
  1
 70
  1
 62
  7
  0
VERTEX
  8
LAYER-1
 10
4.666735
 20
2.257245
 30
0.000000
  0
VERTEX
  8
LAYER-1
 10
4.836875
 20
2.257245
 30
0.000000
  0
VERTEX
  8
LAYER-1
 10
4.836875
 20
1.435054
 30
0.000000
  0
VERTEX
  8
LAYER-1
 10
4.666735
 20
1.435054
 30
0.000000
  0
SEQEND
  8
LAYER-1
  0
POLYLINE
  8
LAYER-1
 66
  1
 70
  1
 62
  7
  0
VERTEX
  8
LAYER-1
 10
4.259861
 20
2.257245
 30
0.000000
  0
VERTEX
  8
LAYER-1
 10
4.430000
 20
2.257245
 30
0.000000
  0
VERTEX
  8
LAYER-1
 10
4.430000
 20
1.435054
 30
0.000000
  0
VERTEX
  8
LAYER-1
 10
4.259861
 20
1.435054
 30
0.000000
  0
SEQEND
  8
LAYER-1
  0
POLYLINE
  8
LAYER-1
 66
  1
 70
  1
 62
  7
  0
VERTEX
  8
LAYER-1
 10
3.851248
 20
2.257245
 30
0.000000
  0
VERTEX
  8
LAYER-1
 10
4.021388
 20
2.257245
 30
0.000000
  0
VERTEX
  8
LAYER-1
 10
4.021388
 20
1.435054
 30
0.000000
  0
VERTEX
  8
LAYER-1
 10
3.851248
 20
1.435054
 30
0.000000
  0
SEQEND
  8
LAYER-1
  0
POLYLINE
  8
LAYER-1
 66
  1
 70
  1
 62
  7
  0
VERTEX
  8
LAYER-1
 10
4.056422
 20
1.435412
 30
0.000000
  0
VERTEX
  8
LAYER-1
 10
4.226561
 20
1.435412
 30
0.000000
  0
VERTEX
  8
LAYER-1
 10
4.226561
 20
0.613221
 30
0.000000
  0
VERTEX
  8
LAYER-1
 10
4.056422
 20
0.613221
 30
0.000000
  0
SEQEND
  8
LAYER-1
  0
POLYLINE
  8
LAYER-1
 66
  1
 70
  1
 62
  7
  0
VERTEX
  8
LAYER-1
 10
4.464166
 20
1.435412
 30
0.000000
  0
VERTEX
  8
LAYER-1
 10
4.634305
 20
1.435412
 30
0.000000
  0
VERTEX
  8
LAYER-1
 10
4.634305
 20
0.613221
 30
0.000000
  0
VERTEX
  8
LAYER-1
 10
4.464166
 20
0.613221
 30
0.000000
  0
SEQEND
  8
LAYER-1
  0
POLYLINE
  8
LAYER-1
 66
  1
 70
  1
 62
  7
  0
VERTEX
  8
LAYER-1
 10
4.870174
 20
1.435412
 30
0.000000
  0
VERTEX
  8
LAYER-1
 10
5.040313
 20
1.435412
 30
0.000000
  0
VERTEX
  8
LAYER-1
 10
5.040313
 20
0.613221
 30
0.000000
  0
VERTEX
  8
LAYER-1
 10
4.870174
 20
0.613221
 30
0.000000
  0
SEQEND
  8
LAYER-1
  0
POLYLINE
  8
LAYER-1
 66
  1
 70
  1
 62
  7
  0
VERTEX
  8
LAYER-1
 10
5.279652
 20
1.435412
 30
0.000000
  0
VERTEX
  8
LAYER-1
 10
5.449791
 20
1.435412
 30
0.000000
  0
VERTEX
  8
LAYER-1
 10
5.449791
 20
0.613221
 30
0.000000
  0
VERTEX
  8
LAYER-1
 10
5.279652
 20
0.613221
 30
0.000000
  0
SEQEND
  8
LAYER-1
  0
POLYLINE
  8
LAYER-1
 66
  1
 70
  1
 62
  7
  0
VERTEX
  8
LAYER-1
 10
1.804373
 20
7.190509
 30
0.000000
  0
VERTEX
  8
LAYER-1
 10
1.974512
 20
7.190509
 30
0.000000
  0
VERTEX
  8
LAYER-1
 10
1.974512
 20
6.368317
 30
0.000000
  0
VERTEX
  8
LAYER-1
 10
1.804373
 20
6.368317
 30
0.000000
  0
SEQEND
  8
LAYER-1
  0
POLYLINE
  8
LAYER-1
 66
  1
 70
  1
 62
  7
  0
VERTEX
  8
LAYER-1
 10
2.213853
 20
7.190509
 30
0.000000
  0
VERTEX
  8
LAYER-1
 10
2.383992
 20
7.190509
 30
0.000000
  0
VERTEX
  8
LAYER-1
 10
2.383992
 20
6.368317
 30
0.000000
  0
VERTEX
  8
LAYER-1
 10
2.213853
 20
6.368317
 30
0.000000
  0
SEQEND
  8
LAYER-1
  0
POLYLINE
  8
LAYER-1
 66
  1
 70
  1
 62
  7
  0
VERTEX
  8
LAYER-1
 10
2.623332
 20
7.190509
 30
0.000000
  0
VERTEX
  8
LAYER-1
 10
2.793471
 20
7.190509
 30
0.000000
  0
VERTEX
  8
LAYER-1
 10
2.793471
 20
6.368317
 30
0.000000
  0
VERTEX
  8
LAYER-1
 10
2.623332
 20
6.368317
 30
0.000000
  0
SEQEND
  8
LAYER-1
  0
POLYLINE
  8
LAYER-1
 66
  1
 70
  1
 62
  7
  0
VERTEX
  8
LAYER-1
 10
3.029339
 20
7.190509
 30
0.000000
  0
VERTEX
  8
LAYER-1
 10
3.199478
 20
7.190509
 30
0.000000
  0
VERTEX
  8
LAYER-1
 10
3.199478
 20
6.368317
 30
0.000000
  0
VERTEX
  8
LAYER-1
 10
3.029339
 20
6.368317
 30
0.000000
  0
SEQEND
  8
LAYER-1
  0
POLYLINE
  8
LAYER-1
 66
  1
 70
  1
 62
  7
  0
VERTEX
  8
LAYER-1
 10
3.437083
 20
7.190509
 30
0.000000
  0
VERTEX
  8
LAYER-1
 10
3.607221
 20
7.190509
 30
0.000000
  0
VERTEX
  8
LAYER-1
 10
3.607221
 20
6.368317
 30
0.000000
  0
VERTEX
  8
LAYER-1
 10
3.437083
 20
6.368317
 30
0.000000
  0
SEQEND
  8
LAYER-1
  0
POLYLINE
  8
LAYER-1
 66
  1
 70
  1
 62
  7
  0
VERTEX
  8
LAYER-1
 10
3.232777
 20
6.368674
 30
0.000000
  0
VERTEX
  8
LAYER-1
 10
3.402916
 20
6.368674
 30
0.000000
  0
VERTEX
  8
LAYER-1
 10
3.402916
 20
5.546483
 30
0.000000
  0
VERTEX
  8
LAYER-1
 10
3.232777
 20
5.546483
 30
0.000000
  0
SEQEND
  8
LAYER-1
  0
POLYLINE
  8
LAYER-1
 66
  1
 70
  1
 62
  7
  0
VERTEX
  8
LAYER-1
 10
2.826770
 20
6.368674
 30
0.000000
  0
VERTEX
  8
LAYER-1
 10
2.996909
 20
6.368674
 30
0.000000
  0
VERTEX
  8
LAYER-1
 10
2.996909
 20
5.546483
 30
0.000000
  0
VERTEX
  8
LAYER-1
 10
2.826770
 20
5.546483
 30
0.000000
  0
SEQEND
  8
LAYER-1
  0
POLYLINE
  8
LAYER-1
 66
  1
 70
  1
 62
  7
  0
VERTEX
  8
LAYER-1
 10
2.419026
 20
6.368674
 30
0.000000
  0
VERTEX
  8
LAYER-1
 10
2.589165
 20
6.368674
 30
0.000000
  0
VERTEX
  8
LAYER-1
 10
2.589165
 20
5.546483
 30
0.000000
  0
VERTEX
  8
LAYER-1
 10
2.419026
 20
5.546483
 30
0.000000
  0
SEQEND
  8
LAYER-1
  0
POLYLINE
  8
LAYER-1
 66
  1
 70
  1
 62
  7
  0
VERTEX
  8
LAYER-1
 10
2.010415
 20
6.368674
 30
0.000000
  0
VERTEX
  8
LAYER-1
 10
2.180554
 20
6.368674
 30
0.000000
  0
VERTEX
  8
LAYER-1
 10
2.180554
 20
5.546483
 30
0.000000
  0
VERTEX
  8
LAYER-1
 10
2.010415
 20
5.546483
 30
0.000000
  0
SEQEND
  8
LAYER-1
  0
POLYLINE
  8
LAYER-1
 66
  1
 70
  1
 62
  7
  0
VERTEX
  8
LAYER-1
 10
1.804373
 20
5.546480
 30
0.000000
  0
VERTEX
  8
LAYER-1
 10
1.974512
 20
5.546480
 30
0.000000
  0
VERTEX
  8
LAYER-1
 10
1.974512
 20
4.724290
 30
0.000000
  0
VERTEX
  8
LAYER-1
 10
1.804373
 20
4.724290
 30
0.000000
  0
SEQEND
  8
LAYER-1
  0
POLYLINE
  8
LAYER-1
 66
  1
 70
  1
 62
  7
  0
VERTEX
  8
LAYER-1
 10
2.213853
 20
5.546480
 30
0.000000
  0
VERTEX
  8
LAYER-1
 10
2.383992
 20
5.546480
 30
0.000000
  0
VERTEX
  8
LAYER-1
 10
2.383992
 20
4.724290
 30
0.000000
  0
VERTEX
  8
LAYER-1
 10
2.213853
 20
4.724290
 30
0.000000
  0
SEQEND
  8
LAYER-1
  0
POLYLINE
  8
LAYER-1
 66
  1
 70
  1
 62
  7
  0
VERTEX
  8
LAYER-1
 10
2.623332
 20
5.546480
 30
0.000000
  0
VERTEX
  8
LAYER-1
 10
2.793471
 20
5.546480
 30
0.000000
  0
VERTEX
  8
LAYER-1
 10
2.793471
 20
4.724290
 30
0.000000
  0
VERTEX
  8
LAYER-1
 10
2.623332
 20
4.724290
 30
0.000000
  0
SEQEND
  8
LAYER-1
  0
POLYLINE
  8
LAYER-1
 66
  1
 70
  1
 62
  7
  0
VERTEX
  8
LAYER-1
 10
3.029339
 20
5.546480
 30
0.000000
  0
VERTEX
  8
LAYER-1
 10
3.199478
 20
5.546480
 30
0.000000
  0
VERTEX
  8
LAYER-1
 10
3.199478
 20
4.724290
 30
0.000000
  0
VERTEX
  8
LAYER-1
 10
3.029339
 20
4.724290
 30
0.000000
  0
SEQEND
  8
LAYER-1
  0
POLYLINE
  8
LAYER-1
 66
  1
 70
  1
 62
  7
  0
VERTEX
  8
LAYER-1
 10
3.437083
 20
5.546480
 30
0.000000
  0
VERTEX
  8
LAYER-1
 10
3.607221
 20
5.546480
 30
0.000000
  0
VERTEX
  8
LAYER-1
 10
3.607221
 20
4.724290
 30
0.000000
  0
VERTEX
  8
LAYER-1
 10
3.437083
 20
4.724290
 30
0.000000
  0
SEQEND
  8
LAYER-1
  0
POLYLINE
  8
LAYER-1
 66
  1
 70
  1
 62
  7
  0
VERTEX
  8
LAYER-1
 10
3.232777
 20
4.724647
 30
0.000000
  0
VERTEX
  8
LAYER-1
 10
3.402916
 20
4.724647
 30
0.000000
  0
VERTEX
  8
LAYER-1
 10
3.402916
 20
3.902456
 30
0.000000
  0
VERTEX
  8
LAYER-1
 10
3.232777
 20
3.902456
 30
0.000000
  0
SEQEND
  8
LAYER-1
  0
POLYLINE
  8
LAYER-1
 66
  1
 70
  1
 62
  7
  0
VERTEX
  8
LAYER-1
 10
2.826770
 20
4.724647
 30
0.000000
  0
VERTEX
  8
LAYER-1
 10
2.996909
 20
4.724647
 30
0.000000
  0
VERTEX
  8
LAYER-1
 10
2.996909
 20
3.902456
 30
0.000000
  0
VERTEX
  8
LAYER-1
 10
2.826770
 20
3.902456
 30
0.000000
  0
SEQEND
  8
LAYER-1
  0
POLYLINE
  8
LAYER-1
 66
  1
 70
  1
 62
  7
  0
VERTEX
  8
LAYER-1
 10
2.419026
 20
4.724647
 30
0.000000
  0
VERTEX
  8
LAYER-1
 10
2.589165
 20
4.724647
 30
0.000000
  0
VERTEX
  8
LAYER-1
 10
2.589165
 20
3.902456
 30
0.000000
  0
VERTEX
  8
LAYER-1
 10
2.419026
 20
3.902456
 30
0.000000
  0
SEQEND
  8
LAYER-1
  0
POLYLINE
  8
LAYER-1
 66
  1
 70
  1
 62
  7
  0
VERTEX
  8
LAYER-1
 10
2.010415
 20
4.724647
 30
0.000000
  0
VERTEX
  8
LAYER-1
 10
2.180554
 20
4.724647
 30
0.000000
  0
VERTEX
  8
LAYER-1
 10
2.180554
 20
3.902456
 30
0.000000
  0
VERTEX
  8
LAYER-1
 10
2.010415
 20
3.902456
 30
0.000000
  0
SEQEND
  8
LAYER-1
  0
POLYLINE
  8
LAYER-1
 66
  1
 70
  1
 62
  7
  0
VERTEX
  8
LAYER-1
 10
1.804373
 20
3.902453
 30
0.000000
  0
VERTEX
  8
LAYER-1
 10
1.974512
 20
3.902453
 30
0.000000
  0
VERTEX
  8
LAYER-1
 10
1.974512
 20
3.080262
 30
0.000000
  0
VERTEX
  8
LAYER-1
 10
1.804373
 20
3.080262
 30
0.000000
  0
SEQEND
  8
LAYER-1
  0
POLYLINE
  8
LAYER-1
 66
  1
 70
  1
 62
  7
  0
VERTEX
  8
LAYER-1
 10
2.213853
 20
3.902453
 30
0.000000
  0
VERTEX
  8
LAYER-1
 10
2.383992
 20
3.902453
 30
0.000000
  0
VERTEX
  8
LAYER-1
 10
2.383992
 20
3.080262
 30
0.000000
  0
VERTEX
  8
LAYER-1
 10
2.213853
 20
3.080262
 30
0.000000
  0
SEQEND
  8
LAYER-1
  0
POLYLINE
  8
LAYER-1
 66
  1
 70
  1
 62
  7
  0
VERTEX
  8
LAYER-1
 10
2.623332
 20
3.902453
 30
0.000000
  0
VERTEX
  8
LAYER-1
 10
2.793471
 20
3.902453
 30
0.000000
  0
VERTEX
  8
LAYER-1
 10
2.793471
 20
3.080262
 30
0.000000
  0
VERTEX
  8
LAYER-1
 10
2.623332
 20
3.080262
 30
0.000000
  0
SEQEND
  8
LAYER-1
  0
POLYLINE
  8
LAYER-1
 66
  1
 70
  1
 62
  7
  0
VERTEX
  8
LAYER-1
 10
3.029339
 20
3.902453
 30
0.000000
  0
VERTEX
  8
LAYER-1
 10
3.199478
 20
3.902453
 30
0.000000
  0
VERTEX
  8
LAYER-1
 10
3.199478
 20
3.080262
 30
0.000000
  0
VERTEX
  8
LAYER-1
 10
3.029339
 20
3.080262
 30
0.000000
  0
SEQEND
  8
LAYER-1
  0
POLYLINE
  8
LAYER-1
 66
  1
 70
  1
 62
  7
  0
VERTEX
  8
LAYER-1
 10
3.437083
 20
3.902453
 30
0.000000
  0
VERTEX
  8
LAYER-1
 10
3.607221
 20
3.902453
 30
0.000000
  0
VERTEX
  8
LAYER-1
 10
3.607221
 20
3.080262
 30
0.000000
  0
VERTEX
  8
LAYER-1
 10
3.437083
 20
3.080262
 30
0.000000
  0
SEQEND
  8
LAYER-1
  0
POLYLINE
  8
LAYER-1
 66
  1
 70
  1
 62
  7
  0
VERTEX
  8
LAYER-1
 10
2.010415
 20
3.080617
 30
0.000000
  0
VERTEX
  8
LAYER-1
 10
2.180554
 20
3.080617
 30
0.000000
  0
VERTEX
  8
LAYER-1
 10
2.180554
 20
2.258424
 30
0.000000
  0
VERTEX
  8
LAYER-1
 10
2.010415
 20
2.258424
 30
0.000000
  0
SEQEND
  8
LAYER-1
  0
POLYLINE
  8
LAYER-1
 66
  1
 70
  1
 62
  7
  0
VERTEX
  8
LAYER-1
 10
2.419026
 20
3.080617
 30
0.000000
  0
VERTEX
  8
LAYER-1
 10
2.589165
 20
3.080617
 30
0.000000
  0
VERTEX
  8
LAYER-1
 10
2.589165
 20
2.258424
 30
0.000000
  0
VERTEX
  8
LAYER-1
 10
2.419026
 20
2.258424
 30
0.000000
  0
SEQEND
  8
LAYER-1
  0
POLYLINE
  8
LAYER-1
 66
  1
 70
  1
 62
  7
  0
VERTEX
  8
LAYER-1
 10
2.826770
 20
3.080617
 30
0.000000
  0
VERTEX
  8
LAYER-1
 10
2.996909
 20
3.080617
 30
0.000000
  0
VERTEX
  8
LAYER-1
 10
2.996909
 20
2.258424
 30
0.000000
  0
VERTEX
  8
LAYER-1
 10
2.826770
 20
2.258424
 30
0.000000
  0
SEQEND
  8
LAYER-1
  0
POLYLINE
  8
LAYER-1
 66
  1
 70
  1
 62
  7
  0
VERTEX
  8
LAYER-1
 10
3.232777
 20
3.080617
 30
0.000000
  0
VERTEX
  8
LAYER-1
 10
3.402916
 20
3.080617
 30
0.000000
  0
VERTEX
  8
LAYER-1
 10
3.402916
 20
2.258424
 30
0.000000
  0
VERTEX
  8
LAYER-1
 10
3.232777
 20
2.258424
 30
0.000000
  0
SEQEND
  8
LAYER-1
  0
POLYLINE
  8
LAYER-1
 66
  1
 70
  1
 62
  7
  0
VERTEX
  8
LAYER-1
 10
3.437083
 20
2.258422
 30
0.000000
  0
VERTEX
  8
LAYER-1
 10
3.607221
 20
2.258422
 30
0.000000
  0
VERTEX
  8
LAYER-1
 10
3.607221
 20
1.436229
 30
0.000000
  0
VERTEX
  8
LAYER-1
 10
3.437083
 20
1.436229
 30
0.000000
  0
SEQEND
  8
LAYER-1
  0
POLYLINE
  8
LAYER-1
 66
  1
 70
  1
 62
  7
  0
VERTEX
  8
LAYER-1
 10
3.029339
 20
2.258422
 30
0.000000
  0
VERTEX
  8
LAYER-1
 10
3.199478
 20
2.258422
 30
0.000000
  0
VERTEX
  8
LAYER-1
 10
3.199478
 20
1.436229
 30
0.000000
  0
VERTEX
  8
LAYER-1
 10
3.029339
 20
1.436229
 30
0.000000
  0
SEQEND
  8
LAYER-1
  0
POLYLINE
  8
LAYER-1
 66
  1
 70
  1
 62
  7
  0
VERTEX
  8
LAYER-1
 10
2.623332
 20
2.258422
 30
0.000000
  0
VERTEX
  8
LAYER-1
 10
2.793471
 20
2.258422
 30
0.000000
  0
VERTEX
  8
LAYER-1
 10
2.793471
 20
1.436229
 30
0.000000
  0
VERTEX
  8
LAYER-1
 10
2.623332
 20
1.436229
 30
0.000000
  0
SEQEND
  8
LAYER-1
  0
POLYLINE
  8
LAYER-1
 66
  1
 70
  1
 62
  7
  0
VERTEX
  8
LAYER-1
 10
2.213853
 20
2.258422
 30
0.000000
  0
VERTEX
  8
LAYER-1
 10
2.383992
 20
2.258422
 30
0.000000
  0
VERTEX
  8
LAYER-1
 10
2.383992
 20
1.436229
 30
0.000000
  0
VERTEX
  8
LAYER-1
 10
2.213853
 20
1.436229
 30
0.000000
  0
SEQEND
  8
LAYER-1
  0
POLYLINE
  8
LAYER-1
 66
  1
 70
  1
 62
  7
  0
VERTEX
  8
LAYER-1
 10
1.804373
 20
2.258422
 30
0.000000
  0
VERTEX
  8
LAYER-1
 10
1.974512
 20
2.258422
 30
0.000000
  0
VERTEX
  8
LAYER-1
 10
1.974512
 20
1.436229
 30
0.000000
  0
VERTEX
  8
LAYER-1
 10
1.804373
 20
1.436229
 30
0.000000
  0
SEQEND
  8
LAYER-1
  0
POLYLINE
  8
LAYER-1
 66
  1
 70
  1
 62
  7
  0
VERTEX
  8
LAYER-1
 10
3.232777
 20
1.436589
 30
0.000000
  0
VERTEX
  8
LAYER-1
 10
3.402916
 20
1.436589
 30
0.000000
  0
VERTEX
  8
LAYER-1
 10
3.402916
 20
0.614398
 30
0.000000
  0
VERTEX
  8
LAYER-1
 10
3.232777
 20
0.614398
 30
0.000000
  0
SEQEND
  8
LAYER-1
  0
POLYLINE
  8
LAYER-1
 66
  1
 70
  1
 62
  7
  0
VERTEX
  8
LAYER-1
 10
2.826770
 20
1.436589
 30
0.000000
  0
VERTEX
  8
LAYER-1
 10
2.996909
 20
1.436589
 30
0.000000
  0
VERTEX
  8
LAYER-1
 10
2.996909
 20
0.614398
 30
0.000000
  0
VERTEX
  8
LAYER-1
 10
2.826770
 20
0.614398
 30
0.000000
  0
SEQEND
  8
LAYER-1
  0
POLYLINE
  8
LAYER-1
 66
  1
 70
  1
 62
  7
  0
VERTEX
  8
LAYER-1
 10
2.419026
 20
1.436589
 30
0.000000
  0
VERTEX
  8
LAYER-1
 10
2.589165
 20
1.436589
 30
0.000000
  0
VERTEX
  8
LAYER-1
 10
2.589165
 20
0.614398
 30
0.000000
  0
VERTEX
  8
LAYER-1
 10
2.419026
 20
0.614398
 30
0.000000
  0
SEQEND
  8
LAYER-1
  0
POLYLINE
  8
LAYER-1
 66
  1
 70
  1
 62
  7
  0
VERTEX
  8
LAYER-1
 10
2.010415
 20
1.436589
 30
0.000000
  0
VERTEX
  8
LAYER-1
 10
2.180554
 20
1.436589
 30
0.000000
  0
VERTEX
  8
LAYER-1
 10
2.180554
 20
0.614398
 30
0.000000
  0
VERTEX
  8
LAYER-1
 10
2.010415
 20
0.614398
 30
0.000000
  0
SEQEND
  8
LAYER-1
  0
POLYLINE
  8
LAYER-1
 66
  1
 70
  1
 62
  0
  0
VERTEX
  8
LAYER-1
 10
4.020872
 20
7.189813
 30
0.000000
  0
VERTEX
  8
LAYER-1
 10
4.056822
 20
7.189813
 30
0.000000
  0
VERTEX
  8
LAYER-1
 10
4.056822
 20
0.608151
 30
0.000000
  0
VERTEX
  8
LAYER-1
 10
4.020872
 20
0.608151
 30
0.000000
  0
SEQEND
  8
LAYER-1
  0
POLYLINE
  8
LAYER-1
 66
  1
 70
  1
 62
  0
  0
VERTEX
  8
LAYER-1
 10
4.428268
 20
7.189813
 30
0.000000
  0
VERTEX
  8
LAYER-1
 10
4.464219
 20
7.189813
 30
0.000000
  0
VERTEX
  8
LAYER-1
 10
4.464219
 20
0.606300
 30
0.000000
  0
VERTEX
  8
LAYER-1
 10
4.428268
 20
0.606300
 30
0.000000
  0
SEQEND
  8
LAYER-1
  0
POLYLINE
  8
LAYER-1
 66
  1
 70
  1
 62
  0
  0
VERTEX
  8
LAYER-1
 10
4.834796
 20
7.189813
 30
0.000000
  0
VERTEX
  8
LAYER-1
 10
4.870747
 20
7.189813
 30
0.000000
  0
VERTEX
  8
LAYER-1
 10
4.870747
 20
0.607564
 30
0.000000
  0
VERTEX
  8
LAYER-1
 10
4.834796
 20
0.607564
 30
0.000000
  0
SEQEND
  8
LAYER-1
  0
POLYLINE
  8
LAYER-1
 66
  1
 70
  1
 62
  0
  0
VERTEX
  8
LAYER-1
 10
5.244796
 20
7.189813
 30
0.000000
  0
VERTEX
  8
LAYER-1
 10
5.280747
 20
7.189813
 30
0.000000
  0
VERTEX
  8
LAYER-1
 10
5.280747
 20
0.606977
 30
0.000000
  0
VERTEX
  8
LAYER-1
 10
5.244796
 20
0.606977
 30
0.000000
  0
SEQEND
  8
LAYER-1
  0
POLYLINE
  8
LAYER-1
 66
  1
 70
  1
 62
  0
  0
VERTEX
  8
LAYER-1
 10
5.655231
 20
7.189813
 30
0.000000
  0
VERTEX
  8
LAYER-1
 10
5.691181
 20
7.189813
 30
0.000000
  0
VERTEX
  8
LAYER-1
 10
5.691181
 20
0.606697
 30
0.000000
  0
VERTEX
  8
LAYER-1
 10
5.655231
 20
0.606697
 30
0.000000
  0
SEQEND
  8
LAYER-1
  0
POLYLINE
  8
LAYER-1
 66
  1
 70
  1
 62
  0
  0
VERTEX
  8
LAYER-1
 10
3.401636
 20
7.190018
 30
0.000000
  0
VERTEX
  8
LAYER-1
 10
3.437587
 20
7.190018
 30
0.000000
  0
VERTEX
  8
LAYER-1
 10
3.437587
 20
0.608002
 30
0.000000
  0
VERTEX
  8
LAYER-1
 10
3.401636
 20
0.608002
 30
0.000000
  0
SEQEND
  8
LAYER-1
  0
POLYLINE
  8
LAYER-1
 66
  1
 70
  1
 62
  0
  0
VERTEX
  8
LAYER-1
 10
2.995108
 20
7.190018
 30
0.000000
  0
VERTEX
  8
LAYER-1
 10
3.031059
 20
7.190018
 30
0.000000
  0
VERTEX
  8
LAYER-1
 10
3.031059
 20
0.608447
 30
0.000000
  0
VERTEX
  8
LAYER-1
 10
2.995108
 20
0.608447
 30
0.000000
  0
SEQEND
  8
LAYER-1
  0
POLYLINE
  8
LAYER-1
 66
  1
 70
  1
 62
  0
  0
VERTEX
  8
LAYER-1
 10
2.587712
 20
7.190018
 30
0.000000
  0
VERTEX
  8
LAYER-1
 10
2.623663
 20
7.190018
 30
0.000000
  0
VERTEX
  8
LAYER-1
 10
2.623663
 20
0.607108
 30
0.000000
  0
VERTEX
  8
LAYER-1
 10
2.587712
 20
0.607108
 30
0.000000
  0
SEQEND
  8
LAYER-1
  0
POLYLINE
  8
LAYER-1
 66
  1
 70
  1
 62
  0
  0
VERTEX
  8
LAYER-1
 10
2.178580
 20
7.190018
 30
0.000000
  0
VERTEX
  8
LAYER-1
 10
2.214530
 20
7.190018
 30
0.000000
  0
VERTEX
  8
LAYER-1
 10
2.214530
 20
0.608918
 30
0.000000
  0
VERTEX
  8
LAYER-1
 10
2.178580
 20
0.608918
 30
0.000000
  0
SEQEND
  8
LAYER-1
  0
POLYLINE
  8
LAYER-1
 66
  1
 70
  1
 62
  0
  0
VERTEX
  8
LAYER-1
 10
1.768145
 20
7.190018
 30
0.000000
  0
VERTEX
  8
LAYER-1
 10
1.804096
 20
7.190018
 30
0.000000
  0
VERTEX
  8
LAYER-1
 10
1.804096
 20
0.607976
 30
0.000000
  0
VERTEX
  8
LAYER-1
 10
1.768145
 20
0.607976
 30
0.000000
  0
SEQEND
  8
LAYER-1
  0
POLYLINE
  8
LAYER-1
 66
  1
 70
  1
 62
  0
  0
VERTEX
  8
LAYER-1
 10
3.606774
 20
7.190007
 30
0.000000
  0
VERTEX
  8
LAYER-1
 10
3.642725
 20
7.190007
 30
0.000000
  0
VERTEX
  8
LAYER-1
 10
3.642725
 20
0.606324
 30
0.000000
  0
VERTEX
  8
LAYER-1
 10
3.606774
 20
0.606324
 30
0.000000
  0
SEQEND
  8
LAYER-1
  0
POLYLINE
  8
LAYER-1
 66
  1
 70
  1
 62
  0
  0
VERTEX
  8
LAYER-1
 10
3.198510
 20
7.190007
 30
0.000000
  0
VERTEX
  8
LAYER-1
 10
3.234461
 20
7.190007
 30
0.000000
  0
VERTEX
  8
LAYER-1
 10
3.234461
 20
0.606324
 30
0.000000
  0
VERTEX
  8
LAYER-1
 10
3.198510
 20
0.606324
 30
0.000000
  0
SEQEND
  8
LAYER-1
  0
POLYLINE
  8
LAYER-1
 66
  1
 70
  1
 62
  0
  0
VERTEX
  8
LAYER-1
 10
2.791982
 20
7.190007
 30
0.000000
  0
VERTEX
  8
LAYER-1
 10
2.827933
 20
7.190007
 30
0.000000
  0
VERTEX
  8
LAYER-1
 10
2.827933
 20
0.606324
 30
0.000000
  0
VERTEX
  8
LAYER-1
 10
2.791982
 20
0.606324
 30
0.000000
  0
SEQEND
  8
LAYER-1
  0
POLYLINE
  8
LAYER-1
 66
  1
 70
  1
 62
  0
  0
VERTEX
  8
LAYER-1
 10
2.383717
 20
7.190007
 30
0.000000
  0
VERTEX
  8
LAYER-1
 10
2.419668
 20
7.190007
 30
0.000000
  0
VERTEX
  8
LAYER-1
 10
2.419668
 20
0.606324
 30
0.000000
  0
VERTEX
  8
LAYER-1
 10
2.383717
 20
0.606324
 30
0.000000
  0
SEQEND
  8
LAYER-1
  0
POLYLINE
  8
LAYER-1
 66
  1
 70
  1
 62
  0
  0
VERTEX
  8
LAYER-1
 10
1.974151
 20
7.190007
 30
0.000000
  0
VERTEX
  8
LAYER-1
 10
2.010102
 20
7.190007
 30
0.000000
  0
VERTEX
  8
LAYER-1
 10
2.010102
 20
0.606324
 30
0.000000
  0
VERTEX
  8
LAYER-1
 10
1.974151
 20
0.606324
 30
0.000000
  0
SEQEND
  8
LAYER-1
  0
POLYLINE
  8
LAYER-1
 66
  1
 70
  1
 62
  0
 10
3.645291
 20
0.341598
 30
0.000000
  0
VERTEX
  8
LAYER-1
 10
3.645291
 20
0.341598
 30
0.000000
  0
VERTEX
  8
LAYER-1
 10
1.749373
 20
0.341699
 30
0.000000
  0
VERTEX
  8
LAYER-1
 10
1.749373
 20
0.613232
 30
0.000000
  0
VERTEX
  8
LAYER-1
 10
3.645291
 20
0.613348
 30
0.000000
  0
SEQEND
  8
LAYER-1
  0
POLYLINE
  8
LAYER-1
 66
  1
 70
  0
 62
  0
 10
3.645510
 20
0.409505
 30
0.000000
  0
VERTEX
  8
LAYER-1
 10
3.645510
 20
0.409505
 30
0.000000
  0
VERTEX
  8
LAYER-1
 10
3.605784
 20
0.409505
 30
0.000000
  0
SEQEND
  8
LAYER-1
  0
POLYLINE
  8
LAYER-1
 66
  1
 70
  0
 62
  0
 10
3.645510
 20
0.539415
 30
0.000000
  0
VERTEX
  8
LAYER-1
 10
3.645510
 20
0.539415
 30
0.000000
  0
VERTEX
  8
LAYER-1
 10
3.605784
 20
0.539415
 30
0.000000
  0
SEQEND
  8
LAYER-1
  0
POLYLINE
  8
LAYER-1
 66
  1
 70
  0
 62
  0
 10
3.607154
 20
0.336453
 30
0.000000
  0
VERTEX
  8
LAYER-1
 10
3.607154
 20
0.336453
 30
0.000000
  0
VERTEX
  8
LAYER-1
 10
3.620326
 20
0.329406
 30
0.000000
  0
VERTEX
  8
LAYER-1
 10
3.637406
 20
0.333737
 30
0.000000
  0
VERTEX
  8
LAYER-1
 10
3.644058
 20
0.336451
 30
0.000000
  0
SEQEND
  8
LAYER-1
  0
POLYLINE
  8
LAYER-1
 66
  1
 70
  1
 62
  0
  0
VERTEX
  8
LAYER-1
 10
3.651261
 20
0.335830
 30
0.000000
  0
VERTEX
  8
LAYER-1
 10
3.596646
 20
0.335830
 30
0.000000
  0
VERTEX
  8
LAYER-1
 10
3.596646
 20
0.341735
 30
0.000000
  0
VERTEX
  8
LAYER-1
 10
3.651261
 20
0.341735
 30
0.000000
  0
SEQEND
  8
LAYER-1
  0
POLYLINE
  8
LAYER-1
 66
  1
 70
  1
 62
  0
 10
3.645085
 20
7.461639
 30
0.000000
  0
VERTEX
  8
LAYER-1
 10
3.645085
 20
7.461639
 30
0.000000
  0
VERTEX
  8
LAYER-1
 10
1.748733
 20
7.461538
 30
0.000000
  0
VERTEX
  8
LAYER-1
 10
1.748733
 20
7.190004
 30
0.000000
  0
VERTEX
  8
LAYER-1
 10
3.645085
 20
7.189888
 30
0.000000
  0
SEQEND
  8
LAYER-1
  0
POLYLINE
  8
LAYER-1
 66
  1
 70
  0
 62
  0
 10
3.383796
 20
7.461638
 30
0.000000
  0
VERTEX
  8
LAYER-1
 10
3.383796
 20
7.461638
 30
0.000000
  0
VERTEX
  8
LAYER-1
 10
3.383796
 20
7.190006
 30
0.000000
  0
SEQEND
  8
LAYER-1
  0
POLYLINE
  8
LAYER-1
 66
  1
 70
  0
 62
  0
 10
3.053299
 20
7.190006
 30
0.000000
  0
VERTEX
  8
LAYER-1
 10
3.053299
 20
7.190006
 30
0.000000
  0
VERTEX
  8
LAYER-1
 10
3.053299
 20
7.461638
 30
0.000000
  0
SEQEND
  8
LAYER-1
  0
POLYLINE
  8
LAYER-1
 66
  1
 70
  0
 62
  0
 10
2.240467
 20
7.190007
 30
0.000000
  0
VERTEX
  8
LAYER-1
 10
2.240467
 20
7.190007
 30
0.000000
  0
VERTEX
  8
LAYER-1
 10
2.240467
 20
7.461638
 30
0.000000
  0
SEQEND
  8
LAYER-1
  0
POLYLINE
  8
LAYER-1
 66
  1
 70
  0
 62
  0
 10
2.421635
 20
7.461678
 30
0.000000
  0
VERTEX
  8
LAYER-1
 10
2.421635
 20
7.461678
 30
0.000000
  0
VERTEX
  8
LAYER-1
 10
2.421635
 20
7.190049
 30
0.000000
  0
SEQEND
  8
LAYER-1
  0
POLYLINE
  8
LAYER-1
 66
  1
 70
  0
 62
  0
 10
2.381776
 20
7.461678
 30
0.000000
  0
VERTEX
  8
LAYER-1
 10
2.381776
 20
7.461678
 30
0.000000
  0
VERTEX
  8
LAYER-1
 10
2.381776
 20
7.190049
 30
0.000000
  0
SEQEND
  8
LAYER-1
  0
POLYLINE
  8
LAYER-1
 66
  1
 70
  0
 62
  0
 10
3.235652
 20
7.461678
 30
0.000000
  0
VERTEX
  8
LAYER-1
 10
3.235652
 20
7.461678
 30
0.000000
  0
VERTEX
  8
LAYER-1
 10
3.235652
 20
7.190049
 30
0.000000
  0
SEQEND
  8
LAYER-1
  0
POLYLINE
  8
LAYER-1
 66
  1
 70
  0
 62
  0
 10
3.196836
 20
7.461678
 30
0.000000
  0
VERTEX
  8
LAYER-1
 10
3.196836
 20
7.461678
 30
0.000000
  0
VERTEX
  8
LAYER-1
 10
3.196836
 20
7.190049
 30
0.000000
  0
SEQEND
  8
LAYER-1
  0
POLYLINE
  8
LAYER-1
 66
  1
 70
  0
 62
  0
 10
2.968976
 20
7.461638
 30
0.000000
  0
VERTEX
  8
LAYER-1
 10
2.968976
 20
7.461638
 30
0.000000
  0
VERTEX
  8
LAYER-1
 10
2.968976
 20
7.190007
 30
0.000000
  0
SEQEND
  8
LAYER-1
  0
POLYLINE
  8
LAYER-1
 66
  1
 70
  0
 62
  0
 10
2.156146
 20
7.461638
 30
0.000000
  0
VERTEX
  8
LAYER-1
 10
2.156146
 20
7.461638
 30
0.000000
  0
VERTEX
  8
LAYER-1
 10
2.156146
 20
7.190007
 30
0.000000
  0
SEQEND
  8
LAYER-1
  0
POLYLINE
  8
LAYER-1
 66
  1
 70
  0
 62
  0
 10
2.011240
 20
7.461244
 30
0.000000
  0
VERTEX
  8
LAYER-1
 10
2.011240
 20
7.461244
 30
0.000000
  0
VERTEX
  8
LAYER-1
 10
2.011240
 20
7.189615
 30
0.000000
  0
SEQEND
  8
LAYER-1
  0
POLYLINE
  8
LAYER-1
 66
  1
 70
  0
 62
  0
 10
1.972858
 20
7.461244
 30
0.000000
  0
VERTEX
  8
LAYER-1
 10
1.972858
 20
7.461244
 30
0.000000
  0
VERTEX
  8
LAYER-1
 10
1.972858
 20
7.189615
 30
0.000000
  0
SEQEND
  8
LAYER-1
  0
POLYLINE
  8
LAYER-1
 66
  1
 70
  0
 62
  0
 10
2.829079
 20
7.461713
 30
0.000000
  0
VERTEX
  8
LAYER-1
 10
2.829079
 20
7.461713
 30
0.000000
  0
VERTEX
  8
LAYER-1
 10
2.829079
 20
7.190085
 30
0.000000
  0
SEQEND
  8
LAYER-1
  0
POLYLINE
  8
LAYER-1
 66
  1
 70
  0
 62
  0
 10
2.790696
 20
7.461713
 30
0.000000
  0
VERTEX
  8
LAYER-1
 10
2.790696
 20
7.461713
 30
0.000000
  0
VERTEX
  8
LAYER-1
 10
2.790696
 20
7.190085
 30
0.000000
  0
SEQEND
  8
LAYER-1
  0
POLYLINE
  8
LAYER-1
 66
  1
 70
  0
 62
  0
 10
3.456130
 20
7.190010
 30
0.000000
  0
VERTEX
  8
LAYER-1
 10
3.456130
 20
7.190010
 30
0.000000
  0
VERTEX
  8
LAYER-1
 10
3.456130
 20
7.461639
 30
0.000000
  0
SEQEND
  8
LAYER-1
  0
POLYLINE
  8
LAYER-1
 66
  1
 70
  0
 62
  0
 10
3.420700
 20
7.461639
 30
0.000000
  0
VERTEX
  8
LAYER-1
 10
3.420700
 20
7.461639
 30
0.000000
  0
VERTEX
  8
LAYER-1
 10
3.420700
 20
7.190008
 30
0.000000
  0
SEQEND
  8
LAYER-1
  0
POLYLINE
  8
LAYER-1
 66
  1
 70
  0
 62
  0
 10
3.455226
 20
7.461639
 30
0.000000
  0
VERTEX
  8
LAYER-1
 10
3.455226
 20
7.461639
 30
0.000000
  0
VERTEX
  8
LAYER-1
 10
3.441349
 20
7.472577
 30
0.000000
  0
VERTEX
  8
LAYER-1
 10
3.426586
 20
7.470499
 30
0.000000
  0
VERTEX
  8
LAYER-1
 10
3.421671
 20
7.461650
 30
0.000000
  0
SEQEND
  8
LAYER-1
  0
POLYLINE
  8
LAYER-1
 66
  1
 70
  0
 62
  0
 10
3.420700
 20
7.461639
 30
0.000000
  0
VERTEX
  8
LAYER-1
 10
3.420700
 20
7.461639
 30
0.000000
  0
VERTEX
  8
LAYER-1
 10
3.403592
 20
7.472622
 30
0.000000
  0
VERTEX
  8
LAYER-1
 10
3.386512
 20
7.468291
 30
0.000000
  0
VERTEX
  8
LAYER-1
 10
3.383797
 20
7.461638
 30
0.000000
  0
SEQEND
  8
LAYER-1
  0
POLYLINE
  8
LAYER-1
 66
  1
 70
  0
 62
  0
 10
3.005145
 20
7.461145
 30
0.000000
  0
VERTEX
  8
LAYER-1
 10
3.005145
 20
7.461145
 30
0.000000
  0
VERTEX
  8
LAYER-1
 10
2.985640
 20
7.471137
 30
0.000000
  0
VERTEX
  8
LAYER-1
 10
2.967567
 20
7.464411
 30
0.000000
  0
VERTEX
  8
LAYER-1
 10
2.968237
 20
7.461144
 30
0.000000
  0
SEQEND
  8
LAYER-1
  0
POLYLINE
  8
LAYER-1
 66
  1
 70
  0
 62
  0
 10
2.192186
 20
7.461615
 30
0.000000
  0
VERTEX
  8
LAYER-1
 10
2.192186
 20
7.461615
 30
0.000000
  0
VERTEX
  8
LAYER-1
 10
2.172682
 20
7.471607
 30
0.000000
  0
VERTEX
  8
LAYER-1
 10
2.154608
 20
7.464881
 30
0.000000
  0
VERTEX
  8
LAYER-1
 10
2.155279
 20
7.461615
 30
0.000000
  0
SEQEND
  8
LAYER-1
  0
POLYLINE
  8
LAYER-1
 66
  1
 70
  0
 62
  0
 10
3.052854
 20
7.461146
 30
0.000000
  0
VERTEX
  8
LAYER-1
 10
3.052854
 20
7.461146
 30
0.000000
  0
VERTEX
  8
LAYER-1
 10
3.033350
 20
7.471138
 30
0.000000
  0
VERTEX
  8
LAYER-1
 10
3.015276
 20
7.464411
 30
0.000000
  0
VERTEX
  8
LAYER-1
 10
3.015946
 20
7.461145
 30
0.000000
  0
SEQEND
  8
LAYER-1
  0
POLYLINE
  8
LAYER-1
 66
  1
 70
  0
 62
  0
 10
3.030911
 20
7.461705
 30
0.000000
  0
VERTEX
  8
LAYER-1
 10
3.030911
 20
7.461705
 30
0.000000
  0
VERTEX
  8
LAYER-1
 10
3.020160
 20
7.474709
 30
0.000000
  0
VERTEX
  8
LAYER-1
 10
3.006144
 20
7.476303
 30
0.000000
  0
VERTEX
  8
LAYER-1
 10
2.995108
 20
7.467520
 30
0.000000
  0
VERTEX
  8
LAYER-1
 10
2.995483
 20
7.461705
 30
0.000000
  0
SEQEND
  8
LAYER-1
  0
POLYLINE
  8
LAYER-1
 66
  1
 70
  0
 62
  0
 10
3.030911
 20
7.461705
 30
0.000000
  0
VERTEX
  8
LAYER-1
 10
3.030911
 20
7.461705
 30
0.000000
  0
VERTEX
  8
LAYER-1
 10
2.995482
 20
7.461705
 30
0.000000
  0
SEQEND
  8
LAYER-1
  0
POLYLINE
  8
LAYER-1
 66
  1
 70
  0
 62
  0
 10
2.240836
 20
7.461616
 30
0.000000
  0
VERTEX
  8
LAYER-1
 10
2.240836
 20
7.461616
 30
0.000000
  0
VERTEX
  8
LAYER-1
 10
2.221332
 20
7.471608
 30
0.000000
  0
VERTEX
  8
LAYER-1
 10
2.203259
 20
7.464882
 30
0.000000
  0
VERTEX
  8
LAYER-1
 10
2.203929
 20
7.461615
 30
0.000000
  0
SEQEND
  8
LAYER-1
  0
POLYLINE
  8
LAYER-1
 66
  1
 70
  0
 62
  0
 10
2.214664
 20
7.461705
 30
0.000000
  0
VERTEX
  8
LAYER-1
 10
2.214664
 20
7.461705
 30
0.000000
  0
VERTEX
  8
LAYER-1
 10
2.203912
 20
7.474709
 30
0.000000
  0
VERTEX
  8
LAYER-1
 10
2.189897
 20
7.476303
 30
0.000000
  0
VERTEX
  8
LAYER-1
 10
2.178860
 20
7.467520
 30
0.000000
  0
VERTEX
  8
LAYER-1
 10
2.179235
 20
7.461705
 30
0.000000
  0
SEQEND
  8
LAYER-1
  0
POLYLINE
  8
LAYER-1
 66
  1
 70
  0
 62
  0
 10
2.214664
 20
7.461705
 30
0.000000
  0
VERTEX
  8
LAYER-1
 10
2.214664
 20
7.461705
 30
0.000000
  0
VERTEX
  8
LAYER-1
 10
2.179236
 20
7.461705
 30
0.000000
  0
SEQEND
  8
LAYER-1
  0
POLYLINE
  8
LAYER-1
 66
  1
 70
  0
 62
  0
 10
3.421976
 20
7.189423
 30
0.000000
  0
VERTEX
  8
LAYER-1
 10
3.421976
 20
7.189423
 30
0.000000
  0
VERTEX
  8
LAYER-1
 10
3.432212
 20
7.182828
 30
0.000000
  0
VERTEX
  8
LAYER-1
 10
3.446897
 20
7.185403
 30
0.000000
  0
VERTEX
  8
LAYER-1
 10
3.455196
 20
7.189983
 30
0.000000
  0
SEQEND
  8
LAYER-1
  0
POLYLINE
  8
LAYER-1
 66
  1
 70
  0
 62
  0
 10
3.421977
 20
7.189423
 30
0.000000
  0
VERTEX
  8
LAYER-1
 10
3.421977
 20
7.189423
 30
0.000000
  0
VERTEX
  8
LAYER-1
 10
3.455196
 20
7.189983
 30
0.000000
  0
SEQEND
  8
LAYER-1
  0
POLYLINE
  8
LAYER-1
 66
  1
 70
  0
 62
  0
 10
3.382864
 20
7.189984
 30
0.000000
  0
VERTEX
  8
LAYER-1
 10
3.382864
 20
7.189984
 30
0.000000
  0
VERTEX
  8
LAYER-1
 10
3.396035
 20
7.182937
 30
0.000000
  0
VERTEX
  8
LAYER-1
 10
3.413115
 20
7.187268
 30
0.000000
  0
VERTEX
  8
LAYER-1
 10
3.419768
 20
7.189983
 30
0.000000
  0
SEQEND
  8
LAYER-1
  0
POLYLINE
  8
LAYER-1
 66
  1
 70
  0
 62
  0
 10
3.382864
 20
7.189984
 30
0.000000
  0
VERTEX
  8
LAYER-1
 10
3.382864
 20
7.189984
 30
0.000000
  0
VERTEX
  8
LAYER-1
 10
3.419767
 20
7.189983
 30
0.000000
  0
SEQEND
  8
LAYER-1
  0
POLYLINE
  8
LAYER-1
 66
  1
 70
  0
 62
  0
 10
3.016020
 20
7.189537
 30
0.000000
  0
VERTEX
  8
LAYER-1
 10
3.016020
 20
7.189537
 30
0.000000
  0
VERTEX
  8
LAYER-1
 10
3.031587
 20
7.183482
 30
0.000000
  0
VERTEX
  8
LAYER-1
 10
3.049661
 20
7.190208
 30
0.000000
  0
VERTEX
  8
LAYER-1
 10
3.052928
 20
7.189536
 30
0.000000
  0
SEQEND
  8
LAYER-1
  0
POLYLINE
  8
LAYER-1
 66
  1
 70
  0
 62
  0
 10
2.968779
 20
7.189537
 30
0.000000
  0
VERTEX
  8
LAYER-1
 10
2.968779
 20
7.189537
 30
0.000000
  0
VERTEX
  8
LAYER-1
 10
2.984347
 20
7.183482
 30
0.000000
  0
VERTEX
  8
LAYER-1
 10
3.002420
 20
7.190208
 30
0.000000
  0
VERTEX
  8
LAYER-1
 10
3.005687
 20
7.189536
 30
0.000000
  0
SEQEND
  8
LAYER-1
  0
POLYLINE
  8
LAYER-1
 66
  1
 70
  0
 62
  0
 10
2.996025
 20
7.189447
 30
0.000000
  0
VERTEX
  8
LAYER-1
 10
2.996025
 20
7.189447
 30
0.000000
  0
VERTEX
  8
LAYER-1
 10
3.002840
 20
7.180379
 30
0.000000
  0
VERTEX
  8
LAYER-1
 10
3.016855
 20
7.178786
 30
0.000000
  0
VERTEX
  8
LAYER-1
 10
3.027892
 20
7.187569
 30
0.000000
  0
VERTEX
  8
LAYER-1
 10
3.031454
 20
7.189447
 30
0.000000
  0
SEQEND
  8
LAYER-1
  0
POLYLINE
  8
LAYER-1
 66
  1
 70
  0
 62
  0
 10
3.031454
 20
7.189447
 30
0.000000
  0
VERTEX
  8
LAYER-1
 10
3.031454
 20
7.189447
 30
0.000000
  0
VERTEX
  8
LAYER-1
 10
2.996025
 20
7.189447
 30
0.000000
  0
SEQEND
  8
LAYER-1
  0
POLYLINE
  8
LAYER-1
 66
  1
 70
  0
 62
  0
 10
2.203466
 20
7.189537
 30
0.000000
  0
VERTEX
  8
LAYER-1
 10
2.203466
 20
7.189537
 30
0.000000
  0
VERTEX
  8
LAYER-1
 10
2.219032
 20
7.183482
 30
0.000000
  0
VERTEX
  8
LAYER-1
 10
2.237106
 20
7.190208
 30
0.000000
  0
VERTEX
  8
LAYER-1
 10
2.240373
 20
7.189536
 30
0.000000
  0
SEQEND
  8
LAYER-1
  0
POLYLINE
  8
LAYER-1
 66
  1
 70
  0
 62
  0
 10
2.155286
 20
7.189537
 30
0.000000
  0
VERTEX
  8
LAYER-1
 10
2.155286
 20
7.189537
 30
0.000000
  0
VERTEX
  8
LAYER-1
 10
2.170853
 20
7.183482
 30
0.000000
  0
VERTEX
  8
LAYER-1
 10
2.188926
 20
7.190208
 30
0.000000
  0
VERTEX
  8
LAYER-1
 10
2.192193
 20
7.189536
 30
0.000000
  0
SEQEND
  8
LAYER-1
  0
POLYLINE
  8
LAYER-1
 66
  1
 70
  0
 62
  0
 10
2.179241
 20
7.189447
 30
0.000000
  0
VERTEX
  8
LAYER-1
 10
2.179241
 20
7.189447
 30
0.000000
  0
VERTEX
  8
LAYER-1
 10
2.186056
 20
7.180379
 30
0.000000
  0
VERTEX
  8
LAYER-1
 10
2.200072
 20
7.178786
 30
0.000000
  0
VERTEX
  8
LAYER-1
 10
2.211108
 20
7.187569
 30
0.000000
  0
VERTEX
  8
LAYER-1
 10
2.214670
 20
7.189447
 30
0.000000
  0
SEQEND
  8
LAYER-1
  0
POLYLINE
  8
LAYER-1
 66
  1
 70
  0
 62
  0
 10
2.214670
 20
7.189447
 30
0.000000
  0
VERTEX
  8
LAYER-1
 10
2.214670
 20
7.189447
 30
0.000000
  0
VERTEX
  8
LAYER-1
 10
2.179242
 20
7.189447
 30
0.000000
  0
SEQEND
  8
LAYER-1
  0
POLYLINE
  8
LAYER-1
 66
  1
 70
  1
 62
  0
  0
VERTEX
  8
LAYER-1
 10
2.995481
 20
7.461638
 30
0.000000
  0
VERTEX
  8
LAYER-1
 10
3.030911
 20
7.461638
 30
0.000000
  0
VERTEX
  8
LAYER-1
 10
3.030911
 20
7.190009
 30
0.000000
  0
VERTEX
  8
LAYER-1
 10
2.995481
 20
7.190009
 30
0.000000
  0
SEQEND
  8
LAYER-1
  0
POLYLINE
  8
LAYER-1
 66
  1
 70
  1
 62
  0
  0
VERTEX
  8
LAYER-1
 10
2.179167
 20
7.461638
 30
0.000000
  0
VERTEX
  8
LAYER-1
 10
2.214598
 20
7.461638
 30
0.000000
  0
VERTEX
  8
LAYER-1
 10
2.214598
 20
7.190009
 30
0.000000
  0
VERTEX
  8
LAYER-1
 10
2.179167
 20
7.190009
 30
0.000000
  0
SEQEND
  8
LAYER-1
  0
POLYLINE
  8
LAYER-1
 66
  1
 70
  0
 62
  0
 10
3.030911
 20
7.393731
 30
0.000000
  0
VERTEX
  8
LAYER-1
 10
3.030911
 20
7.393731
 30
0.000000
  0
VERTEX
  8
LAYER-1
 10
2.995481
 20
7.393731
 30
0.000000
  0
SEQEND
  8
LAYER-1
  0
POLYLINE
  8
LAYER-1
 66
  1
 70
  0
 62
  0
 10
3.030911
 20
7.263822
 30
0.000000
  0
VERTEX
  8
LAYER-1
 10
3.030911
 20
7.263822
 30
0.000000
  0
VERTEX
  8
LAYER-1
 10
2.995481
 20
7.263822
 30
0.000000
  0
SEQEND
  8
LAYER-1
  0
POLYLINE
  8
LAYER-1
 66
  1
 70
  0
 62
  0
 10
2.214598
 20
7.393731
 30
0.000000
  0
VERTEX
  8
LAYER-1
 10
2.214598
 20
7.393731
 30
0.000000
  0
VERTEX
  8
LAYER-1
 10
2.179169
 20
7.393731
 30
0.000000
  0
SEQEND
  8
LAYER-1
  0
POLYLINE
  8
LAYER-1
 66
  1
 70
  0
 62
  0
 10
2.214598
 20
7.263821
 30
0.000000
  0
VERTEX
  8
LAYER-1
 10
2.214598
 20
7.263821
 30
0.000000
  0
VERTEX
  8
LAYER-1
 10
2.179169
 20
7.263821
 30
0.000000
  0
SEQEND
  8
LAYER-1
  0
POLYLINE
  8
LAYER-1
 66
  1
 70
  0
 62
  0
 10
3.233243
 20
7.461195
 30
0.000000
  0
VERTEX
  8
LAYER-1
 10
3.233243
 20
7.461195
 30
0.000000
  0
VERTEX
  8
LAYER-1
 10
3.219366
 20
7.472132
 30
0.000000
  0
VERTEX
  8
LAYER-1
 10
3.204603
 20
7.470054
 30
0.000000
  0
VERTEX
  8
LAYER-1
 10
3.200024
 20
7.461755
 30
0.000000
  0
SEQEND
  8
LAYER-1
  0
POLYLINE
  8
LAYER-1
 66
  1
 70
  0
 62
  0
 10
2.419749
 20
7.461577
 30
0.000000
  0
VERTEX
  8
LAYER-1
 10
2.419749
 20
7.461577
 30
0.000000
  0
VERTEX
  8
LAYER-1
 10
2.402640
 20
7.472560
 30
0.000000
  0
VERTEX
  8
LAYER-1
 10
2.385561
 20
7.468229
 30
0.000000
  0
VERTEX
  8
LAYER-1
 10
2.382845
 20
7.461577
 30
0.000000
  0
SEQEND
  8
LAYER-1
  0
POLYLINE
  8
LAYER-1
 66
  1
 70
  0
 62
  0
 10
2.606945
 20
7.189420
 30
0.000000
  0
VERTEX
  8
LAYER-1
 10
2.606945
 20
7.189420
 30
0.000000
  0
VERTEX
  8
LAYER-1
 10
2.617181
 20
7.182826
 30
0.000000
  0
VERTEX
  8
LAYER-1
 10
2.631865
 20
7.185401
 30
0.000000
  0
VERTEX
  8
LAYER-1
 10
2.640164
 20
7.189980
 30
0.000000
  0
SEQEND
  8
LAYER-1
  0
POLYLINE
  8
LAYER-1
 66
  1
 70
  0
 62
  0
 10
2.606945
 20
7.189420
 30
0.000000
  0
VERTEX
  8
LAYER-1
 10
2.606945
 20
7.189420
 30
0.000000
  0
VERTEX
  8
LAYER-1
 10
2.640164
 20
7.189980
 30
0.000000
  0
SEQEND
  8
LAYER-1
  0
POLYLINE
  8
LAYER-1
 66
  1
 70
  0
 62
  0
 10
2.567832
 20
7.189981
 30
0.000000
  0
VERTEX
  8
LAYER-1
 10
2.567832
 20
7.189981
 30
0.000000
  0
VERTEX
  8
LAYER-1
 10
2.581003
 20
7.182934
 30
0.000000
  0
VERTEX
  8
LAYER-1
 10
2.598084
 20
7.187265
 30
0.000000
  0
VERTEX
  8
LAYER-1
 10
2.604736
 20
7.189980
 30
0.000000
  0
SEQEND
  8
LAYER-1
  0
POLYLINE
  8
LAYER-1
 66
  1
 70
  0
 62
  0
 10
2.567833
 20
7.189981
 30
0.000000
  0
VERTEX
  8
LAYER-1
 10
2.567833
 20
7.189981
 30
0.000000
  0
VERTEX
  8
LAYER-1
 10
2.604736
 20
7.189980
 30
0.000000
  0
SEQEND
  8
LAYER-1
  0
POLYLINE
  8
LAYER-1
 66
  1
 70
  0
 62
  0
 10
2.569004
 20
7.461638
 30
0.000000
  0
VERTEX
  8
LAYER-1
 10
2.569004
 20
7.461638
 30
0.000000
  0
VERTEX
  8
LAYER-1
 10
2.569004
 20
7.190006
 30
0.000000
  0
SEQEND
  8
LAYER-1
  0
POLYLINE
  8
LAYER-1
 66
  1
 70
  0
 62
  0
 10
2.641338
 20
7.190010
 30
0.000000
  0
VERTEX
  8
LAYER-1
 10
2.641338
 20
7.190010
 30
0.000000
  0
VERTEX
  8
LAYER-1
 10
2.641338
 20
7.461639
 30
0.000000
  0
SEQEND
  8
LAYER-1
  0
POLYLINE
  8
LAYER-1
 66
  1
 70
  0
 62
  0
 10
2.605908
 20
7.461639
 30
0.000000
  0
VERTEX
  8
LAYER-1
 10
2.605908
 20
7.461639
 30
0.000000
  0
VERTEX
  8
LAYER-1
 10
2.605908
 20
7.190008
 30
0.000000
  0
SEQEND
  8
LAYER-1
  0
POLYLINE
  8
LAYER-1
 66
  1
 70
  0
 62
  0
 10
2.641033
 20
7.461497
 30
0.000000
  0
VERTEX
  8
LAYER-1
 10
2.641033
 20
7.461497
 30
0.000000
  0
VERTEX
  8
LAYER-1
 10
2.627156
 20
7.472435
 30
0.000000
  0
VERTEX
  8
LAYER-1
 10
2.612393
 20
7.470357
 30
0.000000
  0
VERTEX
  8
LAYER-1
 10
2.607813
 20
7.462057
 30
0.000000
  0
SEQEND
  8
LAYER-1
  0
POLYLINE
  8
LAYER-1
 66
  1
 70
  0
 62
  0
 10
2.607814
 20
7.462057
 30
0.000000
  0
VERTEX
  8
LAYER-1
 10
2.607814
 20
7.462057
 30
0.000000
  0
VERTEX
  8
LAYER-1
 10
2.641033
 20
7.461497
 30
0.000000
  0
SEQEND
  8
LAYER-1
  0
POLYLINE
  8
LAYER-1
 66
  1
 70
  0
 62
  0
 10
2.605605
 20
7.461497
 30
0.000000
  0
VERTEX
  8
LAYER-1
 10
2.605605
 20
7.461497
 30
0.000000
  0
VERTEX
  8
LAYER-1
 10
2.588496
 20
7.472480
 30
0.000000
  0
VERTEX
  8
LAYER-1
 10
2.571416
 20
7.468149
 30
0.000000
  0
VERTEX
  8
LAYER-1
 10
2.568701
 20
7.461496
 30
0.000000
  0
SEQEND
  8
LAYER-1
  0
POLYLINE
  8
LAYER-1
 66
  1
 70
  0
 62
  0
 10
2.568701
 20
7.461496
 30
0.000000
  0
VERTEX
  8
LAYER-1
 10
2.568701
 20
7.461496
 30
0.000000
  0
VERTEX
  8
LAYER-1
 10
2.605604
 20
7.461497
 30
0.000000
  0
SEQEND
  8
LAYER-1
  0
POLYLINE
  8
LAYER-1
 66
  1
 70
  0
 62
  0
 10
1.786945
 20
7.189420
 30
0.000000
  0
VERTEX
  8
LAYER-1
 10
1.786945
 20
7.189420
 30
0.000000
  0
VERTEX
  8
LAYER-1
 10
1.797181
 20
7.182826
 30
0.000000
  0
VERTEX
  8
LAYER-1
 10
1.811865
 20
7.185401
 30
0.000000
  0
VERTEX
  8
LAYER-1
 10
1.820165
 20
7.189980
 30
0.000000
  0
SEQEND
  8
LAYER-1
  0
POLYLINE
  8
LAYER-1
 66
  1
 70
  0
 62
  0
 10
1.786945
 20
7.189420
 30
0.000000
  0
VERTEX
  8
LAYER-1
 10
1.786945
 20
7.189420
 30
0.000000
  0
VERTEX
  8
LAYER-1
 10
1.820164
 20
7.189980
 30
0.000000
  0
SEQEND
  8
LAYER-1
  0
POLYLINE
  8
LAYER-1
 66
  1
 70
  0
 62
  0
 10
1.747832
 20
7.189981
 30
0.000000
  0
VERTEX
  8
LAYER-1
 10
1.747832
 20
7.189981
 30
0.000000
  0
VERTEX
  8
LAYER-1
 10
1.761003
 20
7.182934
 30
0.000000
  0
VERTEX
  8
LAYER-1
 10
1.778084
 20
7.187265
 30
0.000000
  0
VERTEX
  8
LAYER-1
 10
1.784736
 20
7.189980
 30
0.000000
  0
SEQEND
  8
LAYER-1
  0
POLYLINE
  8
LAYER-1
 66
  1
 70
  0
 62
  0
 10
1.747833
 20
7.189981
 30
0.000000
  0
VERTEX
  8
LAYER-1
 10
1.747833
 20
7.189981
 30
0.000000
  0
VERTEX
  8
LAYER-1
 10
1.784735
 20
7.189980
 30
0.000000
  0
SEQEND
  8
LAYER-1
  0
POLYLINE
  8
LAYER-1
 66
  1
 70
  0
 62
  0
 10
1.749004
 20
7.461638
 30
0.000000
  0
VERTEX
  8
LAYER-1
 10
1.749004
 20
7.461638
 30
0.000000
  0
VERTEX
  8
LAYER-1
 10
1.749004
 20
7.190006
 30
0.000000
  0
SEQEND
  8
LAYER-1
  0
POLYLINE
  8
LAYER-1
 66
  1
 70
  0
 62
  0
 10
1.821337
 20
7.190010
 30
0.000000
  0
VERTEX
  8
LAYER-1
 10
1.821337
 20
7.190010
 30
0.000000
  0
VERTEX
  8
LAYER-1
 10
1.821337
 20
7.461639
 30
0.000000
  0
SEQEND
  8
LAYER-1
  0
POLYLINE
  8
LAYER-1
 66
  1
 70
  0
 62
  0
 10
1.785908
 20
7.461639
 30
0.000000
  0
VERTEX
  8
LAYER-1
 10
1.785908
 20
7.461639
 30
0.000000
  0
VERTEX
  8
LAYER-1
 10
1.785908
 20
7.190008
 30
0.000000
  0
SEQEND
  8
LAYER-1
  0
POLYLINE
  8
LAYER-1
 66
  1
 70
  0
 62
  0
 10
1.821033
 20
7.461497
 30
0.000000
  0
VERTEX
  8
LAYER-1
 10
1.821033
 20
7.461497
 30
0.000000
  0
VERTEX
  8
LAYER-1
 10
1.807156
 20
7.472435
 30
0.000000
  0
VERTEX
  8
LAYER-1
 10
1.792393
 20
7.470357
 30
0.000000
  0
VERTEX
  8
LAYER-1
 10
1.787813
 20
7.462057
 30
0.000000
  0
SEQEND
  8
LAYER-1
  0
POLYLINE
  8
LAYER-1
 66
  1
 70
  0
 62
  0
 10
1.787814
 20
7.462057
 30
0.000000
  0
VERTEX
  8
LAYER-1
 10
1.787814
 20
7.462057
 30
0.000000
  0
VERTEX
  8
LAYER-1
 10
1.821033
 20
7.461497
 30
0.000000
  0
SEQEND
  8
LAYER-1
  0
POLYLINE
  8
LAYER-1
 66
  1
 70
  0
 62
  0
 10
1.785605
 20
7.461497
 30
0.000000
  0
VERTEX
  8
LAYER-1
 10
1.785605
 20
7.461497
 30
0.000000
  0
VERTEX
  8
LAYER-1
 10
1.768496
 20
7.472480
 30
0.000000
  0
VERTEX
  8
LAYER-1
 10
1.751416
 20
7.468149
 30
0.000000
  0
VERTEX
  8
LAYER-1
 10
1.748701
 20
7.461496
 30
0.000000
  0
SEQEND
  8
LAYER-1
  0
POLYLINE
  8
LAYER-1
 66
  1
 70
  0
 62
  0
 10
1.748701
 20
7.461496
 30
0.000000
  0
VERTEX
  8
LAYER-1
 10
1.748701
 20
7.461496
 30
0.000000
  0
VERTEX
  8
LAYER-1
 10
1.785604
 20
7.461497
 30
0.000000
  0
SEQEND
  8
LAYER-1
  0
POLYLINE
  8
LAYER-1
 66
  1
 70
  0
 62
  0
 10
3.645304
 20
7.393731
 30
0.000000
  0
VERTEX
  8
LAYER-1
 10
3.645304
 20
7.393731
 30
0.000000
  0
VERTEX
  8
LAYER-1
 10
3.605578
 20
7.393731
 30
0.000000
  0
SEQEND
  8
LAYER-1
  0
POLYLINE
  8
LAYER-1
 66
  1
 70
  0
 62
  0
 10
3.645304
 20
7.263821
 30
0.000000
  0
VERTEX
  8
LAYER-1
 10
3.645304
 20
7.263821
 30
0.000000
  0
VERTEX
  8
LAYER-1
 10
3.605578
 20
7.263821
 30
0.000000
  0
SEQEND
  8
LAYER-1
  0
POLYLINE
  8
LAYER-1
 66
  1
 70
  0
 62
  0
 10
3.643852
 20
7.466785
 30
0.000000
  0
VERTEX
  8
LAYER-1
 10
3.643852
 20
7.466785
 30
0.000000
  0
VERTEX
  8
LAYER-1
 10
3.626743
 20
7.477768
 30
0.000000
  0
VERTEX
  8
LAYER-1
 10
3.609664
 20
7.473436
 30
0.000000
  0
VERTEX
  8
LAYER-1
 10
3.606948
 20
7.466783
 30
0.000000
  0
SEQEND
  8
LAYER-1
  0
POLYLINE
  8
LAYER-1
 66
  1
 70
  1
 62
  0
  0
VERTEX
  8
LAYER-1
 10
3.596439
 20
7.467406
 30
0.000000
  0
VERTEX
  8
LAYER-1
 10
3.651055
 20
7.467406
 30
0.000000
  0
VERTEX
  8
LAYER-1
 10
3.651055
 20
7.461501
 30
0.000000
  0
VERTEX
  8
LAYER-1
 10
3.596439
 20
7.461501
 30
0.000000
  0
SEQEND
  8
LAYER-1
  0
POLYLINE
  8
LAYER-1
 66
  1
 70
  0
 62
  0
 10
3.605144
 20
7.461636
 30
0.000000
  0
VERTEX
  8
LAYER-1
 10
3.605144
 20
7.461636
 30
0.000000
  0
VERTEX
  8
LAYER-1
 10
3.605144
 20
7.189888
 30
0.000000
  0
SEQEND
  8
LAYER-1
  0
POLYLINE
  8
LAYER-1
 66
  1
 70
  0
 62
  0
 10
3.605154
 20
0.613503
 30
0.000000
  0
VERTEX
  8
LAYER-1
 10
3.605154
 20
0.613503
 30
0.000000
  0
VERTEX
  8
LAYER-1
 10
3.605154
 20
0.341802
 30
0.000000
  0
SEQEND
  8
LAYER-1
  0
POLYLINE
  8
LAYER-1
 66
  1
 70
  0
 62
  0
 10
3.384235
 20
0.341364
 30
0.000000
  0
VERTEX
  8
LAYER-1
 10
3.384235
 20
0.341364
 30
0.000000
  0
VERTEX
  8
LAYER-1
 10
3.384235
 20
0.612996
 30
0.000000
  0
SEQEND
  8
LAYER-1
  0
POLYLINE
  8
LAYER-1
 66
  1
 70
  0
 62
  0
 10
3.053737
 20
0.612996
 30
0.000000
  0
VERTEX
  8
LAYER-1
 10
3.053737
 20
0.612996
 30
0.000000
  0
VERTEX
  8
LAYER-1
 10
3.053737
 20
0.341364
 30
0.000000
  0
SEQEND
  8
LAYER-1
  0
POLYLINE
  8
LAYER-1
 66
  1
 70
  0
 62
  0
 10
2.240906
 20
0.612996
 30
0.000000
  0
VERTEX
  8
LAYER-1
 10
2.240906
 20
0.612996
 30
0.000000
  0
VERTEX
  8
LAYER-1
 10
2.240906
 20
0.341364
 30
0.000000
  0
SEQEND
  8
LAYER-1
  0
POLYLINE
  8
LAYER-1
 66
  1
 70
  0
 62
  0
 10
2.422073
 20
0.341325
 30
0.000000
  0
VERTEX
  8
LAYER-1
 10
2.422073
 20
0.341325
 30
0.000000
  0
VERTEX
  8
LAYER-1
 10
2.422073
 20
0.612953
 30
0.000000
  0
SEQEND
  8
LAYER-1
  0
POLYLINE
  8
LAYER-1
 66
  1
 70
  0
 62
  0
 10
2.382214
 20
0.341325
 30
0.000000
  0
VERTEX
  8
LAYER-1
 10
2.382214
 20
0.341325
 30
0.000000
  0
VERTEX
  8
LAYER-1
 10
2.382214
 20
0.612953
 30
0.000000
  0
SEQEND
  8
LAYER-1
  0
POLYLINE
  8
LAYER-1
 66
  1
 70
  0
 62
  0
 10
3.236091
 20
0.341325
 30
0.000000
  0
VERTEX
  8
LAYER-1
 10
3.236091
 20
0.341325
 30
0.000000
  0
VERTEX
  8
LAYER-1
 10
3.236091
 20
0.612953
 30
0.000000
  0
SEQEND
  8
LAYER-1
  0
POLYLINE
  8
LAYER-1
 66
  1
 70
  0
 62
  0
 10
3.197275
 20
0.341325
 30
0.000000
  0
VERTEX
  8
LAYER-1
 10
3.197275
 20
0.341325
 30
0.000000
  0
VERTEX
  8
LAYER-1
 10
3.197275
 20
0.612953
 30
0.000000
  0
SEQEND
  8
LAYER-1
  0
POLYLINE
  8
LAYER-1
 66
  1
 70
  0
 62
  0
 10
2.969415
 20
0.341364
 30
0.000000
  0
VERTEX
  8
LAYER-1
 10
2.969415
 20
0.341364
 30
0.000000
  0
VERTEX
  8
LAYER-1
 10
2.969415
 20
0.612996
 30
0.000000
  0
SEQEND
  8
LAYER-1
  0
POLYLINE
  8
LAYER-1
 66
  1
 70
  0
 62
  0
 10
2.156584
 20
0.341364
 30
0.000000
  0
VERTEX
  8
LAYER-1
 10
2.156584
 20
0.341364
 30
0.000000
  0
VERTEX
  8
LAYER-1
 10
2.156584
 20
0.612996
 30
0.000000
  0
SEQEND
  8
LAYER-1
  0
POLYLINE
  8
LAYER-1
 66
  1
 70
  0
 62
  0
 10
2.011679
 20
0.341758
 30
0.000000
  0
VERTEX
  8
LAYER-1
 10
2.011679
 20
0.341758
 30
0.000000
  0
VERTEX
  8
LAYER-1
 10
2.011679
 20
0.613386
 30
0.000000
  0
SEQEND
  8
LAYER-1
  0
POLYLINE
  8
LAYER-1
 66
  1
 70
  0
 62
  0
 10
1.973297
 20
0.341758
 30
0.000000
  0
VERTEX
  8
LAYER-1
 10
1.973297
 20
0.341758
 30
0.000000
  0
VERTEX
  8
LAYER-1
 10
1.973297
 20
0.613386
 30
0.000000
  0
SEQEND
  8
LAYER-1
  0
POLYLINE
  8
LAYER-1
 66
  1
 70
  0
 62
  0
 10
2.829518
 20
0.341289
 30
0.000000
  0
VERTEX
  8
LAYER-1
 10
2.829518
 20
0.341289
 30
0.000000
  0
VERTEX
  8
LAYER-1
 10
2.829518
 20
0.612917
 30
0.000000
  0
SEQEND
  8
LAYER-1
  0
POLYLINE
  8
LAYER-1
 66
  1
 70
  0
 62
  0
 10
2.791135
 20
0.341289
 30
0.000000
  0
VERTEX
  8
LAYER-1
 10
2.791135
 20
0.341289
 30
0.000000
  0
VERTEX
  8
LAYER-1
 10
2.791135
 20
0.612917
 30
0.000000
  0
SEQEND
  8
LAYER-1
  0
POLYLINE
  8
LAYER-1
 66
  1
 70
  0
 62
  0
 10
3.456568
 20
0.612991
 30
0.000000
  0
VERTEX
  8
LAYER-1
 10
3.456568
 20
0.612991
 30
0.000000
  0
VERTEX
  8
LAYER-1
 10
3.456568
 20
0.341363
 30
0.000000
  0
SEQEND
  8
LAYER-1
  0
POLYLINE
  8
LAYER-1
 66
  1
 70
  0
 62
  0
 10
3.421138
 20
0.341363
 30
0.000000
  0
VERTEX
  8
LAYER-1
 10
3.421138
 20
0.341363
 30
0.000000
  0
VERTEX
  8
LAYER-1
 10
3.421138
 20
0.612994
 30
0.000000
  0
SEQEND
  8
LAYER-1
  0
POLYLINE
  8
LAYER-1
 66
  1
 70
  0
 62
  0
 10
3.422109
 20
0.341352
 30
0.000000
  0
VERTEX
  8
LAYER-1
 10
3.422109
 20
0.341352
 30
0.000000
  0
VERTEX
  8
LAYER-1
 10
3.432056
 20
0.334359
 30
0.000000
  0
VERTEX
  8
LAYER-1
 10
3.446817
 20
0.336448
 30
0.000000
  0
VERTEX
  8
LAYER-1
 10
3.455665
 20
0.341363
 30
0.000000
  0
SEQEND
  8
LAYER-1
  0
POLYLINE
  8
LAYER-1
 66
  1
 70
  0
 62
  0
 10
3.384236
 20
0.341364
 30
0.000000
  0
VERTEX
  8
LAYER-1
 10
3.384236
 20
0.341364
 30
0.000000
  0
VERTEX
  8
LAYER-1
 10
3.397406
 20
0.334317
 30
0.000000
  0
VERTEX
  8
LAYER-1
 10
3.414487
 20
0.338648
 30
0.000000
  0
VERTEX
  8
LAYER-1
 10
3.421138
 20
0.341363
 30
0.000000
  0
SEQEND
  8
LAYER-1
  0
POLYLINE
  8
LAYER-1
 66
  1
 70
  0
 62
  0
 10
2.968676
 20
0.341857
 30
0.000000
  0
VERTEX
  8
LAYER-1
 10
2.968676
 20
0.341857
 30
0.000000
  0
VERTEX
  8
LAYER-1
 10
2.984243
 20
0.335802
 30
0.000000
  0
VERTEX
  8
LAYER-1
 10
3.002316
 20
0.342527
 30
0.000000
  0
VERTEX
  8
LAYER-1
 10
3.005583
 20
0.341857
 30
0.000000
  0
SEQEND
  8
LAYER-1
  0
POLYLINE
  8
LAYER-1
 66
  1
 70
  0
 62
  0
 10
2.155717
 20
0.341387
 30
0.000000
  0
VERTEX
  8
LAYER-1
 10
2.155717
 20
0.341387
 30
0.000000
  0
VERTEX
  8
LAYER-1
 10
2.171285
 20
0.335331
 30
0.000000
  0
VERTEX
  8
LAYER-1
 10
2.189358
 20
0.342057
 30
0.000000
  0
VERTEX
  8
LAYER-1
 10
2.192625
 20
0.341387
 30
0.000000
  0
SEQEND
  8
LAYER-1
  0
POLYLINE
  8
LAYER-1
 66
  1
 70
  0
 62
  0
 10
3.016385
 20
0.341857
 30
0.000000
  0
VERTEX
  8
LAYER-1
 10
3.016385
 20
0.341857
 30
0.000000
  0
VERTEX
  8
LAYER-1
 10
3.031952
 20
0.335802
 30
0.000000
  0
VERTEX
  8
LAYER-1
 10
3.050026
 20
0.342527
 30
0.000000
  0
VERTEX
  8
LAYER-1
 10
3.053293
 20
0.341856
 30
0.000000
  0
SEQEND
  8
LAYER-1
  0
POLYLINE
  8
LAYER-1
 66
  1
 70
  0
 62
  0
 10
2.995921
 20
0.341298
 30
0.000000
  0
VERTEX
  8
LAYER-1
 10
2.995921
 20
0.341298
 30
0.000000
  0
VERTEX
  8
LAYER-1
 10
3.002736
 20
0.332229
 30
0.000000
  0
VERTEX
  8
LAYER-1
 10
3.016751
 20
0.330635
 30
0.000000
  0
VERTEX
  8
LAYER-1
 10
3.027788
 20
0.339418
 30
0.000000
  0
VERTEX
  8
LAYER-1
 10
3.031350
 20
0.341298
 30
0.000000
  0
SEQEND
  8
LAYER-1
  0
POLYLINE
  8
LAYER-1
 66
  1
 70
  0
 62
  0
 10
3.031350
 20
0.341298
 30
0.000000
  0
VERTEX
  8
LAYER-1
 10
3.031350
 20
0.341298
 30
0.000000
  0
VERTEX
  8
LAYER-1
 10
2.995921
 20
0.341298
 30
0.000000
  0
SEQEND
  8
LAYER-1
  0
POLYLINE
  8
LAYER-1
 66
  1
 70
  0
 62
  0
 10
2.204368
 20
0.341387
 30
0.000000
  0
VERTEX
  8
LAYER-1
 10
2.204368
 20
0.341387
 30
0.000000
  0
VERTEX
  8
LAYER-1
 10
2.219935
 20
0.335331
 30
0.000000
  0
VERTEX
  8
LAYER-1
 10
2.238008
 20
0.342057
 30
0.000000
  0
VERTEX
  8
LAYER-1
 10
2.241275
 20
0.341386
 30
0.000000
  0
SEQEND
  8
LAYER-1
  0
POLYLINE
  8
LAYER-1
 66
  1
 70
  0
 62
  0
 10
2.179674
 20
0.341298
 30
0.000000
  0
VERTEX
  8
LAYER-1
 10
2.179674
 20
0.341298
 30
0.000000
  0
VERTEX
  8
LAYER-1
 10
2.186489
 20
0.332229
 30
0.000000
  0
VERTEX
  8
LAYER-1
 10
2.200504
 20
0.330635
 30
0.000000
  0
VERTEX
  8
LAYER-1
 10
2.211541
 20
0.339418
 30
0.000000
  0
VERTEX
  8
LAYER-1
 10
2.215103
 20
0.341298
 30
0.000000
  0
SEQEND
  8
LAYER-1
  0
POLYLINE
  8
LAYER-1
 66
  1
 70
  0
 62
  0
 10
2.215103
 20
0.341298
 30
0.000000
  0
VERTEX
  8
LAYER-1
 10
2.215103
 20
0.341298
 30
0.000000
  0
VERTEX
  8
LAYER-1
 10
2.179674
 20
0.341298
 30
0.000000
  0
SEQEND
  8
LAYER-1
  0
POLYLINE
  8
LAYER-1
 66
  1
 70
  0
 62
  0
 10
3.455635
 20
0.613019
 30
0.000000
  0
VERTEX
  8
LAYER-1
 10
3.455635
 20
0.613019
 30
0.000000
  0
VERTEX
  8
LAYER-1
 10
3.441758
 20
0.623956
 30
0.000000
  0
VERTEX
  8
LAYER-1
 10
3.426995
 20
0.621879
 30
0.000000
  0
VERTEX
  8
LAYER-1
 10
3.422415
 20
0.613579
 30
0.000000
  0
SEQEND
  8
LAYER-1
  0
POLYLINE
  8
LAYER-1
 66
  1
 70
  0
 62
  0
 10
3.422415
 20
0.613580
 30
0.000000
  0
VERTEX
  8
LAYER-1
 10
3.422415
 20
0.613580
 30
0.000000
  0
VERTEX
  8
LAYER-1
 10
3.455635
 20
0.613019
 30
0.000000
  0
SEQEND
  8
LAYER-1
  0
POLYLINE
  8
LAYER-1
 66
  1
 70
  0
 62
  0
 10
3.420206
 20
0.613018
 30
0.000000
  0
VERTEX
  8
LAYER-1
 10
3.420206
 20
0.613018
 30
0.000000
  0
VERTEX
  8
LAYER-1
 10
3.403098
 20
0.624002
 30
0.000000
  0
VERTEX
  8
LAYER-1
 10
3.386018
 20
0.619670
 30
0.000000
  0
VERTEX
  8
LAYER-1
 10
3.383302
 20
0.613018
 30
0.000000
  0
SEQEND
  8
LAYER-1
  0
POLYLINE
  8
LAYER-1
 66
  1
 70
  0
 62
  0
 10
3.383303
 20
0.613018
 30
0.000000
  0
VERTEX
  8
LAYER-1
 10
3.383303
 20
0.613018
 30
0.000000
  0
VERTEX
  8
LAYER-1
 10
3.420206
 20
0.613019
 30
0.000000
  0
SEQEND
  8
LAYER-1
  0
POLYLINE
  8
LAYER-1
 66
  1
 70
  0
 62
  0
 10
3.053367
 20
0.613465
 30
0.000000
  0
VERTEX
  8
LAYER-1
 10
3.053367
 20
0.613465
 30
0.000000
  0
VERTEX
  8
LAYER-1
 10
3.033862
 20
0.623457
 30
0.000000
  0
VERTEX
  8
LAYER-1
 10
3.015789
 20
0.616731
 30
0.000000
  0
VERTEX
  8
LAYER-1
 10
3.016459
 20
0.613464
 30
0.000000
  0
SEQEND
  8
LAYER-1
  0
POLYLINE
  8
LAYER-1
 66
  1
 70
  0
 62
  0
 10
3.006126
 20
0.613465
 30
0.000000
  0
VERTEX
  8
LAYER-1
 10
3.006126
 20
0.613465
 30
0.000000
  0
VERTEX
  8
LAYER-1
 10
2.986621
 20
0.623457
 30
0.000000
  0
VERTEX
  8
LAYER-1
 10
2.968548
 20
0.616731
 30
0.000000
  0
VERTEX
  8
LAYER-1
 10
2.969218
 20
0.613464
 30
0.000000
  0
SEQEND
  8
LAYER-1
  0
POLYLINE
  8
LAYER-1
 66
  1
 70
  0
 62
  0
 10
3.031893
 20
0.613554
 30
0.000000
  0
VERTEX
  8
LAYER-1
 10
3.031893
 20
0.613554
 30
0.000000
  0
VERTEX
  8
LAYER-1
 10
3.021141
 20
0.626560
 30
0.000000
  0
VERTEX
  8
LAYER-1
 10
3.007125
 20
0.628153
 30
0.000000
  0
VERTEX
  8
LAYER-1
 10
2.996089
 20
0.619370
 30
0.000000
  0
VERTEX
  8
LAYER-1
 10
2.996464
 20
0.613554
 30
0.000000
  0
SEQEND
  8
LAYER-1
  0
POLYLINE
  8
LAYER-1
 66
  1
 70
  0
 62
  0
 10
3.031892
 20
0.613555
 30
0.000000
  0
VERTEX
  8
LAYER-1
 10
3.031892
 20
0.613555
 30
0.000000
  0
VERTEX
  8
LAYER-1
 10
2.996464
 20
0.613555
 30
0.000000
  0
SEQEND
  8
LAYER-1
  0
POLYLINE
  8
LAYER-1
 66
  1
 70
  0
 62
  0
 10
2.240812
 20
0.613465
 30
0.000000
  0
VERTEX
  8
LAYER-1
 10
2.240812
 20
0.613465
 30
0.000000
  0
VERTEX
  8
LAYER-1
 10
2.221307
 20
0.623457
 30
0.000000
  0
VERTEX
  8
LAYER-1
 10
2.203234
 20
0.616731
 30
0.000000
  0
VERTEX
  8
LAYER-1
 10
2.203904
 20
0.613464
 30
0.000000
  0
SEQEND
  8
LAYER-1
  0
POLYLINE
  8
LAYER-1
 66
  1
 70
  0
 62
  0
 10
2.192632
 20
0.613465
 30
0.000000
  0
VERTEX
  8
LAYER-1
 10
2.192632
 20
0.613465
 30
0.000000
  0
VERTEX
  8
LAYER-1
 10
2.173127
 20
0.623457
 30
0.000000
  0
VERTEX
  8
LAYER-1
 10
2.155054
 20
0.616731
 30
0.000000
  0
VERTEX
  8
LAYER-1
 10
2.155724
 20
0.613464
 30
0.000000
  0
SEQEND
  8
LAYER-1
  0
POLYLINE
  8
LAYER-1
 66
  1
 70
  0
 62
  0
 10
2.215109
 20
0.613554
 30
0.000000
  0
VERTEX
  8
LAYER-1
 10
2.215109
 20
0.613554
 30
0.000000
  0
VERTEX
  8
LAYER-1
 10
2.204357
 20
0.626560
 30
0.000000
  0
VERTEX
  8
LAYER-1
 10
2.190342
 20
0.628153
 30
0.000000
  0
VERTEX
  8
LAYER-1
 10
2.179305
 20
0.619370
 30
0.000000
  0
VERTEX
  8
LAYER-1
 10
2.179680
 20
0.613554
 30
0.000000
  0
SEQEND
  8
LAYER-1
  0
POLYLINE
  8
LAYER-1
 66
  1
 70
  0
 62
  0
 10
2.215109
 20
0.613555
 30
0.000000
  0
VERTEX
  8
LAYER-1
 10
2.215109
 20
0.613555
 30
0.000000
  0
VERTEX
  8
LAYER-1
 10
2.179681
 20
0.613555
 30
0.000000
  0
SEQEND
  8
LAYER-1
  0
POLYLINE
  8
LAYER-1
 66
  1
 70
  1
 62
  0
  0
VERTEX
  8
LAYER-1
 10
3.031350
 20
0.341364
 30
0.000000
  0
VERTEX
  8
LAYER-1
 10
2.995920
 20
0.341364
 30
0.000000
  0
VERTEX
  8
LAYER-1
 10
2.995920
 20
0.612992
 30
0.000000
  0
VERTEX
  8
LAYER-1
 10
3.031350
 20
0.612992
 30
0.000000
  0
SEQEND
  8
LAYER-1
  0
POLYLINE
  8
LAYER-1
 66
  1
 70
  1
 62
  0
  0
VERTEX
  8
LAYER-1
 10
2.215036
 20
0.341364
 30
0.000000
  0
VERTEX
  8
LAYER-1
 10
2.179606
 20
0.341364
 30
0.000000
  0
VERTEX
  8
LAYER-1
 10
2.179606
 20
0.612992
 30
0.000000
  0
VERTEX
  8
LAYER-1
 10
2.215036
 20
0.612992
 30
0.000000
  0
SEQEND
  8
LAYER-1
  0
POLYLINE
  8
LAYER-1
 66
  1
 70
  0
 62
  0
 10
3.031350
 20
0.409270
 30
0.000000
  0
VERTEX
  8
LAYER-1
 10
3.031350
 20
0.409270
 30
0.000000
  0
VERTEX
  8
LAYER-1
 10
2.995920
 20
0.409270
 30
0.000000
  0
SEQEND
  8
LAYER-1
  0
POLYLINE
  8
LAYER-1
 66
  1
 70
  0
 62
  0
 10
3.031350
 20
0.539180
 30
0.000000
  0
VERTEX
  8
LAYER-1
 10
3.031350
 20
0.539180
 30
0.000000
  0
VERTEX
  8
LAYER-1
 10
2.995920
 20
0.539180
 30
0.000000
  0
SEQEND
  8
LAYER-1
  0
POLYLINE
  8
LAYER-1
 66
  1
 70
  0
 62
  0
 10
2.215036
 20
0.409270
 30
0.000000
  0
VERTEX
  8
LAYER-1
 10
2.215036
 20
0.409270
 30
0.000000
  0
VERTEX
  8
LAYER-1
 10
2.179607
 20
0.409270
 30
0.000000
  0
SEQEND
  8
LAYER-1
  0
POLYLINE
  8
LAYER-1
 66
  1
 70
  0
 62
  0
 10
2.215036
 20
0.539180
 30
0.000000
  0
VERTEX
  8
LAYER-1
 10
2.215036
 20
0.539180
 30
0.000000
  0
VERTEX
  8
LAYER-1
 10
2.179607
 20
0.539180
 30
0.000000
  0
SEQEND
  8
LAYER-1
  0
POLYLINE
  8
LAYER-1
 66
  1
 70
  0
 62
  0
 10
3.200462
 20
0.341247
 30
0.000000
  0
VERTEX
  8
LAYER-1
 10
3.200462
 20
0.341247
 30
0.000000
  0
VERTEX
  8
LAYER-1
 10
3.210698
 20
0.334653
 30
0.000000
  0
VERTEX
  8
LAYER-1
 10
3.225382
 20
0.337228
 30
0.000000
  0
VERTEX
  8
LAYER-1
 10
3.233682
 20
0.341807
 30
0.000000
  0
SEQEND
  8
LAYER-1
  0
POLYLINE
  8
LAYER-1
 66
  1
 70
  0
 62
  0
 10
2.383284
 20
0.341426
 30
0.000000
  0
VERTEX
  8
LAYER-1
 10
2.383284
 20
0.341426
 30
0.000000
  0
VERTEX
  8
LAYER-1
 10
2.396455
 20
0.334379
 30
0.000000
  0
VERTEX
  8
LAYER-1
 10
2.413535
 20
0.338710
 30
0.000000
  0
VERTEX
  8
LAYER-1
 10
2.420188
 20
0.341425
 30
0.000000
  0
SEQEND
  8
LAYER-1
  0
POLYLINE
  8
LAYER-1
 66
  1
 70
  0
 62
  0
 10
2.640603
 20
0.613023
 30
0.000000
  0
VERTEX
  8
LAYER-1
 10
2.640603
 20
0.613023
 30
0.000000
  0
VERTEX
  8
LAYER-1
 10
2.626726
 20
0.623960
 30
0.000000
  0
VERTEX
  8
LAYER-1
 10
2.611963
 20
0.621881
 30
0.000000
  0
VERTEX
  8
LAYER-1
 10
2.607384
 20
0.613581
 30
0.000000
  0
SEQEND
  8
LAYER-1
  0
POLYLINE
  8
LAYER-1
 66
  1
 70
  0
 62
  0
 10
2.607384
 20
0.613581
 30
0.000000
  0
VERTEX
  8
LAYER-1
 10
2.607384
 20
0.613581
 30
0.000000
  0
VERTEX
  8
LAYER-1
 10
2.640603
 20
0.613021
 30
0.000000
  0
SEQEND
  8
LAYER-1
  0
POLYLINE
  8
LAYER-1
 66
  1
 70
  0
 62
  0
 10
2.605175
 20
0.613021
 30
0.000000
  0
VERTEX
  8
LAYER-1
 10
2.605175
 20
0.613021
 30
0.000000
  0
VERTEX
  8
LAYER-1
 10
2.588067
 20
0.624005
 30
0.000000
  0
VERTEX
  8
LAYER-1
 10
2.570986
 20
0.619674
 30
0.000000
  0
VERTEX
  8
LAYER-1
 10
2.568271
 20
0.613020
 30
0.000000
  0
SEQEND
  8
LAYER-1
  0
POLYLINE
  8
LAYER-1
 66
  1
 70
  0
 62
  0
 10
2.568271
 20
0.613020
 30
0.000000
  0
VERTEX
  8
LAYER-1
 10
2.568271
 20
0.613020
 30
0.000000
  0
VERTEX
  8
LAYER-1
 10
2.605174
 20
0.613021
 30
0.000000
  0
SEQEND
  8
LAYER-1
  0
POLYLINE
  8
LAYER-1
 66
  1
 70
  0
 62
  0
 10
2.569442
 20
0.341364
 30
0.000000
  0
VERTEX
  8
LAYER-1
 10
2.569442
 20
0.341364
 30
0.000000
  0
VERTEX
  8
LAYER-1
 10
2.569442
 20
0.612996
 30
0.000000
  0
SEQEND
  8
LAYER-1
  0
POLYLINE
  8
LAYER-1
 66
  1
 70
  0
 62
  0
 10
2.641776
 20
0.612991
 30
0.000000
  0
VERTEX
  8
LAYER-1
 10
2.641776
 20
0.612991
 30
0.000000
  0
VERTEX
  8
LAYER-1
 10
2.641776
 20
0.341363
 30
0.000000
  0
SEQEND
  8
LAYER-1
  0
POLYLINE
  8
LAYER-1
 66
  1
 70
  0
 62
  0
 10
2.606347
 20
0.341363
 30
0.000000
  0
VERTEX
  8
LAYER-1
 10
2.606347
 20
0.341363
 30
0.000000
  0
VERTEX
  8
LAYER-1
 10
2.606347
 20
0.612994
 30
0.000000
  0
SEQEND
  8
LAYER-1
  0
POLYLINE
  8
LAYER-1
 66
  1
 70
  0
 62
  0
 10
2.608252
 20
0.340945
 30
0.000000
  0
VERTEX
  8
LAYER-1
 10
2.608252
 20
0.340945
 30
0.000000
  0
VERTEX
  8
LAYER-1
 10
2.618488
 20
0.334351
 30
0.000000
  0
VERTEX
  8
LAYER-1
 10
2.633172
 20
0.336925
 30
0.000000
  0
VERTEX
  8
LAYER-1
 10
2.641472
 20
0.341504
 30
0.000000
  0
SEQEND
  8
LAYER-1
  0
POLYLINE
  8
LAYER-1
 66
  1
 70
  0
 62
  0
 10
2.608253
 20
0.340944
 30
0.000000
  0
VERTEX
  8
LAYER-1
 10
2.608253
 20
0.340944
 30
0.000000
  0
VERTEX
  8
LAYER-1
 10
2.641472
 20
0.341504
 30
0.000000
  0
SEQEND
  8
LAYER-1
  0
POLYLINE
  8
LAYER-1
 66
  1
 70
  0
 62
  0
 10
2.569140
 20
0.341506
 30
0.000000
  0
VERTEX
  8
LAYER-1
 10
2.569140
 20
0.341506
 30
0.000000
  0
VERTEX
  8
LAYER-1
 10
2.582311
 20
0.334459
 30
0.000000
  0
VERTEX
  8
LAYER-1
 10
2.599391
 20
0.338790
 30
0.000000
  0
VERTEX
  8
LAYER-1
 10
2.606043
 20
0.341505
 30
0.000000
  0
SEQEND
  8
LAYER-1
  0
POLYLINE
  8
LAYER-1
 66
  1
 70
  0
 62
  0
 10
2.569140
 20
0.341505
 30
0.000000
  0
VERTEX
  8
LAYER-1
 10
2.569140
 20
0.341505
 30
0.000000
  0
VERTEX
  8
LAYER-1
 10
2.606043
 20
0.341504
 30
0.000000
  0
SEQEND
  8
LAYER-1
  0
POLYLINE
  8
LAYER-1
 66
  1
 70
  0
 62
  0
 10
1.820603
 20
0.613023
 30
0.000000
  0
VERTEX
  8
LAYER-1
 10
1.820603
 20
0.613023
 30
0.000000
  0
VERTEX
  8
LAYER-1
 10
1.806726
 20
0.623960
 30
0.000000
  0
VERTEX
  8
LAYER-1
 10
1.791963
 20
0.621881
 30
0.000000
  0
VERTEX
  8
LAYER-1
 10
1.787384
 20
0.613581
 30
0.000000
  0
SEQEND
  8
LAYER-1
  0
POLYLINE
  8
LAYER-1
 66
  1
 70
  0
 62
  0
 10
1.787384
 20
0.613581
 30
0.000000
  0
VERTEX
  8
LAYER-1
 10
1.787384
 20
0.613581
 30
0.000000
  0
VERTEX
  8
LAYER-1
 10
1.820603
 20
0.613021
 30
0.000000
  0
SEQEND
  8
LAYER-1
  0
POLYLINE
  8
LAYER-1
 66
  1
 70
  0
 62
  0
 10
1.785175
 20
0.613021
 30
0.000000
  0
VERTEX
  8
LAYER-1
 10
1.785175
 20
0.613021
 30
0.000000
  0
VERTEX
  8
LAYER-1
 10
1.768066
 20
0.624005
 30
0.000000
  0
VERTEX
  8
LAYER-1
 10
1.750986
 20
0.619674
 30
0.000000
  0
VERTEX
  8
LAYER-1
 10
1.748271
 20
0.613020
 30
0.000000
  0
SEQEND
  8
LAYER-1
  0
POLYLINE
  8
LAYER-1
 66
  1
 70
  0
 62
  0
 10
1.748272
 20
0.613020
 30
0.000000
  0
VERTEX
  8
LAYER-1
 10
1.748272
 20
0.613020
 30
0.000000
  0
VERTEX
  8
LAYER-1
 10
1.785174
 20
0.613021
 30
0.000000
  0
SEQEND
  8
LAYER-1
  0
POLYLINE
  8
LAYER-1
 66
  1
 70
  0
 62
  0
 10
1.749442
 20
0.341364
 30
0.000000
  0
VERTEX
  8
LAYER-1
 10
1.749442
 20
0.341364
 30
0.000000
  0
VERTEX
  8
LAYER-1
 10
1.749442
 20
0.612996
 30
0.000000
  0
SEQEND
  8
LAYER-1
  0
POLYLINE
  8
LAYER-1
 66
  1
 70
  0
 62
  0
 10
1.821776
 20
0.612991
 30
0.000000
  0
VERTEX
  8
LAYER-1
 10
1.821776
 20
0.612991
 30
0.000000
  0
VERTEX
  8
LAYER-1
 10
1.821776
 20
0.341363
 30
0.000000
  0
SEQEND
  8
LAYER-1
  0
POLYLINE
  8
LAYER-1
 66
  1
 70
  0
 62
  0
 10
1.786346
 20
0.341363
 30
0.000000
  0
VERTEX
  8
LAYER-1
 10
1.786346
 20
0.341363
 30
0.000000
  0
VERTEX
  8
LAYER-1
 10
1.786346
 20
0.612994
 30
0.000000
  0
SEQEND
  8
LAYER-1
  0
POLYLINE
  8
LAYER-1
 66
  1
 70
  0
 62
  0
 10
1.788252
 20
0.340945
 30
0.000000
  0
VERTEX
  8
LAYER-1
 10
1.788252
 20
0.340945
 30
0.000000
  0
VERTEX
  8
LAYER-1
 10
1.798488
 20
0.334351
 30
0.000000
  0
VERTEX
  8
LAYER-1
 10
1.813172
 20
0.336925
 30
0.000000
  0
VERTEX
  8
LAYER-1
 10
1.821472
 20
0.341504
 30
0.000000
  0
SEQEND
  8
LAYER-1
  0
POLYLINE
  8
LAYER-1
 66
  1
 70
  0
 62
  0
 10
1.788253
 20
0.340944
 30
0.000000
  0
VERTEX
  8
LAYER-1
 10
1.788253
 20
0.340944
 30
0.000000
  0
VERTEX
  8
LAYER-1
 10
1.821471
 20
0.341504
 30
0.000000
  0
SEQEND
  8
LAYER-1
  0
POLYLINE
  8
LAYER-1
 66
  1
 70
  0
 62
  0
 10
1.749139
 20
0.341506
 30
0.000000
  0
VERTEX
  8
LAYER-1
 10
1.749139
 20
0.341506
 30
0.000000
  0
VERTEX
  8
LAYER-1
 10
1.762310
 20
0.334459
 30
0.000000
  0
VERTEX
  8
LAYER-1
 10
1.779391
 20
0.338790
 30
0.000000
  0
VERTEX
  8
LAYER-1
 10
1.786043
 20
0.341505
 30
0.000000
  0
SEQEND
  8
LAYER-1
  0
POLYLINE
  8
LAYER-1
 66
  1
 70
  0
 62
  0
 10
1.749140
 20
0.341505
 30
0.000000
  0
VERTEX
  8
LAYER-1
 10
1.749140
 20
0.341505
 30
0.000000
  0
VERTEX
  8
LAYER-1
 10
1.786043
 20
0.341504
 30
0.000000
  0
SEQEND
  8
LAYER-1
  0
POLYLINE
  8
LAYER-1
 66
  1
 70
  1
 62
  0
  0
VERTEX
  8
LAYER-1
 10
3.645069
 20
7.461123
 30
0.000000
  0
VERTEX
  8
LAYER-1
 10
3.813952
 20
7.461123
 30
0.000000
  0
VERTEX
  8
LAYER-1
 10
3.813952
 20
0.334873
 30
0.000000
  0
VERTEX
  8
LAYER-1
 10
3.645069
 20
0.334873
 30
0.000000
  0
SEQEND
  8
LAYER-1
  0
CIRCLE
  8
LAYER-1
 62
  0
 10
3.729716
 20
3.177201
 30
0.000000
 40
0.064283
  0
POLYLINE
  8
LAYER-1
 66
  1
 70
  0
 62
  0
 10
3.687369
 20
2.119566
 30
0.000000
  0
VERTEX
  8
LAYER-1
 10
3.687369
 20
2.119566
 30
0.000000
  0
VERTEX
  8
LAYER-1
 10
3.687371
 20
2.119566
 30
0.000000
  0
SEQEND
  8
LAYER-1
  0
POLYLINE
  8
LAYER-1
 66
  1
 70
  0
 62
  0
 10
3.695335
 20
2.111602
 30
0.000000
  0
VERTEX
  8
LAYER-1
 10
3.695335
 20
2.111602
 30
0.000000
  0
VERTEX
  8
LAYER-1
 10
3.695335
 20
1.862059
 30
0.000000
  0
SEQEND
  8
LAYER-1
  0
POLYLINE
  8
LAYER-1
 66
  1
 70
  0
 62
  0
 10
3.687371
 20
1.854095
 30
0.000000
  0
VERTEX
  8
LAYER-1
 10
3.687371
 20
1.854095
 30
0.000000
  0
VERTEX
  8
LAYER-1
 10
3.687369
 20
1.854095
 30
0.000000
  0
SEQEND
  8
LAYER-1
  0
POLYLINE
  8
LAYER-1
 66
  1
 70
  0
 62
  0
 10
3.679405
 20
1.862059
 30
0.000000
  0
VERTEX
  8
LAYER-1
 10
3.679405
 20
1.862059
 30
0.000000
  0
VERTEX
  8
LAYER-1
 10
3.679405
 20
2.111602
 30
0.000000
  0
SEQEND
  8
LAYER-1
  0
ARC
  8
LAYER-1
 62
  0
 10
3.687369
 20
2.111602
 30
0.000000
 40
0.007964
 50
270.000000
 51
0.000000
  0
ARC
  8
LAYER-1
 62
  0
 10
3.687369
 20
1.862059
 30
0.000000
 40
0.007964
 50
0.000000
 51
90.000000
  0
ARC
  8
LAYER-1
 62
  0
 10
3.687371
 20
1.862059
 30
0.000000
 40
0.007964
 50
90.000000
 51
180.000000
  0
ARC
  8
LAYER-1
 62
  0
 10
3.687371
 20
2.111602
 30
0.000000
 40
0.007964
 50
180.000000
 51
270.000000
  0
CIRCLE
  8
LAYER-1
 62
  7
 10
3.729716
 20
3.176960
 30
0.000000
 40
0.047124
  0
CIRCLE
  8
LAYER-1
 62
  0
 10
3.729716
 20
3.176960
 30
0.000000
 40
0.042287
  0
CIRCLE
  8
LAYER-1
 62
  0
 10
3.729716
 20
3.160164
 30
0.000000
 40
0.018794
  0
CIRCLE
  8
LAYER-1
 62
  0
 10
3.729716
 20
3.152128
 30
0.000000
 40
0.008035
  0
TEXT
  8
LAYER-1
 62
  0
 10
3.694130
 20
3.187718
 30
0.000000
 40
0.010417
  1
MobilFlex
 72
  5
 11
3.846908
 21
3.187718
 31
0.000000
  0
POLYLINE
  8
LAYER-1
 66
  1
 70
  1
 62
  0
 10
3.726092
 20
3.141918
 30
0.000000
  0
VERTEX
  8
LAYER-1
 10
3.726092
 20
3.141918
 30
0.000000
  0
VERTEX
  8
LAYER-1
 10
3.726092
 20
3.150619
 30
0.000000
  0
VERTEX
  8
LAYER-1
 10
3.729474
 20
3.150619
 30
0.000000
  0
VERTEX
  8
LAYER-1
 10
3.729474
 20
3.154002
 30
0.000000
  0
VERTEX
  8
LAYER-1
 10
3.725850
 20
3.157627
 30
0.000000
  0
VERTEX
  8
LAYER-1
 10
3.725850
 20
3.160043
 30
0.000000
  0
VERTEX
  8
LAYER-1
 10
3.728267
 20
3.167293
 30
0.000000
  0
VERTEX
  8
LAYER-1
 10
3.731408
 20
3.167293
 30
0.000000
  0
VERTEX
  8
LAYER-1
 10
3.730683
 20
3.161976
 30
0.000000
  0
VERTEX
  8
LAYER-1
 10
3.730926
 20
3.160043
 30
0.000000
  0
VERTEX
  8
LAYER-1
 10
3.732375
 20
3.160043
 30
0.000000
  0
VERTEX
  8
LAYER-1
 10
3.732375
 20
3.147719
 30
0.000000
  0
VERTEX
  8
LAYER-1
 10
3.729716
 20
3.146510
 30
0.000000
  0
VERTEX
  8
LAYER-1
 10
3.729716
 20
3.144093
 30
0.000000
  0
VERTEX
  8
LAYER-1
 10
3.732375
 20
3.143610
 30
0.000000
  0
VERTEX
  8
LAYER-1
 10
3.732375
 20
3.141918
 30
0.000000
  0
SEQEND
  8
LAYER-1
  0
CIRCLE
  8
LAYER-1
 62
  0
 10
3.687703
 20
1.856747
 30
0.000000
 40
0.022565
  0
CIRCLE
  8
LAYER-1
 62
  0
 10
3.687703
 20
1.856747
 30
0.000000
 40
0.016522
  0
CIRCLE
  8
LAYER-1
 62
  0
 10
3.687703
 20
1.856747
 30
0.000000
 40
0.013746
  0
CIRCLE
  8
LAYER-1
 62
  0
 10
3.687703
 20
1.856747
 30
0.000000
 40
0.008860
  0
LINE
  8
LAYER-1
 62
  0
 10
6.728852
 20
7.528551
 30
0.000000
 11
0.739269
 21
7.528551
 31
0.000000
  0
LINE
  8
LAYER-1
 62
  0
 10
6.728852
 20
7.638551
 30
0.000000
 11
0.739269
 21
7.638551
 31
0.000000
  0
LINE
  8
LAYER-1
 62
  0
 10
1.291352
 20
7.526587
 30
0.000000
 11
1.291352
 21
7.636565
 31
0.000000
  0
LINE
  8
LAYER-1
 62
  0
 10
1.231983
 20
7.526587
 30
0.000000
 11
1.416352
 21
7.526587
 31
0.000000
  0
LINE
  8
LAYER-1
 62
  0
 10
1.232324
 20
7.636565
 30
0.000000
 11
1.416352
 21
7.636565
 31
0.000000
  0
LINE
  8
LAYER-1
 62
  0
 10
1.291352
 20
7.636565
 30
0.000000
 11
1.291352
 21
7.271051
 31
0.000000
  0
LINE
  8
LAYER-1
 62
  0
 10
1.261890
 20
7.556050
 30
0.000000
 11
1.320815
 21
7.497124
 31
0.000000
  0
LINE
  8
LAYER-1
 62
  0
 10
1.261890
 20
7.666028
 30
0.000000
 11
1.320815
 21
7.607102
 31
0.000000
  0
TEXT
  8
LAYER-1
 62
  0
 10
1.281291
 20
7.145176
 30
0.000000
 40
0.125000
  1
 
  0
POLYLINE
  8
LAYER-1
 66
  1
 70
  1
 62
  0
  0
VERTEX
  8
LAYER-1
 10
3.752836
 20
7.526547
 30
0.000000
  0
VERTEX
  8
LAYER-1
 10
3.777931
 20
7.526547
 30
0.000000
  0
VERTEX
  8
LAYER-1
 10
3.777931
 20
7.461097
 30
0.000000
  0
VERTEX
  8
LAYER-1
 10
3.752836
 20
7.461097
 30
0.000000
  0
SEQEND
  8
LAYER-1
  0
POLYLINE
  8
LAYER-1
 66
  1
 70
  1
 62
  0
  0
VERTEX
  8
LAYER-1
 10
4.636141
 20
7.526889
 30
0.000000
  0
VERTEX
  8
LAYER-1
 10
4.661237
 20
7.526889
 30
0.000000
  0
VERTEX
  8
LAYER-1
 10
4.661237
 20
7.460970
 30
0.000000
  0
VERTEX
  8
LAYER-1
 10
4.636141
 20
7.460970
 30
0.000000
  0
SEQEND
  8
LAYER-1
  0
POLYLINE
  8
LAYER-1
 66
  1
 70
  1
 62
  0
  0
VERTEX
  8
LAYER-1
 10
5.453112
 20
7.526890
 30
0.000000
  0
VERTEX
  8
LAYER-1
 10
5.478208
 20
7.526890
 30
0.000000
  0
VERTEX
  8
LAYER-1
 10
5.478208
 20
7.460970
 30
0.000000
  0
VERTEX
  8
LAYER-1
 10
5.453112
 20
7.460970
 30
0.000000
  0
SEQEND
  8
LAYER-1
  0
POLYLINE
  8
LAYER-1
 66
  1
 70
  1
 62
  0
  0
VERTEX
  8
LAYER-1
 10
2.797606
 20
7.526594
 30
0.000000
  0
VERTEX
  8
LAYER-1
 10
2.822702
 20
7.526594
 30
0.000000
  0
VERTEX
  8
LAYER-1
 10
2.822702
 20
7.461612
 30
0.000000
  0
VERTEX
  8
LAYER-1
 10
2.797606
 20
7.461612
 30
0.000000
  0
SEQEND
  8
LAYER-1
  0
POLYLINE
  8
LAYER-1
 66
  1
 70
  1
 62
  0
  0
VERTEX
  8
LAYER-1
 10
1.979767
 20
7.526594
 30
0.000000
  0
VERTEX
  8
LAYER-1
 10
2.004863
 20
7.526594
 30
0.000000
  0
VERTEX
  8
LAYER-1
 10
2.004863
 20
7.461612
 30
0.000000
  0
VERTEX
  8
LAYER-1
 10
1.979767
 20
7.461612
 30
0.000000
  0
SEQEND
  8
LAYER-1
  0
POLYLINE
  8
LAYER-1
 66
  1
 70
  0
 62
  0
 10
3.644370
 20
0.238781
 30
0.000000
  0
VERTEX
  8
LAYER-1
 10
3.644370
 20
0.238781
 30
0.000000
  0
VERTEX
  8
LAYER-1
 10
3.657148
 20
0.246346
 30
0.000000
  0
SEQEND
  8
LAYER-1
  0
POLYLINE
  8
LAYER-1
 66
  1
 70
  0
 62
  0
 10
3.644370
 20
0.238781
 30
0.000000
  0
VERTEX
  8
LAYER-1
 10
3.644370
 20
0.238781
 30
0.000000
  0
VERTEX
  8
LAYER-1
 10
3.644370
 20
0.237216
 30
0.000000
  0
SEQEND
  8
LAYER-1
  0
POLYLINE
  8
LAYER-1
 66
  1
 70
  1
 62
  0
  0
VERTEX
  8
LAYER-1
 10
3.662813
 20
0.237202
 30
0.000000
  0
VERTEX
  8
LAYER-1
 10
3.719400
 20
0.237202
 30
0.000000
  0
VERTEX
  8
LAYER-1
 10
3.719400
 20
0.049539
 30
0.000000
  0
VERTEX
  8
LAYER-1
 10
3.662813
 20
0.049539
 30
0.000000
  0
SEQEND
  8
LAYER-1
  0
POLYLINE
  8
LAYER-1
  6
LTYPE01
 66
  1
 70
  1
 62
  0
  0
VERTEX
  8
LAYER-1
  6
LTYPE01
 10
3.667507
 20
0.246328
 30
0.000000
  0
VERTEX
  8
LAYER-1
  6
LTYPE01
 10
3.714447
 20
0.246328
 30
0.000000
  0
VERTEX
  8
LAYER-1
  6
LTYPE01
 10
3.714447
 20
0.059100
 30
0.000000
  0
VERTEX
  8
LAYER-1
  6
LTYPE01
 10
3.667507
 20
0.059100
 30
0.000000
  0
SEQEND
  8
LAYER-1
  0
POLYLINE
  8
LAYER-1
 66
  1
 70
  0
 62
  0
 10
3.644370
 20
0.237216
 30
0.000000
  0
VERTEX
  8
LAYER-1
 10
3.644370
 20
0.237216
 30
0.000000
  0
VERTEX
  8
LAYER-1
 10
3.737987
 20
0.237216
 30
0.000000
  0
SEQEND
  8
LAYER-1
  0
POLYLINE
  8
LAYER-1
 66
  1
 70
  0
 62
  0
 10
3.737987
 20
0.237216
 30
0.000000
  0
VERTEX
  8
LAYER-1
 10
3.737987
 20
0.237216
 30
0.000000
  0
VERTEX
  8
LAYER-1
 10
3.737987
 20
0.238781
 30
0.000000
  0
SEQEND
  8
LAYER-1
  0
POLYLINE
  8
LAYER-1
 66
  1
 70
  0
 62
  0
 10
3.737987
 20
0.238781
 30
0.000000
  0
VERTEX
  8
LAYER-1
 10
3.737987
 20
0.238781
 30
0.000000
  0
VERTEX
  8
LAYER-1
 10
3.724948
 20
0.246346
 30
0.000000
  0
SEQEND
  8
LAYER-1
  0
POLYLINE
  8
LAYER-1
  6
LTYPE02
 66
  1
 70
  0
 62
  0
  6
LTYPE02
 10
3.668752
 20
0.145559
 30
0.000000
  0
VERTEX
  8
LAYER-1
  6
LTYPE02
 10
3.668752
 20
0.145559
 30
0.000000
  0
VERTEX
  8
LAYER-1
  6
LTYPE02
 10
3.668752
 20
0.111660
 30
0.000000
  0
SEQEND
  8
LAYER-1
  0
POLYLINE
  8
LAYER-1
  6
LTYPE02
 66
  1
 70
  0
 62
  0
  6
LTYPE02
 10
3.672660
 20
0.145559
 30
0.000000
  0
VERTEX
  8
LAYER-1
  6
LTYPE02
 10
3.672660
 20
0.145559
 30
0.000000
  0
VERTEX
  8
LAYER-1
  6
LTYPE02
 10
3.668752
 20
0.145559
 30
0.000000
  0
SEQEND
  8
LAYER-1
  0
POLYLINE
  8
LAYER-1
  6
LTYPE02
 66
  1
 70
  0
 62
  0
  6
LTYPE02
 10
3.672660
 20
0.145559
 30
0.000000
  0
VERTEX
  8
LAYER-1
  6
LTYPE02
 10
3.672660
 20
0.145559
 30
0.000000
  0
VERTEX
  8
LAYER-1
  6
LTYPE02
 10
3.672660
 20
0.149991
 30
0.000000
  0
SEQEND
  8
LAYER-1
  0
POLYLINE
  8
LAYER-1
  6
LTYPE02
 66
  1
 70
  0
 62
  0
  6
LTYPE02
 10
3.672660
 20
0.149991
 30
0.000000
  0
VERTEX
  8
LAYER-1
  6
LTYPE02
 10
3.672660
 20
0.149991
 30
0.000000
  0
VERTEX
  8
LAYER-1
  6
LTYPE02
 10
3.709920
 20
0.149991
 30
0.000000
  0
SEQEND
  8
LAYER-1
  0
POLYLINE
  8
LAYER-1
  6
LTYPE02
 66
  1
 70
  0
 62
  0
  6
LTYPE02
 10
3.668752
 20
0.111660
 30
0.000000
  0
VERTEX
  8
LAYER-1
  6
LTYPE02
 10
3.668752
 20
0.111660
 30
0.000000
  0
VERTEX
  8
LAYER-1
  6
LTYPE02
 10
3.713083
 20
0.111660
 30
0.000000
  0
SEQEND
  8
LAYER-1
  0
POLYLINE
  8
LAYER-1
  6
LTYPE02
 66
  1
 70
  0
 62
  0
  6
LTYPE02
 10
3.713083
 20
0.111660
 30
0.000000
  0
VERTEX
  8
LAYER-1
  6
LTYPE02
 10
3.713083
 20
0.111660
 30
0.000000
  0
VERTEX
  8
LAYER-1
  6
LTYPE02
 10
3.713083
 20
0.145559
 30
0.000000
  0
SEQEND
  8
LAYER-1
  0
POLYLINE
  8
LAYER-1
  6
LTYPE02
 66
  1
 70
  0
 62
  0
  6
LTYPE02
 10
3.709920
 20
0.145559
 30
0.000000
  0
VERTEX
  8
LAYER-1
  6
LTYPE02
 10
3.709920
 20
0.145559
 30
0.000000
  0
VERTEX
  8
LAYER-1
  6
LTYPE02
 10
3.713083
 20
0.145559
 30
0.000000
  0
SEQEND
  8
LAYER-1
  0
POLYLINE
  8
LAYER-1
  6
LTYPE02
 66
  1
 70
  0
 62
  0
  6
LTYPE02
 10
3.709920
 20
0.149991
 30
0.000000
  0
VERTEX
  8
LAYER-1
  6
LTYPE02
 10
3.709920
 20
0.149991
 30
0.000000
  0
VERTEX
  8
LAYER-1
  6
LTYPE02
 10
3.709920
 20
0.145559
 30
0.000000
  0
SEQEND
  8
LAYER-1
  0
POLYLINE
  8
LAYER-1
  6
LTYPE01
 66
  1
 70
  1
 62
  0
  0
VERTEX
  8
LAYER-1
  6
LTYPE01
 10
3.673890
 20
0.111513
 30
0.000000
  0
VERTEX
  8
LAYER-1
  6
LTYPE01
 10
3.708311
 20
0.111513
 30
0.000000
  0
VERTEX
  8
LAYER-1
  6
LTYPE01
 10
3.708311
 20
0.059359
 30
0.000000
  0
VERTEX
  8
LAYER-1
  6
LTYPE01
 10
3.673890
 20
0.059359
 30
0.000000
  0
SEQEND
  8
LAYER-1
  0
POLYLINE
  8
LAYER-1
  6
LTYPE02
 66
  1
 70
  0
 62
  0
  6
LTYPE02
 10
3.708311
 20
0.111513
 30
0.000000
  0
VERTEX
  8
LAYER-1
  6
LTYPE02
 10
3.708311
 20
0.111513
 30
0.000000
  0
VERTEX
  8
LAYER-1
  6
LTYPE02
 10
3.673890
 20
0.108645
 30
0.000000
  0
SEQEND
  8
LAYER-1
  0
POLYLINE
  8
LAYER-1
  6
LTYPE02
 66
  1
 70
  0
 62
  0
  6
LTYPE02
 10
3.708311
 20
0.109948
 30
0.000000
  0
VERTEX
  8
LAYER-1
  6
LTYPE02
 10
3.708311
 20
0.109948
 30
0.000000
  0
VERTEX
  8
LAYER-1
  6
LTYPE02
 10
3.673890
 20
0.106820
 30
0.000000
  0
SEQEND
  8
LAYER-1
  0
POLYLINE
  8
LAYER-1
  6
LTYPE02
 66
  1
 70
  0
 62
  0
  6
LTYPE02
 10
3.708311
 20
0.106559
 30
0.000000
  0
VERTEX
  8
LAYER-1
  6
LTYPE02
 10
3.708311
 20
0.106559
 30
0.000000
  0
VERTEX
  8
LAYER-1
  6
LTYPE02
 10
3.673890
 20
0.103689
 30
0.000000
  0
SEQEND
  8
LAYER-1
  0
POLYLINE
  8
LAYER-1
  6
LTYPE02
 66
  1
 70
  0
 62
  0
  6
LTYPE02
 10
3.708311
 20
0.104993
 30
0.000000
  0
VERTEX
  8
LAYER-1
  6
LTYPE02
 10
3.708311
 20
0.104993
 30
0.000000
  0
VERTEX
  8
LAYER-1
  6
LTYPE02
 10
3.673890
 20
0.101865
 30
0.000000
  0
SEQEND
  8
LAYER-1
  0
POLYLINE
  8
LAYER-1
  6
LTYPE02
 66
  1
 70
  0
 62
  0
  6
LTYPE02
 10
3.708311
 20
0.101410
 30
0.000000
  0
VERTEX
  8
LAYER-1
  6
LTYPE02
 10
3.708311
 20
0.101410
 30
0.000000
  0
VERTEX
  8
LAYER-1
  6
LTYPE02
 10
3.673890
 20
0.098540
 30
0.000000
  0
SEQEND
  8
LAYER-1
  0
POLYLINE
  8
LAYER-1
  6
LTYPE02
 66
  1
 70
  0
 62
  0
  6
LTYPE02
 10
3.708311
 20
0.099845
 30
0.000000
  0
VERTEX
  8
LAYER-1
  6
LTYPE02
 10
3.708311
 20
0.099845
 30
0.000000
  0
VERTEX
  8
LAYER-1
  6
LTYPE02
 10
3.673890
 20
0.096716
 30
0.000000
  0
SEQEND
  8
LAYER-1
  0
POLYLINE
  8
LAYER-1
  6
LTYPE02
 66
  1
 70
  0
 62
  0
  6
LTYPE02
 10
3.708246
 20
0.096910
 30
0.000000
  0
VERTEX
  8
LAYER-1
  6
LTYPE02
 10
3.708246
 20
0.096910
 30
0.000000
  0
VERTEX
  8
LAYER-1
  6
LTYPE02
 10
3.673824
 20
0.094042
 30
0.000000
  0
SEQEND
  8
LAYER-1
  0
POLYLINE
  8
LAYER-1
  6
LTYPE02
 66
  1
 70
  0
 62
  0
  6
LTYPE02
 10
3.708246
 20
0.095347
 30
0.000000
  0
VERTEX
  8
LAYER-1
  6
LTYPE02
 10
3.708246
 20
0.095347
 30
0.000000
  0
VERTEX
  8
LAYER-1
  6
LTYPE02
 10
3.673824
 20
0.092218
 30
0.000000
  0
SEQEND
  8
LAYER-1
  0
POLYLINE
  8
LAYER-1
  6
LTYPE02
 66
  1
 70
  0
 62
  0
  6
LTYPE02
 10
3.708246
 20
0.092088
 30
0.000000
  0
VERTEX
  8
LAYER-1
  6
LTYPE02
 10
3.708246
 20
0.092088
 30
0.000000
  0
VERTEX
  8
LAYER-1
  6
LTYPE02
 10
3.673824
 20
0.089220
 30
0.000000
  0
SEQEND
  8
LAYER-1
  0
POLYLINE
  8
LAYER-1
  6
LTYPE02
 66
  1
 70
  0
 62
  0
  6
LTYPE02
 10
3.708246
 20
0.090522
 30
0.000000
  0
VERTEX
  8
LAYER-1
  6
LTYPE02
 10
3.708246
 20
0.090522
 30
0.000000
  0
VERTEX
  8
LAYER-1
  6
LTYPE02
 10
3.673824
 20
0.087392
 30
0.000000
  0
SEQEND
  8
LAYER-1
  0
POLYLINE
  8
LAYER-1
  6
LTYPE02
 66
  1
 70
  0
 62
  0
  6
LTYPE02
 10
3.708246
 20
0.087131
 30
0.000000
  0
VERTEX
  8
LAYER-1
  6
LTYPE02
 10
3.708246
 20
0.087131
 30
0.000000
  0
VERTEX
  8
LAYER-1
  6
LTYPE02
 10
3.673824
 20
0.084262
 30
0.000000
  0
SEQEND
  8
LAYER-1
  0
POLYLINE
  8
LAYER-1
  6
LTYPE02
 66
  1
 70
  0
 62
  0
  6
LTYPE02
 10
3.708246
 20
0.085568
 30
0.000000
  0
VERTEX
  8
LAYER-1
  6
LTYPE02
 10
3.708246
 20
0.085568
 30
0.000000
  0
VERTEX
  8
LAYER-1
  6
LTYPE02
 10
3.673824
 20
0.082437
 30
0.000000
  0
SEQEND
  8
LAYER-1
  0
POLYLINE
  8
LAYER-1
  6
LTYPE02
 66
  1
 70
  0
 62
  0
  6
LTYPE02
 10
3.708246
 20
0.081982
 30
0.000000
  0
VERTEX
  8
LAYER-1
  6
LTYPE02
 10
3.708246
 20
0.081982
 30
0.000000
  0
VERTEX
  8
LAYER-1
  6
LTYPE02
 10
3.673824
 20
0.079113
 30
0.000000
  0
SEQEND
  8
LAYER-1
  0
POLYLINE
  8
LAYER-1
  6
LTYPE02
 66
  1
 70
  0
 62
  0
  6
LTYPE02
 10
3.708246
 20
0.080417
 30
0.000000
  0
VERTEX
  8
LAYER-1
  6
LTYPE02
 10
3.708246
 20
0.080417
 30
0.000000
  0
VERTEX
  8
LAYER-1
  6
LTYPE02
 10
3.673824
 20
0.077288
 30
0.000000
  0
SEQEND
  8
LAYER-1
  0
POLYLINE
  8
LAYER-1
  6
LTYPE02
 66
  1
 70
  0
 62
  0
  6
LTYPE02
 10
3.708181
 20
0.077482
 30
0.000000
  0
VERTEX
  8
LAYER-1
  6
LTYPE02
 10
3.708181
 20
0.077482
 30
0.000000
  0
VERTEX
  8
LAYER-1
  6
LTYPE02
 10
3.673760
 20
0.074615
 30
0.000000
  0
SEQEND
  8
LAYER-1
  0
POLYLINE
  8
LAYER-1
  6
LTYPE02
 66
  1
 70
  0
 62
  0
  6
LTYPE02
 10
3.708181
 20
0.075919
 30
0.000000
  0
VERTEX
  8
LAYER-1
  6
LTYPE02
 10
3.708181
 20
0.075919
 30
0.000000
  0
VERTEX
  8
LAYER-1
  6
LTYPE02
 10
3.673760
 20
0.072790
 30
0.000000
  0
SEQEND
  8
LAYER-1
  0
POLYLINE
  8
LAYER-1
  6
LTYPE02
 66
  1
 70
  0
 62
  0
  6
LTYPE02
 10
3.708311
 20
0.073116
 30
0.000000
  0
VERTEX
  8
LAYER-1
  6
LTYPE02
 10
3.708311
 20
0.073116
 30
0.000000
  0
VERTEX
  8
LAYER-1
  6
LTYPE02
 10
3.673890
 20
0.070248
 30
0.000000
  0
SEQEND
  8
LAYER-1
  0
POLYLINE
  8
LAYER-1
  6
LTYPE02
 66
  1
 70
  0
 62
  0
  6
LTYPE02
 10
3.708311
 20
0.071551
 30
0.000000
  0
VERTEX
  8
LAYER-1
  6
LTYPE02
 10
3.708311
 20
0.071551
 30
0.000000
  0
VERTEX
  8
LAYER-1
  6
LTYPE02
 10
3.673890
 20
0.068422
 30
0.000000
  0
SEQEND
  8
LAYER-1
  0
POLYLINE
  8
LAYER-1
  6
LTYPE02
 66
  1
 70
  0
 62
  0
  6
LTYPE02
 10
3.708311
 20
0.068162
 30
0.000000
  0
VERTEX
  8
LAYER-1
  6
LTYPE02
 10
3.708311
 20
0.068162
 30
0.000000
  0
VERTEX
  8
LAYER-1
  6
LTYPE02
 10
3.673890
 20
0.065294
 30
0.000000
  0
SEQEND
  8
LAYER-1
  0
POLYLINE
  8
LAYER-1
  6
LTYPE02
 66
  1
 70
  0
 62
  0
  6
LTYPE02
 10
3.708311
 20
0.066597
 30
0.000000
  0
VERTEX
  8
LAYER-1
  6
LTYPE02
 10
3.708311
 20
0.066597
 30
0.000000
  0
VERTEX
  8
LAYER-1
  6
LTYPE02
 10
3.673890
 20
0.063467
 30
0.000000
  0
SEQEND
  8
LAYER-1
  0
POLYLINE
  8
LAYER-1
  6
LTYPE02
 66
  1
 70
  0
 62
  0
  6
LTYPE02
 10
3.708311
 20
0.063011
 30
0.000000
  0
VERTEX
  8
LAYER-1
  6
LTYPE02
 10
3.708311
 20
0.063011
 30
0.000000
  0
VERTEX
  8
LAYER-1
  6
LTYPE02
 10
3.673890
 20
0.060142
 30
0.000000
  0
SEQEND
  8
LAYER-1
  0
POLYLINE
  8
LAYER-1
  6
LTYPE02
 66
  1
 70
  0
 62
  0
  6
LTYPE02
 10
3.708311
 20
0.061447
 30
0.000000
  0
VERTEX
  8
LAYER-1
  6
LTYPE02
 10
3.708311
 20
0.061447
 30
0.000000
  0
VERTEX
  8
LAYER-1
  6
LTYPE02
 10
3.685298
 20
0.059359
 30
0.000000
  0
SEQEND
  8
LAYER-1
  0
POLYLINE
  8
LAYER-1
  6
LTYPE02
 66
  1
 70
  0
 62
  0
  6
LTYPE02
 10
3.674881
 20
0.170723
 30
0.000000
  0
VERTEX
  8
LAYER-1
  6
LTYPE02
 10
3.674881
 20
0.170723
 30
0.000000
  0
VERTEX
  8
LAYER-1
  6
LTYPE02
 10
3.674881
 20
0.246346
 30
0.000000
  0
SEQEND
  8
LAYER-1
  0
POLYLINE
  8
LAYER-1
  6
LTYPE02
 66
  1
 70
  0
 62
  0
  6
LTYPE02
 10
3.707215
 20
0.170723
 30
0.000000
  0
VERTEX
  8
LAYER-1
  6
LTYPE02
 10
3.707215
 20
0.170723
 30
0.000000
  0
VERTEX
  8
LAYER-1
  6
LTYPE02
 10
3.707215
 20
0.246346
 30
0.000000
  0
SEQEND
  8
LAYER-1
  0
POLYLINE
  8
LAYER-1
  6
LTYPE01
 66
  1
 70
  0
 62
  0
  6
LTYPE01
 10
3.674881
 20
0.170723
 30
0.000000
  0
VERTEX
  8
LAYER-1
  6
LTYPE01
 10
3.674881
 20
0.170723
 30
0.000000
  0
VERTEX
  8
LAYER-1
  6
LTYPE01
 10
3.677647
 20
0.161259
 30
0.000000
  0
VERTEX
  8
LAYER-1
  6
LTYPE01
 10
3.689080
 20
0.156525
 30
0.000000
  0
VERTEX
  8
LAYER-1
  6
LTYPE01
 10
3.700512
 20
0.161259
 30
0.000000
  0
VERTEX
  8
LAYER-1
  6
LTYPE01
 10
3.707216
 20
0.170723
 30
0.000000
  0
SEQEND
  8
LAYER-1
  0
POLYLINE
  8
LAYER-1
 66
  1
 70
  0
 62
  0
 10
3.657148
 20
0.246346
 30
0.000000
  0
VERTEX
  8
LAYER-1
 10
3.657148
 20
0.246346
 30
0.000000
  0
VERTEX
  8
LAYER-1
 10
3.724948
 20
0.246346
 30
0.000000
  0
SEQEND
  8
LAYER-1
  0
TEXT
  8
LAYER-1
 62
  7
 10
1.930241
 20
8.854385
 30
0.000000
 40
0.187500
  1
Elevation model Concept 1212
 72
  5
 11
5.610797
 21
8.854385
 31
0.000000
  0
TEXT
  8
LAYER-1
 62
  0
 10
1.041352
 20
6.896051
 30
0.000000
 40
0.125000
  1
1-
 72
  5
 11
1.263574
 21
6.896051
 31
0.000000
  0
TEXT
  8
LAYER-1
 62
  0
 10
1.263574
 20
6.896051
 30
0.000000
 40
0.104167
  1
9/16
 72
  5
 11
1.624685
 21
6.896051
 31
0.000000
  0
TEXT
  8
LAYER-1
 62
  0
 10
1.624685
 20
6.896051
 30
0.000000
 40
0.125000
  1
"
 72
  5
 11
1.749685
 21
6.896051
 31
0.000000
  0
TEXT
  8
LAYER-1
 62
  0
 10
1.041352
 20
6.701607
 30
0.000000
 40
0.125000
  1
40mm
 72
  5
 11
1.610797
 21
6.701607
 31
0.000000
  0
TEXT
  8
LAYER-1
 62
  0
 10
2.777463
 20
7.923829
 30
0.000000
 40
0.125000
  1
Intermediate
 72
  5
 11
3.805241
 21
7.923829
 31
0.000000
  0
TEXT
  8
LAYER-1
 62
  0
 10
2.777463
 20
7.729385
 30
0.000000
 40
0.125000
  1
post #3
 72
  5
 11
3.416352
 21
7.729385
 31
0.000000
  0
POLYLINE
  8
LAYER-1
 66
  1
 70
  0
 62
  0
 10
3.478852
 20
7.791885
 30
0.000000
  0
VERTEX
  8
LAYER-1
 10
3.478852
 20
7.791885
 30
0.000000
  0
VERTEX
  8
LAYER-1
 10
3.719929
 20
7.476790
 30
0.000000
  0
SEQEND
  8
LAYER-1
  0
POLYLINE
  8
LAYER-1
 66
  1
 70
  1
 62
  0
  0
VERTEX
  8
LAYER-1
 10
3.731890
 20
7.461155
 30
0.000000
  0
VERTEX
  8
LAYER-1
 10
3.656600
 20
7.490991
 30
0.000000
  0
VERTEX
  8
LAYER-1
 10
3.689692
 20
7.516308
 30
0.000000
  0
VERTEX
  8
LAYER-1
 10
3.722784
 20
7.541628
 30
0.000000
  0
VERTEX
  8
LAYER-1
 10
3.731890
 20
7.461155
 30
0.000000
  0
SEQEND
  8
LAYER-1
  0
LINE
  8
LAYER-1
 62
  0
 10
5.836491
 20
5.545304
 30
0.000000
 11
5.836491
 21
6.367498
 31
0.000000
  0
LINE
  8
LAYER-1
 62
  0
 10
5.752188
 20
5.545304
 30
0.000000
 11
5.961491
 21
5.545304
 31
0.000000
  0
LINE
  8
LAYER-1
 62
  0
 10
5.752291
 20
6.367498
 30
0.000000
 11
5.961491
 21
6.367498
 31
0.000000
  0
LINE
  8
LAYER-1
 62
  0
 10
5.836491
 20
6.149523
 30
0.000000
 11
5.836491
 21
5.545304
 31
0.000000
  0
LINE
  8
LAYER-1
 62
  0
 10
5.807028
 20
5.574766
 30
0.000000
 11
5.865953
 21
5.515841
 31
0.000000
  0
LINE
  8
LAYER-1
 62
  0
 10
5.807028
 20
6.396961
 30
0.000000
 11
5.865953
 21
6.338035
 31
0.000000
  0
TEXT
  8
LAYER-1
 62
  0
 10
5.992850
 20
5.905676
 30
0.000000
 40
0.125000
  1
     
 50
90.000000
  0
TEXT
  8
LAYER-1
 62
  0
 10
6.124685
 20
6.007162
 30
0.000000
 40
0.125000
  1
12"
 72
  5
 11
6.444130
 21
6.007162
 31
0.000000
  0
TEXT
  8
LAYER-1
 62
  0
 10
5.944130
 20
5.812718
 30
0.000000
 40
0.125000
  1
305mm
 72
  5
 11
6.610797
 21
5.812718
 31
0.000000
  0
TEXT
  8
LAYER-1
 62
  0
 10
1.055241
 20
7.118273
 30
0.000000
 40
0.125000
  1
Track
 72
  5
 11
1.541352
 21
7.118273
 31
0.000000
  0
POLYLINE
  8
LAYER-1
 66
  1
 70
  1
 62
  0
  0
VERTEX
  8
LAYER-1
 10
3.816532
 20
7.189803
 30
0.000000
  0
VERTEX
  8
LAYER-1
 10
3.852483
 20
7.189803
 30
0.000000
  0
VERTEX
  8
LAYER-1
 10
3.852483
 20
0.606118
 30
0.000000
  0
VERTEX
  8
LAYER-1
 10
3.816532
 20
0.606118
 30
0.000000
  0
SEQEND
  8
LAYER-1
  0
POLYLINE
  8
LAYER-1
 66
  1
 70
  1
 62
  0
  0
VERTEX
  8
LAYER-1
 10
4.224796
 20
7.189803
 30
0.000000
  0
VERTEX
  8
LAYER-1
 10
4.260747
 20
7.189803
 30
0.000000
  0
VERTEX
  8
LAYER-1
 10
4.260747
 20
0.606118
 30
0.000000
  0
VERTEX
  8
LAYER-1
 10
4.224796
 20
0.606118
 30
0.000000
  0
SEQEND
  8
LAYER-1
  0
POLYLINE
  8
LAYER-1
 66
  1
 70
  1
 62
  0
  0
VERTEX
  8
LAYER-1
 10
4.631324
 20
7.189803
 30
0.000000
  0
VERTEX
  8
LAYER-1
 10
4.667275
 20
7.189803
 30
0.000000
  0
VERTEX
  8
LAYER-1
 10
4.667275
 20
0.606118
 30
0.000000
  0
VERTEX
  8
LAYER-1
 10
4.631324
 20
0.606118
 30
0.000000
  0
SEQEND
  8
LAYER-1
  0
POLYLINE
  8
LAYER-1
 66
  1
 70
  1
 62
  0
  0
VERTEX
  8
LAYER-1
 10
5.039589
 20
7.189803
 30
0.000000
  0
VERTEX
  8
LAYER-1
 10
5.075539
 20
7.189803
 30
0.000000
  0
VERTEX
  8
LAYER-1
 10
5.075539
 20
0.606118
 30
0.000000
  0
VERTEX
  8
LAYER-1
 10
5.039589
 20
0.606118
 30
0.000000
  0
SEQEND
  8
LAYER-1
  0
POLYLINE
  8
LAYER-1
 66
  1
 70
  1
 62
  0
  0
VERTEX
  8
LAYER-1
 10
5.449155
 20
7.189803
 30
0.000000
  0
VERTEX
  8
LAYER-1
 10
5.485105
 20
7.189803
 30
0.000000
  0
VERTEX
  8
LAYER-1
 10
5.485105
 20
0.606118
 30
0.000000
  0
VERTEX
  8
LAYER-1
 10
5.449155
 20
0.606118
 30
0.000000
  0
SEQEND
  8
LAYER-1
  0
POLYLINE
  8
LAYER-1
 66
  1
 70
  1
 62
  0
 10
3.813966
 20
0.341392
 30
0.000000
  0
VERTEX
  8
LAYER-1
 10
3.813966
 20
0.341392
 30
0.000000
  0
VERTEX
  8
LAYER-1
 10
5.709883
 20
0.341493
 30
0.000000
  0
VERTEX
  8
LAYER-1
 10
5.709883
 20
0.613026
 30
0.000000
  0
VERTEX
  8
LAYER-1
 10
3.813966
 20
0.613143
 30
0.000000
  0
SEQEND
  8
LAYER-1
  0
POLYLINE
  8
LAYER-1
 66
  1
 70
  0
 62
  0
 10
3.813747
 20
0.409299
 30
0.000000
  0
VERTEX
  8
LAYER-1
 10
3.813747
 20
0.409299
 30
0.000000
  0
VERTEX
  8
LAYER-1
 10
3.853473
 20
0.409299
 30
0.000000
  0
SEQEND
  8
LAYER-1
  0
POLYLINE
  8
LAYER-1
 66
  1
 70
  0
 62
  0
 10
3.813747
 20
0.539209
 30
0.000000
  0
VERTEX
  8
LAYER-1
 10
3.813747
 20
0.539209
 30
0.000000
  0
VERTEX
  8
LAYER-1
 10
3.853473
 20
0.539209
 30
0.000000
  0
SEQEND
  8
LAYER-1
  0
POLYLINE
  8
LAYER-1
 66
  1
 70
  0
 62
  0
 10
3.815199
 20
0.336245
 30
0.000000
  0
VERTEX
  8
LAYER-1
 10
3.815199
 20
0.336245
 30
0.000000
  0
VERTEX
  8
LAYER-1
 10
3.828370
 20
0.329201
 30
0.000000
  0
VERTEX
  8
LAYER-1
 10
3.845449
 20
0.333533
 30
0.000000
  0
VERTEX
  8
LAYER-1
 10
3.852102
 20
0.336248
 30
0.000000
  0
SEQEND
  8
LAYER-1
  0
POLYLINE
  8
LAYER-1
 66
  1
 70
  1
 62
  0
  0
VERTEX
  8
LAYER-1
 10
3.862611
 20
0.335625
 30
0.000000
  0
VERTEX
  8
LAYER-1
 10
3.807996
 20
0.335625
 30
0.000000
  0
VERTEX
  8
LAYER-1
 10
3.807996
 20
0.341530
 30
0.000000
  0
VERTEX
  8
LAYER-1
 10
3.862611
 20
0.341530
 30
0.000000
  0
SEQEND
  8
LAYER-1
  0
POLYLINE
  8
LAYER-1
 66
  1
 70
  1
 62
  0
 10
3.814172
 20
7.461434
 30
0.000000
  0
VERTEX
  8
LAYER-1
 10
3.814172
 20
7.461434
 30
0.000000
  0
VERTEX
  8
LAYER-1
 10
5.710524
 20
7.461334
 30
0.000000
  0
VERTEX
  8
LAYER-1
 10
5.710524
 20
7.189801
 30
0.000000
  0
VERTEX
  8
LAYER-1
 10
3.814172
 20
7.189684
 30
0.000000
  0
SEQEND
  8
LAYER-1
  0
POLYLINE
  8
LAYER-1
 66
  1
 70
  0
 62
  0
 10
4.075461
 20
7.461434
 30
0.000000
  0
VERTEX
  8
LAYER-1
 10
4.075461
 20
7.461434
 30
0.000000
  0
VERTEX
  8
LAYER-1
 10
4.075461
 20
7.189802
 30
0.000000
  0
SEQEND
  8
LAYER-1
  0
POLYLINE
  8
LAYER-1
 66
  1
 70
  0
 62
  0
 10
4.405958
 20
7.189802
 30
0.000000
  0
VERTEX
  8
LAYER-1
 10
4.405958
 20
7.189802
 30
0.000000
  0
VERTEX
  8
LAYER-1
 10
4.405958
 20
7.461434
 30
0.000000
  0
SEQEND
  8
LAYER-1
  0
POLYLINE
  8
LAYER-1
 66
  1
 70
  0
 62
  0
 10
5.218790
 20
7.189802
 30
0.000000
  0
VERTEX
  8
LAYER-1
 10
5.218790
 20
7.189802
 30
0.000000
  0
VERTEX
  8
LAYER-1
 10
5.218790
 20
7.461434
 30
0.000000
  0
SEQEND
  8
LAYER-1
  0
POLYLINE
  8
LAYER-1
 66
  1
 70
  0
 62
  0
 10
5.037622
 20
7.461473
 30
0.000000
  0
VERTEX
  8
LAYER-1
 10
5.037622
 20
7.461473
 30
0.000000
  0
VERTEX
  8
LAYER-1
 10
5.037622
 20
7.189845
 30
0.000000
  0
SEQEND
  8
LAYER-1
  0
POLYLINE
  8
LAYER-1
 66
  1
 70
  0
 62
  0
 10
5.077481
 20
7.461473
 30
0.000000
  0
VERTEX
  8
LAYER-1
 10
5.077481
 20
7.461473
 30
0.000000
  0
VERTEX
  8
LAYER-1
 10
5.077481
 20
7.189845
 30
0.000000
  0
SEQEND
  8
LAYER-1
  0
POLYLINE
  8
LAYER-1
 66
  1
 70
  0
 62
  0
 10
4.223604
 20
7.461473
 30
0.000000
  0
VERTEX
  8
LAYER-1
 10
4.223604
 20
7.461473
 30
0.000000
  0
VERTEX
  8
LAYER-1
 10
4.223604
 20
7.189845
 30
0.000000
  0
SEQEND
  8
LAYER-1
  0
POLYLINE
  8
LAYER-1
 66
  1
 70
  0
 62
  0
 10
4.262421
 20
7.461473
 30
0.000000
  0
VERTEX
  8
LAYER-1
 10
4.262421
 20
7.461473
 30
0.000000
  0
VERTEX
  8
LAYER-1
 10
4.262421
 20
7.189845
 30
0.000000
  0
SEQEND
  8
LAYER-1
  0
POLYLINE
  8
LAYER-1
 66
  1
 70
  0
 62
  0
 10
4.490280
 20
7.461434
 30
0.000000
  0
VERTEX
  8
LAYER-1
 10
4.490280
 20
7.461434
 30
0.000000
  0
VERTEX
  8
LAYER-1
 10
4.490280
 20
7.189802
 30
0.000000
  0
SEQEND
  8
LAYER-1
  0
POLYLINE
  8
LAYER-1
 66
  1
 70
  0
 62
  0
 10
5.303112
 20
7.461434
 30
0.000000
  0
VERTEX
  8
LAYER-1
 10
5.303112
 20
7.461434
 30
0.000000
  0
VERTEX
  8
LAYER-1
 10
5.303112
 20
7.189802
 30
0.000000
  0
SEQEND
  8
LAYER-1
  0
POLYLINE
  8
LAYER-1
 66
  1
 70
  0
 62
  0
 10
5.448016
 20
7.461039
 30
0.000000
  0
VERTEX
  8
LAYER-1
 10
5.448016
 20
7.461039
 30
0.000000
  0
VERTEX
  8
LAYER-1
 10
5.448016
 20
7.189411
 30
0.000000
  0
SEQEND
  8
LAYER-1
  0
POLYLINE
  8
LAYER-1
 66
  1
 70
  0
 62
  0
 10
5.486398
 20
7.461039
 30
0.000000
  0
VERTEX
  8
LAYER-1
 10
5.486398
 20
7.461039
 30
0.000000
  0
VERTEX
  8
LAYER-1
 10
5.486398
 20
7.189411
 30
0.000000
  0
SEQEND
  8
LAYER-1
  0
POLYLINE
  8
LAYER-1
 66
  1
 70
  0
 62
  0
 10
4.630178
 20
7.461509
 30
0.000000
  0
VERTEX
  8
LAYER-1
 10
4.630178
 20
7.461509
 30
0.000000
  0
VERTEX
  8
LAYER-1
 10
4.630178
 20
7.189880
 30
0.000000
  0
SEQEND
  8
LAYER-1
  0
POLYLINE
  8
LAYER-1
 66
  1
 70
  0
 62
  0
 10
4.668561
 20
7.461509
 30
0.000000
  0
VERTEX
  8
LAYER-1
 10
4.668561
 20
7.461509
 30
0.000000
  0
VERTEX
  8
LAYER-1
 10
4.668561
 20
7.189880
 30
0.000000
  0
SEQEND
  8
LAYER-1
  0
POLYLINE
  8
LAYER-1
 66
  1
 70
  0
 62
  0
 10
4.003128
 20
7.189806
 30
0.000000
  0
VERTEX
  8
LAYER-1
 10
4.003128
 20
7.189806
 30
0.000000
  0
VERTEX
  8
LAYER-1
 10
4.003128
 20
7.461434
 30
0.000000
  0
SEQEND
  8
LAYER-1
  0
POLYLINE
  8
LAYER-1
 66
  1
 70
  0
 62
  0
 10
4.038558
 20
7.461434
 30
0.000000
  0
VERTEX
  8
LAYER-1
 10
4.038558
 20
7.461434
 30
0.000000
  0
VERTEX
  8
LAYER-1
 10
4.038558
 20
7.189804
 30
0.000000
  0
SEQEND
  8
LAYER-1
  0
POLYLINE
  8
LAYER-1
 66
  1
 70
  0
 62
  0
 10
4.037587
 20
7.461446
 30
0.000000
  0
VERTEX
  8
LAYER-1
 10
4.037587
 20
7.461446
 30
0.000000
  0
VERTEX
  8
LAYER-1
 10
4.023705
 20
7.472377
 30
0.000000
  0
VERTEX
  8
LAYER-1
 10
4.008943
 20
7.470288
 30
0.000000
  0
VERTEX
  8
LAYER-1
 10
4.004032
 20
7.461435
 30
0.000000
  0
SEQEND
  8
LAYER-1
  0
POLYLINE
  8
LAYER-1
 66
  1
 70
  0
 62
  0
 10
4.075460
 20
7.461434
 30
0.000000
  0
VERTEX
  8
LAYER-1
 10
4.075460
 20
7.461434
 30
0.000000
  0
VERTEX
  8
LAYER-1
 10
4.058354
 20
7.472418
 30
0.000000
  0
VERTEX
  8
LAYER-1
 10
4.041273
 20
7.468087
 30
0.000000
  0
VERTEX
  8
LAYER-1
 10
4.038558
 20
7.461435
 30
0.000000
  0
SEQEND
  8
LAYER-1
  0
POLYLINE
  8
LAYER-1
 66
  1
 70
  0
 62
  0
 10
4.491020
 20
7.460941
 30
0.000000
  0
VERTEX
  8
LAYER-1
 10
4.491020
 20
7.460941
 30
0.000000
  0
VERTEX
  8
LAYER-1
 10
4.471516
 20
7.470934
 30
0.000000
  0
VERTEX
  8
LAYER-1
 10
4.453442
 20
7.464208
 30
0.000000
  0
VERTEX
  8
LAYER-1
 10
4.454113
 20
7.460941
 30
0.000000
  0
SEQEND
  8
LAYER-1
  0
POLYLINE
  8
LAYER-1
 66
  1
 70
  0
 62
  0
 10
5.303978
 20
7.461411
 30
0.000000
  0
VERTEX
  8
LAYER-1
 10
5.303978
 20
7.461411
 30
0.000000
  0
VERTEX
  8
LAYER-1
 10
5.284474
 20
7.471403
 30
0.000000
  0
VERTEX
  8
LAYER-1
 10
5.266400
 20
7.464678
 30
0.000000
  0
VERTEX
  8
LAYER-1
 10
5.267070
 20
7.461411
 30
0.000000
  0
SEQEND
  8
LAYER-1
  0
POLYLINE
  8
LAYER-1
 66
  1
 70
  0
 62
  0
 10
4.443311
 20
7.460941
 30
0.000000
  0
VERTEX
  8
LAYER-1
 10
4.443311
 20
7.460941
 30
0.000000
  0
VERTEX
  8
LAYER-1
 10
4.423807
 20
7.470934
 30
0.000000
  0
VERTEX
  8
LAYER-1
 10
4.405733
 20
7.464208
 30
0.000000
  0
VERTEX
  8
LAYER-1
 10
4.406403
 20
7.460942
 30
0.000000
  0
SEQEND
  8
LAYER-1
  0
POLYLINE
  8
LAYER-1
 66
  1
 70
  0
 62
  0
 10
4.463774
 20
7.461500
 30
0.000000
  0
VERTEX
  8
LAYER-1
 10
4.463774
 20
7.461500
 30
0.000000
  0
VERTEX
  8
LAYER-1
 10
4.453022
 20
7.474506
 30
0.000000
  0
VERTEX
  8
LAYER-1
 10
4.439007
 20
7.476100
 30
0.000000
  0
VERTEX
  8
LAYER-1
 10
4.427970
 20
7.467316
 30
0.000000
  0
VERTEX
  8
LAYER-1
 10
4.428345
 20
7.461500
 30
0.000000
  0
SEQEND
  8
LAYER-1
  0
POLYLINE
  8
LAYER-1
 66
  1
 70
  0
 62
  0
 10
4.428346
 20
7.461500
 30
0.000000
  0
VERTEX
  8
LAYER-1
 10
4.428346
 20
7.461500
 30
0.000000
  0
VERTEX
  8
LAYER-1
 10
4.463774
 20
7.461500
 30
0.000000
  0
SEQEND
  8
LAYER-1
  0
POLYLINE
  8
LAYER-1
 66
  1
 70
  0
 62
  0
 10
5.255328
 20
7.461411
 30
0.000000
  0
VERTEX
  8
LAYER-1
 10
5.255328
 20
7.461411
 30
0.000000
  0
VERTEX
  8
LAYER-1
 10
5.235823
 20
7.471403
 30
0.000000
  0
VERTEX
  8
LAYER-1
 10
5.217750
 20
7.464678
 30
0.000000
  0
VERTEX
  8
LAYER-1
 10
5.218420
 20
7.461411
 30
0.000000
  0
SEQEND
  8
LAYER-1
  0
POLYLINE
  8
LAYER-1
 66
  1
 70
  0
 62
  0
 10
5.280022
 20
7.461500
 30
0.000000
  0
VERTEX
  8
LAYER-1
 10
5.280022
 20
7.461500
 30
0.000000
  0
VERTEX
  8
LAYER-1
 10
5.269269
 20
7.474506
 30
0.000000
  0
VERTEX
  8
LAYER-1
 10
5.255254
 20
7.476100
 30
0.000000
  0
VERTEX
  8
LAYER-1
 10
5.244217
 20
7.467316
 30
0.000000
  0
VERTEX
  8
LAYER-1
 10
5.244592
 20
7.461500
 30
0.000000
  0
SEQEND
  8
LAYER-1
  0
POLYLINE
  8
LAYER-1
 66
  1
 70
  0
 62
  0
 10
5.244593
 20
7.461500
 30
0.000000
  0
VERTEX
  8
LAYER-1
 10
5.244593
 20
7.461500
 30
0.000000
  0
VERTEX
  8
LAYER-1
 10
5.280021
 20
7.461500
 30
0.000000
  0
SEQEND
  8
LAYER-1
  0
POLYLINE
  8
LAYER-1
 66
  1
 70
  0
 62
  0
 10
4.004062
 20
7.189779
 30
0.000000
  0
VERTEX
  8
LAYER-1
 10
4.004062
 20
7.189779
 30
0.000000
  0
VERTEX
  8
LAYER-1
 10
4.014002
 20
7.182778
 30
0.000000
  0
VERTEX
  8
LAYER-1
 10
4.028765
 20
7.184856
 30
0.000000
  0
VERTEX
  8
LAYER-1
 10
4.037281
 20
7.189218
 30
0.000000
  0
SEQEND
  8
LAYER-1
  0
POLYLINE
  8
LAYER-1
 66
  1
 70
  0
 62
  0
 10
4.037281
 20
7.189218
 30
0.000000
  0
VERTEX
  8
LAYER-1
 10
4.037281
 20
7.189218
 30
0.000000
  0
VERTEX
  8
LAYER-1
 10
4.004062
 20
7.189779
 30
0.000000
  0
SEQEND
  8
LAYER-1
  0
POLYLINE
  8
LAYER-1
 66
  1
 70
  0
 62
  0
 10
4.039490
 20
7.189779
 30
0.000000
  0
VERTEX
  8
LAYER-1
 10
4.039490
 20
7.189779
 30
0.000000
  0
VERTEX
  8
LAYER-1
 10
4.052661
 20
7.182732
 30
0.000000
  0
VERTEX
  8
LAYER-1
 10
4.069742
 20
7.187064
 30
0.000000
  0
VERTEX
  8
LAYER-1
 10
4.076394
 20
7.189779
 30
0.000000
  0
SEQEND
  8
LAYER-1
  0
POLYLINE
  8
LAYER-1
 66
  1
 70
  0
 62
  0
 10
4.076393
 20
7.189779
 30
0.000000
  0
VERTEX
  8
LAYER-1
 10
4.076393
 20
7.189779
 30
0.000000
  0
VERTEX
  8
LAYER-1
 10
4.039491
 20
7.189779
 30
0.000000
  0
SEQEND
  8
LAYER-1
  0
POLYLINE
  8
LAYER-1
 66
  1
 70
  0
 62
  0
 10
4.406329
 20
7.189333
 30
0.000000
  0
VERTEX
  8
LAYER-1
 10
4.406329
 20
7.189333
 30
0.000000
  0
VERTEX
  8
LAYER-1
 10
4.421896
 20
7.183278
 30
0.000000
  0
VERTEX
  8
LAYER-1
 10
4.439970
 20
7.190003
 30
0.000000
  0
VERTEX
  8
LAYER-1
 10
4.443236
 20
7.189333
 30
0.000000
  0
SEQEND
  8
LAYER-1
  0
POLYLINE
  8
LAYER-1
 66
  1
 70
  0
 62
  0
 10
4.453569
 20
7.189333
 30
0.000000
  0
VERTEX
  8
LAYER-1
 10
4.453569
 20
7.189333
 30
0.000000
  0
VERTEX
  8
LAYER-1
 10
4.469137
 20
7.183278
 30
0.000000
  0
VERTEX
  8
LAYER-1
 10
4.487210
 20
7.190003
 30
0.000000
  0
VERTEX
  8
LAYER-1
 10
4.490477
 20
7.189333
 30
0.000000
  0
SEQEND
  8
LAYER-1
  0
POLYLINE
  8
LAYER-1
 66
  1
 70
  0
 62
  0
 10
4.427803
 20
7.189243
 30
0.000000
  0
VERTEX
  8
LAYER-1
 10
4.427803
 20
7.189243
 30
0.000000
  0
VERTEX
  8
LAYER-1
 10
4.434618
 20
7.180175
 30
0.000000
  0
VERTEX
  8
LAYER-1
 10
4.448633
 20
7.178582
 30
0.000000
  0
VERTEX
  8
LAYER-1
 10
4.459669
 20
7.187364
 30
0.000000
  0
VERTEX
  8
LAYER-1
 10
4.463232
 20
7.189243
 30
0.000000
  0
SEQEND
  8
LAYER-1
  0
POLYLINE
  8
LAYER-1
 66
  1
 70
  0
 62
  0
 10
4.427803
 20
7.189243
 30
0.000000
  0
VERTEX
  8
LAYER-1
 10
4.427803
 20
7.189243
 30
0.000000
  0
VERTEX
  8
LAYER-1
 10
4.463232
 20
7.189243
 30
0.000000
  0
SEQEND
  8
LAYER-1
  0
POLYLINE
  8
LAYER-1
 66
  1
 70
  0
 62
  0
 10
5.218884
 20
7.189333
 30
0.000000
  0
VERTEX
  8
LAYER-1
 10
5.218884
 20
7.189333
 30
0.000000
  0
VERTEX
  8
LAYER-1
 10
5.234451
 20
7.183278
 30
0.000000
  0
VERTEX
  8
LAYER-1
 10
5.252524
 20
7.190003
 30
0.000000
  0
VERTEX
  8
LAYER-1
 10
5.255792
 20
7.189333
 30
0.000000
  0
SEQEND
  8
LAYER-1
  0
POLYLINE
  8
LAYER-1
 66
  1
 70
  0
 62
  0
 10
5.267063
 20
7.189333
 30
0.000000
  0
VERTEX
  8
LAYER-1
 10
5.267063
 20
7.189333
 30
0.000000
  0
VERTEX
  8
LAYER-1
 10
5.282630
 20
7.183278
 30
0.000000
  0
VERTEX
  8
LAYER-1
 10
5.300704
 20
7.190003
 30
0.000000
  0
VERTEX
  8
LAYER-1
 10
5.303971
 20
7.189333
 30
0.000000
  0
SEQEND
  8
LAYER-1
  0
POLYLINE
  8
LAYER-1
 66
  1
 70
  0
 62
  0
 10
5.244586
 20
7.189243
 30
0.000000
  0
VERTEX
  8
LAYER-1
 10
5.244586
 20
7.189243
 30
0.000000
  0
VERTEX
  8
LAYER-1
 10
5.251401
 20
7.180175
 30
0.000000
  0
VERTEX
  8
LAYER-1
 10
5.265416
 20
7.178582
 30
0.000000
  0
VERTEX
  8
LAYER-1
 10
5.276453
 20
7.187364
 30
0.000000
  0
VERTEX
  8
LAYER-1
 10
5.280015
 20
7.189243
 30
0.000000
  0
SEQEND
  8
LAYER-1
  0
POLYLINE
  8
LAYER-1
 66
  1
 70
  0
 62
  0
 10
5.244587
 20
7.189243
 30
0.000000
  0
VERTEX
  8
LAYER-1
 10
5.244587
 20
7.189243
 30
0.000000
  0
VERTEX
  8
LAYER-1
 10
5.280015
 20
7.189243
 30
0.000000
  0
SEQEND
  8
LAYER-1
  0
POLYLINE
  8
LAYER-1
 66
  1
 70
  1
 62
  0
  0
VERTEX
  8
LAYER-1
 10
4.428346
 20
7.461434
 30
0.000000
  0
VERTEX
  8
LAYER-1
 10
4.463776
 20
7.461434
 30
0.000000
  0
VERTEX
  8
LAYER-1
 10
4.463776
 20
7.189805
 30
0.000000
  0
VERTEX
  8
LAYER-1
 10
4.428346
 20
7.189805
 30
0.000000
  0
SEQEND
  8
LAYER-1
  0
POLYLINE
  8
LAYER-1
 66
  1
 70
  1
 62
  0
  0
VERTEX
  8
LAYER-1
 10
5.244659
 20
7.461434
 30
0.000000
  0
VERTEX
  8
LAYER-1
 10
5.280089
 20
7.461434
 30
0.000000
  0
VERTEX
  8
LAYER-1
 10
5.280089
 20
7.189805
 30
0.000000
  0
VERTEX
  8
LAYER-1
 10
5.244659
 20
7.189805
 30
0.000000
  0
SEQEND
  8
LAYER-1
  0
POLYLINE
  8
LAYER-1
 66
  1
 70
  0
 62
  0
 10
4.428346
 20
7.393527
 30
0.000000
  0
VERTEX
  8
LAYER-1
 10
4.428346
 20
7.393527
 30
0.000000
  0
VERTEX
  8
LAYER-1
 10
4.463776
 20
7.393527
 30
0.000000
  0
SEQEND
  8
LAYER-1
  0
POLYLINE
  8
LAYER-1
 66
  1
 70
  0
 62
  0
 10
4.428346
 20
7.263618
 30
0.000000
  0
VERTEX
  8
LAYER-1
 10
4.428346
 20
7.263618
 30
0.000000
  0
VERTEX
  8
LAYER-1
 10
4.463776
 20
7.263618
 30
0.000000
  0
SEQEND
  8
LAYER-1
  0
POLYLINE
  8
LAYER-1
 66
  1
 70
  0
 62
  0
 10
5.244659
 20
7.393527
 30
0.000000
  0
VERTEX
  8
LAYER-1
 10
5.244659
 20
7.393527
 30
0.000000
  0
VERTEX
  8
LAYER-1
 10
5.280088
 20
7.393527
 30
0.000000
  0
SEQEND
  8
LAYER-1
  0
POLYLINE
  8
LAYER-1
 66
  1
 70
  0
 62
  0
 10
5.244659
 20
7.263618
 30
0.000000
  0
VERTEX
  8
LAYER-1
 10
5.244659
 20
7.263618
 30
0.000000
  0
VERTEX
  8
LAYER-1
 10
5.280088
 20
7.263618
 30
0.000000
  0
SEQEND
  8
LAYER-1
  0
POLYLINE
  8
LAYER-1
 66
  1
 70
  0
 62
  0
 10
4.259233
 20
7.461551
 30
0.000000
  0
VERTEX
  8
LAYER-1
 10
4.259233
 20
7.461551
 30
0.000000
  0
VERTEX
  8
LAYER-1
 10
4.245060
 20
7.472082
 30
0.000000
  0
VERTEX
  8
LAYER-1
 10
4.230376
 20
7.469508
 30
0.000000
  0
VERTEX
  8
LAYER-1
 10
4.226014
 20
7.460991
 30
0.000000
  0
SEQEND
  8
LAYER-1
  0
POLYLINE
  8
LAYER-1
 66
  1
 70
  0
 62
  0
 10
5.076411
 20
7.461372
 30
0.000000
  0
VERTEX
  8
LAYER-1
 10
5.076411
 20
7.461372
 30
0.000000
  0
VERTEX
  8
LAYER-1
 10
5.059303
 20
7.472356
 30
0.000000
  0
VERTEX
  8
LAYER-1
 10
5.042223
 20
7.468025
 30
0.000000
  0
VERTEX
  8
LAYER-1
 10
5.039508
 20
7.461373
 30
0.000000
  0
SEQEND
  8
LAYER-1
  0
POLYLINE
  8
LAYER-1
 66
  1
 70
  0
 62
  0
 10
4.819092
 20
7.189776
 30
0.000000
  0
VERTEX
  8
LAYER-1
 10
4.819092
 20
7.189776
 30
0.000000
  0
VERTEX
  8
LAYER-1
 10
4.829032
 20
7.182776
 30
0.000000
  0
VERTEX
  8
LAYER-1
 10
4.843795
 20
7.184853
 30
0.000000
  0
VERTEX
  8
LAYER-1
 10
4.852311
 20
7.189216
 30
0.000000
  0
SEQEND
  8
LAYER-1
  0
POLYLINE
  8
LAYER-1
 66
  1
 70
  0
 62
  0
 10
4.852311
 20
7.189216
 30
0.000000
  0
VERTEX
  8
LAYER-1
 10
4.852311
 20
7.189216
 30
0.000000
  0
VERTEX
  8
LAYER-1
 10
4.819092
 20
7.189776
 30
0.000000
  0
SEQEND
  8
LAYER-1
  0
POLYLINE
  8
LAYER-1
 66
  1
 70
  0
 62
  0
 10
4.854521
 20
7.189776
 30
0.000000
  0
VERTEX
  8
LAYER-1
 10
4.854521
 20
7.189776
 30
0.000000
  0
VERTEX
  8
LAYER-1
 10
4.867692
 20
7.182731
 30
0.000000
  0
VERTEX
  8
LAYER-1
 10
4.884772
 20
7.187062
 30
0.000000
  0
VERTEX
  8
LAYER-1
 10
4.891424
 20
7.189777
 30
0.000000
  0
SEQEND
  8
LAYER-1
  0
POLYLINE
  8
LAYER-1
 66
  1
 70
  0
 62
  0
 10
4.891424
 20
7.189777
 30
0.000000
  0
VERTEX
  8
LAYER-1
 10
4.891424
 20
7.189777
 30
0.000000
  0
VERTEX
  8
LAYER-1
 10
4.854521
 20
7.189776
 30
0.000000
  0
SEQEND
  8
LAYER-1
  0
POLYLINE
  8
LAYER-1
 66
  1
 70
  0
 62
  0
 10
4.890253
 20
7.461434
 30
0.000000
  0
VERTEX
  8
LAYER-1
 10
4.890253
 20
7.461434
 30
0.000000
  0
VERTEX
  8
LAYER-1
 10
4.890253
 20
7.189802
 30
0.000000
  0
SEQEND
  8
LAYER-1
  0
POLYLINE
  8
LAYER-1
 66
  1
 70
  0
 62
  0
 10
4.817919
 20
7.189806
 30
0.000000
  0
VERTEX
  8
LAYER-1
 10
4.817919
 20
7.189806
 30
0.000000
  0
VERTEX
  8
LAYER-1
 10
4.817919
 20
7.461434
 30
0.000000
  0
SEQEND
  8
LAYER-1
  0
POLYLINE
  8
LAYER-1
 66
  1
 70
  0
 62
  0
 10
4.853349
 20
7.461434
 30
0.000000
  0
VERTEX
  8
LAYER-1
 10
4.853349
 20
7.461434
 30
0.000000
  0
VERTEX
  8
LAYER-1
 10
4.853349
 20
7.189804
 30
0.000000
  0
SEQEND
  8
LAYER-1
  0
POLYLINE
  8
LAYER-1
 66
  1
 70
  0
 62
  0
 10
4.851443
 20
7.461853
 30
0.000000
  0
VERTEX
  8
LAYER-1
 10
4.851443
 20
7.461853
 30
0.000000
  0
VERTEX
  8
LAYER-1
 10
4.837271
 20
7.472385
 30
0.000000
  0
VERTEX
  8
LAYER-1
 10
4.822586
 20
7.469810
 30
0.000000
  0
VERTEX
  8
LAYER-1
 10
4.818224
 20
7.461294
 30
0.000000
  0
SEQEND
  8
LAYER-1
  0
POLYLINE
  8
LAYER-1
 66
  1
 70
  0
 62
  0
 10
4.851443
 20
7.461853
 30
0.000000
  0
VERTEX
  8
LAYER-1
 10
4.851443
 20
7.461853
 30
0.000000
  0
VERTEX
  8
LAYER-1
 10
4.818224
 20
7.461294
 30
0.000000
  0
SEQEND
  8
LAYER-1
  0
POLYLINE
  8
LAYER-1
 66
  1
 70
  0
 62
  0
 10
4.890555
 20
7.461292
 30
0.000000
  0
VERTEX
  8
LAYER-1
 10
4.890555
 20
7.461292
 30
0.000000
  0
VERTEX
  8
LAYER-1
 10
4.873447
 20
7.472276
 30
0.000000
  0
VERTEX
  8
LAYER-1
 10
4.856367
 20
7.467946
 30
0.000000
  0
VERTEX
  8
LAYER-1
 10
4.853652
 20
7.461294
 30
0.000000
  0
SEQEND
  8
LAYER-1
  0
POLYLINE
  8
LAYER-1
 66
  1
 70
  0
 62
  0
 10
4.890555
 20
7.461292
 30
0.000000
  0
VERTEX
  8
LAYER-1
 10
4.890555
 20
7.461292
 30
0.000000
  0
VERTEX
  8
LAYER-1
 10
4.853653
 20
7.461294
 30
0.000000
  0
SEQEND
  8
LAYER-1
  0
POLYLINE
  8
LAYER-1
 66
  1
 70
  0
 62
  0
 10
5.639092
 20
7.189776
 30
0.000000
  0
VERTEX
  8
LAYER-1
 10
5.639092
 20
7.189776
 30
0.000000
  0
VERTEX
  8
LAYER-1
 10
5.649032
 20
7.182776
 30
0.000000
  0
VERTEX
  8
LAYER-1
 10
5.663795
 20
7.184853
 30
0.000000
  0
VERTEX
  8
LAYER-1
 10
5.672312
 20
7.189216
 30
0.000000
  0
SEQEND
  8
LAYER-1
  0
POLYLINE
  8
LAYER-1
 66
  1
 70
  0
 62
  0
 10
5.672312
 20
7.189216
 30
0.000000
  0
VERTEX
  8
LAYER-1
 10
5.672312
 20
7.189216
 30
0.000000
  0
VERTEX
  8
LAYER-1
 10
5.639092
 20
7.189776
 30
0.000000
  0
SEQEND
  8
LAYER-1
  0
POLYLINE
  8
LAYER-1
 66
  1
 70
  0
 62
  0
 10
5.674521
 20
7.189776
 30
0.000000
  0
VERTEX
  8
LAYER-1
 10
5.674521
 20
7.189776
 30
0.000000
  0
VERTEX
  8
LAYER-1
 10
5.687692
 20
7.182731
 30
0.000000
  0
VERTEX
  8
LAYER-1
 10
5.704773
 20
7.187062
 30
0.000000
  0
VERTEX
  8
LAYER-1
 10
5.711425
 20
7.189777
 30
0.000000
  0
SEQEND
  8
LAYER-1
  0
POLYLINE
  8
LAYER-1
 66
  1
 70
  0
 62
  0
 10
5.711424
 20
7.189777
 30
0.000000
  0
VERTEX
  8
LAYER-1
 10
5.711424
 20
7.189777
 30
0.000000
  0
VERTEX
  8
LAYER-1
 10
5.674522
 20
7.189776
 30
0.000000
  0
SEQEND
  8
LAYER-1
  0
POLYLINE
  8
LAYER-1
 66
  1
 70
  0
 62
  0
 10
5.710253
 20
7.461434
 30
0.000000
  0
VERTEX
  8
LAYER-1
 10
5.710253
 20
7.461434
 30
0.000000
  0
VERTEX
  8
LAYER-1
 10
5.710253
 20
7.189802
 30
0.000000
  0
SEQEND
  8
LAYER-1
  0
POLYLINE
  8
LAYER-1
 66
  1
 70
  0
 62
  0
 10
5.637920
 20
7.189806
 30
0.000000
  0
VERTEX
  8
LAYER-1
 10
5.637920
 20
7.189806
 30
0.000000
  0
VERTEX
  8
LAYER-1
 10
5.637920
 20
7.461434
 30
0.000000
  0
SEQEND
  8
LAYER-1
  0
POLYLINE
  8
LAYER-1
 66
  1
 70
  0
 62
  0
 10
5.673349
 20
7.461434
 30
0.000000
  0
VERTEX
  8
LAYER-1
 10
5.673349
 20
7.461434
 30
0.000000
  0
VERTEX
  8
LAYER-1
 10
5.673349
 20
7.189804
 30
0.000000
  0
SEQEND
  8
LAYER-1
  0
POLYLINE
  8
LAYER-1
 66
  1
 70
  0
 62
  0
 10
5.671443
 20
7.461853
 30
0.000000
  0
VERTEX
  8
LAYER-1
 10
5.671443
 20
7.461853
 30
0.000000
  0
VERTEX
  8
LAYER-1
 10
5.657270
 20
7.472385
 30
0.000000
  0
VERTEX
  8
LAYER-1
 10
5.642586
 20
7.469810
 30
0.000000
  0
VERTEX
  8
LAYER-1
 10
5.638223
 20
7.461294
 30
0.000000
  0
SEQEND
  8
LAYER-1
  0
POLYLINE
  8
LAYER-1
 66
  1
 70
  0
 62
  0
 10
5.671443
 20
7.461853
 30
0.000000
  0
VERTEX
  8
LAYER-1
 10
5.671443
 20
7.461853
 30
0.000000
  0
VERTEX
  8
LAYER-1
 10
5.638224
 20
7.461294
 30
0.000000
  0
SEQEND
  8
LAYER-1
  0
POLYLINE
  8
LAYER-1
 66
  1
 70
  0
 62
  0
 10
5.710556
 20
7.461292
 30
0.000000
  0
VERTEX
  8
LAYER-1
 10
5.710556
 20
7.461292
 30
0.000000
  0
VERTEX
  8
LAYER-1
 10
5.693448
 20
7.472276
 30
0.000000
  0
VERTEX
  8
LAYER-1
 10
5.676367
 20
7.467946
 30
0.000000
  0
VERTEX
  8
LAYER-1
 10
5.673652
 20
7.461294
 30
0.000000
  0
SEQEND
  8
LAYER-1
  0
POLYLINE
  8
LAYER-1
 66
  1
 70
  0
 62
  0
 10
5.710555
 20
7.461292
 30
0.000000
  0
VERTEX
  8
LAYER-1
 10
5.710555
 20
7.461292
 30
0.000000
  0
VERTEX
  8
LAYER-1
 10
5.673653
 20
7.461294
 30
0.000000
  0
SEQEND
  8
LAYER-1
  0
POLYLINE
  8
LAYER-1
 66
  1
 70
  0
 62
  0
 10
3.813954
 20
7.393527
 30
0.000000
  0
VERTEX
  8
LAYER-1
 10
3.813954
 20
7.393527
 30
0.000000
  0
VERTEX
  8
LAYER-1
 10
3.853679
 20
7.393527
 30
0.000000
  0
SEQEND
  8
LAYER-1
  0
POLYLINE
  8
LAYER-1
 66
  1
 70
  0
 62
  0
 10
3.813954
 20
7.263618
 30
0.000000
  0
VERTEX
  8
LAYER-1
 10
3.813954
 20
7.263618
 30
0.000000
  0
VERTEX
  8
LAYER-1
 10
3.853679
 20
7.263618
 30
0.000000
  0
SEQEND
  8
LAYER-1
  0
POLYLINE
  8
LAYER-1
 66
  1
 70
  0
 62
  0
 10
3.852308
 20
7.466580
 30
0.000000
  0
VERTEX
  8
LAYER-1
 10
3.852308
 20
7.466580
 30
0.000000
  0
VERTEX
  8
LAYER-1
 10
3.835200
 20
7.477563
 30
0.000000
  0
VERTEX
  8
LAYER-1
 10
3.818120
 20
7.473233
 30
0.000000
  0
VERTEX
  8
LAYER-1
 10
3.815406
 20
7.466581
 30
0.000000
  0
SEQEND
  8
LAYER-1
  0
POLYLINE
  8
LAYER-1
 66
  1
 70
  1
 62
  0
  0
VERTEX
  8
LAYER-1
 10
3.808203
 20
7.467203
 30
0.000000
  0
VERTEX
  8
LAYER-1
 10
3.862817
 20
7.467203
 30
0.000000
  0
VERTEX
  8
LAYER-1
 10
3.862817
 20
7.461297
 30
0.000000
  0
VERTEX
  8
LAYER-1
 10
3.808203
 20
7.461297
 30
0.000000
  0
SEQEND
  8
LAYER-1
  0
POLYLINE
  8
LAYER-1
 66
  1
 70
  0
 62
  0
 10
3.854113
 20
7.461433
 30
0.000000
  0
VERTEX
  8
LAYER-1
 10
3.854113
 20
7.461433
 30
0.000000
  0
VERTEX
  8
LAYER-1
 10
3.854113
 20
7.189684
 30
0.000000
  0
SEQEND
  8
LAYER-1
  0
POLYLINE
  8
LAYER-1
 66
  1
 70
  0
 62
  0
 10
3.854102
 20
0.613297
 30
0.000000
  0
VERTEX
  8
LAYER-1
 10
3.854102
 20
0.613297
 30
0.000000
  0
VERTEX
  8
LAYER-1
 10
3.854102
 20
0.341598
 30
0.000000
  0
SEQEND
  8
LAYER-1
  0
POLYLINE
  8
LAYER-1
 66
  1
 70
  0
 62
  0
 10
4.075022
 20
0.341159
 30
0.000000
  0
VERTEX
  8
LAYER-1
 10
4.075022
 20
0.341159
 30
0.000000
  0
VERTEX
  8
LAYER-1
 10
4.075022
 20
0.612790
 30
0.000000
  0
SEQEND
  8
LAYER-1
  0
POLYLINE
  8
LAYER-1
 66
  1
 70
  0
 62
  0
 10
4.405520
 20
0.612790
 30
0.000000
  0
VERTEX
  8
LAYER-1
 10
4.405520
 20
0.612790
 30
0.000000
  0
VERTEX
  8
LAYER-1
 10
4.405520
 20
0.341159
 30
0.000000
  0
SEQEND
  8
LAYER-1
  0
POLYLINE
  8
LAYER-1
 66
  1
 70
  0
 62
  0
 10
5.218350
 20
0.612790
 30
0.000000
  0
VERTEX
  8
LAYER-1
 10
5.218350
 20
0.612790
 30
0.000000
  0
VERTEX
  8
LAYER-1
 10
5.218350
 20
0.341159
 30
0.000000
  0
SEQEND
  8
LAYER-1
  0
POLYLINE
  8
LAYER-1
 66
  1
 70
  0
 62
  0
 10
5.037184
 20
0.341119
 30
0.000000
  0
VERTEX
  8
LAYER-1
 10
5.037184
 20
0.341119
 30
0.000000
  0
VERTEX
  8
LAYER-1
 10
5.037184
 20
0.612747
 30
0.000000
  0
SEQEND
  8
LAYER-1
  0
POLYLINE
  8
LAYER-1
 66
  1
 70
  0
 62
  0
 10
5.077042
 20
0.341119
 30
0.000000
  0
VERTEX
  8
LAYER-1
 10
5.077042
 20
0.341119
 30
0.000000
  0
VERTEX
  8
LAYER-1
 10
5.077042
 20
0.612747
 30
0.000000
  0
SEQEND
  8
LAYER-1
  0
POLYLINE
  8
LAYER-1
 66
  1
 70
  0
 62
  0
 10
4.223166
 20
0.341119
 30
0.000000
  0
VERTEX
  8
LAYER-1
 10
4.223166
 20
0.341119
 30
0.000000
  0
VERTEX
  8
LAYER-1
 10
4.223166
 20
0.612747
 30
0.000000
  0
SEQEND
  8
LAYER-1
  0
POLYLINE
  8
LAYER-1
 66
  1
 70
  0
 62
  0
 10
4.261982
 20
0.341119
 30
0.000000
  0
VERTEX
  8
LAYER-1
 10
4.261982
 20
0.341119
 30
0.000000
  0
VERTEX
  8
LAYER-1
 10
4.261982
 20
0.612747
 30
0.000000
  0
SEQEND
  8
LAYER-1
  0
POLYLINE
  8
LAYER-1
 66
  1
 70
  0
 62
  0
 10
4.489841
 20
0.341159
 30
0.000000
  0
VERTEX
  8
LAYER-1
 10
4.489841
 20
0.341159
 30
0.000000
  0
VERTEX
  8
LAYER-1
 10
4.489841
 20
0.612790
 30
0.000000
  0
SEQEND
  8
LAYER-1
  0
POLYLINE
  8
LAYER-1
 66
  1
 70
  0
 62
  0
 10
5.302672
 20
0.341159
 30
0.000000
  0
VERTEX
  8
LAYER-1
 10
5.302672
 20
0.341159
 30
0.000000
  0
VERTEX
  8
LAYER-1
 10
5.302672
 20
0.612790
 30
0.000000
  0
SEQEND
  8
LAYER-1
  0
POLYLINE
  8
LAYER-1
 66
  1
 70
  0
 62
  0
 10
5.447578
 20
0.341554
 30
0.000000
  0
VERTEX
  8
LAYER-1
 10
5.447578
 20
0.341554
 30
0.000000
  0
VERTEX
  8
LAYER-1
 10
5.447578
 20
0.613182
 30
0.000000
  0
SEQEND
  8
LAYER-1
  0
POLYLINE
  8
LAYER-1
 66
  1
 70
  0
 62
  0
 10
5.485960
 20
0.341554
 30
0.000000
  0
VERTEX
  8
LAYER-1
 10
5.485960
 20
0.341554
 30
0.000000
  0
VERTEX
  8
LAYER-1
 10
5.485960
 20
0.613182
 30
0.000000
  0
SEQEND
  8
LAYER-1
  0
POLYLINE
  8
LAYER-1
 66
  1
 70
  0
 62
  0
 10
4.629739
 20
0.341084
 30
0.000000
  0
VERTEX
  8
LAYER-1
 10
4.629739
 20
0.341084
 30
0.000000
  0
VERTEX
  8
LAYER-1
 10
4.629739
 20
0.612711
 30
0.000000
  0
SEQEND
  8
LAYER-1
  0
POLYLINE
  8
LAYER-1
 66
  1
 70
  0
 62
  0
 10
4.668122
 20
0.341084
 30
0.000000
  0
VERTEX
  8
LAYER-1
 10
4.668122
 20
0.341084
 30
0.000000
  0
VERTEX
  8
LAYER-1
 10
4.668122
 20
0.612711
 30
0.000000
  0
SEQEND
  8
LAYER-1
  0
POLYLINE
  8
LAYER-1
 66
  1
 70
  0
 62
  0
 10
4.002690
 20
0.612786
 30
0.000000
  0
VERTEX
  8
LAYER-1
 10
4.002690
 20
0.612786
 30
0.000000
  0
VERTEX
  8
LAYER-1
 10
4.002690
 20
0.341158
 30
0.000000
  0
SEQEND
  8
LAYER-1
  0
POLYLINE
  8
LAYER-1
 66
  1
 70
  0
 62
  0
 10
4.038119
 20
0.341158
 30
0.000000
  0
VERTEX
  8
LAYER-1
 10
4.038119
 20
0.341158
 30
0.000000
  0
VERTEX
  8
LAYER-1
 10
4.038119
 20
0.612788
 30
0.000000
  0
SEQEND
  8
LAYER-1
  0
POLYLINE
  8
LAYER-1
 66
  1
 70
  0
 62
  0
 10
4.003594
 20
0.341158
 30
0.000000
  0
VERTEX
  8
LAYER-1
 10
4.003594
 20
0.341158
 30
0.000000
  0
VERTEX
  8
LAYER-1
 10
4.013533
 20
0.334157
 30
0.000000
  0
VERTEX
  8
LAYER-1
 10
4.028296
 20
0.336235
 30
0.000000
  0
VERTEX
  8
LAYER-1
 10
4.037149
 20
0.341146
 30
0.000000
  0
SEQEND
  8
LAYER-1
  0
POLYLINE
  8
LAYER-1
 66
  1
 70
  0
 62
  0
 10
4.038119
 20
0.341158
 30
0.000000
  0
VERTEX
  8
LAYER-1
 10
4.038119
 20
0.341158
 30
0.000000
  0
VERTEX
  8
LAYER-1
 10
4.051290
 20
0.334111
 30
0.000000
  0
VERTEX
  8
LAYER-1
 10
4.068370
 20
0.338442
 30
0.000000
  0
VERTEX
  8
LAYER-1
 10
4.075021
 20
0.341159
 30
0.000000
  0
SEQEND
  8
LAYER-1
  0
POLYLINE
  8
LAYER-1
 66
  1
 70
  0
 62
  0
 10
4.453673
 20
0.341651
 30
0.000000
  0
VERTEX
  8
LAYER-1
 10
4.453673
 20
0.341651
 30
0.000000
  0
VERTEX
  8
LAYER-1
 10
4.469240
 20
0.335596
 30
0.000000
  0
VERTEX
  8
LAYER-1
 10
4.487314
 20
0.342322
 30
0.000000
  0
VERTEX
  8
LAYER-1
 10
4.490581
 20
0.341651
 30
0.000000
  0
SEQEND
  8
LAYER-1
  0
POLYLINE
  8
LAYER-1
 66
  1
 70
  0
 62
  0
 10
5.266632
 20
0.341182
 30
0.000000
  0
VERTEX
  8
LAYER-1
 10
5.266632
 20
0.341182
 30
0.000000
  0
VERTEX
  8
LAYER-1
 10
5.282199
 20
0.335127
 30
0.000000
  0
VERTEX
  8
LAYER-1
 10
5.300273
 20
0.341852
 30
0.000000
  0
VERTEX
  8
LAYER-1
 10
5.303539
 20
0.341182
 30
0.000000
  0
SEQEND
  8
LAYER-1
  0
POLYLINE
  8
LAYER-1
 66
  1
 70
  0
 62
  0
 10
4.405964
 20
0.341651
 30
0.000000
  0
VERTEX
  8
LAYER-1
 10
4.405964
 20
0.341651
 30
0.000000
  0
VERTEX
  8
LAYER-1
 10
4.421531
 20
0.335596
 30
0.000000
  0
VERTEX
  8
LAYER-1
 10
4.439605
 20
0.342322
 30
0.000000
  0
VERTEX
  8
LAYER-1
 10
4.442872
 20
0.341651
 30
0.000000
  0
SEQEND
  8
LAYER-1
  0
POLYLINE
  8
LAYER-1
 66
  1
 70
  0
 62
  0
 10
4.427907
 20
0.341093
 30
0.000000
  0
VERTEX
  8
LAYER-1
 10
4.427907
 20
0.341093
 30
0.000000
  0
VERTEX
  8
LAYER-1
 10
4.434722
 20
0.332024
 30
0.000000
  0
VERTEX
  8
LAYER-1
 10
4.448737
 20
0.330431
 30
0.000000
  0
VERTEX
  8
LAYER-1
 10
4.459774
 20
0.339214
 30
0.000000
  0
VERTEX
  8
LAYER-1
 10
4.463336
 20
0.341093
 30
0.000000
  0
SEQEND
  8
LAYER-1
  0
POLYLINE
  8
LAYER-1
 66
  1
 70
  0
 62
  0
 10
4.427907
 20
0.341092
 30
0.000000
  0
VERTEX
  8
LAYER-1
 10
4.427907
 20
0.341092
 30
0.000000
  0
VERTEX
  8
LAYER-1
 10
4.463336
 20
0.341092
 30
0.000000
  0
SEQEND
  8
LAYER-1
  0
POLYLINE
  8
LAYER-1
 66
  1
 70
  0
 62
  0
 10
5.217982
 20
0.341181
 30
0.000000
  0
VERTEX
  8
LAYER-1
 10
5.217982
 20
0.341181
 30
0.000000
  0
VERTEX
  8
LAYER-1
 10
5.233549
 20
0.335127
 30
0.000000
  0
VERTEX
  8
LAYER-1
 10
5.251623
 20
0.341852
 30
0.000000
  0
VERTEX
  8
LAYER-1
 10
5.254889
 20
0.341182
 30
0.000000
  0
SEQEND
  8
LAYER-1
  0
POLYLINE
  8
LAYER-1
 66
  1
 70
  0
 62
  0
 10
5.244153
 20
0.341093
 30
0.000000
  0
VERTEX
  8
LAYER-1
 10
5.244153
 20
0.341093
 30
0.000000
  0
VERTEX
  8
LAYER-1
 10
5.250969
 20
0.332024
 30
0.000000
  0
VERTEX
  8
LAYER-1
 10
5.264984
 20
0.330431
 30
0.000000
  0
VERTEX
  8
LAYER-1
 10
5.276020
 20
0.339214
 30
0.000000
  0
VERTEX
  8
LAYER-1
 10
5.279583
 20
0.341093
 30
0.000000
  0
SEQEND
  8
LAYER-1
  0
POLYLINE
  8
LAYER-1
 66
  1
 70
  0
 62
  0
 10
5.244155
 20
0.341092
 30
0.000000
  0
VERTEX
  8
LAYER-1
 10
5.244155
 20
0.341092
 30
0.000000
  0
VERTEX
  8
LAYER-1
 10
5.279583
 20
0.341092
 30
0.000000
  0
SEQEND
  8
LAYER-1
  0
POLYLINE
  8
LAYER-1
 66
  1
 70
  0
 62
  0
 10
4.036843
 20
0.613374
 30
0.000000
  0
VERTEX
  8
LAYER-1
 10
4.036843
 20
0.613374
 30
0.000000
  0
VERTEX
  8
LAYER-1
 10
4.022670
 20
0.623906
 30
0.000000
  0
VERTEX
  8
LAYER-1
 10
4.007986
 20
0.621331
 30
0.000000
  0
VERTEX
  8
LAYER-1
 10
4.003624
 20
0.612815
 30
0.000000
  0
SEQEND
  8
LAYER-1
  0
POLYLINE
  8
LAYER-1
 66
  1
 70
  0
 62
  0
 10
4.036843
 20
0.613374
 30
0.000000
  0
VERTEX
  8
LAYER-1
 10
4.036843
 20
0.613374
 30
0.000000
  0
VERTEX
  8
LAYER-1
 10
4.003624
 20
0.612815
 30
0.000000
  0
SEQEND
  8
LAYER-1
  0
POLYLINE
  8
LAYER-1
 66
  1
 70
  0
 62
  0
 10
4.075956
 20
0.612812
 30
0.000000
  0
VERTEX
  8
LAYER-1
 10
4.075956
 20
0.612812
 30
0.000000
  0
VERTEX
  8
LAYER-1
 10
4.058848
 20
0.623796
 30
0.000000
  0
VERTEX
  8
LAYER-1
 10
4.041768
 20
0.619465
 30
0.000000
  0
VERTEX
  8
LAYER-1
 10
4.039052
 20
0.612812
 30
0.000000
  0
SEQEND
  8
LAYER-1
  0
POLYLINE
  8
LAYER-1
 66
  1
 70
  0
 62
  0
 10
4.075954
 20
0.612812
 30
0.000000
  0
VERTEX
  8
LAYER-1
 10
4.075954
 20
0.612812
 30
0.000000
  0
VERTEX
  8
LAYER-1
 10
4.039053
 20
0.612815
 30
0.000000
  0
SEQEND
  8
LAYER-1
  0
POLYLINE
  8
LAYER-1
 66
  1
 70
  0
 62
  0
 10
4.442797
 20
0.613258
 30
0.000000
  0
VERTEX
  8
LAYER-1
 10
4.442797
 20
0.613258
 30
0.000000
  0
VERTEX
  8
LAYER-1
 10
4.423294
 20
0.623251
 30
0.000000
  0
VERTEX
  8
LAYER-1
 10
4.405220
 20
0.616525
 30
0.000000
  0
VERTEX
  8
LAYER-1
 10
4.405890
 20
0.613261
 30
0.000000
  0
SEQEND
  8
LAYER-1
  0
POLYLINE
  8
LAYER-1
 66
  1
 70
  0
 62
  0
 10
4.490039
 20
0.613258
 30
0.000000
  0
VERTEX
  8
LAYER-1
 10
4.490039
 20
0.613258
 30
0.000000
  0
VERTEX
  8
LAYER-1
 10
4.470535
 20
0.623251
 30
0.000000
  0
VERTEX
  8
LAYER-1
 10
4.452461
 20
0.616525
 30
0.000000
  0
VERTEX
  8
LAYER-1
 10
4.453131
 20
0.613261
 30
0.000000
  0
SEQEND
  8
LAYER-1
  0
POLYLINE
  8
LAYER-1
 66
  1
 70
  0
 62
  0
 10
4.462793
 20
0.613348
 30
0.000000
  0
VERTEX
  8
LAYER-1
 10
4.462793
 20
0.613348
 30
0.000000
  0
VERTEX
  8
LAYER-1
 10
4.452041
 20
0.626354
 30
0.000000
  0
VERTEX
  8
LAYER-1
 10
4.438026
 20
0.627947
 30
0.000000
  0
VERTEX
  8
LAYER-1
 10
4.426989
 20
0.619164
 30
0.000000
  0
VERTEX
  8
LAYER-1
 10
4.427364
 20
0.613348
 30
0.000000
  0
SEQEND
  8
LAYER-1
  0
POLYLINE
  8
LAYER-1
 66
  1
 70
  0
 62
  0
 10
4.427365
 20
0.613349
 30
0.000000
  0
VERTEX
  8
LAYER-1
 10
4.427365
 20
0.613349
 30
0.000000
  0
VERTEX
  8
LAYER-1
 10
4.462793
 20
0.613349
 30
0.000000
  0
SEQEND
  8
LAYER-1
  0
POLYLINE
  8
LAYER-1
 66
  1
 70
  0
 62
  0
 10
5.255352
 20
0.613258
 30
0.000000
  0
VERTEX
  8
LAYER-1
 10
5.255352
 20
0.613258
 30
0.000000
  0
VERTEX
  8
LAYER-1
 10
5.235848
 20
0.623251
 30
0.000000
  0
VERTEX
  8
LAYER-1
 10
5.217775
 20
0.616525
 30
0.000000
  0
VERTEX
  8
LAYER-1
 10
5.218445
 20
0.613261
 30
0.000000
  0
SEQEND
  8
LAYER-1
  0
POLYLINE
  8
LAYER-1
 66
  1
 70
  0
 62
  0
 10
5.303532
 20
0.613258
 30
0.000000
  0
VERTEX
  8
LAYER-1
 10
5.303532
 20
0.613258
 30
0.000000
  0
VERTEX
  8
LAYER-1
 10
5.284029
 20
0.623251
 30
0.000000
  0
VERTEX
  8
LAYER-1
 10
5.265955
 20
0.616525
 30
0.000000
  0
VERTEX
  8
LAYER-1
 10
5.266625
 20
0.613261
 30
0.000000
  0
SEQEND
  8
LAYER-1
  0
POLYLINE
  8
LAYER-1
 66
  1
 70
  0
 62
  0
 10
5.279577
 20
0.613348
 30
0.000000
  0
VERTEX
  8
LAYER-1
 10
5.279577
 20
0.613348
 30
0.000000
  0
VERTEX
  8
LAYER-1
 10
5.268825
 20
0.626354
 30
0.000000
  0
VERTEX
  8
LAYER-1
 10
5.254809
 20
0.627947
 30
0.000000
  0
VERTEX
  8
LAYER-1
 10
5.243773
 20
0.619164
 30
0.000000
  0
VERTEX
  8
LAYER-1
 10
5.244148
 20
0.613348
 30
0.000000
  0
SEQEND
  8
LAYER-1
  0
POLYLINE
  8
LAYER-1
 66
  1
 70
  0
 62
  0
 10
5.244148
 20
0.613349
 30
0.000000
  0
VERTEX
  8
LAYER-1
 10
5.244148
 20
0.613349
 30
0.000000
  0
VERTEX
  8
LAYER-1
 10
5.279576
 20
0.613349
 30
0.000000
  0
SEQEND
  8
LAYER-1
  0
POLYLINE
  8
LAYER-1
 66
  1
 70
  1
 62
  0
  0
VERTEX
  8
LAYER-1
 10
4.463337
 20
0.341159
 30
0.000000
  0
VERTEX
  8
LAYER-1
 10
4.427907
 20
0.341159
 30
0.000000
  0
VERTEX
  8
LAYER-1
 10
4.427907
 20
0.612788
 30
0.000000
  0
VERTEX
  8
LAYER-1
 10
4.463337
 20
0.612788
 30
0.000000
  0
SEQEND
  8
LAYER-1
  0
POLYLINE
  8
LAYER-1
 66
  1
 70
  1
 62
  0
  0
VERTEX
  8
LAYER-1
 10
5.279651
 20
0.341159
 30
0.000000
  0
VERTEX
  8
LAYER-1
 10
5.244221
 20
0.341159
 30
0.000000
  0
VERTEX
  8
LAYER-1
 10
5.244221
 20
0.612788
 30
0.000000
  0
VERTEX
  8
LAYER-1
 10
5.279651
 20
0.612788
 30
0.000000
  0
SEQEND
  8
LAYER-1
  0
POLYLINE
  8
LAYER-1
 66
  1
 70
  0
 62
  0
 10
4.427907
 20
0.409065
 30
0.000000
  0
VERTEX
  8
LAYER-1
 10
4.427907
 20
0.409065
 30
0.000000
  0
VERTEX
  8
LAYER-1
 10
4.463337
 20
0.409065
 30
0.000000
  0
SEQEND
  8
LAYER-1
  0
POLYLINE
  8
LAYER-1
 66
  1
 70
  0
 62
  0
 10
4.427907
 20
0.538974
 30
0.000000
  0
VERTEX
  8
LAYER-1
 10
4.427907
 20
0.538974
 30
0.000000
  0
VERTEX
  8
LAYER-1
 10
4.463337
 20
0.538974
 30
0.000000
  0
SEQEND
  8
LAYER-1
  0
POLYLINE
  8
LAYER-1
 66
  1
 70
  0
 62
  0
 10
5.244221
 20
0.409065
 30
0.000000
  0
VERTEX
  8
LAYER-1
 10
5.244221
 20
0.409065
 30
0.000000
  0
VERTEX
  8
LAYER-1
 10
5.279649
 20
0.409065
 30
0.000000
  0
SEQEND
  8
LAYER-1
  0
POLYLINE
  8
LAYER-1
 66
  1
 70
  0
 62
  0
 10
5.244221
 20
0.538974
 30
0.000000
  0
VERTEX
  8
LAYER-1
 10
5.244221
 20
0.538974
 30
0.000000
  0
VERTEX
  8
LAYER-1
 10
5.279649
 20
0.538974
 30
0.000000
  0
SEQEND
  8
LAYER-1
  0
POLYLINE
  8
LAYER-1
 66
  1
 70
  0
 62
  0
 10
4.225575
 20
0.341601
 30
0.000000
  0
VERTEX
  8
LAYER-1
 10
4.225575
 20
0.341601
 30
0.000000
  0
VERTEX
  8
LAYER-1
 10
4.235515
 20
0.334601
 30
0.000000
  0
VERTEX
  8
LAYER-1
 10
4.250278
 20
0.336679
 30
0.000000
  0
VERTEX
  8
LAYER-1
 10
4.258794
 20
0.341042
 30
0.000000
  0
SEQEND
  8
LAYER-1
  0
POLYLINE
  8
LAYER-1
 66
  1
 70
  0
 62
  0
 10
5.039068
 20
0.341219
 30
0.000000
  0
VERTEX
  8
LAYER-1
 10
5.039068
 20
0.341219
 30
0.000000
  0
VERTEX
  8
LAYER-1
 10
5.052241
 20
0.334174
 30
0.000000
  0
VERTEX
  8
LAYER-1
 10
5.069320
 20
0.338505
 30
0.000000
  0
VERTEX
  8
LAYER-1
 10
5.075973
 20
0.341220
 30
0.000000
  0
SEQEND
  8
LAYER-1
  0
POLYLINE
  8
LAYER-1
 66
  1
 70
  0
 62
  0
 10
4.851873
 20
0.613376
 30
0.000000
  0
VERTEX
  8
LAYER-1
 10
4.851873
 20
0.613376
 30
0.000000
  0
VERTEX
  8
LAYER-1
 10
4.837701
 20
0.623907
 30
0.000000
  0
VERTEX
  8
LAYER-1
 10
4.823016
 20
0.621333
 30
0.000000
  0
VERTEX
  8
LAYER-1
 10
4.818654
 20
0.612817
 30
0.000000
  0
SEQEND
  8
LAYER-1
  0
POLYLINE
  8
LAYER-1
 66
  1
 70
  0
 62
  0
 10
4.851872
 20
0.613376
 30
0.000000
  0
VERTEX
  8
LAYER-1
 10
4.851872
 20
0.613376
 30
0.000000
  0
VERTEX
  8
LAYER-1
 10
4.818654
 20
0.612817
 30
0.000000
  0
SEQEND
  8
LAYER-1
  0
POLYLINE
  8
LAYER-1
 66
  1
 70
  0
 62
  0
 10
4.890985
 20
0.612816
 30
0.000000
  0
VERTEX
  8
LAYER-1
 10
4.890985
 20
0.612816
 30
0.000000
  0
VERTEX
  8
LAYER-1
 10
4.873877
 20
0.623800
 30
0.000000
  0
VERTEX
  8
LAYER-1
 10
4.856797
 20
0.619469
 30
0.000000
  0
VERTEX
  8
LAYER-1
 10
4.854081
 20
0.612817
 30
0.000000
  0
SEQEND
  8
LAYER-1
  0
POLYLINE
  8
LAYER-1
 66
  1
 70
  0
 62
  0
 10
4.890986
 20
0.612815
 30
0.000000
  0
VERTEX
  8
LAYER-1
 10
4.890986
 20
0.612815
 30
0.000000
  0
VERTEX
  8
LAYER-1
 10
4.854082
 20
0.612817
 30
0.000000
  0
SEQEND
  8
LAYER-1
  0
POLYLINE
  8
LAYER-1
 66
  1
 70
  0
 62
  0
 10
4.889814
 20
0.341159
 30
0.000000
  0
VERTEX
  8
LAYER-1
 10
4.889814
 20
0.341159
 30
0.000000
  0
VERTEX
  8
LAYER-1
 10
4.889814
 20
0.612790
 30
0.000000
  0
SEQEND
  8
LAYER-1
  0
POLYLINE
  8
LAYER-1
 66
  1
 70
  0
 62
  0
 10
4.817480
 20
0.612786
 30
0.000000
  0
VERTEX
  8
LAYER-1
 10
4.817480
 20
0.612786
 30
0.000000
  0
VERTEX
  8
LAYER-1
 10
4.817480
 20
0.341158
 30
0.000000
  0
SEQEND
  8
LAYER-1
  0
POLYLINE
  8
LAYER-1
 66
  1
 70
  0
 62
  0
 10
4.852910
 20
0.341158
 30
0.000000
  0
VERTEX
  8
LAYER-1
 10
4.852910
 20
0.341158
 30
0.000000
  0
VERTEX
  8
LAYER-1
 10
4.852910
 20
0.612788
 30
0.000000
  0
SEQEND
  8
LAYER-1
  0
POLYLINE
  8
LAYER-1
 66
  1
 70
  0
 62
  0
 10
4.817785
 20
0.341299
 30
0.000000
  0
VERTEX
  8
LAYER-1
 10
4.817785
 20
0.341299
 30
0.000000
  0
VERTEX
  8
LAYER-1
 10
4.827725
 20
0.334299
 30
0.000000
  0
VERTEX
  8
LAYER-1
 10
4.842488
 20
0.336377
 30
0.000000
  0
VERTEX
  8
LAYER-1
 10
4.851004
 20
0.340740
 30
0.000000
  0
SEQEND
  8
LAYER-1
  0
POLYLINE
  8
LAYER-1
 66
  1
 70
  0
 62
  0
 10
4.851004
 20
0.340738
 30
0.000000
  0
VERTEX
  8
LAYER-1
 10
4.851004
 20
0.340738
 30
0.000000
  0
VERTEX
  8
LAYER-1
 10
4.817785
 20
0.341299
 30
0.000000
  0
SEQEND
  8
LAYER-1
  0
POLYLINE
  8
LAYER-1
 66
  1
 70
  0
 62
  0
 10
4.853214
 20
0.341299
 30
0.000000
  0
VERTEX
  8
LAYER-1
 10
4.853214
 20
0.341299
 30
0.000000
  0
VERTEX
  8
LAYER-1
 10
4.866385
 20
0.334253
 30
0.000000
  0
VERTEX
  8
LAYER-1
 10
4.883465
 20
0.338584
 30
0.000000
  0
VERTEX
  8
LAYER-1
 10
4.890117
 20
0.341300
 30
0.000000
  0
SEQEND
  8
LAYER-1
  0
POLYLINE
  8
LAYER-1
 66
  1
 70
  0
 62
  0
 10
4.890117
 20
0.341299
 30
0.000000
  0
VERTEX
  8
LAYER-1
 10
4.890117
 20
0.341299
 30
0.000000
  0
VERTEX
  8
LAYER-1
 10
4.853214
 20
0.341299
 30
0.000000
  0
SEQEND
  8
LAYER-1
  0
POLYLINE
  8
LAYER-1
 66
  1
 70
  0
 62
  0
 10
5.671872
 20
0.613376
 30
0.000000
  0
VERTEX
  8
LAYER-1
 10
5.671872
 20
0.613376
 30
0.000000
  0
VERTEX
  8
LAYER-1
 10
5.657700
 20
0.623907
 30
0.000000
  0
VERTEX
  8
LAYER-1
 10
5.643016
 20
0.621333
 30
0.000000
  0
VERTEX
  8
LAYER-1
 10
5.638653
 20
0.612817
 30
0.000000
  0
SEQEND
  8
LAYER-1
  0
POLYLINE
  8
LAYER-1
 66
  1
 70
  0
 62
  0
 10
5.671872
 20
0.613376
 30
0.000000
  0
VERTEX
  8
LAYER-1
 10
5.671872
 20
0.613376
 30
0.000000
  0
VERTEX
  8
LAYER-1
 10
5.638654
 20
0.612817
 30
0.000000
  0
SEQEND
  8
LAYER-1
  0
POLYLINE
  8
LAYER-1
 66
  1
 70
  0
 62
  0
 10
5.710985
 20
0.612816
 30
0.000000
  0
VERTEX
  8
LAYER-1
 10
5.710985
 20
0.612816
 30
0.000000
  0
VERTEX
  8
LAYER-1
 10
5.693877
 20
0.623800
 30
0.000000
  0
VERTEX
  8
LAYER-1
 10
5.676797
 20
0.619469
 30
0.000000
  0
VERTEX
  8
LAYER-1
 10
5.674082
 20
0.612817
 30
0.000000
  0
SEQEND
  8
LAYER-1
  0
POLYLINE
  8
LAYER-1
 66
  1
 70
  0
 62
  0
 10
5.710985
 20
0.612815
 30
0.000000
  0
VERTEX
  8
LAYER-1
 10
5.710985
 20
0.612815
 30
0.000000
  0
VERTEX
  8
LAYER-1
 10
5.674082
 20
0.612817
 30
0.000000
  0
SEQEND
  8
LAYER-1
  0
POLYLINE
  8
LAYER-1
 66
  1
 70
  0
 62
  0
 10
5.709814
 20
0.341159
 30
0.000000
  0
VERTEX
  8
LAYER-1
 10
5.709814
 20
0.341159
 30
0.000000
  0
VERTEX
  8
LAYER-1
 10
5.709814
 20
0.612790
 30
0.000000
  0
SEQEND
  8
LAYER-1
  0
POLYLINE
  8
LAYER-1
 66
  1
 70
  0
 62
  0
 10
5.637480
 20
0.612786
 30
0.000000
  0
VERTEX
  8
LAYER-1
 10
5.637480
 20
0.612786
 30
0.000000
  0
VERTEX
  8
LAYER-1
 10
5.637480
 20
0.341158
 30
0.000000
  0
SEQEND
  8
LAYER-1
  0
POLYLINE
  8
LAYER-1
 66
  1
 70
  0
 62
  0
 10
5.672910
 20
0.341158
 30
0.000000
  0
VERTEX
  8
LAYER-1
 10
5.672910
 20
0.341158
 30
0.000000
  0
VERTEX
  8
LAYER-1
 10
5.672910
 20
0.612788
 30
0.000000
  0
SEQEND
  8
LAYER-1
  0
POLYLINE
  8
LAYER-1
 66
  1
 70
  0
 62
  0
 10
5.637785
 20
0.341299
 30
0.000000
  0
VERTEX
  8
LAYER-1
 10
5.637785
 20
0.341299
 30
0.000000
  0
VERTEX
  8
LAYER-1
 10
5.647725
 20
0.334299
 30
0.000000
  0
VERTEX
  8
LAYER-1
 10
5.662488
 20
0.336377
 30
0.000000
  0
VERTEX
  8
LAYER-1
 10
5.671004
 20
0.340740
 30
0.000000
  0
SEQEND
  8
LAYER-1
  0
POLYLINE
  8
LAYER-1
 66
  1
 70
  0
 62
  0
 10
5.671004
 20
0.340738
 30
0.000000
  0
VERTEX
  8
LAYER-1
 10
5.671004
 20
0.340738
 30
0.000000
  0
VERTEX
  8
LAYER-1
 10
5.637785
 20
0.341299
 30
0.000000
  0
SEQEND
  8
LAYER-1
  0
POLYLINE
  8
LAYER-1
 66
  1
 70
  0
 62
  0
 10
5.673214
 20
0.341299
 30
0.000000
  0
VERTEX
  8
LAYER-1
 10
5.673214
 20
0.341299
 30
0.000000
  0
VERTEX
  8
LAYER-1
 10
5.686385
 20
0.334253
 30
0.000000
  0
VERTEX
  8
LAYER-1
 10
5.703465
 20
0.338584
 30
0.000000
  0
VERTEX
  8
LAYER-1
 10
5.710117
 20
0.341300
 30
0.000000
  0
SEQEND
  8
LAYER-1
  0
POLYLINE
  8
LAYER-1
 66
  1
 70
  0
 62
  0
 10
5.710117
 20
0.341299
 30
0.000000
  0
VERTEX
  8
LAYER-1
 10
5.710117
 20
0.341299
 30
0.000000
  0
VERTEX
  8
LAYER-1
 10
5.673214
 20
0.341299
 30
0.000000
  0
SEQEND
  8
LAYER-1
  0
POLYLINE
  8
LAYER-1
 66
  1
 70
  0
 62
  0
 40
0.027778
 41
0.027778
 10
3.644370
 20
0.237216
 30
0.000000
  0
VERTEX
  8
LAYER-1
 10
3.644370
 20
0.237216
 30
0.000000
  0
VERTEX
  8
LAYER-1
 10
0.742741
 20
0.237216
 30
0.000000
  0
SEQEND
  8
LAYER-1
  0
POLYLINE
  8
LAYER-1
 66
  1
 70
  0
 62
  0
 40
0.027778
 41
0.027778
 10
3.737987
 20
0.237216
 30
0.000000
  0
VERTEX
  8
LAYER-1
 10
3.737987
 20
0.237216
 30
0.000000
  0
VERTEX
  8
LAYER-1
 10
6.735797
 20
0.237216
 30
0.000000
  0
SEQEND
  8
LAYER-1
  0
POLYLINE
  8
LAYER-1
 66
  1
 70
  0
 62
  0
 10
3.642812
 20
2.258422
 30
0.000000
  0
VERTEX
  8
LAYER-1
 10
3.642812
 20
2.258422
 30
0.000000
  0
VERTEX
  8
LAYER-1
 10
1.767915
 20
2.258422
 30
0.000000
  0
SEQEND
  8
LAYER-1
  0
POLYLINE
  8
LAYER-1
 66
  1
 70
  0
 62
  0
 10
3.642812
 20
3.902453
 30
0.000000
  0
VERTEX
  8
LAYER-1
 10
3.642812
 20
3.902453
 30
0.000000
  0
VERTEX
  8
LAYER-1
 10
1.767915
 20
3.902453
 30
0.000000
  0
SEQEND
  8
LAYER-1
  0
POLYLINE
  8
LAYER-1
 66
  1
 70
  0
 62
  0
 10
3.642812
 20
5.546480
 30
0.000000
  0
VERTEX
  8
LAYER-1
 10
3.642812
 20
5.546480
 30
0.000000
  0
VERTEX
  8
LAYER-1
 10
1.767915
 20
5.546480
 30
0.000000
  0
SEQEND
  8
LAYER-1
  0
POLYLINE
  8
LAYER-1
 66
  1
 70
  0
 62
  0
 10
3.642915
 20
1.436589
 30
0.000000
  0
VERTEX
  8
LAYER-1
 10
3.642915
 20
1.436589
 30
0.000000
  0
VERTEX
  8
LAYER-1
 10
1.767915
 20
1.436589
 30
0.000000
  0
SEQEND
  8
LAYER-1
  0
POLYLINE
  8
LAYER-1
 66
  1
 70
  0
 62
  0
 10
3.642915
 20
3.080617
 30
0.000000
  0
VERTEX
  8
LAYER-1
 10
3.642915
 20
3.080617
 30
0.000000
  0
VERTEX
  8
LAYER-1
 10
1.767915
 20
3.080617
 30
0.000000
  0
SEQEND
  8
LAYER-1
  0
POLYLINE
  8
LAYER-1
 66
  1
 70
  0
 62
  0
 10
3.642915
 20
4.724647
 30
0.000000
  0
VERTEX
  8
LAYER-1
 10
3.642915
 20
4.724647
 30
0.000000
  0
VERTEX
  8
LAYER-1
 10
1.768783
 20
4.724647
 30
0.000000
  0
SEQEND
  8
LAYER-1
  0
POLYLINE
  8
LAYER-1
 66
  1
 70
  0
 62
  0
 10
3.642915
 20
6.368674
 30
0.000000
  0
VERTEX
  8
LAYER-1
 10
3.642915
 20
6.368674
 30
0.000000
  0
VERTEX
  8
LAYER-1
 10
1.767915
 20
6.368674
 30
0.000000
  0
SEQEND
  8
LAYER-1
  0
POLYLINE
  8
LAYER-1
 66
  1
 70
  0
 62
  0
 10
5.689688
 20
2.257245
 30
0.000000
  0
VERTEX
  8
LAYER-1
 10
5.689688
 20
2.257245
 30
0.000000
  0
VERTEX
  8
LAYER-1
 10
3.814791
 20
2.257245
 30
0.000000
  0
SEQEND
  8
LAYER-1
  0
POLYLINE
  8
LAYER-1
 66
  1
 70
  0
 62
  0
 10
5.689688
 20
3.901276
 30
0.000000
  0
VERTEX
  8
LAYER-1
 10
5.689688
 20
3.901276
 30
0.000000
  0
VERTEX
  8
LAYER-1
 10
3.814791
 20
3.901276
 30
0.000000
  0
SEQEND
  8
LAYER-1
  0
POLYLINE
  8
LAYER-1
 66
  1
 70
  0
 62
  0
 10
5.689688
 20
5.545304
 30
0.000000
  0
VERTEX
  8
LAYER-1
 10
5.689688
 20
5.545304
 30
0.000000
  0
VERTEX
  8
LAYER-1
 10
3.814791
 20
5.545304
 30
0.000000
  0
SEQEND
  8
LAYER-1
  0
POLYLINE
  8
LAYER-1
 66
  1
 70
  0
 62
  0
 10
5.689791
 20
1.435412
 30
0.000000
  0
VERTEX
  8
LAYER-1
 10
5.689791
 20
1.435412
 30
0.000000
  0
VERTEX
  8
LAYER-1
 10
3.814791
 20
1.435412
 30
0.000000
  0
SEQEND
  8
LAYER-1
  0
POLYLINE
  8
LAYER-1
 66
  1
 70
  0
 62
  0
 10
5.689791
 20
3.079441
 30
0.000000
  0
VERTEX
  8
LAYER-1
 10
5.689791
 20
3.079441
 30
0.000000
  0
VERTEX
  8
LAYER-1
 10
3.814791
 20
3.079441
 30
0.000000
  0
SEQEND
  8
LAYER-1
  0
POLYLINE
  8
LAYER-1
 66
  1
 70
  0
 62
  0
 10
5.689791
 20
4.723470
 30
0.000000
  0
VERTEX
  8
LAYER-1
 10
5.689791
 20
4.723470
 30
0.000000
  0
VERTEX
  8
LAYER-1
 10
3.815658
 20
4.723470
 30
0.000000
  0
SEQEND
  8
LAYER-1
  0
POLYLINE
  8
LAYER-1
 66
  1
 70
  0
 62
  0
 10
5.689791
 20
6.367498
 30
0.000000
  0
VERTEX
  8
LAYER-1
 10
5.689791
 20
6.367498
 30
0.000000
  0
VERTEX
  8
LAYER-1
 10
3.814791
 20
6.367498
 30
0.000000
  0
SEQEND
  8
LAYER-1
  0
POLYLINE
  8
LAYER-1
 66
  1
 70
  1
 62
  7
  0
VERTEX
  8
LAYER-1
 10
0.077721
 20
4.146336
 30
0.000000
  0
VERTEX
  8
LAYER-1
 10
0.164024
 20
4.146336
 30
0.000000
  0
VERTEX
  8
LAYER-1
 10
0.164024
 20
3.846766
 30
0.000000
  0
VERTEX
  8
LAYER-1
 10
0.077721
 20
3.846766
 30
0.000000
  0
SEQEND
  8
LAYER-1
  0
POLYLINE
  8
LAYER-1
 66
  1
 70
  1
 62
  7
  0
VERTEX
  8
LAYER-1
 10
0.227814
 20
4.146336
 30
0.000000
  0
VERTEX
  8
LAYER-1
 10
0.314117
 20
4.146336
 30
0.000000
  0
VERTEX
  8
LAYER-1
 10
0.314117
 20
3.846766
 30
0.000000
  0
VERTEX
  8
LAYER-1
 10
0.227814
 20
3.846766
 30
0.000000
  0
SEQEND
  8
LAYER-1
  0
POLYLINE
  8
LAYER-1
 66
  1
 70
  1
 62
  7
  0
VERTEX
  8
LAYER-1
 10
0.377908
 20
4.146336
 30
0.000000
  0
VERTEX
  8
LAYER-1
 10
0.464209
 20
4.146336
 30
0.000000
  0
VERTEX
  8
LAYER-1
 10
0.464209
 20
3.846766
 30
0.000000
  0
VERTEX
  8
LAYER-1
 10
0.377908
 20
3.846766
 30
0.000000
  0
SEQEND
  8
LAYER-1
  0
POLYLINE
  8
LAYER-1
 66
  1
 70
  1
 62
  7
  0
VERTEX
  8
LAYER-1
 10
0.527998
 20
4.146336
 30
0.000000
  0
VERTEX
  8
LAYER-1
 10
0.614300
 20
4.146336
 30
0.000000
  0
VERTEX
  8
LAYER-1
 10
0.614300
 20
3.846766
 30
0.000000
  0
VERTEX
  8
LAYER-1
 10
0.527998
 20
3.846766
 30
0.000000
  0
SEQEND
  8
LAYER-1
  0
POLYLINE
  8
LAYER-1
 66
  1
 70
  1
 62
  7
  0
VERTEX
  8
LAYER-1
 10
0.678090
 20
4.146336
 30
0.000000
  0
VERTEX
  8
LAYER-1
 10
0.764393
 20
4.146336
 30
0.000000
  0
VERTEX
  8
LAYER-1
 10
0.764393
 20
3.846766
 30
0.000000
  0
VERTEX
  8
LAYER-1
 10
0.678090
 20
3.846766
 30
0.000000
  0
SEQEND
  8
LAYER-1
  0
POLYLINE
  8
LAYER-1
 66
  1
 70
  1
 62
  7
  0
VERTEX
  8
LAYER-1
 10
0.828183
 20
4.146336
 30
0.000000
  0
VERTEX
  8
LAYER-1
 10
0.914486
 20
4.146336
 30
0.000000
  0
VERTEX
  8
LAYER-1
 10
0.914486
 20
3.846766
 30
0.000000
  0
VERTEX
  8
LAYER-1
 10
0.828183
 20
3.846766
 30
0.000000
  0
SEQEND
  8
LAYER-1
  0
POLYLINE
  8
LAYER-1
 66
  1
 70
  1
 62
  7
  0
VERTEX
  8
LAYER-1
 10
0.978276
 20
4.146336
 30
0.000000
  0
VERTEX
  8
LAYER-1
 10
1.064578
 20
4.146336
 30
0.000000
  0
VERTEX
  8
LAYER-1
 10
1.064578
 20
3.846766
 30
0.000000
  0
VERTEX
  8
LAYER-1
 10
0.978276
 20
3.846766
 30
0.000000
  0
SEQEND
  8
LAYER-1
  0
POLYLINE
  8
LAYER-1
 66
  1
 70
  1
 62
  7
  0
VERTEX
  8
LAYER-1
 10
0.002554
 20
4.445882
 30
0.000000
  0
VERTEX
  8
LAYER-1
 10
0.088854
 20
4.445882
 30
0.000000
  0
VERTEX
  8
LAYER-1
 10
0.088854
 20
4.146318
 30
0.000000
  0
VERTEX
  8
LAYER-1
 10
0.002554
 20
4.146318
 30
0.000000
  0
SEQEND
  8
LAYER-1
  0
POLYLINE
  8
LAYER-1
 66
  1
 70
  1
 62
  7
  0
VERTEX
  8
LAYER-1
 10
0.152645
 20
4.445882
 30
0.000000
  0
VERTEX
  8
LAYER-1
 10
0.238947
 20
4.445882
 30
0.000000
  0
VERTEX
  8
LAYER-1
 10
0.238947
 20
4.146318
 30
0.000000
  0
VERTEX
  8
LAYER-1
 10
0.152645
 20
4.146318
 30
0.000000
  0
SEQEND
  8
LAYER-1
  0
POLYLINE
  8
LAYER-1
 66
  1
 70
  1
 62
  7
  0
VERTEX
  8
LAYER-1
 10
0.302738
 20
4.445882
 30
0.000000
  0
VERTEX
  8
LAYER-1
 10
0.389041
 20
4.445882
 30
0.000000
  0
VERTEX
  8
LAYER-1
 10
0.389041
 20
4.146318
 30
0.000000
  0
VERTEX
  8
LAYER-1
 10
0.302738
 20
4.146318
 30
0.000000
  0
SEQEND
  8
LAYER-1
  0
POLYLINE
  8
LAYER-1
 66
  1
 70
  1
 62
  7
  0
VERTEX
  8
LAYER-1
 10
0.452831
 20
4.445882
 30
0.000000
  0
VERTEX
  8
LAYER-1
 10
0.539133
 20
4.445882
 30
0.000000
  0
VERTEX
  8
LAYER-1
 10
0.539133
 20
4.146318
 30
0.000000
  0
VERTEX
  8
LAYER-1
 10
0.452831
 20
4.146318
 30
0.000000
  0
SEQEND
  8
LAYER-1
  0
POLYLINE
  8
LAYER-1
 66
  1
 70
  1
 62
  7
  0
VERTEX
  8
LAYER-1
 10
0.602924
 20
4.445882
 30
0.000000
  0
VERTEX
  8
LAYER-1
 10
0.689225
 20
4.445882
 30
0.000000
  0
VERTEX
  8
LAYER-1
 10
0.689225
 20
4.146318
 30
0.000000
  0
VERTEX
  8
LAYER-1
 10
0.602924
 20
4.146318
 30
0.000000
  0
SEQEND
  8
LAYER-1
  0
POLYLINE
  8
LAYER-1
 66
  1
 70
  1
 62
  7
  0
VERTEX
  8
LAYER-1
 10
0.753015
 20
4.445882
 30
0.000000
  0
VERTEX
  8
LAYER-1
 10
0.839318
 20
4.445882
 30
0.000000
  0
VERTEX
  8
LAYER-1
 10
0.839318
 20
4.146318
 30
0.000000
  0
VERTEX
  8
LAYER-1
 10
0.753015
 20
4.146318
 30
0.000000
  0
SEQEND
  8
LAYER-1
  0
POLYLINE
  8
LAYER-1
 66
  1
 70
  1
 62
  7
  0
VERTEX
  8
LAYER-1
 10
0.903108
 20
4.445882
 30
0.000000
  0
VERTEX
  8
LAYER-1
 10
0.989411
 20
4.445882
 30
0.000000
  0
VERTEX
  8
LAYER-1
 10
0.989411
 20
4.146318
 30
0.000000
  0
VERTEX
  8
LAYER-1
 10
0.903108
 20
4.146318
 30
0.000000
  0
SEQEND
  8
LAYER-1
  0
POLYLINE
  8
LAYER-1
 66
  1
 70
  1
 62
  7
  0
VERTEX
  8
LAYER-1
 10
0.077721
 20
3.547234
 30
0.000000
  0
VERTEX
  8
LAYER-1
 10
0.164024
 20
3.547234
 30
0.000000
  0
VERTEX
  8
LAYER-1
 10
0.164024
 20
3.247670
 30
0.000000
  0
VERTEX
  8
LAYER-1
 10
0.077721
 20
3.247670
 30
0.000000
  0
SEQEND
  8
LAYER-1
  0
POLYLINE
  8
LAYER-1
 66
  1
 70
  1
 62
  7
  0
VERTEX
  8
LAYER-1
 10
0.227814
 20
3.547234
 30
0.000000
  0
VERTEX
  8
LAYER-1
 10
0.314117
 20
3.547234
 30
0.000000
  0
VERTEX
  8
LAYER-1
 10
0.314117
 20
3.247670
 30
0.000000
  0
VERTEX
  8
LAYER-1
 10
0.227814
 20
3.247670
 30
0.000000
  0
SEQEND
  8
LAYER-1
  0
POLYLINE
  8
LAYER-1
 66
  1
 70
  1
 62
  7
  0
VERTEX
  8
LAYER-1
 10
0.377908
 20
3.547234
 30
0.000000
  0
VERTEX
  8
LAYER-1
 10
0.464209
 20
3.547234
 30
0.000000
  0
VERTEX
  8
LAYER-1
 10
0.464209
 20
3.247670
 30
0.000000
  0
VERTEX
  8
LAYER-1
 10
0.377908
 20
3.247670
 30
0.000000
  0
SEQEND
  8
LAYER-1
  0
POLYLINE
  8
LAYER-1
 66
  1
 70
  1
 62
  7
  0
VERTEX
  8
LAYER-1
 10
0.527998
 20
3.547234
 30
0.000000
  0
VERTEX
  8
LAYER-1
 10
0.614300
 20
3.547234
 30
0.000000
  0
VERTEX
  8
LAYER-1
 10
0.614300
 20
3.247670
 30
0.000000
  0
VERTEX
  8
LAYER-1
 10
0.527998
 20
3.247670
 30
0.000000
  0
SEQEND
  8
LAYER-1
  0
POLYLINE
  8
LAYER-1
 66
  1
 70
  1
 62
  7
  0
VERTEX
  8
LAYER-1
 10
0.678090
 20
3.547234
 30
0.000000
  0
VERTEX
  8
LAYER-1
 10
0.764393
 20
3.547234
 30
0.000000
  0
VERTEX
  8
LAYER-1
 10
0.764393
 20
3.247670
 30
0.000000
  0
VERTEX
  8
LAYER-1
 10
0.678090
 20
3.247670
 30
0.000000
  0
SEQEND
  8
LAYER-1
  0
POLYLINE
  8
LAYER-1
 66
  1
 70
  1
 62
  7
  0
VERTEX
  8
LAYER-1
 10
0.828183
 20
3.547234
 30
0.000000
  0
VERTEX
  8
LAYER-1
 10
0.914486
 20
3.547234
 30
0.000000
  0
VERTEX
  8
LAYER-1
 10
0.914486
 20
3.247670
 30
0.000000
  0
VERTEX
  8
LAYER-1
 10
0.828183
 20
3.247670
 30
0.000000
  0
SEQEND
  8
LAYER-1
  0
POLYLINE
  8
LAYER-1
 66
  1
 70
  1
 62
  7
  0
VERTEX
  8
LAYER-1
 10
0.978276
 20
3.547234
 30
0.000000
  0
VERTEX
  8
LAYER-1
 10
1.064578
 20
3.547234
 30
0.000000
  0
VERTEX
  8
LAYER-1
 10
1.064578
 20
3.247670
 30
0.000000
  0
VERTEX
  8
LAYER-1
 10
0.978276
 20
3.247670
 30
0.000000
  0
SEQEND
  8
LAYER-1
  0
POLYLINE
  8
LAYER-1
 66
  1
 70
  1
 62
  7
  0
VERTEX
  8
LAYER-1
 10
0.002554
 20
3.846783
 30
0.000000
  0
VERTEX
  8
LAYER-1
 10
0.088854
 20
3.846783
 30
0.000000
  0
VERTEX
  8
LAYER-1
 10
0.088854
 20
3.547217
 30
0.000000
  0
VERTEX
  8
LAYER-1
 10
0.002554
 20
3.547217
 30
0.000000
  0
SEQEND
  8
LAYER-1
  0
POLYLINE
  8
LAYER-1
 66
  1
 70
  1
 62
  7
  0
VERTEX
  8
LAYER-1
 10
0.152645
 20
3.846783
 30
0.000000
  0
VERTEX
  8
LAYER-1
 10
0.238947
 20
3.846783
 30
0.000000
  0
VERTEX
  8
LAYER-1
 10
0.238947
 20
3.547217
 30
0.000000
  0
VERTEX
  8
LAYER-1
 10
0.152645
 20
3.547217
 30
0.000000
  0
SEQEND
  8
LAYER-1
  0
POLYLINE
  8
LAYER-1
 66
  1
 70
  1
 62
  7
  0
VERTEX
  8
LAYER-1
 10
0.302738
 20
3.846783
 30
0.000000
  0
VERTEX
  8
LAYER-1
 10
0.389041
 20
3.846783
 30
0.000000
  0
VERTEX
  8
LAYER-1
 10
0.389041
 20
3.547217
 30
0.000000
  0
VERTEX
  8
LAYER-1
 10
0.302738
 20
3.547217
 30
0.000000
  0
SEQEND
  8
LAYER-1
  0
POLYLINE
  8
LAYER-1
 66
  1
 70
  1
 62
  7
  0
VERTEX
  8
LAYER-1
 10
0.452831
 20
3.846783
 30
0.000000
  0
VERTEX
  8
LAYER-1
 10
0.539133
 20
3.846783
 30
0.000000
  0
VERTEX
  8
LAYER-1
 10
0.539133
 20
3.547217
 30
0.000000
  0
VERTEX
  8
LAYER-1
 10
0.452831
 20
3.547217
 30
0.000000
  0
SEQEND
  8
LAYER-1
  0
POLYLINE
  8
LAYER-1
 66
  1
 70
  1
 62
  7
  0
VERTEX
  8
LAYER-1
 10
0.602924
 20
3.846783
 30
0.000000
  0
VERTEX
  8
LAYER-1
 10
0.689225
 20
3.846783
 30
0.000000
  0
VERTEX
  8
LAYER-1
 10
0.689225
 20
3.547217
 30
0.000000
  0
VERTEX
  8
LAYER-1
 10
0.602924
 20
3.547217
 30
0.000000
  0
SEQEND
  8
LAYER-1
  0
POLYLINE
  8
LAYER-1
 66
  1
 70
  1
 62
  7
  0
VERTEX
  8
LAYER-1
 10
0.753015
 20
3.846783
 30
0.000000
  0
VERTEX
  8
LAYER-1
 10
0.839318
 20
3.846783
 30
0.000000
  0
VERTEX
  8
LAYER-1
 10
0.839318
 20
3.547217
 30
0.000000
  0
VERTEX
  8
LAYER-1
 10
0.753015
 20
3.547217
 30
0.000000
  0
SEQEND
  8
LAYER-1
  0
POLYLINE
  8
LAYER-1
 66
  1
 70
  1
 62
  7
  0
VERTEX
  8
LAYER-1
 10
0.903108
 20
3.846783
 30
0.000000
  0
VERTEX
  8
LAYER-1
 10
0.989411
 20
3.846783
 30
0.000000
  0
VERTEX
  8
LAYER-1
 10
0.989411
 20
3.547217
 30
0.000000
  0
VERTEX
  8
LAYER-1
 10
0.903108
 20
3.547217
 30
0.000000
  0
SEQEND
  8
LAYER-1
  0
POLYLINE
  8
LAYER-1
 66
  1
 70
  1
 62
  7
  0
VERTEX
  8
LAYER-1
 10
0.002554
 20
3.247687
 30
0.000000
  0
VERTEX
  8
LAYER-1
 10
0.088854
 20
3.247687
 30
0.000000
  0
VERTEX
  8
LAYER-1
 10
0.088854
 20
2.948124
 30
0.000000
  0
VERTEX
  8
LAYER-1
 10
0.002554
 20
2.948124
 30
0.000000
  0
SEQEND
  8
LAYER-1
  0
POLYLINE
  8
LAYER-1
 66
  1
 70
  1
 62
  7
  0
VERTEX
  8
LAYER-1
 10
0.152645
 20
3.247687
 30
0.000000
  0
VERTEX
  8
LAYER-1
 10
0.238947
 20
3.247687
 30
0.000000
  0
VERTEX
  8
LAYER-1
 10
0.238947
 20
2.948124
 30
0.000000
  0
VERTEX
  8
LAYER-1
 10
0.152645
 20
2.948124
 30
0.000000
  0
SEQEND
  8
LAYER-1
  0
POLYLINE
  8
LAYER-1
 66
  1
 70
  1
 62
  7
  0
VERTEX
  8
LAYER-1
 10
0.302738
 20
3.247687
 30
0.000000
  0
VERTEX
  8
LAYER-1
 10
0.389041
 20
3.247687
 30
0.000000
  0
VERTEX
  8
LAYER-1
 10
0.389041
 20
2.948124
 30
0.000000
  0
VERTEX
  8
LAYER-1
 10
0.302738
 20
2.948124
 30
0.000000
  0
SEQEND
  8
LAYER-1
  0
POLYLINE
  8
LAYER-1
 66
  1
 70
  1
 62
  7
  0
VERTEX
  8
LAYER-1
 10
0.452831
 20
3.247687
 30
0.000000
  0
VERTEX
  8
LAYER-1
 10
0.539133
 20
3.247687
 30
0.000000
  0
VERTEX
  8
LAYER-1
 10
0.539133
 20
2.948124
 30
0.000000
  0
VERTEX
  8
LAYER-1
 10
0.452831
 20
2.948124
 30
0.000000
  0
SEQEND
  8
LAYER-1
  0
POLYLINE
  8
LAYER-1
 66
  1
 70
  1
 62
  7
  0
VERTEX
  8
LAYER-1
 10
0.602924
 20
3.247687
 30
0.000000
  0
VERTEX
  8
LAYER-1
 10
0.689225
 20
3.247687
 30
0.000000
  0
VERTEX
  8
LAYER-1
 10
0.689225
 20
2.948124
 30
0.000000
  0
VERTEX
  8
LAYER-1
 10
0.602924
 20
2.948124
 30
0.000000
  0
SEQEND
  8
LAYER-1
  0
POLYLINE
  8
LAYER-1
 66
  1
 70
  1
 62
  7
  0
VERTEX
  8
LAYER-1
 10
0.753015
 20
3.247687
 30
0.000000
  0
VERTEX
  8
LAYER-1
 10
0.839318
 20
3.247687
 30
0.000000
  0
VERTEX
  8
LAYER-1
 10
0.839318
 20
2.948124
 30
0.000000
  0
VERTEX
  8
LAYER-1
 10
0.753015
 20
2.948124
 30
0.000000
  0
SEQEND
  8
LAYER-1
  0
POLYLINE
  8
LAYER-1
 66
  1
 70
  1
 62
  7
  0
VERTEX
  8
LAYER-1
 10
0.903108
 20
3.247687
 30
0.000000
  0
VERTEX
  8
LAYER-1
 10
0.989411
 20
3.247687
 30
0.000000
  0
VERTEX
  8
LAYER-1
 10
0.989411
 20
2.948124
 30
0.000000
  0
VERTEX
  8
LAYER-1
 10
0.903108
 20
2.948124
 30
0.000000
  0
SEQEND
  8
LAYER-1
  0
POLYLINE
  8
LAYER-1
 66
  1
 70
  0
 62
  7
 10
1.053327
 20
4.146152
 30
0.000000
  0
VERTEX
  8
LAYER-1
 10
1.053327
 20
4.146152
 30
0.000000
  0
VERTEX
  8
LAYER-1
 10
1.053327
 20
3.846698
 30
0.000000
  0
SEQEND
  8
LAYER-1
  0
POLYLINE
  8
LAYER-1
 66
  1
 70
  0
 62
  7
 10
0.013899
 20
3.846311
 30
0.000000
  0
VERTEX
  8
LAYER-1
 10
0.013899
 20
3.846311
 30
0.000000
  0
VERTEX
  8
LAYER-1
 10
0.013889
 20
3.547050
 30
0.000000
  0
SEQEND
  8
LAYER-1
  0
POLYLINE
  8
LAYER-1
 66
  1
 70
  0
 62
  7
 10
1.053327
 20
3.547050
 30
0.000000
  0
VERTEX
  8
LAYER-1
 10
1.053327
 20
3.547050
 30
0.000000
  0
VERTEX
  8
LAYER-1
 10
1.053327
 20
3.247601
 30
0.000000
  0
SEQEND
  8
LAYER-1
  0
TEXT
  8
LAYER-1
 62
  0
 10
0.055241
 20
2.632162
 30
0.000000
 40
0.104167
  1
CONCEPT 1212
 72
  5
 11
1.180241
 21
2.632162
 31
0.000000
  0
POLYLINE
  8
LAYER-1
 66
  1
 70
  1
 62
  7
  0
VERTEX
  8
LAYER-1
 10
0.002543
 20
4.545484
 30
0.000000
  0
VERTEX
  8
LAYER-1
 10
0.152781
 20
4.545484
 30
0.000000
  0
VERTEX
  8
LAYER-1
 10
0.152781
 20
4.445831
 30
0.000000
  0
VERTEX
  8
LAYER-1
 10
0.002543
 20
4.445831
 30
0.000000
  0
SEQEND
  8
LAYER-1
  0
POLYLINE
  8
LAYER-1
 66
  1
 70
  1
 62
  7
  0
VERTEX
  8
LAYER-1
 10
0.152716
 20
4.545484
 30
0.000000
  0
VERTEX
  8
LAYER-1
 10
0.302953
 20
4.545484
 30
0.000000
  0
VERTEX
  8
LAYER-1
 10
0.302953
 20
4.445831
 30
0.000000
  0
VERTEX
  8
LAYER-1
 10
0.152716
 20
4.445831
 30
0.000000
  0
SEQEND
  8
LAYER-1
  0
POLYLINE
  8
LAYER-1
 66
  1
 70
  1
 62
  7
  0
VERTEX
  8
LAYER-1
 10
0.302742
 20
4.545484
 30
0.000000
  0
VERTEX
  8
LAYER-1
 10
0.452832
 20
4.545484
 30
0.000000
  0
VERTEX
  8
LAYER-1
 10
0.452832
 20
4.445831
 30
0.000000
  0
VERTEX
  8
LAYER-1
 10
0.302742
 20
4.445831
 30
0.000000
  0
SEQEND
  8
LAYER-1
  0
POLYLINE
  8
LAYER-1
 66
  1
 70
  1
 62
  7
  0
VERTEX
  8
LAYER-1
 10
0.452914
 20
4.545484
 30
0.000000
  0
VERTEX
  8
LAYER-1
 10
0.603005
 20
4.545484
 30
0.000000
  0
VERTEX
  8
LAYER-1
 10
0.603005
 20
4.445831
 30
0.000000
  0
VERTEX
  8
LAYER-1
 10
0.452914
 20
4.445831
 30
0.000000
  0
SEQEND
  8
LAYER-1
  0
POLYLINE
  8
LAYER-1
 66
  1
 70
  1
 62
  7
  0
VERTEX
  8
LAYER-1
 10
0.603087
 20
4.545484
 30
0.000000
  0
VERTEX
  8
LAYER-1
 10
0.753029
 20
4.545484
 30
0.000000
  0
VERTEX
  8
LAYER-1
 10
0.753029
 20
4.445831
 30
0.000000
  0
VERTEX
  8
LAYER-1
 10
0.603087
 20
4.445831
 30
0.000000
  0
SEQEND
  8
LAYER-1
  0
POLYLINE
  8
LAYER-1
 66
  1
 70
  1
 62
  7
  0
VERTEX
  8
LAYER-1
 10
0.752965
 20
4.545484
 30
0.000000
  0
VERTEX
  8
LAYER-1
 10
0.903202
 20
4.545484
 30
0.000000
  0
VERTEX
  8
LAYER-1
 10
0.903202
 20
4.445831
 30
0.000000
  0
VERTEX
  8
LAYER-1
 10
0.752965
 20
4.445831
 30
0.000000
  0
SEQEND
  8
LAYER-1
  0
POLYLINE
  8
LAYER-1
 66
  1
 70
  1
 62
  7
  0
VERTEX
  8
LAYER-1
 10
0.903137
 20
4.545484
 30
0.000000
  0
VERTEX
  8
LAYER-1
 10
1.064679
 20
4.545484
 30
0.000000
  0
VERTEX
  8
LAYER-1
 10
1.064679
 20
4.445831
 30
0.000000
  0
VERTEX
  8
LAYER-1
 10
0.903137
 20
4.445831
 30
0.000000
  0
SEQEND
  8
LAYER-1
  0
POLYLINE
  8
LAYER-1
 66
  1
 70
  0
 62
  7
 10
0.013889
 20
4.545545
 30
0.000000
  0
VERTEX
  8
LAYER-1
 10
0.013889
 20
4.545545
 30
0.000000
  0
VERTEX
  8
LAYER-1
 10
0.014036
 20
4.146269
 30
0.000000
  0
SEQEND
  8
LAYER-1
  0
POLYLINE
  8
LAYER-1
 66
  1
 70
  1
 62
  7
  0
VERTEX
  8
LAYER-1
 10
0.002543
 20
2.948068
 30
0.000000
  0
VERTEX
  8
LAYER-1
 10
0.152781
 20
2.948068
 30
0.000000
  0
VERTEX
  8
LAYER-1
 10
0.152781
 20
2.848414
 30
0.000000
  0
VERTEX
  8
LAYER-1
 10
0.002543
 20
2.848414
 30
0.000000
  0
SEQEND
  8
LAYER-1
  0
POLYLINE
  8
LAYER-1
 66
  1
 70
  1
 62
  7
  0
VERTEX
  8
LAYER-1
 10
0.152716
 20
2.948068
 30
0.000000
  0
VERTEX
  8
LAYER-1
 10
0.302953
 20
2.948068
 30
0.000000
  0
VERTEX
  8
LAYER-1
 10
0.302953
 20
2.848414
 30
0.000000
  0
VERTEX
  8
LAYER-1
 10
0.152716
 20
2.848414
 30
0.000000
  0
SEQEND
  8
LAYER-1
  0
POLYLINE
  8
LAYER-1
 66
  1
 70
  1
 62
  7
  0
VERTEX
  8
LAYER-1
 10
0.302742
 20
2.948068
 30
0.000000
  0
VERTEX
  8
LAYER-1
 10
0.452832
 20
2.948068
 30
0.000000
  0
VERTEX
  8
LAYER-1
 10
0.452832
 20
2.848414
 30
0.000000
  0
VERTEX
  8
LAYER-1
 10
0.302742
 20
2.848414
 30
0.000000
  0
SEQEND
  8
LAYER-1
  0
POLYLINE
  8
LAYER-1
 66
  1
 70
  1
 62
  7
  0
VERTEX
  8
LAYER-1
 10
0.452914
 20
2.948068
 30
0.000000
  0
VERTEX
  8
LAYER-1
 10
0.603005
 20
2.948068
 30
0.000000
  0
VERTEX
  8
LAYER-1
 10
0.603005
 20
2.848414
 30
0.000000
  0
VERTEX
  8
LAYER-1
 10
0.452914
 20
2.848414
 30
0.000000
  0
SEQEND
  8
LAYER-1
  0
POLYLINE
  8
LAYER-1
 66
  1
 70
  1
 62
  7
  0
VERTEX
  8
LAYER-1
 10
0.603087
 20
2.948068
 30
0.000000
  0
VERTEX
  8
LAYER-1
 10
0.753029
 20
2.948068
 30
0.000000
  0
VERTEX
  8
LAYER-1
 10
0.753029
 20
2.848414
 30
0.000000
  0
VERTEX
  8
LAYER-1
 10
0.603087
 20
2.848414
 30
0.000000
  0
SEQEND
  8
LAYER-1
  0
POLYLINE
  8
LAYER-1
 66
  1
 70
  1
 62
  7
  0
VERTEX
  8
LAYER-1
 10
0.752965
 20
2.948068
 30
0.000000
  0
VERTEX
  8
LAYER-1
 10
0.903202
 20
2.948068
 30
0.000000
  0
VERTEX
  8
LAYER-1
 10
0.903202
 20
2.848414
 30
0.000000
  0
VERTEX
  8
LAYER-1
 10
0.752965
 20
2.848414
 30
0.000000
  0
SEQEND
  8
LAYER-1
  0
POLYLINE
  8
LAYER-1
 66
  1
 70
  1
 62
  7
  0
VERTEX
  8
LAYER-1
 10
0.903137
 20
2.948068
 30
0.000000
  0
VERTEX
  8
LAYER-1
 10
1.064679
 20
2.948068
 30
0.000000
  0
VERTEX
  8
LAYER-1
 10
1.064679
 20
2.848414
 30
0.000000
  0
VERTEX
  8
LAYER-1
 10
0.903137
 20
2.848414
 30
0.000000
  0
SEQEND
  8
LAYER-1
  0
POLYLINE
  8
LAYER-1
 66
  1
 70
  0
 62
  7
 10
0.077685
 20
4.545495
 30
0.000000
  0
VERTEX
  8
LAYER-1
 10
0.077685
 20
4.545495
 30
0.000000
  0
VERTEX
  8
LAYER-1
 10
0.077685
 20
2.848325
 30
0.000000
  0
SEQEND
  8
LAYER-1
  0
POLYLINE
  8
LAYER-1
 66
  1
 70
  0
 62
  7
 10
0.088945
 20
4.545495
 30
0.000000
  0
VERTEX
  8
LAYER-1
 10
0.088945
 20
4.545495
 30
0.000000
  0
VERTEX
  8
LAYER-1
 10
0.088945
 20
2.848325
 30
0.000000
  0
SEQEND
  8
LAYER-1
  0
POLYLINE
  8
LAYER-1
 66
  1
 70
  0
 62
  7
 10
0.152732
 20
4.545495
 30
0.000000
  0
VERTEX
  8
LAYER-1
 10
0.152732
 20
4.545495
 30
0.000000
  0
VERTEX
  8
LAYER-1
 10
0.152732
 20
2.848325
 30
0.000000
  0
SEQEND
  8
LAYER-1
  0
POLYLINE
  8
LAYER-1
 66
  1
 70
  0
 62
  7
 10
0.163992
 20
4.545495
 30
0.000000
  0
VERTEX
  8
LAYER-1
 10
0.163992
 20
4.545495
 30
0.000000
  0
VERTEX
  8
LAYER-1
 10
0.163992
 20
2.848325
 30
0.000000
  0
SEQEND
  8
LAYER-1
  0
POLYLINE
  8
LAYER-1
 66
  1
 70
  0
 62
  7
 10
0.227778
 20
4.545495
 30
0.000000
  0
VERTEX
  8
LAYER-1
 10
0.227778
 20
4.545495
 30
0.000000
  0
VERTEX
  8
LAYER-1
 10
0.227778
 20
2.848325
 30
0.000000
  0
SEQEND
  8
LAYER-1
  0
POLYLINE
  8
LAYER-1
 66
  1
 70
  0
 62
  7
 10
0.239037
 20
4.545495
 30
0.000000
  0
VERTEX
  8
LAYER-1
 10
0.239037
 20
4.545495
 30
0.000000
  0
VERTEX
  8
LAYER-1
 10
0.239037
 20
2.848325
 30
0.000000
  0
SEQEND
  8
LAYER-1
  0
POLYLINE
  8
LAYER-1
 66
  1
 70
  0
 62
  7
 10
0.377870
 20
4.545495
 30
0.000000
  0
VERTEX
  8
LAYER-1
 10
0.377870
 20
4.545495
 30
0.000000
  0
VERTEX
  8
LAYER-1
 10
0.377870
 20
2.848325
 30
0.000000
  0
SEQEND
  8
LAYER-1
  0
POLYLINE
  8
LAYER-1
 66
  1
 70
  0
 62
  7
 10
0.389131
 20
4.545495
 30
0.000000
  0
VERTEX
  8
LAYER-1
 10
0.389131
 20
4.545495
 30
0.000000
  0
VERTEX
  8
LAYER-1
 10
0.389131
 20
2.848325
 30
0.000000
  0
SEQEND
  8
LAYER-1
  0
POLYLINE
  8
LAYER-1
 66
  1
 70
  0
 62
  7
 10
0.452917
 20
4.545495
 30
0.000000
  0
VERTEX
  8
LAYER-1
 10
0.452917
 20
4.545495
 30
0.000000
  0
VERTEX
  8
LAYER-1
 10
0.452917
 20
2.848325
 30
0.000000
  0
SEQEND
  8
LAYER-1
  0
POLYLINE
  8
LAYER-1
 66
  1
 70
  0
 62
  7
 10
0.464177
 20
4.545495
 30
0.000000
  0
VERTEX
  8
LAYER-1
 10
0.464177
 20
4.545495
 30
0.000000
  0
VERTEX
  8
LAYER-1
 10
0.464177
 20
2.848325
 30
0.000000
  0
SEQEND
  8
LAYER-1
  0
POLYLINE
  8
LAYER-1
 66
  1
 70
  0
 62
  7
 10
0.527962
 20
4.545495
 30
0.000000
  0
VERTEX
  8
LAYER-1
 10
0.527962
 20
4.545495
 30
0.000000
  0
VERTEX
  8
LAYER-1
 10
0.527962
 20
2.848325
 30
0.000000
  0
SEQEND
  8
LAYER-1
  0
POLYLINE
  8
LAYER-1
 66
  1
 70
  0
 62
  7
 10
0.539223
 20
4.545495
 30
0.000000
  0
VERTEX
  8
LAYER-1
 10
0.539223
 20
4.545495
 30
0.000000
  0
VERTEX
  8
LAYER-1
 10
0.539223
 20
2.848325
 30
0.000000
  0
SEQEND
  8
LAYER-1
  0
POLYLINE
  8
LAYER-1
 66
  1
 70
  0
 62
  7
 10
0.603009
 20
4.545495
 30
0.000000
  0
VERTEX
  8
LAYER-1
 10
0.603009
 20
4.545495
 30
0.000000
  0
VERTEX
  8
LAYER-1
 10
0.603009
 20
2.848325
 30
0.000000
  0
SEQEND
  8
LAYER-1
  0
POLYLINE
  8
LAYER-1
 66
  1
 70
  0
 62
  7
 10
0.614269
 20
4.545495
 30
0.000000
  0
VERTEX
  8
LAYER-1
 10
0.614269
 20
4.545495
 30
0.000000
  0
VERTEX
  8
LAYER-1
 10
0.614269
 20
2.848325
 30
0.000000
  0
SEQEND
  8
LAYER-1
  0
POLYLINE
  8
LAYER-1
 66
  1
 70
  0
 62
  7
 10
0.678055
 20
4.545495
 30
0.000000
  0
VERTEX
  8
LAYER-1
 10
0.678055
 20
4.545495
 30
0.000000
  0
VERTEX
  8
LAYER-1
 10
0.678055
 20
2.848325
 30
0.000000
  0
SEQEND
  8
LAYER-1
  0
POLYLINE
  8
LAYER-1
 66
  1
 70
  0
 62
  7
 10
0.689316
 20
4.545495
 30
0.000000
  0
VERTEX
  8
LAYER-1
 10
0.689316
 20
4.545495
 30
0.000000
  0
VERTEX
  8
LAYER-1
 10
0.689316
 20
2.848325
 30
0.000000
  0
SEQEND
  8
LAYER-1
  0
POLYLINE
  8
LAYER-1
 66
  1
 70
  0
 62
  7
 10
0.828148
 20
4.545495
 30
0.000000
  0
VERTEX
  8
LAYER-1
 10
0.828148
 20
4.545495
 30
0.000000
  0
VERTEX
  8
LAYER-1
 10
0.828148
 20
2.848325
 30
0.000000
  0
SEQEND
  8
LAYER-1
  0
POLYLINE
  8
LAYER-1
 66
  1
 70
  0
 62
  7
 10
0.839408
 20
4.545495
 30
0.000000
  0
VERTEX
  8
LAYER-1
 10
0.839408
 20
4.545495
 30
0.000000
  0
VERTEX
  8
LAYER-1
 10
0.839408
 20
2.848325
 30
0.000000
  0
SEQEND
  8
LAYER-1
  0
POLYLINE
  8
LAYER-1
 66
  1
 70
  0
 62
  7
 10
0.903194
 20
4.545495
 30
0.000000
  0
VERTEX
  8
LAYER-1
 10
0.903194
 20
4.545495
 30
0.000000
  0
VERTEX
  8
LAYER-1
 10
0.903194
 20
2.848325
 30
0.000000
  0
SEQEND
  8
LAYER-1
  0
POLYLINE
  8
LAYER-1
 66
  1
 70
  0
 62
  7
 10
0.914455
 20
4.545495
 30
0.000000
  0
VERTEX
  8
LAYER-1
 10
0.914455
 20
4.545495
 30
0.000000
  0
VERTEX
  8
LAYER-1
 10
0.914455
 20
2.848325
 30
0.000000
  0
SEQEND
  8
LAYER-1
  0
POLYLINE
  8
LAYER-1
 66
  1
 70
  0
 62
  7
 10
0.978240
 20
4.545495
 30
0.000000
  0
VERTEX
  8
LAYER-1
 10
0.978240
 20
4.545495
 30
0.000000
  0
VERTEX
  8
LAYER-1
 10
0.978240
 20
2.848325
 30
0.000000
  0
SEQEND
  8
LAYER-1
  0
POLYLINE
  8
LAYER-1
 66
  1
 70
  0
 62
  7
 10
0.989501
 20
4.545495
 30
0.000000
  0
VERTEX
  8
LAYER-1
 10
0.989501
 20
4.545495
 30
0.000000
  0
VERTEX
  8
LAYER-1
 10
0.989501
 20
2.848325
 30
0.000000
  0
SEQEND
  8
LAYER-1
  0
POLYLINE
  8
LAYER-1
 66
  1
 70
  0
 62
  7
 10
0.302824
 20
4.545495
 30
0.000000
  0
VERTEX
  8
LAYER-1
 10
0.302824
 20
4.545495
 30
0.000000
  0
VERTEX
  8
LAYER-1
 10
0.302824
 20
2.848095
 30
0.000000
  0
SEQEND
  8
LAYER-1
  0
POLYLINE
  8
LAYER-1
 66
  1
 70
  0
 62
  7
 10
0.314084
 20
4.545495
 30
0.000000
  0
VERTEX
  8
LAYER-1
 10
0.314084
 20
4.545495
 30
0.000000
  0
VERTEX
  8
LAYER-1
 10
0.314084
 20
2.848095
 30
0.000000
  0
SEQEND
  8
LAYER-1
  0
POLYLINE
  8
LAYER-1
 66
  1
 70
  0
 62
  7
 10
0.753101
 20
4.545245
 30
0.000000
  0
VERTEX
  8
LAYER-1
 10
0.753101
 20
4.545245
 30
0.000000
  0
VERTEX
  8
LAYER-1
 10
0.753101
 20
2.848098
 30
0.000000
  0
SEQEND
  8
LAYER-1
  0
POLYLINE
  8
LAYER-1
 66
  1
 70
  0
 62
  7
 10
0.764362
 20
4.545245
 30
0.000000
  0
VERTEX
  8
LAYER-1
 10
0.764362
 20
4.545245
 30
0.000000
  0
VERTEX
  8
LAYER-1
 10
0.764362
 20
2.848098
 30
0.000000
  0
SEQEND
  8
LAYER-1
  0
POLYLINE
  8
LAYER-1
 66
  1
 70
  0
 62
  7
 10
1.053327
 20
4.545699
 30
0.000000
  0
VERTEX
  8
LAYER-1
 10
1.053327
 20
4.545699
 30
0.000000
  0
VERTEX
  8
LAYER-1
 10
1.053327
 20
4.445880
 30
0.000000
  0
SEQEND
  8
LAYER-1
  0
POLYLINE
  8
LAYER-1
 66
  1
 70
  0
 62
  7
 10
0.014036
 20
3.247743
 30
0.000000
  0
VERTEX
  8
LAYER-1
 10
0.014036
 20
3.247743
 30
0.000000
  0
VERTEX
  8
LAYER-1
 10
0.013889
 20
2.848309
 30
0.000000
  0
SEQEND
  8
LAYER-1
  0
POLYLINE
  8
LAYER-1
 66
  1
 70
  0
 62
  7
 10
1.053474
 20
2.948132
 30
0.000000
  0
VERTEX
  8
LAYER-1
 10
1.053474
 20
2.948132
 30
0.000000
  0
VERTEX
  8
LAYER-1
 10
1.053327
 20
2.848466
 30
0.000000
  0
SEQEND
  8
LAYER-1
  0
TEXT
  8
LAYER-1
 62
  0
 10
0.208019
 20
2.562718
 30
0.000000
 40
0.083333
  1
(Openstyle)
 72
  5
 11
0.833019
 21
2.562718
 31
0.000000
  0
POLYLINE
  8
LAYER-1
 66
  1
 70
  0
 62
  0
 10
0.735963
 20
0.037542
 30
0.000000
  0
VERTEX
  8
LAYER-1
 10
0.735963
 20
0.037542
 30
0.000000
  0
VERTEX
  8
LAYER-1
 10
0.762451
 20
0.034087
 30
0.000000
  0
VERTEX
  8
LAYER-1
 10
0.781791
 20
0.034087
 30
0.000000
  0
VERTEX
  8
LAYER-1
 10
0.801132
 20
0.037559
 30
0.000000
  0
VERTEX
  8
LAYER-1
 10
0.820472
 20
0.037559
 30
0.000000
  0
VERTEX
  8
LAYER-1
 10
0.866889
 20
0.044502
 30
0.000000
  0
VERTEX
  8
LAYER-1
 10
0.901702
 20
0.054920
 30
0.000000
  0
VERTEX
  8
LAYER-1
 10
0.923943
 20
0.059260
 30
0.000000
  0
VERTEX
  8
LAYER-1
 10
0.945701
 20
0.060996
 30
0.000000
  0
VERTEX
  8
LAYER-1
 10
0.975195
 20
0.058391
 30
0.000000
  0
VERTEX
  8
LAYER-1
 10
1.006139
 20
0.054920
 30
0.000000
  0
VERTEX
  8
LAYER-1
 10
1.033216
 20
0.047976
 30
0.000000
  0
VERTEX
  8
LAYER-1
 10
1.052556
 20
0.044502
 30
0.000000
  0
VERTEX
  8
LAYER-1
 10
1.083501
 20
0.041031
 30
0.000000
  0
VERTEX
  8
LAYER-1
 10
1.102841
 20
0.037559
 30
0.000000
  0
VERTEX
  8
LAYER-1
 10
1.126050
 20
0.034087
 30
0.000000
  0
VERTEX
  8
LAYER-1
 10
1.153126
 20
0.034087
 30
0.000000
  0
VERTEX
  8
LAYER-1
 10
1.180202
 20
0.034087
 30
0.000000
  0
VERTEX
  8
LAYER-1
 10
1.203411
 20
0.034087
 30
0.000000
  0
VERTEX
  8
LAYER-1
 10
1.226619
 20
0.030615
 30
0.000000
  0
VERTEX
  8
LAYER-1
 10
1.265301
 20
0.030615
 30
0.000000
  0
VERTEX
  8
LAYER-1
 10
1.296245
 20
0.030615
 30
0.000000
  0
VERTEX
  8
LAYER-1
 10
1.315586
 20
0.027141
 30
0.000000
  0
VERTEX
  8
LAYER-1
 10
1.346530
 20
0.023670
 30
0.000000
  0
VERTEX
  8
LAYER-1
 10
1.377475
 20
0.020198
 30
0.000000
  0
VERTEX
  8
LAYER-1
 10
1.416156
 20
0.020198
 30
0.000000
  0
VERTEX
  8
LAYER-1
 10
1.447100
 20
0.020198
 30
0.000000
  0
VERTEX
  8
LAYER-1
 10
1.485781
 20
0.020198
 30
0.000000
  0
VERTEX
  8
LAYER-1
 10
1.516726
 20
0.027141
 30
0.000000
  0
VERTEX
  8
LAYER-1
 10
1.539934
 20
0.027141
 30
0.000000
  0
VERTEX
  8
LAYER-1
 10
1.559274
 20
0.030615
 30
0.000000
  0
VERTEX
  8
LAYER-1
 10
1.582483
 20
0.030615
 30
0.000000
  0
VERTEX
  8
LAYER-1
 10
1.601823
 20
0.030615
 30
0.000000
  0
VERTEX
  8
LAYER-1
 10
1.644372
 20
0.030615
 30
0.000000
  0
VERTEX
  8
LAYER-1
 10
1.690789
 20
0.023670
 30
0.000000
  0
VERTEX
  8
LAYER-1
 10
1.733337
 20
0.020198
 30
0.000000
  0
VERTEX
  8
LAYER-1
 10
1.795227
 20
0.013252
 30
0.000000
  0
VERTEX
  8
LAYER-1
 10
1.853248
 20
0.006309
 30
0.000000
  0
VERTEX
  8
LAYER-1
 10
1.903532
 20
0.006309
 30
0.000000
  0
VERTEX
  8
LAYER-1
 10
1.930609
 20
0.006309
 30
0.000000
  0
VERTEX
  8
LAYER-1
 10
1.965422
 20
0.006309
 30
0.000000
  0
VERTEX
  8
LAYER-1
 10
1.985729
 20
0.007178
 30
0.000000
  0
VERTEX
  8
LAYER-1
 10
2.022959
 20
0.009346
 30
0.000000
  0
VERTEX
  8
LAYER-1
 10
2.069859
 20
0.020198
 30
0.000000
  0
VERTEX
  8
LAYER-1
 10
2.112408
 20
0.034087
 30
0.000000
  0
VERTEX
  8
LAYER-1
 10
2.147221
 20
0.044502
 30
0.000000
  0
VERTEX
  8
LAYER-1
 10
2.174297
 20
0.054920
 30
0.000000
  0
VERTEX
  8
LAYER-1
 10
2.197506
 20
0.061865
 30
0.000000
  0
VERTEX
  8
LAYER-1
 10
2.220714
 20
0.061865
 30
0.000000
  0
VERTEX
  8
LAYER-1
 10
2.243923
 20
0.061865
 30
0.000000
  0
VERTEX
  8
LAYER-1
 10
2.267131
 20
0.061865
 30
0.000000
  0
VERTEX
  8
LAYER-1
 10
2.301943
 20
0.054920
 30
0.000000
  0
VERTEX
  8
LAYER-1
 10
2.332888
 20
0.047976
 30
0.000000
  0
VERTEX
  8
LAYER-1
 10
2.356097
 20
0.041031
 30
0.000000
  0
VERTEX
  8
LAYER-1
 10
2.375437
 20
0.037559
 30
0.000000
  0
VERTEX
  8
LAYER-1
 10
2.398645
 20
0.030615
 30
0.000000
  0
VERTEX
  8
LAYER-1
 10
2.417986
 20
0.023670
 30
0.000000
  0
VERTEX
  8
LAYER-1
 10
2.441194
 20
0.020198
 30
0.000000
  0
VERTEX
  8
LAYER-1
 10
2.460534
 20
0.020198
 30
0.000000
  0
VERTEX
  8
LAYER-1
 10
2.491479
 20
0.016726
 30
0.000000
  0
VERTEX
  8
LAYER-1
 10
2.518556
 20
0.016726
 30
0.000000
  0
VERTEX
  8
LAYER-1
 10
2.553368
 20
0.016726
 30
0.000000
  0
VERTEX
  8
LAYER-1
 10
2.580445
 20
0.020198
 30
0.000000
  0
VERTEX
  8
LAYER-1
 10
2.615257
 20
0.030615
 30
0.000000
  0
VERTEX
  8
LAYER-1
 10
2.634597
 20
0.030615
 30
0.000000
  0
VERTEX
  8
LAYER-1
 10
2.657806
 20
0.030615
 30
0.000000
  0
VERTEX
  8
LAYER-1
 10
2.677146
 20
0.030615
 30
0.000000
  0
VERTEX
  8
LAYER-1
 10
2.700355
 20
0.034087
 30
0.000000
  0
VERTEX
  8
LAYER-1
 10
2.723563
 20
0.037559
 30
0.000000
  0
VERTEX
  8
LAYER-1
 10
2.754508
 20
0.037559
 30
0.000000
  0
VERTEX
  8
LAYER-1
 10
2.785453
 20
0.037559
 30
0.000000
  0
VERTEX
  8
LAYER-1
 10
2.808661
 20
0.037559
 30
0.000000
  0
VERTEX
  8
LAYER-1
 10
2.831869
 20
0.037559
 30
0.000000
  0
VERTEX
  8
LAYER-1
 10
2.851209
 20
0.034087
 30
0.000000
  0
VERTEX
  8
LAYER-1
 10
2.870550
 20
0.030615
 30
0.000000
  0
VERTEX
  8
LAYER-1
 10
2.889890
 20
0.027141
 30
0.000000
  0
VERTEX
  8
LAYER-1
 10
2.909231
 20
0.023670
 30
0.000000
  0
VERTEX
  8
LAYER-1
 10
2.940175
 20
0.016726
 30
0.000000
  0
VERTEX
  8
LAYER-1
 10
2.963384
 20
0.013252
 30
0.000000
  0
VERTEX
  8
LAYER-1
 10
2.986592
 20
0.013252
 30
0.000000
  0
VERTEX
  8
LAYER-1
 10
3.005933
 20
0.013252
 30
0.000000
  0
VERTEX
  8
LAYER-1
 10
3.033009
 20
0.013252
 30
0.000000
  0
VERTEX
  8
LAYER-1
 10
3.063954
 20
0.016726
 30
0.000000
  0
VERTEX
  8
LAYER-1
 10
3.118107
 20
0.027141
 30
0.000000
  0
VERTEX
  8
LAYER-1
 10
3.164524
 20
0.037559
 30
0.000000
  0
VERTEX
  8
LAYER-1
 10
3.207072
 20
0.044502
 30
0.000000
  0
VERTEX
  8
LAYER-1
 10
3.238018
 20
0.047976
 30
0.000000
  0
VERTEX
  8
LAYER-1
 10
3.276697
 20
0.051448
 30
0.000000
  0
VERTEX
  8
LAYER-1
 10
3.307643
 20
0.054920
 30
0.000000
  0
VERTEX
  8
LAYER-1
 10
3.333268
 20
0.055789
 30
0.000000
  0
VERTEX
  8
LAYER-1
 10
3.350675
 20
0.053619
 30
0.000000
  0
VERTEX
  8
LAYER-1
 10
3.371949
 20
0.048843
 30
0.000000
  0
VERTEX
  8
LAYER-1
 10
3.392740
 20
0.037559
 30
0.000000
  0
VERTEX
  8
LAYER-1
 10
3.415948
 20
0.034087
 30
0.000000
  0
VERTEX
  8
LAYER-1
 10
3.435289
 20
0.034087
 30
0.000000
  0
VERTEX
  8
LAYER-1
 10
3.454629
 20
0.034087
 30
0.000000
  0
VERTEX
  8
LAYER-1
 10
3.473970
 20
0.034087
 30
0.000000
  0
VERTEX
  8
LAYER-1
 10
3.504915
 20
0.034087
 30
0.000000
  0
VERTEX
  8
LAYER-1
 10
3.528123
 20
0.034087
 30
0.000000
  0
VERTEX
  8
LAYER-1
 10
3.551332
 20
0.034087
 30
0.000000
  0
VERTEX
  8
LAYER-1
 10
3.570672
 20
0.034087
 30
0.000000
  0
VERTEX
  8
LAYER-1
 10
3.593881
 20
0.034087
 30
0.000000
  0
VERTEX
  8
LAYER-1
 10
3.617088
 20
0.034087
 30
0.000000
  0
VERTEX
  8
LAYER-1
 10
3.636430
 20
0.034087
 30
0.000000
  0
VERTEX
  8
LAYER-1
 10
3.663506
 20
0.034087
 30
0.000000
  0
VERTEX
  8
LAYER-1
 10
3.686714
 20
0.030615
 30
0.000000
  0
VERTEX
  8
LAYER-1
 10
3.708956
 20
0.022803
 30
0.000000
  0
VERTEX
  8
LAYER-1
 10
3.749571
 20
0.020198
 30
0.000000
  0
VERTEX
  8
LAYER-1
 10
3.787284
 20
0.023670
 30
0.000000
  0
VERTEX
  8
LAYER-1
 10
3.806625
 20
0.030615
 30
0.000000
  0
VERTEX
  8
LAYER-1
 10
3.829833
 20
0.037559
 30
0.000000
  0
VERTEX
  8
LAYER-1
 10
3.849657
 20
0.041465
 30
0.000000
  0
VERTEX
  8
LAYER-1
 10
3.872382
 20
0.047976
 30
0.000000
  0
VERTEX
  8
LAYER-1
 10
3.895590
 20
0.047976
 30
0.000000
  0
VERTEX
  8
LAYER-1
 10
3.918799
 20
0.044502
 30
0.000000
  0
VERTEX
  8
LAYER-1
 10
3.942008
 20
0.044502
 30
0.000000
  0
VERTEX
  8
LAYER-1
 10
3.965215
 20
0.044502
 30
0.000000
  0
VERTEX
  8
LAYER-1
 10
3.984556
 20
0.041031
 30
0.000000
  0
VERTEX
  8
LAYER-1
 10
4.011633
 20
0.041031
 30
0.000000
  0
VERTEX
  8
LAYER-1
 10
4.042578
 20
0.041031
 30
0.000000
  0
VERTEX
  8
LAYER-1
 10
4.073522
 20
0.047976
 30
0.000000
  0
VERTEX
  8
LAYER-1
 10
4.092862
 20
0.051448
 30
0.000000
  0
VERTEX
  8
LAYER-1
 10
4.119939
 20
0.051448
 30
0.000000
  0
VERTEX
  8
LAYER-1
 10
4.143147
 20
0.054920
 30
0.000000
  0
VERTEX
  8
LAYER-1
 10
4.174091
 20
0.058391
 30
0.000000
  0
VERTEX
  8
LAYER-1
 10
4.197300
 20
0.058391
 30
0.000000
  0
VERTEX
  8
LAYER-1
 10
4.228245
 20
0.054920
 30
0.000000
  0
VERTEX
  8
LAYER-1
 10
4.270794
 20
0.044502
 30
0.000000
  0
VERTEX
  8
LAYER-1
 10
4.301738
 20
0.034087
 30
0.000000
  0
VERTEX
  8
LAYER-1
 10
4.336550
 20
0.023670
 30
0.000000
  0
VERTEX
  8
LAYER-1
 10
4.379583
 20
0.016724
 30
0.000000
  0
VERTEX
  8
LAYER-1
 10
4.426967
 20
0.017593
 30
0.000000
  0
VERTEX
  8
LAYER-1
 10
4.482087
 20
0.020196
 30
0.000000
  0
VERTEX
  8
LAYER-1
 10
4.549294
 20
0.020196
 30
0.000000
  0
VERTEX
  8
LAYER-1
 10
4.594745
 20
0.008912
 30
0.000000
  0
VERTEX
  8
LAYER-1
 10
4.624722
 20
0.002835
 30
0.000000
  0
VERTEX
  8
LAYER-1
 10
4.647931
 20
0.001968
 30
0.000000
  0
VERTEX
  8
LAYER-1
 10
4.682743
 20
0.001968
 30
0.000000
  0
VERTEX
  8
LAYER-1
 10
4.707886
 20
0.006309
 30
0.000000
  0
VERTEX
  8
LAYER-1
 10
4.734962
 20
0.016726
 30
0.000000
  0
VERTEX
  8
LAYER-1
 10
4.769775
 20
0.023670
 30
0.000000
  0
VERTEX
  8
LAYER-1
 10
4.796852
 20
0.030615
 30
0.000000
  0
VERTEX
  8
LAYER-1
 10
4.820059
 20
0.034087
 30
0.000000
  0
VERTEX
  8
LAYER-1
 10
4.843267
 20
0.037559
 30
0.000000
  0
VERTEX
  8
LAYER-1
 10
4.870344
 20
0.041031
 30
0.000000
  0
VERTEX
  8
LAYER-1
 10
4.897420
 20
0.047976
 30
0.000000
  0
VERTEX
  8
LAYER-1
 10
4.916761
 20
0.051448
 30
0.000000
  0
VERTEX
  8
LAYER-1
 10
4.947706
 20
0.054920
 30
0.000000
  0
VERTEX
  8
LAYER-1
 10
4.970915
 20
0.061865
 30
0.000000
  0
VERTEX
  8
LAYER-1
 10
4.994607
 20
0.072715
 30
0.000000
  0
VERTEX
  8
LAYER-1
 10
5.017331
 20
0.079226
 30
0.000000
  0
VERTEX
  8
LAYER-1
 10
5.040540
 20
0.079226
 30
0.000000
  0
VERTEX
  8
LAYER-1
 10
5.067616
 20
0.079226
 30
0.000000
  0
VERTEX
  8
LAYER-1
 10
5.094692
 20
0.079226
 30
0.000000
  0
VERTEX
  8
LAYER-1
 10
5.133374
 20
0.075752
 30
0.000000
  0
VERTEX
  8
LAYER-1
 10
5.187527
 20
0.072281
 30
0.000000
  0
VERTEX
  8
LAYER-1
 10
5.230075
 20
0.072281
 30
0.000000
  0
VERTEX
  8
LAYER-1
 10
5.261020
 20
0.072281
 30
0.000000
  0
VERTEX
  8
LAYER-1
 10
5.284228
 20
0.072281
 30
0.000000
  0
VERTEX
  8
LAYER-1
 10
5.307437
 20
0.072281
 30
0.000000
  0
VERTEX
  8
LAYER-1
 10
5.338382
 20
0.075752
 30
0.000000
  0
VERTEX
  8
LAYER-1
 10
5.377062
 20
0.075752
 30
0.000000
  0
VERTEX
  8
LAYER-1
 10
5.408006
 20
0.075752
 30
0.000000
  0
VERTEX
  8
LAYER-1
 10
5.431215
 20
0.079226
 30
0.000000
  0
VERTEX
  8
LAYER-1
 10
5.462159
 20
0.079226
 30
0.000000
  0
VERTEX
  8
LAYER-1
 10
5.481501
 20
0.079226
 30
0.000000
  0
VERTEX
  8
LAYER-1
 10
5.512444
 20
0.070545
 30
0.000000
  0
VERTEX
  8
LAYER-1
 10
5.539521
 20
0.058391
 30
0.000000
  0
VERTEX
  8
LAYER-1
 10
5.574333
 20
0.044502
 30
0.000000
  0
VERTEX
  8
LAYER-1
 10
5.601409
 20
0.037559
 30
0.000000
  0
VERTEX
  8
LAYER-1
 10
5.632354
 20
0.030615
 30
0.000000
  0
VERTEX
  8
LAYER-1
 10
5.659915
 20
0.028445
 30
0.000000
  0
VERTEX
  8
LAYER-1
 10
5.686507
 20
0.027141
 30
0.000000
  0
VERTEX
  8
LAYER-1
 10
5.709716
 20
0.030615
 30
0.000000
  0
VERTEX
  8
LAYER-1
 10
5.732924
 20
0.037559
 30
0.000000
  0
VERTEX
  8
LAYER-1
 10
5.760001
 20
0.041031
 30
0.000000
  0
VERTEX
  8
LAYER-1
 10
5.783209
 20
0.044502
 30
0.000000
  0
VERTEX
  8
LAYER-1
 10
5.806418
 20
0.047976
 30
0.000000
  0
VERTEX
  8
LAYER-1
 10
5.825757
 20
0.051448
 30
0.000000
  0
VERTEX
  8
LAYER-1
 10
5.848966
 20
0.051448
 30
0.000000
  0
VERTEX
  8
LAYER-1
 10
5.876043
 20
0.051448
 30
0.000000
  0
VERTEX
  8
LAYER-1
 10
5.895867
 20
0.054053
 30
0.000000
  0
VERTEX
  8
LAYER-1
 10
5.922459
 20
0.058391
 30
0.000000
  0
VERTEX
  8
LAYER-1
 10
5.945668
 20
0.065337
 30
0.000000
  0
VERTEX
  8
LAYER-1
 10
5.976613
 20
0.065337
 30
0.000000
  0
VERTEX
  8
LAYER-1
 10
6.007557
 20
0.065337
 30
0.000000
  0
VERTEX
  8
LAYER-1
 10
6.026897
 20
0.065337
 30
0.000000
  0
VERTEX
  8
LAYER-1
 10
6.081050
 20
0.058391
 30
0.000000
  0
VERTEX
  8
LAYER-1
 10
6.111995
 20
0.051448
 30
0.000000
  0
VERTEX
  8
LAYER-1
 10
6.131336
 20
0.047976
 30
0.000000
  0
VERTEX
  8
LAYER-1
 10
6.166148
 20
0.047976
 30
0.000000
  0
VERTEX
  8
LAYER-1
 10
6.189839
 20
0.055354
 30
0.000000
  0
VERTEX
  8
LAYER-1
 10
6.211598
 20
0.056221
 30
0.000000
  0
VERTEX
  8
LAYER-1
 10
6.263334
 20
0.063166
 30
0.000000
  0
VERTEX
  8
LAYER-1
 10
6.311684
 20
0.073150
 30
0.000000
  0
VERTEX
  8
LAYER-1
 10
6.347947
 20
0.076621
 30
0.000000
  0
VERTEX
  8
LAYER-1
 10
6.380825
 20
0.077056
 30
0.000000
  0
VERTEX
  8
LAYER-1
 10
6.397748
 20
0.072281
 30
0.000000
  0
VERTEX
  8
LAYER-1
 10
6.416121
 20
0.068809
 30
0.000000
  0
VERTEX
  8
LAYER-1
 10
6.447066
 20
0.063601
 30
0.000000
  0
VERTEX
  8
LAYER-1
 10
6.487198
 20
0.071846
 30
0.000000
  0
VERTEX
  8
LAYER-1
 10
6.502670
 20
0.079226
 30
0.000000
  0
VERTEX
  8
LAYER-1
 10
6.525880
 20
0.079226
 30
0.000000
  0
VERTEX
  8
LAYER-1
 10
6.549088
 20
0.079226
 30
0.000000
  0
VERTEX
  8
LAYER-1
 10
6.576163
 20
0.072281
 30
0.000000
  0
VERTEX
  8
LAYER-1
 10
6.599372
 20
0.058391
 30
0.000000
  0
VERTEX
  8
LAYER-1
 10
6.626449
 20
0.047976
 30
0.000000
  0
VERTEX
  8
LAYER-1
 10
6.653525
 20
0.037559
 30
0.000000
  0
VERTEX
  8
LAYER-1
 10
6.676734
 20
0.037559
 30
0.000000
  0
VERTEX
  8
LAYER-1
 10
6.706766
 20
0.037542
 30
0.000000
  0
VERTEX
  8
LAYER-1
 10
6.730886
 20
0.047976
 30
0.000000
  0
SEQEND
  8
LAYER-1
  0
TEXT
  8
LAYER-1
 62
  0
 10
5.819130
 20
0.548829
 30
0.000000
 40
0.125000
  1
Dustproof
 72
  5
 11
6.638574
 21
0.548829
 31
0.000000
  0
TEXT
  8
LAYER-1
 62
  0
 10
5.819130
 20
0.354385
 30
0.000000
 40
0.125000
  1
floor socket
 72
  5
 11
6.763574
 21
0.354385
 31
0.000000
  0
POLYLINE
  8
LAYER-1
 66
  1
 70
  0
 62
  0
 10
5.802979
 20
0.468113
 30
0.000000
  0
VERTEX
  8
LAYER-1
 10
5.802979
 20
0.468113
 30
0.000000
  0
VERTEX
  8
LAYER-1
 10
3.739112
 20
0.158534
 30
0.000000
  0
SEQEND
  8
LAYER-1
  0
POLYLINE
  8
LAYER-1
 66
  1
 70
  1
 62
  0
  0
VERTEX
  8
LAYER-1
 10
3.719645
 20
0.155613
 30
0.000000
  0
VERTEX
  8
LAYER-1
 10
3.782140
 20
0.207120
 30
0.000000
  0
VERTEX
  8
LAYER-1
 10
3.788321
 20
0.165915
 30
0.000000
  0
VERTEX
  8
LAYER-1
 10
3.794502
 20
0.124709
 30
0.000000
  0
VERTEX
  8
LAYER-1
 10
3.719645
 20
0.155613
 30
0.000000
  0
SEQEND
  8
LAYER-1
  0
LINE
  8
LAYER-1
 62
  0
 10
5.836491
 20
7.458551
 30
0.000000
 11
5.836491
 21
7.190513
 31
0.000000
  0
LINE
  8
LAYER-1
 62
  0
 10
5.753369
 20
7.458551
 30
0.000000
 11
5.961491
 21
7.458551
 31
0.000000
  0
LINE
  8
LAYER-1
 62
  0
 10
5.759232
 20
7.190513
 30
0.000000
 11
5.961491
 21
7.190513
 31
0.000000
  0
LINE
  8
LAYER-1
 62
  0
 10
5.865954
 20
7.429088
 30
0.000000
 11
5.807028
 21
7.488013
 31
0.000000
  0
LINE
  8
LAYER-1
 62
  0
 10
5.865954
 20
7.161050
 30
0.000000
 11
5.807028
 21
7.219975
 31
0.000000
  0
TEXT
  8
LAYER-1
 62
  0
 10
5.713929
 20
7.316168
 30
0.000000
 40
0.125000
  1
 
 50
90.000000
  0
TEXT
  8
LAYER-1
 62
  0
 10
6.152463
 20
7.340496
 30
0.000000
 40
0.125000
  1
4"
 72
  5
 11
6.374685
 21
7.340496
 31
0.000000
  0
TEXT
  8
LAYER-1
 62
  0
 10
5.930241
 20
7.146051
 30
0.000000
 40
0.125000
  1
102mm
 72
  5
 11
6.596908
 21
7.146051
 31
0.000000
  0
LINE
  8
LAYER-1
 62
  0
 10
4.443261
 20
7.721761
 30
0.000000
 11
4.852983
 21
7.721761
 31
0.000000
  0
LINE
  8
LAYER-1
 62
  0
 10
4.443261
 20
7.351971
 30
0.000000
 11
4.443261
 21
7.846761
 31
0.000000
  0
LINE
  8
LAYER-1
 62
  0
 10
4.852983
 20
7.350234
 30
0.000000
 11
4.852983
 21
7.846761
 31
0.000000
  0
LINE
  8
LAYER-1
 62
  0
 10
4.472723
 20
7.751224
 30
0.000000
 11
4.413798
 21
7.692298
 31
0.000000
  0
LINE
  8
LAYER-1
 62
  0
 10
4.882446
 20
7.751224
 30
0.000000
 11
4.823520
 21
7.692298
 31
0.000000
  0
TEXT
  8
LAYER-1
 62
  0
 10
4.639559
 20
7.845964
 30
0.000000
 40
0.125000
  1
 
  0
TEXT
  8
LAYER-1
 62
  0
 10
4.541352
 20
8.090496
 30
0.000000
 40
0.125000
  1
6"
 72
  5
 11
4.763574
 21
8.090496
 31
0.000000
  0
TEXT
  8
LAYER-1
 62
  0
 10
4.319130
 20
7.896051
 30
0.000000
 40
0.125000
  1
152mm
 72
  5
 11
4.985797
 21
7.896051
 31
0.000000
  0
TEXT
  8
LAYER-1
 62
  0
 10
1.777463
 20
8.521051
 30
0.000000
 40
0.125000
  1
OPEN STYLE SIDE FOLDING GRILLE
 72
  5
 11
4.721908
 21
8.521051
 31
0.000000
  0
POLYLINE
  8
LAYER-1
 66
  1
 70
  0
 62
  0
 10
3.432787
 20
0.203666
 30
0.000000
  0
VERTEX
  8
LAYER-1
 10
3.432787
 20
0.203666
 30
0.000000
  0
VERTEX
  8
LAYER-1
 10
3.432787
 20
0.202476
 30
0.000000
  0
SEQEND
  8
LAYER-1
  0
POLYLINE
  8
LAYER-1
 66
  1
 70
  1
 62
  0
 10
1.260930
 20
0.108498
 30
0.000000
  0
VERTEX
  8
LAYER-1
 10
1.260930
 20
0.108498
 30
0.000000
  0
VERTEX
  8
LAYER-1
 10
1.267874
 20
0.082457
 30
0.000000
  0
VERTEX
  8
LAYER-1
 10
1.293049
 20
0.096345
 30
0.000000
  0
SEQEND
  8
LAYER-1
  0
POLYLINE
  8
LAYER-1
 66
  1
 70
  1
 62
  0
 10
1.451034
 20
0.213531
 30
0.000000
  0
VERTEX
  8
LAYER-1
 10
1.451034
 20
0.213531
 30
0.000000
  0
VERTEX
  8
LAYER-1
 10
1.438014
 20
0.190961
 30
0.000000
  0
VERTEX
  8
LAYER-1
 10
1.468396
 20
0.211794
 30
0.000000
  0
SEQEND
  8
LAYER-1
  0
POLYLINE
  8
LAYER-1
 66
  1
 70
  1
 62
  0
 10
1.096868
 20
0.149296
 30
0.000000
  0
VERTEX
  8
LAYER-1
 10
1.096868
 20
0.149296
 30
0.000000
  0
VERTEX
  8
LAYER-1
 10
1.080375
 20
0.124122
 30
0.000000
  0
VERTEX
  8
LAYER-1
 10
1.095131
 20
0.116309
 30
0.000000
  0
SEQEND
  8
LAYER-1
  0
POLYLINE
  8
LAYER-1
 66
  1
 70
  0
 62
  0
 10
1.263534
 20
0.150165
 30
0.000000
  0
VERTEX
  8
LAYER-1
 10
1.263534
 20
0.150165
 30
0.000000
  0
VERTEX
  8
LAYER-1
 10
1.259195
 20
0.150165
 30
0.000000
  0
VERTEX
  8
LAYER-1
 10
1.255722
 20
0.145825
 30
0.000000
  0
VERTEX
  8
LAYER-1
 10
1.254854
 20
0.140617
 30
0.000000
  0
VERTEX
  8
LAYER-1
 10
1.256590
 20
0.136276
 30
0.000000
  0
VERTEX
  8
LAYER-1
 10
1.260931
 20
0.134540
 30
0.000000
  0
VERTEX
  8
LAYER-1
 10
1.265270
 20
0.134540
 30
0.000000
  0
VERTEX
  8
LAYER-1
 10
1.269611
 20
0.138012
 30
0.000000
  0
VERTEX
  8
LAYER-1
 10
1.269611
 20
0.142353
 30
0.000000
  0
VERTEX
  8
LAYER-1
 10
1.268743
 20
0.146694
 30
0.000000
  0
VERTEX
  8
LAYER-1
 10
1.264402
 20
0.149297
 30
0.000000
  0
SEQEND
  8
LAYER-1
  0
POLYLINE
  8
LAYER-1
 66
  1
 70
  1
 62
  0
 10
0.901556
 20
0.188358
 30
0.000000
  0
VERTEX
  8
LAYER-1
 10
0.901556
 20
0.188358
 30
0.000000
  0
VERTEX
  8
LAYER-1
 10
0.888534
 20
0.165788
 30
0.000000
  0
VERTEX
  8
LAYER-1
 10
0.918916
 20
0.186621
 30
0.000000
  0
SEQEND
  8
LAYER-1
  0
POLYLINE
  8
LAYER-1
 66
  1
 70
  1
 62
  0
 10
1.033333
 20
0.188025
 30
0.000000
  0
VERTEX
  8
LAYER-1
 10
1.033333
 20
0.188025
 30
0.000000
  0
VERTEX
  8
LAYER-1
 10
1.020646
 20
0.168660
 30
0.000000
  0
VERTEX
  8
LAYER-1
 10
1.031998
 20
0.162649
 30
0.000000
  0
SEQEND
  8
LAYER-1
  0
POLYLINE
  8
LAYER-1
 66
  1
 70
  0
 62
  0
 10
1.391139
 20
0.169262
 30
0.000000
  0
VERTEX
  8
LAYER-1
 10
1.391139
 20
0.169262
 30
0.000000
  0
VERTEX
  8
LAYER-1
 10
1.386798
 20
0.169262
 30
0.000000
  0
VERTEX
  8
LAYER-1
 10
1.383327
 20
0.164920
 30
0.000000
  0
VERTEX
  8
LAYER-1
 10
1.382459
 20
0.159713
 30
0.000000
  0
VERTEX
  8
LAYER-1
 10
1.384194
 20
0.155372
 30
0.000000
  0
VERTEX
  8
LAYER-1
 10
1.388534
 20
0.153637
 30
0.000000
  0
VERTEX
  8
LAYER-1
 10
1.392875
 20
0.153637
 30
0.000000
  0
VERTEX
  8
LAYER-1
 10
1.397215
 20
0.157108
 30
0.000000
  0
VERTEX
  8
LAYER-1
 10
1.397215
 20
0.161449
 30
0.000000
  0
VERTEX
  8
LAYER-1
 10
1.396347
 20
0.165789
 30
0.000000
  0
VERTEX
  8
LAYER-1
 10
1.392007
 20
0.168393
 30
0.000000
  0
SEQEND
  8
LAYER-1
  0
POLYLINE
  8
LAYER-1
 66
  1
 70
  0
 62
  0
 10
1.148951
 20
0.143220
 30
0.000000
  0
VERTEX
  8
LAYER-1
 10
1.148951
 20
0.143220
 30
0.000000
  0
VERTEX
  8
LAYER-1
 10
1.144611
 20
0.143220
 30
0.000000
  0
VERTEX
  8
LAYER-1
 10
1.141138
 20
0.138879
 30
0.000000
  0
VERTEX
  8
LAYER-1
 10
1.140270
 20
0.133671
 30
0.000000
  0
VERTEX
  8
LAYER-1
 10
1.142006
 20
0.129331
 30
0.000000
  0
VERTEX
  8
LAYER-1
 10
1.146347
 20
0.127595
 30
0.000000
  0
VERTEX
  8
LAYER-1
 10
1.150688
 20
0.127595
 30
0.000000
  0
VERTEX
  8
LAYER-1
 10
1.155027
 20
0.131066
 30
0.000000
  0
VERTEX
  8
LAYER-1
 10
1.155027
 20
0.135407
 30
0.000000
  0
VERTEX
  8
LAYER-1
 10
1.154159
 20
0.139748
 30
0.000000
  0
VERTEX
  8
LAYER-1
 10
1.149819
 20
0.142352
 30
0.000000
  0
SEQEND
  8
LAYER-1
  0
POLYLINE
  8
LAYER-1
 66
  1
 70
  0
 62
  0
 10
0.984888
 20
0.135407
 30
0.000000
  0
VERTEX
  8
LAYER-1
 10
0.984888
 20
0.135407
 30
0.000000
  0
VERTEX
  8
LAYER-1
 10
0.980549
 20
0.135407
 30
0.000000
  0
VERTEX
  8
LAYER-1
 10
0.977076
 20
0.131066
 30
0.000000
  0
VERTEX
  8
LAYER-1
 10
0.976208
 20
0.125859
 30
0.000000
  0
VERTEX
  8
LAYER-1
 10
0.977944
 20
0.121518
 30
0.000000
  0
VERTEX
  8
LAYER-1
 10
0.982284
 20
0.119782
 30
0.000000
  0
VERTEX
  8
LAYER-1
 10
0.986624
 20
0.119782
 30
0.000000
  0
VERTEX
  8
LAYER-1
 10
0.990965
 20
0.123254
 30
0.000000
  0
VERTEX
  8
LAYER-1
 10
0.990965
 20
0.127595
 30
0.000000
  0
VERTEX
  8
LAYER-1
 10
0.990097
 20
0.131935
 30
0.000000
  0
VERTEX
  8
LAYER-1
 10
0.985756
 20
0.134539
 30
0.000000
  0
SEQEND
  8
LAYER-1
  0
POLYLINE
  8
LAYER-1
 66
  1
 70
  1
 62
  0
 10
1.612927
 20
0.160146
 30
0.000000
  0
VERTEX
  8
LAYER-1
 10
1.612927
 20
0.160146
 30
0.000000
  0
VERTEX
  8
LAYER-1
 10
1.586887
 20
0.153202
 30
0.000000
  0
VERTEX
  8
LAYER-1
 10
1.600774
 20
0.128028
 30
0.000000
  0
SEQEND
  8
LAYER-1
  0
POLYLINE
  8
LAYER-1
 66
  1
 70
  1
 62
  0
 10
1.674471
 20
0.100549
 30
0.000000
  0
VERTEX
  8
LAYER-1
 10
1.674471
 20
0.100549
 30
0.000000
  0
VERTEX
  8
LAYER-1
 10
1.697042
 20
0.087528
 30
0.000000
  0
VERTEX
  8
LAYER-1
 10
1.676209
 20
0.117910
 30
0.000000
  0
SEQEND
  8
LAYER-1
  0
POLYLINE
  8
LAYER-1
 66
  1
 70
  1
 62
  0
 10
1.205810
 20
0.167959
 30
0.000000
  0
VERTEX
  8
LAYER-1
 10
1.205810
 20
0.167959
 30
0.000000
  0
VERTEX
  8
LAYER-1
 10
1.180636
 20
0.184452
 30
0.000000
  0
VERTEX
  8
LAYER-1
 10
1.172824
 20
0.169695
 30
0.000000
  0
SEQEND
  8
LAYER-1
  0
POLYLINE
  8
LAYER-1
 66
  1
 70
  0
 62
  0
 10
1.624212
 20
0.196606
 30
0.000000
  0
VERTEX
  8
LAYER-1
 10
1.624212
 20
0.196606
 30
0.000000
  0
VERTEX
  8
LAYER-1
 10
1.624212
 20
0.200946
 30
0.000000
  0
VERTEX
  8
LAYER-1
 10
1.619872
 20
0.204419
 30
0.000000
  0
VERTEX
  8
LAYER-1
 10
1.614664
 20
0.205287
 30
0.000000
  0
VERTEX
  8
LAYER-1
 10
1.610323
 20
0.203551
 30
0.000000
  0
VERTEX
  8
LAYER-1
 10
1.608587
 20
0.199209
 30
0.000000
  0
VERTEX
  8
LAYER-1
 10
1.608587
 20
0.194870
 30
0.000000
  0
VERTEX
  8
LAYER-1
 10
1.612059
 20
0.190529
 30
0.000000
  0
VERTEX
  8
LAYER-1
 10
1.616400
 20
0.190529
 30
0.000000
  0
VERTEX
  8
LAYER-1
 10
1.620741
 20
0.191397
 30
0.000000
  0
VERTEX
  8
LAYER-1
 10
1.623345
 20
0.195738
 30
0.000000
  0
SEQEND
  8
LAYER-1
  0
POLYLINE
  8
LAYER-1
 66
  1
 70
  1
 62
  0
 10
1.576470
 20
0.172299
 30
0.000000
  0
VERTEX
  8
LAYER-1
 10
1.576470
 20
0.172299
 30
0.000000
  0
VERTEX
  8
LAYER-1
 10
1.553899
 20
0.185320
 30
0.000000
  0
VERTEX
  8
LAYER-1
 10
1.574732
 20
0.154938
 30
0.000000
  0
SEQEND
  8
LAYER-1
  0
POLYLINE
  8
LAYER-1
 66
  1
 70
  1
 62
  0
 10
1.224572
 20
0.184618
 30
0.000000
  0
VERTEX
  8
LAYER-1
 10
1.224572
 20
0.184618
 30
0.000000
  0
VERTEX
  8
LAYER-1
 10
1.205208
 20
0.197305
 30
0.000000
  0
VERTEX
  8
LAYER-1
 10
1.199197
 20
0.185954
 30
0.000000
  0
SEQEND
  8
LAYER-1
  0
POLYLINE
  8
LAYER-1
 66
  1
 70
  0
 62
  0
 10
1.690445
 20
0.060966
 30
0.000000
  0
VERTEX
  8
LAYER-1
 10
1.690445
 20
0.060966
 30
0.000000
  0
VERTEX
  8
LAYER-1
 10
1.690445
 20
0.056626
 30
0.000000
  0
VERTEX
  8
LAYER-1
 10
1.694785
 20
0.053153
 30
0.000000
  0
VERTEX
  8
LAYER-1
 10
1.699993
 20
0.052285
 30
0.000000
  0
VERTEX
  8
LAYER-1
 10
1.704334
 20
0.054021
 30
0.000000
  0
VERTEX
  8
LAYER-1
 10
1.706070
 20
0.058361
 30
0.000000
  0
VERTEX
  8
LAYER-1
 10
1.706070
 20
0.062703
 30
0.000000
  0
VERTEX
  8
LAYER-1
 10
1.702598
 20
0.067042
 30
0.000000
  0
VERTEX
  8
LAYER-1
 10
1.698257
 20
0.067042
 30
0.000000
  0
VERTEX
  8
LAYER-1
 10
1.693917
 20
0.066174
 30
0.000000
  0
VERTEX
  8
LAYER-1
 10
1.691312
 20
0.061834
 30
0.000000
  0
SEQEND
  8
LAYER-1
  0
POLYLINE
  8
LAYER-1
 66
  1
 70
  0
 62
  0
 10
1.199733
 20
0.115875
 30
0.000000
  0
VERTEX
  8
LAYER-1
 10
1.199733
 20
0.115875
 30
0.000000
  0
VERTEX
  8
LAYER-1
 10
1.199733
 20
0.120216
 30
0.000000
  0
VERTEX
  8
LAYER-1
 10
1.195392
 20
0.123688
 30
0.000000
  0
VERTEX
  8
LAYER-1
 10
1.190185
 20
0.124556
 30
0.000000
  0
VERTEX
  8
LAYER-1
 10
1.185844
 20
0.122820
 30
0.000000
  0
VERTEX
  8
LAYER-1
 10
1.184108
 20
0.118479
 30
0.000000
  0
VERTEX
  8
LAYER-1
 10
1.184108
 20
0.114139
 30
0.000000
  0
VERTEX
  8
LAYER-1
 10
1.187580
 20
0.109799
 30
0.000000
  0
VERTEX
  8
LAYER-1
 10
1.191920
 20
0.109799
 30
0.000000
  0
VERTEX
  8
LAYER-1
 10
1.196261
 20
0.110666
 30
0.000000
  0
VERTEX
  8
LAYER-1
 10
1.198866
 20
0.115007
 30
0.000000
  0
SEQEND
  8
LAYER-1
  0
POLYLINE
  8
LAYER-1
 66
  1
 70
  0
 62
  0
 10
1.501817
 20
0.150599
 30
0.000000
  0
VERTEX
  8
LAYER-1
 10
1.501817
 20
0.150599
 30
0.000000
  0
VERTEX
  8
LAYER-1
 10
1.501817
 20
0.154939
 30
0.000000
  0
VERTEX
  8
LAYER-1
 10
1.497476
 20
0.158412
 30
0.000000
  0
VERTEX
  8
LAYER-1
 10
1.492268
 20
0.159279
 30
0.000000
  0
VERTEX
  8
LAYER-1
 10
1.487928
 20
0.157544
 30
0.000000
  0
VERTEX
  8
LAYER-1
 10
1.486192
 20
0.153202
 30
0.000000
  0
VERTEX
  8
LAYER-1
 10
1.486192
 20
0.148863
 30
0.000000
  0
VERTEX
  8
LAYER-1
 10
1.489664
 20
0.144522
 30
0.000000
  0
VERTEX
  8
LAYER-1
 10
1.494004
 20
0.144522
 30
0.000000
  0
VERTEX
  8
LAYER-1
 10
1.498345
 20
0.145390
 30
0.000000
  0
VERTEX
  8
LAYER-1
 10
1.500950
 20
0.149731
 30
0.000000
  0
SEQEND
  8
LAYER-1
  0
POLYLINE
  8
LAYER-1
 66
  1
 70
  1
 62
  0
 10
1.721001
 20
0.142787
 30
0.000000
  0
VERTEX
  8
LAYER-1
 10
1.721001
 20
0.142787
 30
0.000000
  0
VERTEX
  8
LAYER-1
 10
1.727944
 20
0.116745
 30
0.000000
  0
VERTEX
  8
LAYER-1
 10
1.747042
 20
0.132369
 30
0.000000
  0
SEQEND
  8
LAYER-1
  0
POLYLINE
  8
LAYER-1
 66
  1
 70
  1
 62
  0
 10
1.905028
 20
0.164488
 30
0.000000
  0
VERTEX
  8
LAYER-1
 10
1.905028
 20
0.164488
 30
0.000000
  0
VERTEX
  8
LAYER-1
 10
1.892007
 20
0.141919
 30
0.000000
  0
VERTEX
  8
LAYER-1
 10
1.922389
 20
0.162751
 30
0.000000
  0
SEQEND
  8
LAYER-1
  0
POLYLINE
  8
LAYER-1
 66
  1
 70
  1
 62
  0
 10
1.954932
 20
0.063027
 30
0.000000
  0
VERTEX
  8
LAYER-1
 10
1.954932
 20
0.063027
 30
0.000000
  0
VERTEX
  8
LAYER-1
 10
1.938440
 20
0.037854
 30
0.000000
  0
VERTEX
  8
LAYER-1
 10
1.953196
 20
0.030041
 30
0.000000
  0
SEQEND
  8
LAYER-1
  0
POLYLINE
  8
LAYER-1
 66
  1
 70
  0
 62
  0
 10
1.693223
 20
0.167091
 30
0.000000
  0
VERTEX
  8
LAYER-1
 10
1.693223
 20
0.167091
 30
0.000000
  0
VERTEX
  8
LAYER-1
 10
1.688882
 20
0.167091
 30
0.000000
  0
VERTEX
  8
LAYER-1
 10
1.685410
 20
0.162751
 30
0.000000
  0
VERTEX
  8
LAYER-1
 10
1.684542
 20
0.157544
 30
0.000000
  0
VERTEX
  8
LAYER-1
 10
1.686278
 20
0.153202
 30
0.000000
  0
VERTEX
  8
LAYER-1
 10
1.690618
 20
0.151466
 30
0.000000
  0
VERTEX
  8
LAYER-1
 10
1.694959
 20
0.151466
 30
0.000000
  0
VERTEX
  8
LAYER-1
 10
1.699298
 20
0.154939
 30
0.000000
  0
VERTEX
  8
LAYER-1
 10
1.699298
 20
0.159279
 30
0.000000
  0
VERTEX
  8
LAYER-1
 10
1.698430
 20
0.163620
 30
0.000000
  0
VERTEX
  8
LAYER-1
 10
1.694091
 20
0.166224
 30
0.000000
  0
SEQEND
  8
LAYER-1
  0
POLYLINE
  8
LAYER-1
 66
  1
 70
  1
 62
  0
 10
1.730549
 20
0.099383
 30
0.000000
  0
VERTEX
  8
LAYER-1
 10
1.730549
 20
0.099383
 30
0.000000
  0
VERTEX
  8
LAYER-1
 10
1.717528
 20
0.076814
 30
0.000000
  0
VERTEX
  8
LAYER-1
 10
1.747910
 20
0.097646
 30
0.000000
  0
SEQEND
  8
LAYER-1
  0
POLYLINE
  8
LAYER-1
 66
  1
 70
  1
 62
  0
 10
1.986349
 20
0.045135
 30
0.000000
  0
VERTEX
  8
LAYER-1
 10
1.986349
 20
0.045135
 30
0.000000
  0
VERTEX
  8
LAYER-1
 10
1.999037
 20
0.064500
 30
0.000000
  0
VERTEX
  8
LAYER-1
 10
1.987685
 20
0.070511
 30
0.000000
  0
SEQEND
  8
LAYER-1
  0
POLYLINE
  8
LAYER-1
 66
  1
 70
  0
 62
  0
 10
1.885575
 20
0.045583
 30
0.000000
  0
VERTEX
  8
LAYER-1
 10
1.885575
 20
0.045583
 30
0.000000
  0
VERTEX
  8
LAYER-1
 10
1.889916
 20
0.045583
 30
0.000000
  0
VERTEX
  8
LAYER-1
 10
1.893387
 20
0.049923
 30
0.000000
  0
VERTEX
  8
LAYER-1
 10
1.894255
 20
0.055131
 30
0.000000
  0
VERTEX
  8
LAYER-1
 10
1.892519
 20
0.059472
 30
0.000000
  0
VERTEX
  8
LAYER-1
 10
1.888179
 20
0.061208
 30
0.000000
  0
VERTEX
  8
LAYER-1
 10
1.883839
 20
0.061208
 30
0.000000
  0
VERTEX
  8
LAYER-1
 10
1.879498
 20
0.057736
 30
0.000000
  0
VERTEX
  8
LAYER-1
 10
1.879498
 20
0.053396
 30
0.000000
  0
VERTEX
  8
LAYER-1
 10
1.880366
 20
0.049054
 30
0.000000
  0
VERTEX
  8
LAYER-1
 10
1.884707
 20
0.046449
 30
0.000000
  0
SEQEND
  8
LAYER-1
  0
POLYLINE
  8
LAYER-1
 66
  1
 70
  0
 62
  0
 10
1.575079
 20
0.081451
 30
0.000000
  0
VERTEX
  8
LAYER-1
 10
1.575079
 20
0.081451
 30
0.000000
  0
VERTEX
  8
LAYER-1
 10
1.579420
 20
0.081451
 30
0.000000
  0
VERTEX
  8
LAYER-1
 10
1.582891
 20
0.085791
 30
0.000000
  0
VERTEX
  8
LAYER-1
 10
1.583760
 20
0.090998
 30
0.000000
  0
VERTEX
  8
LAYER-1
 10
1.582024
 20
0.095339
 30
0.000000
  0
VERTEX
  8
LAYER-1
 10
1.577684
 20
0.097076
 30
0.000000
  0
VERTEX
  8
LAYER-1
 10
1.573343
 20
0.097076
 30
0.000000
  0
VERTEX
  8
LAYER-1
 10
1.569002
 20
0.093603
 30
0.000000
  0
VERTEX
  8
LAYER-1
 10
1.569002
 20
0.089263
 30
0.000000
  0
VERTEX
  8
LAYER-1
 10
1.569871
 20
0.084922
 30
0.000000
  0
VERTEX
  8
LAYER-1
 10
1.574212
 20
0.082319
 30
0.000000
  0
SEQEND
  8
LAYER-1
  0
POLYLINE
  8
LAYER-1
 66
  1
 70
  1
 62
  0
 10
2.070393
 20
0.147560
 30
0.000000
  0
VERTEX
  8
LAYER-1
 10
2.070393
 20
0.147560
 30
0.000000
  0
VERTEX
  8
LAYER-1
 10
2.044353
 20
0.140616
 30
0.000000
  0
VERTEX
  8
LAYER-1
 10
2.058240
 20
0.115443
 30
0.000000
  0
SEQEND
  8
LAYER-1
  0
POLYLINE
  8
LAYER-1
 66
  1
 70
  1
 62
  0
 10
1.809276
 20
0.107965
 30
0.000000
  0
VERTEX
  8
LAYER-1
 10
1.809276
 20
0.107965
 30
0.000000
  0
VERTEX
  8
LAYER-1
 10
1.786705
 20
0.120987
 30
0.000000
  0
VERTEX
  8
LAYER-1
 10
1.807538
 20
0.090605
 30
0.000000
  0
SEQEND
  8
LAYER-1
  0
POLYLINE
  8
LAYER-1
 66
  1
 70
  1
 62
  0
 10
1.839133
 20
0.030392
 30
0.000000
  0
VERTEX
  8
LAYER-1
 10
1.839133
 20
0.030392
 30
0.000000
  0
VERTEX
  8
LAYER-1
 10
1.864307
 20
0.013898
 30
0.000000
  0
VERTEX
  8
LAYER-1
 10
1.872119
 20
0.028656
 30
0.000000
  0
SEQEND
  8
LAYER-1
  0
POLYLINE
  8
LAYER-1
 66
  1
 70
  0
 62
  0
 10
2.101643
 20
0.197038
 30
0.000000
  0
VERTEX
  8
LAYER-1
 10
2.101643
 20
0.197038
 30
0.000000
  0
VERTEX
  8
LAYER-1
 10
2.101643
 20
0.201379
 30
0.000000
  0
VERTEX
  8
LAYER-1
 10
2.097302
 20
0.204851
 30
0.000000
  0
VERTEX
  8
LAYER-1
 10
2.092095
 20
0.205719
 30
0.000000
  0
VERTEX
  8
LAYER-1
 10
2.087754
 20
0.203983
 30
0.000000
  0
VERTEX
  8
LAYER-1
 10
2.086018
 20
0.199643
 30
0.000000
  0
VERTEX
  8
LAYER-1
 10
2.086018
 20
0.195302
 30
0.000000
  0
VERTEX
  8
LAYER-1
 10
2.089490
 20
0.190962
 30
0.000000
  0
VERTEX
  8
LAYER-1
 10
2.093831
 20
0.190962
 30
0.000000
  0
VERTEX
  8
LAYER-1
 10
2.098171
 20
0.191830
 30
0.000000
  0
VERTEX
  8
LAYER-1
 10
2.100776
 20
0.196170
 30
0.000000
  0
SEQEND
  8
LAYER-1
  0
POLYLINE
  8
LAYER-1
 66
  1
 70
  1
 62
  0
 10
2.033935
 20
0.159713
 30
0.000000
  0
VERTEX
  8
LAYER-1
 10
2.033935
 20
0.159713
 30
0.000000
  0
VERTEX
  8
LAYER-1
 10
2.011365
 20
0.172734
 30
0.000000
  0
VERTEX
  8
LAYER-1
 10
2.032198
 20
0.142352
 30
0.000000
  0
SEQEND
  8
LAYER-1
  0
POLYLINE
  8
LAYER-1
 66
  1
 70
  1
 62
  0
 10
0.802698
 20
0.196337
 30
0.000000
  0
VERTEX
  8
LAYER-1
 10
0.802698
 20
0.196337
 30
0.000000
  0
VERTEX
  8
LAYER-1
 10
0.783334
 20
0.209023
 30
0.000000
  0
VERTEX
  8
LAYER-1
 10
0.777322
 20
0.197673
 30
0.000000
  0
SEQEND
  8
LAYER-1
  0
POLYLINE
  8
LAYER-1
 66
  1
 70
  0
 62
  0
 10
1.813615
 20
0.167862
 30
0.000000
  0
VERTEX
  8
LAYER-1
 10
1.813615
 20
0.167862
 30
0.000000
  0
VERTEX
  8
LAYER-1
 10
1.813615
 20
0.172201
 30
0.000000
  0
VERTEX
  8
LAYER-1
 10
1.809274
 20
0.175674
 30
0.000000
  0
VERTEX
  8
LAYER-1
 10
1.804066
 20
0.176542
 30
0.000000
  0
VERTEX
  8
LAYER-1
 10
1.799726
 20
0.174806
 30
0.000000
  0
VERTEX
  8
LAYER-1
 10
1.797990
 20
0.170465
 30
0.000000
  0
VERTEX
  8
LAYER-1
 10
1.797990
 20
0.166125
 30
0.000000
  0
VERTEX
  8
LAYER-1
 10
1.801462
 20
0.161785
 30
0.000000
  0
VERTEX
  8
LAYER-1
 10
1.805802
 20
0.161785
 30
0.000000
  0
VERTEX
  8
LAYER-1
 10
1.810143
 20
0.162653
 30
0.000000
  0
VERTEX
  8
LAYER-1
 10
1.812748
 20
0.166994
 30
0.000000
  0
SEQEND
  8
LAYER-1
  0
POLYLINE
  8
LAYER-1
 66
  1
 70
  0
 62
  0
 10
0.779595
 20
0.129330
 30
0.000000
  0
VERTEX
  8
LAYER-1
 10
0.779595
 20
0.129330
 30
0.000000
  0
VERTEX
  8
LAYER-1
 10
0.779595
 20
0.133670
 30
0.000000
  0
VERTEX
  8
LAYER-1
 10
0.775254
 20
0.137143
 30
0.000000
  0
VERTEX
  8
LAYER-1
 10
0.770046
 20
0.138010
 30
0.000000
  0
VERTEX
  8
LAYER-1
 10
0.765706
 20
0.136275
 30
0.000000
  0
VERTEX
  8
LAYER-1
 10
0.763970
 20
0.131933
 30
0.000000
  0
VERTEX
  8
LAYER-1
 10
0.763970
 20
0.127594
 30
0.000000
  0
VERTEX
  8
LAYER-1
 10
0.767442
 20
0.123253
 30
0.000000
  0
VERTEX
  8
LAYER-1
 10
0.771782
 20
0.123253
 30
0.000000
  0
VERTEX
  8
LAYER-1
 10
0.776123
 20
0.124121
 30
0.000000
  0
VERTEX
  8
LAYER-1
 10
0.778728
 20
0.128462
 30
0.000000
  0
SEQEND
  8
LAYER-1
  0
POLYLINE
  8
LAYER-1
 66
  1
 70
  0
 62
  0
 10
1.901990
 20
0.197036
 30
0.000000
  0
VERTEX
  8
LAYER-1
 10
1.901990
 20
0.197036
 30
0.000000
  0
VERTEX
  8
LAYER-1
 10
1.901990
 20
0.201376
 30
0.000000
  0
VERTEX
  8
LAYER-1
 10
1.897649
 20
0.204848
 30
0.000000
  0
VERTEX
  8
LAYER-1
 10
1.892441
 20
0.205716
 30
0.000000
  0
VERTEX
  8
LAYER-1
 10
1.888101
 20
0.203980
 30
0.000000
  0
VERTEX
  8
LAYER-1
 10
1.886365
 20
0.199639
 30
0.000000
  0
VERTEX
  8
LAYER-1
 10
1.886365
 20
0.195300
 30
0.000000
  0
VERTEX
  8
LAYER-1
 10
1.889837
 20
0.190959
 30
0.000000
  0
VERTEX
  8
LAYER-1
 10
1.894177
 20
0.190959
 30
0.000000
  0
VERTEX
  8
LAYER-1
 10
1.898518
 20
0.191827
 30
0.000000
  0
VERTEX
  8
LAYER-1
 10
1.901123
 20
0.196168
 30
0.000000
  0
SEQEND
  8
LAYER-1
  0
POLYLINE
  8
LAYER-1
 66
  1
 70
  1
 62
  0
 10
1.461278
 20
0.061570
 30
0.000000
  0
VERTEX
  8
LAYER-1
 10
1.461278
 20
0.061570
 30
0.000000
  0
VERTEX
  8
LAYER-1
 10
1.435237
 20
0.054626
 30
0.000000
  0
VERTEX
  8
LAYER-1
 10
1.449125
 20
0.029452
 30
0.000000
  0
SEQEND
  8
LAYER-1
  0
POLYLINE
  8
LAYER-1
 66
  1
 70
  1
 62
  0
 10
2.307805
 20
0.124991
 30
0.000000
  0
VERTEX
  8
LAYER-1
 10
2.307805
 20
0.124991
 30
0.000000
  0
VERTEX
  8
LAYER-1
 10
2.330375
 20
0.111970
 30
0.000000
  0
VERTEX
  8
LAYER-1
 10
2.309542
 20
0.142352
 30
0.000000
  0
SEQEND
  8
LAYER-1
  0
POLYLINE
  8
LAYER-1
 66
  1
 70
  1
 62
  0
 10
0.917180
 20
0.141918
 30
0.000000
  0
VERTEX
  8
LAYER-1
 10
0.917180
 20
0.141918
 30
0.000000
  0
VERTEX
  8
LAYER-1
 10
0.942355
 20
0.125425
 30
0.000000
  0
VERTEX
  8
LAYER-1
 10
0.950167
 20
0.140182
 30
0.000000
  0
SEQEND
  8
LAYER-1
  0
POLYLINE
  8
LAYER-1
 66
  1
 70
  0
 62
  0
 10
2.235757
 20
0.171863
 30
0.000000
  0
VERTEX
  8
LAYER-1
 10
2.235757
 20
0.171863
 30
0.000000
  0
VERTEX
  8
LAYER-1
 10
2.235757
 20
0.167522
 30
0.000000
  0
VERTEX
  8
LAYER-1
 10
2.240098
 20
0.164051
 30
0.000000
  0
VERTEX
  8
LAYER-1
 10
2.245305
 20
0.163183
 30
0.000000
  0
VERTEX
  8
LAYER-1
 10
2.249646
 20
0.164919
 30
0.000000
  0
VERTEX
  8
LAYER-1
 10
2.251382
 20
0.169259
 30
0.000000
  0
VERTEX
  8
LAYER-1
 10
2.251382
 20
0.173599
 30
0.000000
  0
VERTEX
  8
LAYER-1
 10
2.247910
 20
0.177940
 30
0.000000
  0
VERTEX
  8
LAYER-1
 10
2.243569
 20
0.177940
 30
0.000000
  0
VERTEX
  8
LAYER-1
 10
2.239229
 20
0.177071
 30
0.000000
  0
VERTEX
  8
LAYER-1
 10
2.236625
 20
0.172731
 30
0.000000
  0
SEQEND
  8
LAYER-1
  0
POLYLINE
  8
LAYER-1
 66
  1
 70
  1
 62
  0
 10
2.185409
 20
0.183150
 30
0.000000
  0
VERTEX
  8
LAYER-1
 10
2.185409
 20
0.183150
 30
0.000000
  0
VERTEX
  8
LAYER-1
 10
2.207979
 20
0.170128
 30
0.000000
  0
VERTEX
  8
LAYER-1
 10
2.187146
 20
0.200510
 30
0.000000
  0
SEQEND
  8
LAYER-1
  0
POLYLINE
  8
LAYER-1
 66
  1
 70
  1
 62
  0
 10
0.915779
 20
0.089667
 30
0.000000
  0
VERTEX
  8
LAYER-1
 10
0.915779
 20
0.089667
 30
0.000000
  0
VERTEX
  8
LAYER-1
 10
0.935144
 20
0.076981
 30
0.000000
  0
VERTEX
  8
LAYER-1
 10
0.941154
 20
0.088331
 30
0.000000
  0
SEQEND
  8
LAYER-1
  0
POLYLINE
  8
LAYER-1
 66
  1
 70
  0
 62
  0
 10
1.641920
 20
0.041952
 30
0.000000
  0
VERTEX
  8
LAYER-1
 10
1.641920
 20
0.041952
 30
0.000000
  0
VERTEX
  8
LAYER-1
 10
1.641920
 20
0.046292
 30
0.000000
  0
VERTEX
  8
LAYER-1
 10
1.637579
 20
0.049765
 30
0.000000
  0
VERTEX
  8
LAYER-1
 10
1.632371
 20
0.050633
 30
0.000000
  0
VERTEX
  8
LAYER-1
 10
1.628031
 20
0.048897
 30
0.000000
  0
VERTEX
  8
LAYER-1
 10
1.626295
 20
0.044557
 30
0.000000
  0
VERTEX
  8
LAYER-1
 10
1.626295
 20
0.040215
 30
0.000000
  0
VERTEX
  8
LAYER-1
 10
1.629766
 20
0.035876
 30
0.000000
  0
VERTEX
  8
LAYER-1
 10
1.634107
 20
0.035876
 30
0.000000
  0
VERTEX
  8
LAYER-1
 10
1.638448
 20
0.036744
 30
0.000000
  0
VERTEX
  8
LAYER-1
 10
1.641052
 20
0.041084
 30
0.000000
  0
SEQEND
  8
LAYER-1
  0
POLYLINE
  8
LAYER-1
 66
  1
 70
  0
 62
  0
 10
2.447562
 20
0.124991
 30
0.000000
  0
VERTEX
  8
LAYER-1
 10
2.447562
 20
0.124991
 30
0.000000
  0
VERTEX
  8
LAYER-1
 10
2.447562
 20
0.120650
 30
0.000000
  0
VERTEX
  8
LAYER-1
 10
2.451903
 20
0.117178
 30
0.000000
  0
VERTEX
  8
LAYER-1
 10
2.457111
 20
0.116310
 30
0.000000
  0
VERTEX
  8
LAYER-1
 10
2.461452
 20
0.118046
 30
0.000000
  0
VERTEX
  8
LAYER-1
 10
2.463188
 20
0.122387
 30
0.000000
  0
VERTEX
  8
LAYER-1
 10
2.463188
 20
0.126727
 30
0.000000
  0
VERTEX
  8
LAYER-1
 10
2.459716
 20
0.131068
 30
0.000000
  0
VERTEX
  8
LAYER-1
 10
2.455375
 20
0.131068
 30
0.000000
  0
VERTEX
  8
LAYER-1
 10
2.451034
 20
0.130199
 30
0.000000
  0
VERTEX
  8
LAYER-1
 10
2.448430
 20
0.125859
 30
0.000000
  0
SEQEND
  8
LAYER-1
  0
POLYLINE
  8
LAYER-1
 66
  1
 70
  0
 62
  0
 10
2.281764
 20
0.179678
 30
0.000000
  0
VERTEX
  8
LAYER-1
 10
2.281764
 20
0.179678
 30
0.000000
  0
VERTEX
  8
LAYER-1
 10
2.281764
 20
0.175338
 30
0.000000
  0
VERTEX
  8
LAYER-1
 10
2.286105
 20
0.171866
 30
0.000000
  0
VERTEX
  8
LAYER-1
 10
2.291312
 20
0.170998
 30
0.000000
  0
VERTEX
  8
LAYER-1
 10
2.295653
 20
0.172734
 30
0.000000
  0
VERTEX
  8
LAYER-1
 10
2.297389
 20
0.177074
 30
0.000000
  0
VERTEX
  8
LAYER-1
 10
2.297389
 20
0.181414
 30
0.000000
  0
VERTEX
  8
LAYER-1
 10
2.293917
 20
0.185755
 30
0.000000
  0
VERTEX
  8
LAYER-1
 10
2.289576
 20
0.185755
 30
0.000000
  0
VERTEX
  8
LAYER-1
 10
2.285236
 20
0.184887
 30
0.000000
  0
VERTEX
  8
LAYER-1
 10
2.282631
 20
0.180546
 30
0.000000
  0
SEQEND
  8
LAYER-1
  0
POLYLINE
  8
LAYER-1
 66
  1
 70
  1
 62
  0
 10
2.043917
 20
0.096779
 30
0.000000
  0
VERTEX
  8
LAYER-1
 10
2.043917
 20
0.096779
 30
0.000000
  0
VERTEX
  8
LAYER-1
 10
2.050862
 20
0.070739
 30
0.000000
  0
VERTEX
  8
LAYER-1
 10
2.076035
 20
0.084626
 30
0.000000
  0
SEQEND
  8
LAYER-1
  0
POLYLINE
  8
LAYER-1
 66
  1
 70
  1
 62
  0
 10
2.148431
 20
0.084022
 30
0.000000
  0
VERTEX
  8
LAYER-1
 10
2.148431
 20
0.084022
 30
0.000000
  0
VERTEX
  8
LAYER-1
 10
2.135410
 20
0.061451
 30
0.000000
  0
VERTEX
  8
LAYER-1
 10
2.165792
 20
0.082284
 30
0.000000
  0
SEQEND
  8
LAYER-1
  0
POLYLINE
  8
LAYER-1
 66
  1
 70
  1
 62
  0
 10
1.864396
 20
0.114477
 30
0.000000
  0
VERTEX
  8
LAYER-1
 10
1.864396
 20
0.114477
 30
0.000000
  0
VERTEX
  8
LAYER-1
 10
1.847903
 20
0.089303
 30
0.000000
  0
VERTEX
  8
LAYER-1
 10
1.862660
 20
0.081490
 30
0.000000
  0
SEQEND
  8
LAYER-1
  0
POLYLINE
  8
LAYER-1
 66
  1
 70
  0
 62
  0
 10
1.994438
 20
0.128029
 30
0.000000
  0
VERTEX
  8
LAYER-1
 10
1.994438
 20
0.128029
 30
0.000000
  0
VERTEX
  8
LAYER-1
 10
1.990098
 20
0.128029
 30
0.000000
  0
VERTEX
  8
LAYER-1
 10
1.986626
 20
0.123689
 30
0.000000
  0
VERTEX
  8
LAYER-1
 10
1.985758
 20
0.118481
 30
0.000000
  0
VERTEX
  8
LAYER-1
 10
1.987494
 20
0.114140
 30
0.000000
  0
VERTEX
  8
LAYER-1
 10
1.991834
 20
0.112404
 30
0.000000
  0
VERTEX
  8
LAYER-1
 10
1.996174
 20
0.112404
 30
0.000000
  0
VERTEX
  8
LAYER-1
 10
2.000515
 20
0.115876
 30
0.000000
  0
VERTEX
  8
LAYER-1
 10
2.000515
 20
0.120216
 30
0.000000
  0
VERTEX
  8
LAYER-1
 10
1.999647
 20
0.124557
 30
0.000000
  0
VERTEX
  8
LAYER-1
 10
1.995306
 20
0.127163
 30
0.000000
  0
SEQEND
  8
LAYER-1
  0
POLYLINE
  8
LAYER-1
 66
  1
 70
  1
 62
  0
 10
0.852078
 20
0.204418
 30
0.000000
  0
VERTEX
  8
LAYER-1
 10
0.852078
 20
0.204418
 30
0.000000
  0
VERTEX
  8
LAYER-1
 10
0.839056
 20
0.181847
 30
0.000000
  0
VERTEX
  8
LAYER-1
 10
0.869438
 20
0.202680
 30
0.000000
  0
SEQEND
  8
LAYER-1
  0
POLYLINE
  8
LAYER-1
 66
  1
 70
  1
 62
  0
 10
1.849473
 20
0.147126
 30
0.000000
  0
VERTEX
  8
LAYER-1
 10
1.849473
 20
0.147126
 30
0.000000
  0
VERTEX
  8
LAYER-1
 10
1.836786
 20
0.127762
 30
0.000000
  0
VERTEX
  8
LAYER-1
 10
1.848136
 20
0.121751
 30
0.000000
  0
SEQEND
  8
LAYER-1
  0
POLYLINE
  8
LAYER-1
 66
  1
 70
  0
 62
  0
 10
2.146348
 20
0.129765
 30
0.000000
  0
VERTEX
  8
LAYER-1
 10
2.146348
 20
0.129765
 30
0.000000
  0
VERTEX
  8
LAYER-1
 10
2.142008
 20
0.129765
 30
0.000000
  0
VERTEX
  8
LAYER-1
 10
2.138535
 20
0.125425
 30
0.000000
  0
VERTEX
  8
LAYER-1
 10
2.137667
 20
0.120216
 30
0.000000
  0
VERTEX
  8
LAYER-1
 10
2.139403
 20
0.115876
 30
0.000000
  0
VERTEX
  8
LAYER-1
 10
2.143744
 20
0.114140
 30
0.000000
  0
VERTEX
  8
LAYER-1
 10
2.148084
 20
0.114140
 30
0.000000
  0
VERTEX
  8
LAYER-1
 10
2.152424
 20
0.117612
 30
0.000000
  0
VERTEX
  8
LAYER-1
 10
2.152424
 20
0.121952
 30
0.000000
  0
VERTEX
  8
LAYER-1
 10
2.151556
 20
0.126294
 30
0.000000
  0
VERTEX
  8
LAYER-1
 10
2.147216
 20
0.128898
 30
0.000000
  0
SEQEND
  8
LAYER-1
  0
POLYLINE
  8
LAYER-1
 66
  1
 70
  0
 62
  0
 10
2.206244
 20
0.134972
 30
0.000000
  0
VERTEX
  8
LAYER-1
 10
2.206244
 20
0.134972
 30
0.000000
  0
VERTEX
  8
LAYER-1
 10
2.201903
 20
0.134972
 30
0.000000
  0
VERTEX
  8
LAYER-1
 10
2.198431
 20
0.130632
 30
0.000000
  0
VERTEX
  8
LAYER-1
 10
2.197563
 20
0.125425
 30
0.000000
  0
VERTEX
  8
LAYER-1
 10
2.199299
 20
0.121084
 30
0.000000
  0
VERTEX
  8
LAYER-1
 10
2.203640
 20
0.119347
 30
0.000000
  0
VERTEX
  8
LAYER-1
 10
2.207980
 20
0.119347
 30
0.000000
  0
VERTEX
  8
LAYER-1
 10
2.212320
 20
0.122820
 30
0.000000
  0
VERTEX
  8
LAYER-1
 10
2.212320
 20
0.127160
 30
0.000000
  0
VERTEX
  8
LAYER-1
 10
2.211452
 20
0.131501
 30
0.000000
  0
VERTEX
  8
LAYER-1
 10
2.207112
 20
0.134106
 30
0.000000
  0
SEQEND
  8
LAYER-1
  0
POLYLINE
  8
LAYER-1
 66
  1
 70
  0
 62
  0
 10
0.862494
 20
0.121952
 30
0.000000
  0
VERTEX
  8
LAYER-1
 10
0.862494
 20
0.121952
 30
0.000000
  0
VERTEX
  8
LAYER-1
 10
0.858153
 20
0.121952
 30
0.000000
  0
VERTEX
  8
LAYER-1
 10
0.854681
 20
0.117611
 30
0.000000
  0
VERTEX
  8
LAYER-1
 10
0.853813
 20
0.112403
 30
0.000000
  0
VERTEX
  8
LAYER-1
 10
0.855549
 20
0.108063
 30
0.000000
  0
VERTEX
  8
LAYER-1
 10
0.859890
 20
0.106327
 30
0.000000
  0
VERTEX
  8
LAYER-1
 10
0.864230
 20
0.106327
 30
0.000000
  0
VERTEX
  8
LAYER-1
 10
0.868571
 20
0.109799
 30
0.000000
  0
VERTEX
  8
LAYER-1
 10
0.868571
 20
0.114139
 30
0.000000
  0
VERTEX
  8
LAYER-1
 10
0.867703
 20
0.118480
 30
0.000000
  0
VERTEX
  8
LAYER-1
 10
0.863362
 20
0.121084
 30
0.000000
  0
SEQEND
  8
LAYER-1
  0
POLYLINE
  8
LAYER-1
 66
  1
 70
  1
 62
  0
 10
2.513535
 20
0.161882
 30
0.000000
  0
VERTEX
  8
LAYER-1
 10
2.513535
 20
0.161882
 30
0.000000
  0
VERTEX
  8
LAYER-1
 10
2.520480
 20
0.135841
 30
0.000000
  0
VERTEX
  8
LAYER-1
 10
2.545653
 20
0.149729
 30
0.000000
  0
SEQEND
  8
LAYER-1
  0
POLYLINE
  8
LAYER-1
 66
  1
 70
  1
 62
  0
 10
2.675862
 20
0.190528
 30
0.000000
  0
VERTEX
  8
LAYER-1
 10
2.675862
 20
0.190528
 30
0.000000
  0
VERTEX
  8
LAYER-1
 10
2.662841
 20
0.167959
 30
0.000000
  0
VERTEX
  8
LAYER-1
 10
2.693223
 20
0.188791
 30
0.000000
  0
SEQEND
  8
LAYER-1
  0
POLYLINE
  8
LAYER-1
 66
  1
 70
  1
 62
  0
 10
1.352077
 20
0.141483
 30
0.000000
  0
VERTEX
  8
LAYER-1
 10
1.352077
 20
0.141483
 30
0.000000
  0
VERTEX
  8
LAYER-1
 10
1.335584
 20
0.116308
 30
0.000000
  0
VERTEX
  8
LAYER-1
 10
1.350341
 20
0.108496
 30
0.000000
  0
SEQEND
  8
LAYER-1
  0
POLYLINE
  8
LAYER-1
 66
  1
 70
  0
 62
  0
 10
2.464056
 20
0.193132
 30
0.000000
  0
VERTEX
  8
LAYER-1
 10
2.464056
 20
0.193132
 30
0.000000
  0
VERTEX
  8
LAYER-1
 10
2.459716
 20
0.193132
 30
0.000000
  0
VERTEX
  8
LAYER-1
 10
2.456244
 20
0.188791
 30
0.000000
  0
VERTEX
  8
LAYER-1
 10
2.455375
 20
0.183584
 30
0.000000
  0
VERTEX
  8
LAYER-1
 10
2.457112
 20
0.179243
 30
0.000000
  0
VERTEX
  8
LAYER-1
 10
2.461452
 20
0.177507
 30
0.000000
  0
VERTEX
  8
LAYER-1
 10
2.465792
 20
0.177507
 30
0.000000
  0
VERTEX
  8
LAYER-1
 10
2.470133
 20
0.180979
 30
0.000000
  0
VERTEX
  8
LAYER-1
 10
2.470133
 20
0.185320
 30
0.000000
  0
VERTEX
  8
LAYER-1
 10
2.469264
 20
0.189660
 30
0.000000
  0
VERTEX
  8
LAYER-1
 10
2.464924
 20
0.192264
 30
0.000000
  0
SEQEND
  8
LAYER-1
  0
POLYLINE
  8
LAYER-1
 66
  1
 70
  1
 62
  0
 10
2.501383
 20
0.125424
 30
0.000000
  0
VERTEX
  8
LAYER-1
 10
2.501383
 20
0.125424
 30
0.000000
  0
VERTEX
  8
LAYER-1
 10
2.488362
 20
0.102854
 30
0.000000
  0
VERTEX
  8
LAYER-1
 10
2.518744
 20
0.123687
 30
0.000000
  0
SEQEND
  8
LAYER-1
  0
POLYLINE
  8
LAYER-1
 66
  1
 70
  1
 62
  0
 10
1.060310
 20
0.215795
 30
0.000000
  0
VERTEX
  8
LAYER-1
 10
1.060310
 20
0.215795
 30
0.000000
  0
VERTEX
  8
LAYER-1
 10
1.079675
 20
0.203109
 30
0.000000
  0
VERTEX
  8
LAYER-1
 10
1.085685
 20
0.214459
 30
0.000000
  0
SEQEND
  8
LAYER-1
  0
POLYLINE
  8
LAYER-1
 66
  1
 70
  0
 62
  0
 10
2.615966
 20
0.194868
 30
0.000000
  0
VERTEX
  8
LAYER-1
 10
2.615966
 20
0.194868
 30
0.000000
  0
VERTEX
  8
LAYER-1
 10
2.611625
 20
0.194868
 30
0.000000
  0
VERTEX
  8
LAYER-1
 10
2.608153
 20
0.190527
 30
0.000000
  0
VERTEX
  8
LAYER-1
 10
2.607285
 20
0.185320
 30
0.000000
  0
VERTEX
  8
LAYER-1
 10
2.609021
 20
0.180979
 30
0.000000
  0
VERTEX
  8
LAYER-1
 10
2.613362
 20
0.179243
 30
0.000000
  0
VERTEX
  8
LAYER-1
 10
2.617702
 20
0.179243
 30
0.000000
  0
VERTEX
  8
LAYER-1
 10
2.622042
 20
0.182715
 30
0.000000
  0
VERTEX
  8
LAYER-1
 10
2.622042
 20
0.187056
 30
0.000000
  0
VERTEX
  8
LAYER-1
 10
2.621174
 20
0.191396
 30
0.000000
  0
VERTEX
  8
LAYER-1
 10
2.616834
 20
0.194000
 30
0.000000
  0
SEQEND
  8
LAYER-1
  0
POLYLINE
  8
LAYER-1
 66
  1
 70
  0
 62
  0
 10
1.404161
 20
0.135406
 30
0.000000
  0
VERTEX
  8
LAYER-1
 10
1.404161
 20
0.135406
 30
0.000000
  0
VERTEX
  8
LAYER-1
 10
1.399820
 20
0.135406
 30
0.000000
  0
VERTEX
  8
LAYER-1
 10
1.396348
 20
0.131065
 30
0.000000
  0
VERTEX
  8
LAYER-1
 10
1.395480
 20
0.125858
 30
0.000000
  0
VERTEX
  8
LAYER-1
 10
1.397216
 20
0.121518
 30
0.000000
  0
VERTEX
  8
LAYER-1
 10
1.401556
 20
0.119781
 30
0.000000
  0
VERTEX
  8
LAYER-1
 10
1.405897
 20
0.119781
 30
0.000000
  0
VERTEX
  8
LAYER-1
 10
1.410237
 20
0.123253
 30
0.000000
  0
VERTEX
  8
LAYER-1
 10
1.410237
 20
0.127594
 30
0.000000
  0
VERTEX
  8
LAYER-1
 10
1.409369
 20
0.131934
 30
0.000000
  0
VERTEX
  8
LAYER-1
 10
1.405029
 20
0.134538
 30
0.000000
  0
SEQEND
  8
LAYER-1
  0
POLYLINE
  8
LAYER-1
 66
  1
 70
  0
 62
  0
 10
0.987494
 20
0.111969
 30
0.000000
  0
VERTEX
  8
LAYER-1
 10
0.987494
 20
0.111969
 30
0.000000
  0
VERTEX
  8
LAYER-1
 10
0.983153
 20
0.111969
 30
0.000000
  0
VERTEX
  8
LAYER-1
 10
0.979681
 20
0.107628
 30
0.000000
  0
VERTEX
  8
LAYER-1
 10
0.978813
 20
0.102420
 30
0.000000
  0
VERTEX
  8
LAYER-1
 10
0.980549
 20
0.098080
 30
0.000000
  0
VERTEX
  8
LAYER-1
 10
0.984889
 20
0.096344
 30
0.000000
  0
VERTEX
  8
LAYER-1
 10
0.989230
 20
0.096344
 30
0.000000
  0
VERTEX
  8
LAYER-1
 10
0.993569
 20
0.099815
 30
0.000000
  0
VERTEX
  8
LAYER-1
 10
0.993569
 20
0.104156
 30
0.000000
  0
VERTEX
  8
LAYER-1
 10
0.992701
 20
0.108497
 30
0.000000
  0
VERTEX
  8
LAYER-1
 10
0.988362
 20
0.111101
 30
0.000000
  0
SEQEND
  8
LAYER-1
  0
POLYLINE
  8
LAYER-1
 66
  1
 70
  1
 62
  0
 10
2.955375
 20
0.186188
 30
0.000000
  0
VERTEX
  8
LAYER-1
 10
2.955375
 20
0.186188
 30
0.000000
  0
VERTEX
  8
LAYER-1
 10
2.962320
 20
0.160147
 30
0.000000
  0
VERTEX
  8
LAYER-1
 10
2.987493
 20
0.174034
 30
0.000000
  0
SEQEND
  8
LAYER-1
  0
POLYLINE
  8
LAYER-1
 66
  1
 70
  1
 62
  0
 10
3.117702
 20
0.214834
 30
0.000000
  0
VERTEX
  8
LAYER-1
 10
3.117702
 20
0.214834
 30
0.000000
  0
VERTEX
  8
LAYER-1
 10
3.104680
 20
0.192264
 30
0.000000
  0
VERTEX
  8
LAYER-1
 10
3.135063
 20
0.213097
 30
0.000000
  0
SEQEND
  8
LAYER-1
  0
POLYLINE
  8
LAYER-1
 66
  1
 70
  1
 62
  0
 10
2.346000
 20
0.150597
 30
0.000000
  0
VERTEX
  8
LAYER-1
 10
2.346000
 20
0.150597
 30
0.000000
  0
VERTEX
  8
LAYER-1
 10
2.371174
 20
0.134104
 30
0.000000
  0
VERTEX
  8
LAYER-1
 10
2.378986
 20
0.148862
 30
0.000000
  0
SEQEND
  8
LAYER-1
  0
POLYLINE
  8
LAYER-1
 66
  1
 70
  0
 62
  0
 10
2.916313
 20
0.207022
 30
0.000000
  0
VERTEX
  8
LAYER-1
 10
2.916313
 20
0.207022
 30
0.000000
  0
VERTEX
  8
LAYER-1
 10
2.911972
 20
0.207022
 30
0.000000
  0
VERTEX
  8
LAYER-1
 10
2.908500
 20
0.202682
 30
0.000000
  0
VERTEX
  8
LAYER-1
 10
2.907632
 20
0.197474
 30
0.000000
  0
VERTEX
  8
LAYER-1
 10
2.909368
 20
0.193133
 30
0.000000
  0
VERTEX
  8
LAYER-1
 10
2.913709
 20
0.191397
 30
0.000000
  0
VERTEX
  8
LAYER-1
 10
2.918048
 20
0.191397
 30
0.000000
  0
VERTEX
  8
LAYER-1
 10
2.922389
 20
0.194869
 30
0.000000
  0
VERTEX
  8
LAYER-1
 10
2.922389
 20
0.199209
 30
0.000000
  0
VERTEX
  8
LAYER-1
 10
2.921521
 20
0.203551
 30
0.000000
  0
VERTEX
  8
LAYER-1
 10
2.917181
 20
0.206156
 30
0.000000
  0
SEQEND
  8
LAYER-1
  0
POLYLINE
  8
LAYER-1
 66
  1
 70
  1
 62
  0
 10
2.931939
 20
0.118480
 30
0.000000
  0
VERTEX
  8
LAYER-1
 10
2.931939
 20
0.118480
 30
0.000000
  0
VERTEX
  8
LAYER-1
 10
2.918917
 20
0.095909
 30
0.000000
  0
VERTEX
  8
LAYER-1
 10
2.949299
 20
0.116742
 30
0.000000
  0
SEQEND
  8
LAYER-1
  0
POLYLINE
  8
LAYER-1
 66
  1
 70
  1
 62
  0
 10
3.026389
 20
0.112066
 30
0.000000
  0
VERTEX
  8
LAYER-1
 10
3.026389
 20
0.112066
 30
0.000000
  0
VERTEX
  8
LAYER-1
 10
3.013702
 20
0.092703
 30
0.000000
  0
VERTEX
  8
LAYER-1
 10
3.025053
 20
0.086692
 30
0.000000
  0
SEQEND
  8
LAYER-1
  0
POLYLINE
  8
LAYER-1
 66
  1
 70
  0
 62
  0
 10
3.057806
 20
0.211362
 30
0.000000
  0
VERTEX
  8
LAYER-1
 10
3.057806
 20
0.211362
 30
0.000000
  0
VERTEX
  8
LAYER-1
 10
3.053466
 20
0.211362
 30
0.000000
  0
VERTEX
  8
LAYER-1
 10
3.049993
 20
0.207021
 30
0.000000
  0
VERTEX
  8
LAYER-1
 10
3.049125
 20
0.201814
 30
0.000000
  0
VERTEX
  8
LAYER-1
 10
3.050861
 20
0.197472
 30
0.000000
  0
VERTEX
  8
LAYER-1
 10
3.055202
 20
0.195737
 30
0.000000
  0
VERTEX
  8
LAYER-1
 10
3.059543
 20
0.195737
 30
0.000000
  0
VERTEX
  8
LAYER-1
 10
3.063882
 20
0.199209
 30
0.000000
  0
VERTEX
  8
LAYER-1
 10
3.063882
 20
0.203550
 30
0.000000
  0
VERTEX
  8
LAYER-1
 10
3.063014
 20
0.207890
 30
0.000000
  0
VERTEX
  8
LAYER-1
 10
3.058673
 20
0.210495
 30
0.000000
  0
SEQEND
  8
LAYER-1
  0
POLYLINE
  8
LAYER-1
 66
  1
 70
  0
 62
  0
 10
2.334716
 20
0.203550
 30
0.000000
  0
VERTEX
  8
LAYER-1
 10
2.334716
 20
0.203550
 30
0.000000
  0
VERTEX
  8
LAYER-1
 10
2.334716
 20
0.199209
 30
0.000000
  0
VERTEX
  8
LAYER-1
 10
2.339057
 20
0.195737
 30
0.000000
  0
VERTEX
  8
LAYER-1
 10
2.344264
 20
0.194868
 30
0.000000
  0
VERTEX
  8
LAYER-1
 10
2.348605
 20
0.196604
 30
0.000000
  0
VERTEX
  8
LAYER-1
 10
2.350341
 20
0.200945
 30
0.000000
  0
VERTEX
  8
LAYER-1
 10
2.350341
 20
0.205285
 30
0.000000
  0
VERTEX
  8
LAYER-1
 10
2.346869
 20
0.209626
 30
0.000000
  0
VERTEX
  8
LAYER-1
 10
2.342528
 20
0.209626
 30
0.000000
  0
VERTEX
  8
LAYER-1
 10
2.338188
 20
0.208757
 30
0.000000
  0
VERTEX
  8
LAYER-1
 10
2.335583
 20
0.204416
 30
0.000000
  0
SEQEND
  8
LAYER-1
  0
POLYLINE
  8
LAYER-1
 66
  1
 70
  0
 62
  0
 10
2.898083
 20
0.119346
 30
0.000000
  0
VERTEX
  8
LAYER-1
 10
2.898083
 20
0.119346
 30
0.000000
  0
VERTEX
  8
LAYER-1
 10
2.893742
 20
0.119346
 30
0.000000
  0
VERTEX
  8
LAYER-1
 10
2.890270
 20
0.115005
 30
0.000000
  0
VERTEX
  8
LAYER-1
 10
2.889402
 20
0.109797
 30
0.000000
  0
VERTEX
  8
LAYER-1
 10
2.891138
 20
0.105457
 30
0.000000
  0
VERTEX
  8
LAYER-1
 10
2.895479
 20
0.103721
 30
0.000000
  0
VERTEX
  8
LAYER-1
 10
2.899819
 20
0.103721
 30
0.000000
  0
VERTEX
  8
LAYER-1
 10
2.904159
 20
0.107193
 30
0.000000
  0
VERTEX
  8
LAYER-1
 10
2.904159
 20
0.111533
 30
0.000000
  0
VERTEX
  8
LAYER-1
 10
2.903291
 20
0.115874
 30
0.000000
  0
VERTEX
  8
LAYER-1
 10
2.898951
 20
0.118479
 30
0.000000
  0
SEQEND
  8
LAYER-1
  0
POLYLINE
  8
LAYER-1
 66
  1
 70
  1
 62
  0
 10
2.765272
 20
0.107629
 30
0.000000
  0
VERTEX
  8
LAYER-1
 10
2.765272
 20
0.107629
 30
0.000000
  0
VERTEX
  8
LAYER-1
 10
2.739230
 20
0.100684
 30
0.000000
  0
VERTEX
  8
LAYER-1
 10
2.753119
 20
0.075512
 30
0.000000
  0
SEQEND
  8
LAYER-1
  0
POLYLINE
  8
LAYER-1
 66
  1
 70
  1
 62
  0
 10
1.388537
 20
0.082021
 30
0.000000
  0
VERTEX
  8
LAYER-1
 10
1.388537
 20
0.082021
 30
0.000000
  0
VERTEX
  8
LAYER-1
 10
1.363362
 20
0.098514
 30
0.000000
  0
VERTEX
  8
LAYER-1
 10
1.355549
 20
0.083757
 30
0.000000
  0
SEQEND
  8
LAYER-1
  0
POLYLINE
  8
LAYER-1
 66
  1
 70
  0
 62
  0
 10
2.796522
 20
0.157108
 30
0.000000
  0
VERTEX
  8
LAYER-1
 10
2.796522
 20
0.157108
 30
0.000000
  0
VERTEX
  8
LAYER-1
 10
2.796522
 20
0.161449
 30
0.000000
  0
VERTEX
  8
LAYER-1
 10
2.792181
 20
0.164920
 30
0.000000
  0
VERTEX
  8
LAYER-1
 10
2.786974
 20
0.165788
 30
0.000000
  0
VERTEX
  8
LAYER-1
 10
2.782633
 20
0.164052
 30
0.000000
  0
VERTEX
  8
LAYER-1
 10
2.780897
 20
0.159712
 30
0.000000
  0
VERTEX
  8
LAYER-1
 10
2.780897
 20
0.155372
 30
0.000000
  0
VERTEX
  8
LAYER-1
 10
2.784369
 20
0.151032
 30
0.000000
  0
VERTEX
  8
LAYER-1
 10
2.788710
 20
0.151032
 30
0.000000
  0
VERTEX
  8
LAYER-1
 10
2.793050
 20
0.151900
 30
0.000000
  0
VERTEX
  8
LAYER-1
 10
2.795653
 20
0.156240
 30
0.000000
  0
SEQEND
  8
LAYER-1
  0
POLYLINE
  8
LAYER-1
 66
  1
 70
  1
 62
  0
 10
2.728813
 20
0.119782
 30
0.000000
  0
VERTEX
  8
LAYER-1
 10
2.728813
 20
0.119782
 30
0.000000
  0
VERTEX
  8
LAYER-1
 10
2.706244
 20
0.132802
 30
0.000000
  0
VERTEX
  8
LAYER-1
 10
2.727077
 20
0.102420
 30
0.000000
  0
SEQEND
  8
LAYER-1
  0
POLYLINE
  8
LAYER-1
 66
  1
 70
  1
 62
  0
 10
1.466327
 20
0.101284
 30
0.000000
  0
VERTEX
  8
LAYER-1
 10
1.466327
 20
0.101284
 30
0.000000
  0
VERTEX
  8
LAYER-1
 10
1.446962
 20
0.113971
 30
0.000000
  0
VERTEX
  8
LAYER-1
 10
1.440952
 20
0.102620
 30
0.000000
  0
SEQEND
  8
LAYER-1
  0
POLYLINE
  8
LAYER-1
 66
  1
 70
  0
 62
  0
 10
1.526557
 20
0.089834
 30
0.000000
  0
VERTEX
  8
LAYER-1
 10
1.526557
 20
0.089834
 30
0.000000
  0
VERTEX
  8
LAYER-1
 10
1.526557
 20
0.094174
 30
0.000000
  0
VERTEX
  8
LAYER-1
 10
1.522217
 20
0.097646
 30
0.000000
  0
VERTEX
  8
LAYER-1
 10
1.517009
 20
0.098514
 30
0.000000
  0
VERTEX
  8
LAYER-1
 10
1.512668
 20
0.096778
 30
0.000000
  0
VERTEX
  8
LAYER-1
 10
1.510932
 20
0.092438
 30
0.000000
  0
VERTEX
  8
LAYER-1
 10
1.510932
 20
0.088097
 30
0.000000
  0
VERTEX
  8
LAYER-1
 10
1.514404
 20
0.083757
 30
0.000000
  0
VERTEX
  8
LAYER-1
 10
1.518745
 20
0.083757
 30
0.000000
  0
VERTEX
  8
LAYER-1
 10
1.523086
 20
0.084625
 30
0.000000
  0
VERTEX
  8
LAYER-1
 10
1.525689
 20
0.088966
 30
0.000000
  0
SEQEND
  8
LAYER-1
  0
POLYLINE
  8
LAYER-1
 66
  1
 70
  0
 62
  0
 10
2.646349
 20
0.109365
 30
0.000000
  0
VERTEX
  8
LAYER-1
 10
2.646349
 20
0.109365
 30
0.000000
  0
VERTEX
  8
LAYER-1
 10
2.646349
 20
0.113706
 30
0.000000
  0
VERTEX
  8
LAYER-1
 10
2.642008
 20
0.117177
 30
0.000000
  0
VERTEX
  8
LAYER-1
 10
2.636800
 20
0.118045
 30
0.000000
  0
VERTEX
  8
LAYER-1
 10
2.632460
 20
0.116309
 30
0.000000
  0
VERTEX
  8
LAYER-1
 10
2.630724
 20
0.111970
 30
0.000000
  0
VERTEX
  8
LAYER-1
 10
2.630724
 20
0.107629
 30
0.000000
  0
VERTEX
  8
LAYER-1
 10
2.634196
 20
0.103288
 30
0.000000
  0
VERTEX
  8
LAYER-1
 10
2.638536
 20
0.103288
 30
0.000000
  0
VERTEX
  8
LAYER-1
 10
2.642877
 20
0.104157
 30
0.000000
  0
VERTEX
  8
LAYER-1
 10
2.645480
 20
0.108497
 30
0.000000
  0
SEQEND
  8
LAYER-1
  0
POLYLINE
  8
LAYER-1
 66
  1
 70
  1
 62
  0
 10
2.839056
 20
0.110669
 30
0.000000
  0
VERTEX
  8
LAYER-1
 10
2.839056
 20
0.110669
 30
0.000000
  0
VERTEX
  8
LAYER-1
 10
2.832112
 20
0.136709
 30
0.000000
  0
VERTEX
  8
LAYER-1
 10
2.806938
 20
0.122821
 30
0.000000
  0
SEQEND
  8
LAYER-1
  0
POLYLINE
  8
LAYER-1
 66
  1
 70
  1
 62
  0
 10
2.286105
 20
0.097646
 30
0.000000
  0
VERTEX
  8
LAYER-1
 10
2.286105
 20
0.097646
 30
0.000000
  0
VERTEX
  8
LAYER-1
 10
2.263534
 20
0.110669
 30
0.000000
  0
VERTEX
  8
LAYER-1
 10
2.284367
 20
0.080285
 30
0.000000
  0
SEQEND
  8
LAYER-1
  0
POLYLINE
  8
LAYER-1
 66
  1
 70
  1
 62
  0
 10
3.063883
 20
0.121952
 30
0.000000
  0
VERTEX
  8
LAYER-1
 10
3.063883
 20
0.121952
 30
0.000000
  0
VERTEX
  8
LAYER-1
 10
3.080376
 20
0.147126
 30
0.000000
  0
VERTEX
  8
LAYER-1
 10
3.065619
 20
0.154939
 30
0.000000
  0
SEQEND
  8
LAYER-1
  0
POLYLINE
  8
LAYER-1
 66
  1
 70
  0
 62
  0
 10
3.199299
 20
0.089832
 30
0.000000
  0
VERTEX
  8
LAYER-1
 10
3.199299
 20
0.089832
 30
0.000000
  0
VERTEX
  8
LAYER-1
 10
3.203640
 20
0.089832
 30
0.000000
  0
VERTEX
  8
LAYER-1
 10
3.207111
 20
0.094172
 30
0.000000
  0
VERTEX
  8
LAYER-1
 10
3.207979
 20
0.099380
 30
0.000000
  0
VERTEX
  8
LAYER-1
 10
3.206244
 20
0.103721
 30
0.000000
  0
VERTEX
  8
LAYER-1
 10
3.201903
 20
0.105457
 30
0.000000
  0
VERTEX
  8
LAYER-1
 10
3.197563
 20
0.105457
 30
0.000000
  0
VERTEX
  8
LAYER-1
 10
3.193222
 20
0.101985
 30
0.000000
  0
VERTEX
  8
LAYER-1
 10
3.193222
 20
0.097644
 30
0.000000
  0
VERTEX
  8
LAYER-1
 10
3.194091
 20
0.093303
 30
0.000000
  0
VERTEX
  8
LAYER-1
 10
3.198431
 20
0.090699
 30
0.000000
  0
SEQEND
  8
LAYER-1
  0
POLYLINE
  8
LAYER-1
 66
  1
 70
  1
 62
  0
 10
2.851208
 20
0.147126
 30
0.000000
  0
VERTEX
  8
LAYER-1
 10
2.851208
 20
0.147126
 30
0.000000
  0
VERTEX
  8
LAYER-1
 10
2.864229
 20
0.169696
 30
0.000000
  0
VERTEX
  8
LAYER-1
 10
2.833847
 20
0.148864
 30
0.000000
  0
SEQEND
  8
LAYER-1
  0
POLYLINE
  8
LAYER-1
 66
  1
 70
  1
 62
  0
 10
3.104848
 20
0.097982
 30
0.000000
  0
VERTEX
  8
LAYER-1
 10
3.104848
 20
0.097982
 30
0.000000
  0
VERTEX
  8
LAYER-1
 10
3.117535
 20
0.117346
 30
0.000000
  0
VERTEX
  8
LAYER-1
 10
3.106184
 20
0.123357
 30
0.000000
  0
SEQEND
  8
LAYER-1
  0
POLYLINE
  8
LAYER-1
 66
  1
 70
  0
 62
  0
 10
2.425860
 20
0.157544
 30
0.000000
  0
VERTEX
  8
LAYER-1
 10
2.425860
 20
0.157544
 30
0.000000
  0
VERTEX
  8
LAYER-1
 10
2.425860
 20
0.161882
 30
0.000000
  0
VERTEX
  8
LAYER-1
 10
2.421520
 20
0.165356
 30
0.000000
  0
VERTEX
  8
LAYER-1
 10
2.416312
 20
0.166222
 30
0.000000
  0
VERTEX
  8
LAYER-1
 10
2.411971
 20
0.164487
 30
0.000000
  0
VERTEX
  8
LAYER-1
 10
2.410235
 20
0.160146
 30
0.000000
  0
VERTEX
  8
LAYER-1
 10
2.410235
 20
0.155806
 30
0.000000
  0
VERTEX
  8
LAYER-1
 10
2.413707
 20
0.151466
 30
0.000000
  0
VERTEX
  8
LAYER-1
 10
2.418048
 20
0.151466
 30
0.000000
  0
VERTEX
  8
LAYER-1
 10
2.422389
 20
0.152334
 30
0.000000
  0
VERTEX
  8
LAYER-1
 10
2.424993
 20
0.156675
 30
0.000000
  0
SEQEND
  8
LAYER-1
  0
POLYLINE
  8
LAYER-1
 66
  1
 70
  0
 62
  0
 10
3.011799
 20
0.128029
 30
0.000000
  0
VERTEX
  8
LAYER-1
 10
3.011799
 20
0.128029
 30
0.000000
  0
VERTEX
  8
LAYER-1
 10
3.016140
 20
0.128029
 30
0.000000
  0
VERTEX
  8
LAYER-1
 10
3.019612
 20
0.132370
 30
0.000000
  0
VERTEX
  8
LAYER-1
 10
3.020480
 20
0.137577
 30
0.000000
  0
VERTEX
  8
LAYER-1
 10
3.018744
 20
0.141919
 30
0.000000
  0
VERTEX
  8
LAYER-1
 10
3.014403
 20
0.143654
 30
0.000000
  0
VERTEX
  8
LAYER-1
 10
3.010064
 20
0.143654
 30
0.000000
  0
VERTEX
  8
LAYER-1
 10
3.005723
 20
0.140182
 30
0.000000
  0
VERTEX
  8
LAYER-1
 10
3.005723
 20
0.135841
 30
0.000000
  0
VERTEX
  8
LAYER-1
 10
3.006591
 20
0.131501
 30
0.000000
  0
VERTEX
  8
LAYER-1
 10
3.010931
 20
0.128896
 30
0.000000
  0
SEQEND
  8
LAYER-1
  0
POLYLINE
  8
LAYER-1
 66
  1
 70
  0
 62
  0
 10
3.175862
 20
0.135841
 30
0.000000
  0
VERTEX
  8
LAYER-1
 10
3.175862
 20
0.135841
 30
0.000000
  0
VERTEX
  8
LAYER-1
 10
3.180203
 20
0.135841
 30
0.000000
  0
VERTEX
  8
LAYER-1
 10
3.183675
 20
0.140182
 30
0.000000
  0
VERTEX
  8
LAYER-1
 10
3.184542
 20
0.145390
 30
0.000000
  0
VERTEX
  8
LAYER-1
 10
3.182807
 20
0.149731
 30
0.000000
  0
VERTEX
  8
LAYER-1
 10
3.178466
 20
0.151466
 30
0.000000
  0
VERTEX
  8
LAYER-1
 10
3.174126
 20
0.151466
 30
0.000000
  0
VERTEX
  8
LAYER-1
 10
3.169785
 20
0.147995
 30
0.000000
  0
VERTEX
  8
LAYER-1
 10
3.169785
 20
0.143654
 30
0.000000
  0
VERTEX
  8
LAYER-1
 10
3.170653
 20
0.139314
 30
0.000000
  0
VERTEX
  8
LAYER-1
 10
3.174994
 20
0.136709
 30
0.000000
  0
SEQEND
  8
LAYER-1
  0
POLYLINE
  8
LAYER-1
 66
  1
 70
  1
 62
  0
 10
3.582982
 20
0.134106
 30
0.000000
  0
VERTEX
  8
LAYER-1
 10
3.582982
 20
0.134106
 30
0.000000
  0
VERTEX
  8
LAYER-1
 10
3.589925
 20
0.108064
 30
0.000000
  0
VERTEX
  8
LAYER-1
 10
3.615099
 20
0.121952
 30
0.000000
  0
SEQEND
  8
LAYER-1
  0
POLYLINE
  8
LAYER-1
 66
  1
 70
  1
 62
  0
 10
3.749214
 20
0.088099
 30
0.000000
  0
VERTEX
  8
LAYER-1
 10
3.749214
 20
0.088099
 30
0.000000
  0
VERTEX
  8
LAYER-1
 10
3.736192
 20
0.065529
 30
0.000000
  0
VERTEX
  8
LAYER-1
 10
3.766575
 20
0.086362
 30
0.000000
  0
SEQEND
  8
LAYER-1
  0
POLYLINE
  8
LAYER-1
 66
  1
 70
  1
 62
  0
 10
3.634196
 20
0.178374
 30
0.000000
  0
VERTEX
  8
LAYER-1
 10
3.634196
 20
0.178374
 30
0.000000
  0
VERTEX
  8
LAYER-1
 10
3.617703
 20
0.153199
 30
0.000000
  0
VERTEX
  8
LAYER-1
 10
3.632459
 20
0.145387
 30
0.000000
  0
SEQEND
  8
LAYER-1
  0
POLYLINE
  8
LAYER-1
 66
  1
 70
  0
 62
  0
 10
3.549127
 20
0.165356
 30
0.000000
  0
VERTEX
  8
LAYER-1
 10
3.549127
 20
0.165356
 30
0.000000
  0
VERTEX
  8
LAYER-1
 10
3.544786
 20
0.165356
 30
0.000000
  0
VERTEX
  8
LAYER-1
 10
3.541313
 20
0.161015
 30
0.000000
  0
VERTEX
  8
LAYER-1
 10
3.540444
 20
0.155807
 30
0.000000
  0
VERTEX
  8
LAYER-1
 10
3.542182
 20
0.151466
 30
0.000000
  0
VERTEX
  8
LAYER-1
 10
3.546522
 20
0.149731
 30
0.000000
  0
VERTEX
  8
LAYER-1
 10
3.550863
 20
0.149731
 30
0.000000
  0
VERTEX
  8
LAYER-1
 10
3.555202
 20
0.153202
 30
0.000000
  0
VERTEX
  8
LAYER-1
 10
3.555202
 20
0.157544
 30
0.000000
  0
VERTEX
  8
LAYER-1
 10
3.554334
 20
0.161884
 30
0.000000
  0
VERTEX
  8
LAYER-1
 10
3.549995
 20
0.164488
 30
0.000000
  0
SEQEND
  8
LAYER-1
  0
POLYLINE
  8
LAYER-1
 66
  1
 70
  1
 62
  0
 10
3.532632
 20
0.105458
 30
0.000000
  0
VERTEX
  8
LAYER-1
 10
3.532632
 20
0.105458
 30
0.000000
  0
VERTEX
  8
LAYER-1
 10
3.519611
 20
0.082888
 30
0.000000
  0
VERTEX
  8
LAYER-1
 10
3.549995
 20
0.103721
 30
0.000000
  0
SEQEND
  8
LAYER-1
  0
POLYLINE
  8
LAYER-1
 66
  1
 70
  1
 62
  0
 10
3.588089
 20
0.203812
 30
0.000000
  0
VERTEX
  8
LAYER-1
 10
3.588089
 20
0.203812
 30
0.000000
  0
VERTEX
  8
LAYER-1
 10
3.607453
 20
0.191124
 30
0.000000
  0
VERTEX
  8
LAYER-1
 10
3.613464
 20
0.202476
 30
0.000000
  0
SEQEND
  8
LAYER-1
  0
POLYLINE
  8
LAYER-1
 66
  1
 70
  0
 62
  0
 10
3.472735
 20
0.155061
 30
0.000000
  0
VERTEX
  8
LAYER-1
 10
3.472735
 20
0.155061
 30
0.000000
  0
VERTEX
  8
LAYER-1
 10
3.468395
 20
0.155061
 30
0.000000
  0
VERTEX
  8
LAYER-1
 10
3.464923
 20
0.150720
 30
0.000000
  0
VERTEX
  8
LAYER-1
 10
3.464056
 20
0.145512
 30
0.000000
  0
VERTEX
  8
LAYER-1
 10
3.465791
 20
0.141172
 30
0.000000
  0
VERTEX
  8
LAYER-1
 10
3.470131
 20
0.139436
 30
0.000000
  0
VERTEX
  8
LAYER-1
 10
3.474472
 20
0.139436
 30
0.000000
  0
VERTEX
  8
LAYER-1
 10
3.478812
 20
0.142907
 30
0.000000
  0
VERTEX
  8
LAYER-1
 10
3.478812
 20
0.147248
 30
0.000000
  0
VERTEX
  8
LAYER-1
 10
3.477944
 20
0.151588
 30
0.000000
  0
VERTEX
  8
LAYER-1
 10
3.473604
 20
0.154193
 30
0.000000
  0
SEQEND
  8
LAYER-1
  0
POLYLINE
  8
LAYER-1
 66
  1
 70
  0
 62
  0
 10
3.849475
 20
0.127157
 30
0.000000
  0
VERTEX
  8
LAYER-1
 10
3.849475
 20
0.127157
 30
0.000000
  0
VERTEX
  8
LAYER-1
 10
3.845136
 20
0.127157
 30
0.000000
  0
VERTEX
  8
LAYER-1
 10
3.841663
 20
0.122815
 30
0.000000
  0
VERTEX
  8
LAYER-1
 10
3.840795
 20
0.117608
 30
0.000000
  0
VERTEX
  8
LAYER-1
 10
3.842531
 20
0.113268
 30
0.000000
  0
VERTEX
  8
LAYER-1
 10
3.846872
 20
0.111532
 30
0.000000
  0
VERTEX
  8
LAYER-1
 10
3.851212
 20
0.111532
 30
0.000000
  0
VERTEX
  8
LAYER-1
 10
3.855552
 20
0.115003
 30
0.000000
  0
VERTEX
  8
LAYER-1
 10
3.855552
 20
0.119344
 30
0.000000
  0
VERTEX
  8
LAYER-1
 10
3.854684
 20
0.123684
 30
0.000000
  0
VERTEX
  8
LAYER-1
 10
3.850343
 20
0.126289
 30
0.000000
  0
SEQEND
  8
LAYER-1
  0
POLYLINE
  8
LAYER-1
 66
  1
 70
  0
 62
  0
 10
3.581245
 20
0.098513
 30
0.000000
  0
VERTEX
  8
LAYER-1
 10
3.581245
 20
0.098513
 30
0.000000
  0
VERTEX
  8
LAYER-1
 10
3.576905
 20
0.098513
 30
0.000000
  0
VERTEX
  8
LAYER-1
 10
3.573432
 20
0.094172
 30
0.000000
  0
VERTEX
  8
LAYER-1
 10
3.572564
 20
0.088965
 30
0.000000
  0
VERTEX
  8
LAYER-1
 10
3.574300
 20
0.084624
 30
0.000000
  0
VERTEX
  8
LAYER-1
 10
3.578641
 20
0.082888
 30
0.000000
  0
VERTEX
  8
LAYER-1
 10
3.582981
 20
0.082888
 30
0.000000
  0
VERTEX
  8
LAYER-1
 10
3.587321
 20
0.086360
 30
0.000000
  0
VERTEX
  8
LAYER-1
 10
3.587321
 20
0.090701
 30
0.000000
  0
VERTEX
  8
LAYER-1
 10
3.586453
 20
0.095041
 30
0.000000
  0
VERTEX
  8
LAYER-1
 10
3.582113
 20
0.097645
 30
0.000000
  0
SEQEND
  8
LAYER-1
  0
POLYLINE
  8
LAYER-1
 66
  1
 70
  1
 62
  0
 10
3.379420
 20
0.157977
 30
0.000000
  0
VERTEX
  8
LAYER-1
 10
3.379420
 20
0.157977
 30
0.000000
  0
VERTEX
  8
LAYER-1
 10
3.353380
 20
0.151032
 30
0.000000
  0
VERTEX
  8
LAYER-1
 10
3.367267
 20
0.125859
 30
0.000000
  0
SEQEND
  8
LAYER-1
  0
POLYLINE
  8
LAYER-1
 66
  1
 70
  1
 62
  0
 10
3.286539
 20
0.106762
 30
0.000000
  0
VERTEX
  8
LAYER-1
 10
3.286539
 20
0.106762
 30
0.000000
  0
VERTEX
  8
LAYER-1
 10
3.263969
 20
0.119782
 30
0.000000
  0
VERTEX
  8
LAYER-1
 10
3.284801
 20
0.089400
 30
0.000000
  0
SEQEND
  8
LAYER-1
  0
POLYLINE
  8
LAYER-1
 66
  1
 70
  1
 62
  0
 10
3.250080
 20
0.151897
 30
0.000000
  0
VERTEX
  8
LAYER-1
 10
3.250080
 20
0.151897
 30
0.000000
  0
VERTEX
  8
LAYER-1
 10
3.224907
 20
0.168390
 30
0.000000
  0
VERTEX
  8
LAYER-1
 10
3.217094
 20
0.153633
 30
0.000000
  0
SEQEND
  8
LAYER-1
  0
POLYLINE
  8
LAYER-1
 66
  1
 70
  0
 62
  0
 10
3.410670
 20
0.207456
 30
0.000000
  0
VERTEX
  8
LAYER-1
 10
3.410670
 20
0.207456
 30
0.000000
  0
VERTEX
  8
LAYER-1
 10
3.410670
 20
0.211796
 30
0.000000
  0
VERTEX
  8
LAYER-1
 10
3.406330
 20
0.215268
 30
0.000000
  0
VERTEX
  8
LAYER-1
 10
3.401122
 20
0.216137
 30
0.000000
  0
VERTEX
  8
LAYER-1
 10
3.396781
 20
0.214400
 30
0.000000
  0
VERTEX
  8
LAYER-1
 10
3.395045
 20
0.210059
 30
0.000000
  0
VERTEX
  8
LAYER-1
 10
3.395045
 20
0.205720
 30
0.000000
  0
VERTEX
  8
LAYER-1
 10
3.398517
 20
0.201379
 30
0.000000
  0
VERTEX
  8
LAYER-1
 10
3.402858
 20
0.201379
 30
0.000000
  0
VERTEX
  8
LAYER-1
 10
3.407199
 20
0.202247
 30
0.000000
  0
VERTEX
  8
LAYER-1
 10
3.409804
 20
0.206588
 30
0.000000
  0
SEQEND
  8
LAYER-1
  0
POLYLINE
  8
LAYER-1
 66
  1
 70
  1
 62
  0
 10
3.342963
 20
0.170129
 30
0.000000
  0
VERTEX
  8
LAYER-1
 10
3.342963
 20
0.170129
 30
0.000000
  0
VERTEX
  8
LAYER-1
 10
3.320392
 20
0.183150
 30
0.000000
  0
VERTEX
  8
LAYER-1
 10
3.341225
 20
0.152768
 30
0.000000
  0
SEQEND
  8
LAYER-1
  0
POLYLINE
  8
LAYER-1
 66
  1
 70
  1
 62
  0
 10
3.294617
 20
0.177171
 30
0.000000
  0
VERTEX
  8
LAYER-1
 10
3.294617
 20
0.177171
 30
0.000000
  0
VERTEX
  8
LAYER-1
 10
3.281930
 20
0.157806
 30
0.000000
  0
VERTEX
  8
LAYER-1
 10
3.293281
 20
0.151795
 30
0.000000
  0
SEQEND
  8
LAYER-1
  0
POLYLINE
  8
LAYER-1
 66
  1
 70
  0
 62
  0
 10
3.412406
 20
0.079851
 30
0.000000
  0
VERTEX
  8
LAYER-1
 10
3.412406
 20
0.079851
 30
0.000000
  0
VERTEX
  8
LAYER-1
 10
3.412406
 20
0.084190
 30
0.000000
  0
VERTEX
  8
LAYER-1
 10
3.408066
 20
0.087663
 30
0.000000
  0
VERTEX
  8
LAYER-1
 10
3.402858
 20
0.088531
 30
0.000000
  0
VERTEX
  8
LAYER-1
 10
3.398517
 20
0.086795
 30
0.000000
  0
VERTEX
  8
LAYER-1
 10
3.396781
 20
0.082455
 30
0.000000
  0
VERTEX
  8
LAYER-1
 10
3.396781
 20
0.078114
 30
0.000000
  0
VERTEX
  8
LAYER-1
 10
3.400253
 20
0.073775
 30
0.000000
  0
VERTEX
  8
LAYER-1
 10
3.404594
 20
0.073775
 30
0.000000
  0
VERTEX
  8
LAYER-1
 10
3.408935
 20
0.074643
 30
0.000000
  0
VERTEX
  8
LAYER-1
 10
3.411539
 20
0.078983
 30
0.000000
  0
SEQEND
  8
LAYER-1
  0
POLYLINE
  8
LAYER-1
 66
  1
 70
  0
 62
  0
 10
3.330809
 20
0.080719
 30
0.000000
  0
VERTEX
  8
LAYER-1
 10
3.330809
 20
0.080719
 30
0.000000
  0
VERTEX
  8
LAYER-1
 10
3.330809
 20
0.085059
 30
0.000000
  0
VERTEX
  8
LAYER-1
 10
3.326469
 20
0.088531
 30
0.000000
  0
VERTEX
  8
LAYER-1
 10
3.321261
 20
0.089400
 30
0.000000
  0
VERTEX
  8
LAYER-1
 10
3.316920
 20
0.087663
 30
0.000000
  0
VERTEX
  8
LAYER-1
 10
3.315184
 20
0.083322
 30
0.000000
  0
VERTEX
  8
LAYER-1
 10
3.315184
 20
0.078983
 30
0.000000
  0
VERTEX
  8
LAYER-1
 10
3.318656
 20
0.074643
 30
0.000000
  0
VERTEX
  8
LAYER-1
 10
3.322997
 20
0.074643
 30
0.000000
  0
VERTEX
  8
LAYER-1
 10
3.327337
 20
0.075510
 30
0.000000
  0
VERTEX
  8
LAYER-1
 10
3.329942
 20
0.079851
 30
0.000000
  0
SEQEND
  8
LAYER-1
  0
POLYLINE
  8
LAYER-1
 66
  1
 70
  0
 62
  0
 10
3.260497
 20
0.190962
 30
0.000000
  0
VERTEX
  8
LAYER-1
 10
3.260497
 20
0.190962
 30
0.000000
  0
VERTEX
  8
LAYER-1
 10
3.260497
 20
0.195302
 30
0.000000
  0
VERTEX
  8
LAYER-1
 10
3.256156
 20
0.198775
 30
0.000000
  0
VERTEX
  8
LAYER-1
 10
3.250949
 20
0.199643
 30
0.000000
  0
VERTEX
  8
LAYER-1
 10
3.246608
 20
0.197906
 30
0.000000
  0
VERTEX
  8
LAYER-1
 10
3.244872
 20
0.193565
 30
0.000000
  0
VERTEX
  8
LAYER-1
 10
3.244872
 20
0.189226
 30
0.000000
  0
VERTEX
  8
LAYER-1
 10
3.248344
 20
0.184885
 30
0.000000
  0
VERTEX
  8
LAYER-1
 10
3.252685
 20
0.184885
 30
0.000000
  0
VERTEX
  8
LAYER-1
 10
3.257025
 20
0.185753
 30
0.000000
  0
VERTEX
  8
LAYER-1
 10
3.259630
 20
0.190094
 30
0.000000
  0
SEQEND
  8
LAYER-1
  0
POLYLINE
  8
LAYER-1
 66
  1
 70
  1
 62
  0
 10
4.043050
 20
0.180546
 30
0.000000
  0
VERTEX
  8
LAYER-1
 10
4.043050
 20
0.180546
 30
0.000000
  0
VERTEX
  8
LAYER-1
 10
4.049995
 20
0.154505
 30
0.000000
  0
VERTEX
  8
LAYER-1
 10
4.075168
 20
0.168393
 30
0.000000
  0
SEQEND
  8
LAYER-1
  0
POLYLINE
  8
LAYER-1
 66
  1
 70
  1
 62
  0
 10
4.205377
 20
0.209193
 30
0.000000
  0
VERTEX
  8
LAYER-1
 10
4.205377
 20
0.209193
 30
0.000000
  0
VERTEX
  8
LAYER-1
 10
4.192356
 20
0.186623
 30
0.000000
  0
VERTEX
  8
LAYER-1
 10
4.222738
 20
0.207456
 30
0.000000
  0
SEQEND
  8
LAYER-1
  0
POLYLINE
  8
LAYER-1
 66
  1
 70
  1
 62
  0
 10
4.184544
 20
0.124121
 30
0.000000
  0
VERTEX
  8
LAYER-1
 10
4.184544
 20
0.124121
 30
0.000000
  0
VERTEX
  8
LAYER-1
 10
4.168051
 20
0.098946
 30
0.000000
  0
VERTEX
  8
LAYER-1
 10
4.182808
 20
0.091134
 30
0.000000
  0
SEQEND
  8
LAYER-1
  0
POLYLINE
  8
LAYER-1
 66
  1
 70
  0
 62
  0
 10
3.993571
 20
0.211796
 30
0.000000
  0
VERTEX
  8
LAYER-1
 10
3.993571
 20
0.211796
 30
0.000000
  0
VERTEX
  8
LAYER-1
 10
3.989231
 20
0.211796
 30
0.000000
  0
VERTEX
  8
LAYER-1
 10
3.985759
 20
0.207456
 30
0.000000
  0
VERTEX
  8
LAYER-1
 10
3.984891
 20
0.202248
 30
0.000000
  0
VERTEX
  8
LAYER-1
 10
3.986627
 20
0.197907
 30
0.000000
  0
VERTEX
  8
LAYER-1
 10
3.990968
 20
0.196171
 30
0.000000
  0
VERTEX
  8
LAYER-1
 10
3.995307
 20
0.196171
 30
0.000000
  0
VERTEX
  8
LAYER-1
 10
3.999648
 20
0.199643
 30
0.000000
  0
VERTEX
  8
LAYER-1
 10
3.999648
 20
0.203984
 30
0.000000
  0
VERTEX
  8
LAYER-1
 10
3.998780
 20
0.208325
 30
0.000000
  0
VERTEX
  8
LAYER-1
 10
3.994439
 20
0.210928
 30
0.000000
  0
SEQEND
  8
LAYER-1
  0
POLYLINE
  8
LAYER-1
 66
  1
 70
  1
 62
  0
 10
4.014837
 20
0.143652
 30
0.000000
  0
VERTEX
  8
LAYER-1
 10
4.014837
 20
0.143652
 30
0.000000
  0
VERTEX
  8
LAYER-1
 10
4.037407
 20
0.130632
 30
0.000000
  0
VERTEX
  8
LAYER-1
 10
4.016574
 20
0.161013
 30
0.000000
  0
SEQEND
  8
LAYER-1
  0
POLYLINE
  8
LAYER-1
 66
  1
 70
  1
 62
  0
 10
4.131492
 20
0.135673
 30
0.000000
  0
VERTEX
  8
LAYER-1
 10
4.131492
 20
0.135673
 30
0.000000
  0
VERTEX
  8
LAYER-1
 10
4.150856
 20
0.122985
 30
0.000000
  0
VERTEX
  8
LAYER-1
 10
4.156867
 20
0.134337
 30
0.000000
  0
SEQEND
  8
LAYER-1
  0
POLYLINE
  8
LAYER-1
 66
  1
 70
  0
 62
  0
 10
4.145481
 20
0.213532
 30
0.000000
  0
VERTEX
  8
LAYER-1
 10
4.145481
 20
0.213532
 30
0.000000
  0
VERTEX
  8
LAYER-1
 10
4.141141
 20
0.213532
 30
0.000000
  0
VERTEX
  8
LAYER-1
 10
4.137668
 20
0.209191
 30
0.000000
  0
VERTEX
  8
LAYER-1
 10
4.136800
 20
0.203984
 30
0.000000
  0
VERTEX
  8
LAYER-1
 10
4.138536
 20
0.199643
 30
0.000000
  0
VERTEX
  8
LAYER-1
 10
4.142877
 20
0.197907
 30
0.000000
  0
VERTEX
  8
LAYER-1
 10
4.147218
 20
0.197907
 30
0.000000
  0
VERTEX
  8
LAYER-1
 10
4.151557
 20
0.201379
 30
0.000000
  0
VERTEX
  8
LAYER-1
 10
4.151557
 20
0.205720
 30
0.000000
  0
VERTEX
  8
LAYER-1
 10
4.150689
 20
0.210060
 30
0.000000
  0
VERTEX
  8
LAYER-1
 10
4.146349
 20
0.212664
 30
0.000000
  0
SEQEND
  8
LAYER-1
  0
POLYLINE
  8
LAYER-1
 66
  1
 70
  0
 62
  0
 10
4.229683
 20
0.086795
 30
0.000000
  0
VERTEX
  8
LAYER-1
 10
4.229683
 20
0.086795
 30
0.000000
  0
VERTEX
  8
LAYER-1
 10
4.225342
 20
0.086795
 30
0.000000
  0
VERTEX
  8
LAYER-1
 10
4.221870
 20
0.082453
 30
0.000000
  0
VERTEX
  8
LAYER-1
 10
4.221002
 20
0.077246
 30
0.000000
  0
VERTEX
  8
LAYER-1
 10
4.222738
 20
0.072906
 30
0.000000
  0
VERTEX
  8
LAYER-1
 10
4.227078
 20
0.071170
 30
0.000000
  0
VERTEX
  8
LAYER-1
 10
4.231419
 20
0.071170
 30
0.000000
  0
VERTEX
  8
LAYER-1
 10
4.235759
 20
0.074641
 30
0.000000
  0
VERTEX
  8
LAYER-1
 10
4.235759
 20
0.078982
 30
0.000000
  0
VERTEX
  8
LAYER-1
 10
4.234890
 20
0.083322
 30
0.000000
  0
VERTEX
  8
LAYER-1
 10
4.230551
 20
0.085926
 30
0.000000
  0
SEQEND
  8
LAYER-1
  0
POLYLINE
  8
LAYER-1
 66
  1
 70
  0
 62
  0
 10
4.076037
 20
0.141480
 30
0.000000
  0
VERTEX
  8
LAYER-1
 10
4.076037
 20
0.141480
 30
0.000000
  0
VERTEX
  8
LAYER-1
 10
4.071696
 20
0.141480
 30
0.000000
  0
VERTEX
  8
LAYER-1
 10
4.068225
 20
0.137139
 30
0.000000
  0
VERTEX
  8
LAYER-1
 10
4.067357
 20
0.131932
 30
0.000000
  0
VERTEX
  8
LAYER-1
 10
4.069093
 20
0.127591
 30
0.000000
  0
VERTEX
  8
LAYER-1
 10
4.073432
 20
0.125855
 30
0.000000
  0
VERTEX
  8
LAYER-1
 10
4.077773
 20
0.125855
 30
0.000000
  0
VERTEX
  8
LAYER-1
 10
4.082114
 20
0.129327
 30
0.000000
  0
VERTEX
  8
LAYER-1
 10
4.082114
 20
0.133668
 30
0.000000
  0
VERTEX
  8
LAYER-1
 10
4.081245
 20
0.138008
 30
0.000000
  0
VERTEX
  8
LAYER-1
 10
4.076905
 20
0.140612
 30
0.000000
  0
SEQEND
  8
LAYER-1
  0
POLYLINE
  8
LAYER-1
 66
  1
 70
  1
 62
  0
 10
3.911108
 20
0.150162
 30
0.000000
  0
VERTEX
  8
LAYER-1
 10
3.911108
 20
0.150162
 30
0.000000
  0
VERTEX
  8
LAYER-1
 10
3.904162
 20
0.176202
 30
0.000000
  0
VERTEX
  8
LAYER-1
 10
3.878989
 20
0.162315
 30
0.000000
  0
SEQEND
  8
LAYER-1
  0
POLYLINE
  8
LAYER-1
 66
  1
 70
  1
 62
  0
 10
3.500081
 20
0.181845
 30
0.000000
  0
VERTEX
  8
LAYER-1
 10
3.500081
 20
0.181845
 30
0.000000
  0
VERTEX
  8
LAYER-1
 10
3.513101
 20
0.204415
 30
0.000000
  0
VERTEX
  8
LAYER-1
 10
3.482720
 20
0.183583
 30
0.000000
  0
SEQEND
  8
LAYER-1
  0
POLYLINE
  8
LAYER-1
 66
  1
 70
  1
 62
  0
 10
3.797391
 20
0.175337
 30
0.000000
  0
VERTEX
  8
LAYER-1
 10
3.797391
 20
0.175337
 30
0.000000
  0
VERTEX
  8
LAYER-1
 10
3.813885
 20
0.200510
 30
0.000000
  0
VERTEX
  8
LAYER-1
 10
3.799127
 20
0.208322
 30
0.000000
  0
SEQEND
  8
LAYER-1
  0
POLYLINE
  8
LAYER-1
 66
  1
 70
  0
 62
  0
 10
3.960586
 20
0.118912
 30
0.000000
  0
VERTEX
  8
LAYER-1
 10
3.960586
 20
0.118912
 30
0.000000
  0
VERTEX
  8
LAYER-1
 10
3.964926
 20
0.118912
 30
0.000000
  0
VERTEX
  8
LAYER-1
 10
3.968398
 20
0.123252
 30
0.000000
  0
VERTEX
  8
LAYER-1
 10
3.969267
 20
0.128460
 30
0.000000
  0
VERTEX
  8
LAYER-1
 10
3.967531
 20
0.132801
 30
0.000000
  0
VERTEX
  8
LAYER-1
 10
3.963190
 20
0.134537
 30
0.000000
  0
VERTEX
  8
LAYER-1
 10
3.958850
 20
0.134537
 30
0.000000
  0
VERTEX
  8
LAYER-1
 10
3.954509
 20
0.131065
 30
0.000000
  0
VERTEX
  8
LAYER-1
 10
3.954509
 20
0.126724
 30
0.000000
  0
VERTEX
  8
LAYER-1
 10
3.955378
 20
0.122383
 30
0.000000
  0
VERTEX
  8
LAYER-1
 10
3.959718
 20
0.119778
 30
0.000000
  0
SEQEND
  8
LAYER-1
  0
POLYLINE
  8
LAYER-1
 66
  1
 70
  1
 62
  0
 10
3.914578
 20
0.115440
 30
0.000000
  0
VERTEX
  8
LAYER-1
 10
3.914578
 20
0.115440
 30
0.000000
  0
VERTEX
  8
LAYER-1
 10
3.927600
 20
0.138012
 30
0.000000
  0
VERTEX
  8
LAYER-1
 10
3.897218
 20
0.117178
 30
0.000000
  0
SEQEND
  8
LAYER-1
  0
POLYLINE
  8
LAYER-1
 66
  1
 70
  1
 62
  0
 10
3.859992
 20
0.156842
 30
0.000000
  0
VERTEX
  8
LAYER-1
 10
3.859992
 20
0.156842
 30
0.000000
  0
VERTEX
  8
LAYER-1
 10
3.840628
 20
0.169529
 30
0.000000
  0
VERTEX
  8
LAYER-1
 10
3.834617
 20
0.158178
 30
0.000000
  0
SEQEND
  8
LAYER-1
  0
POLYLINE
  8
LAYER-1
 66
  1
 70
  0
 62
  0
 10
3.836886
 20
0.053497
 30
0.000000
  0
VERTEX
  8
LAYER-1
 10
3.836886
 20
0.053497
 30
0.000000
  0
VERTEX
  8
LAYER-1
 10
3.841226
 20
0.053497
 30
0.000000
  0
VERTEX
  8
LAYER-1
 10
3.844698
 20
0.057838
 30
0.000000
  0
VERTEX
  8
LAYER-1
 10
3.845567
 20
0.063046
 30
0.000000
  0
VERTEX
  8
LAYER-1
 10
3.843831
 20
0.067386
 30
0.000000
  0
VERTEX
  8
LAYER-1
 10
3.839490
 20
0.069122
 30
0.000000
  0
VERTEX
  8
LAYER-1
 10
3.835150
 20
0.069122
 30
0.000000
  0
VERTEX
  8
LAYER-1
 10
3.830809
 20
0.065650
 30
0.000000
  0
VERTEX
  8
LAYER-1
 10
3.830809
 20
0.061310
 30
0.000000
  0
VERTEX
  8
LAYER-1
 10
3.831678
 20
0.056969
 30
0.000000
  0
VERTEX
  8
LAYER-1
 10
3.836018
 20
0.054365
 30
0.000000
  0
SEQEND
  8
LAYER-1
  0
POLYLINE
  8
LAYER-1
 66
  1
 70
  0
 62
  0
 10
3.747043
 20
0.196292
 30
0.000000
  0
VERTEX
  8
LAYER-1
 10
3.747043
 20
0.196292
 30
0.000000
  0
VERTEX
  8
LAYER-1
 10
3.751384
 20
0.196292
 30
0.000000
  0
VERTEX
  8
LAYER-1
 10
3.754856
 20
0.200634
 30
0.000000
  0
VERTEX
  8
LAYER-1
 10
3.755723
 20
0.205841
 30
0.000000
  0
VERTEX
  8
LAYER-1
 10
3.753987
 20
0.210181
 30
0.000000
  0
VERTEX
  8
LAYER-1
 10
3.749646
 20
0.211917
 30
0.000000
  0
VERTEX
  8
LAYER-1
 10
3.745307
 20
0.211917
 30
0.000000
  0
VERTEX
  8
LAYER-1
 10
3.740967
 20
0.208446
 30
0.000000
  0
VERTEX
  8
LAYER-1
 10
3.740967
 20
0.204105
 30
0.000000
  0
VERTEX
  8
LAYER-1
 10
3.741834
 20
0.199765
 30
0.000000
  0
VERTEX
  8
LAYER-1
 10
3.746174
 20
0.197160
 30
0.000000
  0
SEQEND
  8
LAYER-1
  0
POLYLINE
  8
LAYER-1
 66
  1
 70
  0
 62
  0
 10
3.909371
 20
0.189226
 30
0.000000
  0
VERTEX
  8
LAYER-1
 10
3.909371
 20
0.189226
 30
0.000000
  0
VERTEX
  8
LAYER-1
 10
3.913712
 20
0.189226
 30
0.000000
  0
VERTEX
  8
LAYER-1
 10
3.917183
 20
0.193566
 30
0.000000
  0
VERTEX
  8
LAYER-1
 10
3.918050
 20
0.198775
 30
0.000000
  0
VERTEX
  8
LAYER-1
 10
3.916314
 20
0.203115
 30
0.000000
  0
VERTEX
  8
LAYER-1
 10
3.911974
 20
0.204851
 30
0.000000
  0
VERTEX
  8
LAYER-1
 10
3.907635
 20
0.204851
 30
0.000000
  0
VERTEX
  8
LAYER-1
 10
3.903294
 20
0.201379
 30
0.000000
  0
VERTEX
  8
LAYER-1
 10
3.903294
 20
0.197038
 30
0.000000
  0
VERTEX
  8
LAYER-1
 10
3.904161
 20
0.192697
 30
0.000000
  0
VERTEX
  8
LAYER-1
 10
3.908502
 20
0.190093
 30
0.000000
  0
SEQEND
  8
LAYER-1
  0
POLYLINE
  8
LAYER-1
 66
  1
 70
  1
 62
  0
 10
4.665446
 20
0.158412
 30
0.000000
  0
VERTEX
  8
LAYER-1
 10
4.665446
 20
0.158412
 30
0.000000
  0
VERTEX
  8
LAYER-1
 10
4.672390
 20
0.132370
 30
0.000000
  0
VERTEX
  8
LAYER-1
 10
4.697564
 20
0.146258
 30
0.000000
  0
SEQEND
  8
LAYER-1
  0
POLYLINE
  8
LAYER-1
 66
  1
 70
  1
 62
  0
 10
4.792180
 20
0.194002
 30
0.000000
  0
VERTEX
  8
LAYER-1
 10
4.792180
 20
0.194002
 30
0.000000
  0
VERTEX
  8
LAYER-1
 10
4.779160
 20
0.171432
 30
0.000000
  0
VERTEX
  8
LAYER-1
 10
4.809541
 20
0.192265
 30
0.000000
  0
SEQEND
  8
LAYER-1
  0
POLYLINE
  8
LAYER-1
 66
  1
 70
  1
 62
  0
 10
4.467530
 20
0.182718
 30
0.000000
  0
VERTEX
  8
LAYER-1
 10
4.467530
 20
0.182718
 30
0.000000
  0
VERTEX
  8
LAYER-1
 10
4.451037
 20
0.157544
 30
0.000000
  0
VERTEX
  8
LAYER-1
 10
4.465794
 20
0.149731
 30
0.000000
  0
SEQEND
  8
LAYER-1
  0
POLYLINE
  8
LAYER-1
 66
  1
 70
  0
 62
  0
 10
4.577772
 20
0.174907
 30
0.000000
  0
VERTEX
  8
LAYER-1
 10
4.577772
 20
0.174907
 30
0.000000
  0
VERTEX
  8
LAYER-1
 10
4.573431
 20
0.174907
 30
0.000000
  0
VERTEX
  8
LAYER-1
 10
4.569959
 20
0.170566
 30
0.000000
  0
VERTEX
  8
LAYER-1
 10
4.569091
 20
0.165359
 30
0.000000
  0
VERTEX
  8
LAYER-1
 10
4.570827
 20
0.161018
 30
0.000000
  0
VERTEX
  8
LAYER-1
 10
4.575167
 20
0.159282
 30
0.000000
  0
VERTEX
  8
LAYER-1
 10
4.579508
 20
0.159282
 30
0.000000
  0
VERTEX
  8
LAYER-1
 10
4.583848
 20
0.162754
 30
0.000000
  0
VERTEX
  8
LAYER-1
 10
4.583848
 20
0.167095
 30
0.000000
  0
VERTEX
  8
LAYER-1
 10
4.582980
 20
0.171435
 30
0.000000
  0
VERTEX
  8
LAYER-1
 10
4.578639
 20
0.174039
 30
0.000000
  0
SEQEND
  8
LAYER-1
  0
POLYLINE
  8
LAYER-1
 66
  1
 70
  1
 62
  0
 10
4.607286
 20
0.128897
 30
0.000000
  0
VERTEX
  8
LAYER-1
 10
4.607286
 20
0.128897
 30
0.000000
  0
VERTEX
  8
LAYER-1
 10
4.594265
 20
0.106327
 30
0.000000
  0
VERTEX
  8
LAYER-1
 10
4.624647
 20
0.127160
 30
0.000000
  0
SEQEND
  8
LAYER-1
  0
POLYLINE
  8
LAYER-1
 66
  1
 70
  1
 62
  0
 10
4.814584
 20
0.129428
 30
0.000000
  0
VERTEX
  8
LAYER-1
 10
4.814584
 20
0.129428
 30
0.000000
  0
VERTEX
  8
LAYER-1
 10
4.801897
 20
0.110063
 30
0.000000
  0
VERTEX
  8
LAYER-1
 10
4.813249
 20
0.104053
 30
0.000000
  0
SEQEND
  8
LAYER-1
  0
POLYLINE
  8
LAYER-1
 66
  1
 70
  0
 62
  0
 10
4.721868
 20
0.198341
 30
0.000000
  0
VERTEX
  8
LAYER-1
 10
4.721868
 20
0.198341
 30
0.000000
  0
VERTEX
  8
LAYER-1
 10
4.717527
 20
0.198341
 30
0.000000
  0
VERTEX
  8
LAYER-1
 10
4.714055
 20
0.194001
 30
0.000000
  0
VERTEX
  8
LAYER-1
 10
4.713187
 20
0.188794
 30
0.000000
  0
VERTEX
  8
LAYER-1
 10
4.714923
 20
0.184452
 30
0.000000
  0
VERTEX
  8
LAYER-1
 10
4.719263
 20
0.182716
 30
0.000000
  0
VERTEX
  8
LAYER-1
 10
4.723604
 20
0.182716
 30
0.000000
  0
VERTEX
  8
LAYER-1
 10
4.727945
 20
0.186189
 30
0.000000
  0
VERTEX
  8
LAYER-1
 10
4.727945
 20
0.190529
 30
0.000000
  0
VERTEX
  8
LAYER-1
 10
4.727076
 20
0.194870
 30
0.000000
  0
VERTEX
  8
LAYER-1
 10
4.722736
 20
0.197474
 30
0.000000
  0
SEQEND
  8
LAYER-1
  0
POLYLINE
  8
LAYER-1
 66
  1
 70
  0
 62
  0
 10
4.509196
 20
0.188793
 30
0.000000
  0
VERTEX
  8
LAYER-1
 10
4.509196
 20
0.188793
 30
0.000000
  0
VERTEX
  8
LAYER-1
 10
4.504857
 20
0.188793
 30
0.000000
  0
VERTEX
  8
LAYER-1
 10
4.501384
 20
0.184452
 30
0.000000
  0
VERTEX
  8
LAYER-1
 10
4.500516
 20
0.179244
 30
0.000000
  0
VERTEX
  8
LAYER-1
 10
4.502253
 20
0.174903
 30
0.000000
  0
VERTEX
  8
LAYER-1
 10
4.506593
 20
0.173168
 30
0.000000
  0
VERTEX
  8
LAYER-1
 10
4.510933
 20
0.173168
 30
0.000000
  0
VERTEX
  8
LAYER-1
 10
4.515273
 20
0.176639
 30
0.000000
  0
VERTEX
  8
LAYER-1
 10
4.515273
 20
0.180980
 30
0.000000
  0
VERTEX
  8
LAYER-1
 10
4.514405
 20
0.185321
 30
0.000000
  0
VERTEX
  8
LAYER-1
 10
4.510065
 20
0.187925
 30
0.000000
  0
SEQEND
  8
LAYER-1
  0
POLYLINE
  8
LAYER-1
 66
  1
 70
  0
 62
  0
 10
4.756592
 20
0.161012
 30
0.000000
  0
VERTEX
  8
LAYER-1
 10
4.756592
 20
0.161012
 30
0.000000
  0
VERTEX
  8
LAYER-1
 10
4.752252
 20
0.161012
 30
0.000000
  0
VERTEX
  8
LAYER-1
 10
4.748780
 20
0.156671
 30
0.000000
  0
VERTEX
  8
LAYER-1
 10
4.747913
 20
0.151464
 30
0.000000
  0
VERTEX
  8
LAYER-1
 10
4.749649
 20
0.147124
 30
0.000000
  0
VERTEX
  8
LAYER-1
 10
4.753989
 20
0.145387
 30
0.000000
  0
VERTEX
  8
LAYER-1
 10
4.758329
 20
0.145387
 30
0.000000
  0
VERTEX
  8
LAYER-1
 10
4.762669
 20
0.148859
 30
0.000000
  0
VERTEX
  8
LAYER-1
 10
4.762669
 20
0.153200
 30
0.000000
  0
VERTEX
  8
LAYER-1
 10
4.761802
 20
0.157540
 30
0.000000
  0
VERTEX
  8
LAYER-1
 10
4.757461
 20
0.160144
 30
0.000000
  0
SEQEND
  8
LAYER-1
  0
POLYLINE
  8
LAYER-1
 66
  1
 70
  1
 62
  0
 10
4.371175
 20
0.107628
 30
0.000000
  0
VERTEX
  8
LAYER-1
 10
4.371175
 20
0.107628
 30
0.000000
  0
VERTEX
  8
LAYER-1
 10
4.364231
 20
0.133669
 30
0.000000
  0
VERTEX
  8
LAYER-1
 10
4.339057
 20
0.119781
 30
0.000000
  0
SEQEND
  8
LAYER-1
  0
POLYLINE
  8
LAYER-1
 66
  1
 70
  1
 62
  0
 10
4.219265
 20
0.148425
 30
0.000000
  0
VERTEX
  8
LAYER-1
 10
4.219265
 20
0.148425
 30
0.000000
  0
VERTEX
  8
LAYER-1
 10
4.232287
 20
0.170995
 30
0.000000
  0
VERTEX
  8
LAYER-1
 10
4.201905
 20
0.150163
 30
0.000000
  0
SEQEND
  8
LAYER-1
  0
POLYLINE
  8
LAYER-1
 66
  1
 70
  1
 62
  0
 10
4.302600
 20
0.108499
 30
0.000000
  0
VERTEX
  8
LAYER-1
 10
4.302600
 20
0.108499
 30
0.000000
  0
VERTEX
  8
LAYER-1
 10
4.319093
 20
0.133672
 30
0.000000
  0
VERTEX
  8
LAYER-1
 10
4.304336
 20
0.141485
 30
0.000000
  0
SEQEND
  8
LAYER-1
  0
POLYLINE
  8
LAYER-1
 66
  1
 70
  0
 62
  0
 10
4.477080
 20
0.110235
 30
0.000000
  0
VERTEX
  8
LAYER-1
 10
4.477080
 20
0.110235
 30
0.000000
  0
VERTEX
  8
LAYER-1
 10
4.481420
 20
0.110235
 30
0.000000
  0
VERTEX
  8
LAYER-1
 10
4.484892
 20
0.114577
 30
0.000000
  0
VERTEX
  8
LAYER-1
 10
4.485760
 20
0.119784
 30
0.000000
  0
VERTEX
  8
LAYER-1
 10
4.484024
 20
0.124125
 30
0.000000
  0
VERTEX
  8
LAYER-1
 10
4.479683
 20
0.125860
 30
0.000000
  0
VERTEX
  8
LAYER-1
 10
4.475343
 20
0.125860
 30
0.000000
  0
VERTEX
  8
LAYER-1
 10
4.471003
 20
0.122389
 30
0.000000
  0
VERTEX
  8
LAYER-1
 10
4.471003
 20
0.118048
 30
0.000000
  0
VERTEX
  8
LAYER-1
 10
4.471871
 20
0.113708
 30
0.000000
  0
VERTEX
  8
LAYER-1
 10
4.476212
 20
0.111103
 30
0.000000
  0
SEQEND
  8
LAYER-1
  0
POLYLINE
  8
LAYER-1
 66
  1
 70
  1
 62
  0
 10
4.428467
 20
0.124991
 30
0.000000
  0
VERTEX
  8
LAYER-1
 10
4.428467
 20
0.124991
 30
0.000000
  0
VERTEX
  8
LAYER-1
 10
4.441488
 20
0.147562
 30
0.000000
  0
VERTEX
  8
LAYER-1
 10
4.411106
 20
0.126728
 30
0.000000
  0
SEQEND
  8
LAYER-1
  0
POLYLINE
  8
LAYER-1
 66
  1
 70
  1
 62
  0
 10
4.317523
 20
0.160916
 30
0.000000
  0
VERTEX
  8
LAYER-1
 10
4.317523
 20
0.160916
 30
0.000000
  0
VERTEX
  8
LAYER-1
 10
4.330210
 20
0.180280
 30
0.000000
  0
VERTEX
  8
LAYER-1
 10
4.318859
 20
0.186291
 30
0.000000
  0
SEQEND
  8
LAYER-1
  0
POLYLINE
  8
LAYER-1
 66
  1
 70
  0
 62
  0
 10
4.273170
 20
0.192387
 30
0.000000
  0
VERTEX
  8
LAYER-1
 10
4.273170
 20
0.192387
 30
0.000000
  0
VERTEX
  8
LAYER-1
 10
4.277510
 20
0.192387
 30
0.000000
  0
VERTEX
  8
LAYER-1
 10
4.280983
 20
0.196728
 30
0.000000
  0
VERTEX
  8
LAYER-1
 10
4.281851
 20
0.201936
 30
0.000000
  0
VERTEX
  8
LAYER-1
 10
4.280115
 20
0.206276
 30
0.000000
  0
VERTEX
  8
LAYER-1
 10
4.275775
 20
0.208012
 30
0.000000
  0
VERTEX
  8
LAYER-1
 10
4.271434
 20
0.208012
 30
0.000000
  0
VERTEX
  8
LAYER-1
 10
4.267094
 20
0.204541
 30
0.000000
  0
VERTEX
  8
LAYER-1
 10
4.267094
 20
0.200200
 30
0.000000
  0
VERTEX
  8
LAYER-1
 10
4.267962
 20
0.195859
 30
0.000000
  0
VERTEX
  8
LAYER-1
 10
4.272303
 20
0.193254
 30
0.000000
  0
SEQEND
  8
LAYER-1
  0
POLYLINE
  8
LAYER-1
 66
  1
 70
  0
 62
  0
 10
4.250516
 20
0.114576
 30
0.000000
  0
VERTEX
  8
LAYER-1
 10
4.250516
 20
0.114576
 30
0.000000
  0
VERTEX
  8
LAYER-1
 10
4.254857
 20
0.114576
 30
0.000000
  0
VERTEX
  8
LAYER-1
 10
4.258328
 20
0.118916
 30
0.000000
  0
VERTEX
  8
LAYER-1
 10
4.259196
 20
0.124124
 30
0.000000
  0
VERTEX
  8
LAYER-1
 10
4.257461
 20
0.128465
 30
0.000000
  0
VERTEX
  8
LAYER-1
 10
4.253120
 20
0.130201
 30
0.000000
  0
VERTEX
  8
LAYER-1
 10
4.248780
 20
0.130201
 30
0.000000
  0
VERTEX
  8
LAYER-1
 10
4.244439
 20
0.126728
 30
0.000000
  0
VERTEX
  8
LAYER-1
 10
4.244439
 20
0.122388
 30
0.000000
  0
VERTEX
  8
LAYER-1
 10
4.245307
 20
0.118047
 30
0.000000
  0
VERTEX
  8
LAYER-1
 10
4.249648
 20
0.115443
 30
0.000000
  0
SEQEND
  8
LAYER-1
  0
POLYLINE
  8
LAYER-1
 66
  1
 70
  0
 62
  0
 10
4.414578
 20
0.191832
 30
0.000000
  0
VERTEX
  8
LAYER-1
 10
4.414578
 20
0.191832
 30
0.000000
  0
VERTEX
  8
LAYER-1
 10
4.418919
 20
0.191832
 30
0.000000
  0
VERTEX
  8
LAYER-1
 10
4.422391
 20
0.196172
 30
0.000000
  0
VERTEX
  8
LAYER-1
 10
4.423259
 20
0.201380
 30
0.000000
  0
VERTEX
  8
LAYER-1
 10
4.421523
 20
0.205721
 30
0.000000
  0
VERTEX
  8
LAYER-1
 10
4.417182
 20
0.207457
 30
0.000000
  0
VERTEX
  8
LAYER-1
 10
4.412843
 20
0.207457
 30
0.000000
  0
VERTEX
  8
LAYER-1
 10
4.408502
 20
0.203985
 30
0.000000
  0
VERTEX
  8
LAYER-1
 10
4.408502
 20
0.199644
 30
0.000000
  0
VERTEX
  8
LAYER-1
 10
4.409370
 20
0.195303
 30
0.000000
  0
VERTEX
  8
LAYER-1
 10
4.413711
 20
0.192699
 30
0.000000
  0
SEQEND
  8
LAYER-1
  0
POLYLINE
  8
LAYER-1
 66
  1
 70
  1
 62
  0
 10
4.866396
 20
0.148427
 30
0.000000
  0
VERTEX
  8
LAYER-1
 10
4.866396
 20
0.148427
 30
0.000000
  0
VERTEX
  8
LAYER-1
 10
4.892437
 20
0.155372
 30
0.000000
  0
VERTEX
  8
LAYER-1
 10
4.878549
 20
0.180545
 30
0.000000
  0
SEQEND
  8
LAYER-1
  0
POLYLINE
  8
LAYER-1
 66
  1
 70
  1
 62
  0
 10
4.548692
 20
0.201380
 30
0.000000
  0
VERTEX
  8
LAYER-1
 10
4.548692
 20
0.201380
 30
0.000000
  0
VERTEX
  8
LAYER-1
 10
4.571261
 20
0.188359
 30
0.000000
  0
VERTEX
  8
LAYER-1
 10
4.550428
 20
0.218741
 30
0.000000
  0
SEQEND
  8
LAYER-1
  0
POLYLINE
  8
LAYER-1
 66
  1
 70
  1
 62
  0
 10
5.485321
 20
0.106757
 30
0.000000
  0
VERTEX
  8
LAYER-1
 10
5.485321
 20
0.106757
 30
0.000000
  0
VERTEX
  8
LAYER-1
 10
5.510495
 20
0.090264
 30
0.000000
  0
VERTEX
  8
LAYER-1
 10
5.518308
 20
0.105021
 30
0.000000
  0
SEQEND
  8
LAYER-1
  0
POLYLINE
  8
LAYER-1
 66
  1
 70
  0
 62
  0
 10
5.306501
 20
0.115440
 30
0.000000
  0
VERTEX
  8
LAYER-1
 10
5.306501
 20
0.115440
 30
0.000000
  0
VERTEX
  8
LAYER-1
 10
5.306501
 20
0.111100
 30
0.000000
  0
VERTEX
  8
LAYER-1
 10
5.310841
 20
0.107627
 30
0.000000
  0
VERTEX
  8
LAYER-1
 10
5.316049
 20
0.106760
 30
0.000000
  0
VERTEX
  8
LAYER-1
 10
5.320390
 20
0.108496
 30
0.000000
  0
VERTEX
  8
LAYER-1
 10
5.322126
 20
0.112836
 30
0.000000
  0
VERTEX
  8
LAYER-1
 10
5.322126
 20
0.117176
 30
0.000000
  0
VERTEX
  8
LAYER-1
 10
5.318654
 20
0.121516
 30
0.000000
  0
VERTEX
  8
LAYER-1
 10
5.314313
 20
0.121516
 30
0.000000
  0
VERTEX
  8
LAYER-1
 10
5.309973
 20
0.120649
 30
0.000000
  0
VERTEX
  8
LAYER-1
 10
5.307369
 20
0.116308
 30
0.000000
  0
SEQEND
  8
LAYER-1
  0
POLYLINE
  8
LAYER-1
 66
  1
 70
  1
 62
  0
 10
4.936709
 20
0.135406
 30
0.000000
  0
VERTEX
  8
LAYER-1
 10
4.936709
 20
0.135406
 30
0.000000
  0
VERTEX
  8
LAYER-1
 10
4.959279
 20
0.122385
 30
0.000000
  0
VERTEX
  8
LAYER-1
 10
4.938446
 20
0.152766
 30
0.000000
  0
SEQEND
  8
LAYER-1
  0
POLYLINE
  8
LAYER-1
 66
  1
 70
  1
 62
  0
 10
4.899717
 20
0.206421
 30
0.000000
  0
VERTEX
  8
LAYER-1
 10
4.899717
 20
0.206421
 30
0.000000
  0
VERTEX
  8
LAYER-1
 10
4.919082
 20
0.193734
 30
0.000000
  0
VERTEX
  8
LAYER-1
 10
4.925092
 20
0.205086
 30
0.000000
  0
SEQEND
  8
LAYER-1
  0
POLYLINE
  8
LAYER-1
 66
  1
 70
  0
 62
  0
 10
4.544353
 20
0.141484
 30
0.000000
  0
VERTEX
  8
LAYER-1
 10
4.544353
 20
0.141484
 30
0.000000
  0
VERTEX
  8
LAYER-1
 10
4.544353
 20
0.137144
 30
0.000000
  0
VERTEX
  8
LAYER-1
 10
4.548692
 20
0.133671
 30
0.000000
  0
VERTEX
  8
LAYER-1
 10
4.553900
 20
0.132803
 30
0.000000
  0
VERTEX
  8
LAYER-1
 10
4.558241
 20
0.134539
 30
0.000000
  0
VERTEX
  8
LAYER-1
 10
4.559977
 20
0.138880
 30
0.000000
  0
VERTEX
  8
LAYER-1
 10
4.559977
 20
0.143220
 30
0.000000
  0
VERTEX
  8
LAYER-1
 10
4.556505
 20
0.147560
 30
0.000000
  0
VERTEX
  8
LAYER-1
 10
4.552164
 20
0.147560
 30
0.000000
  0
VERTEX
  8
LAYER-1
 10
4.547824
 20
0.146693
 30
0.000000
  0
VERTEX
  8
LAYER-1
 10
4.545220
 20
0.142352
 30
0.000000
  0
SEQEND
  8
LAYER-1
  0
POLYLINE
  8
LAYER-1
 66
  1
 70
  0
 62
  0
 10
4.950598
 20
0.103288
 30
0.000000
  0
VERTEX
  8
LAYER-1
 10
4.950598
 20
0.103288
 30
0.000000
  0
VERTEX
  8
LAYER-1
 10
4.950598
 20
0.098947
 30
0.000000
  0
VERTEX
  8
LAYER-1
 10
4.954938
 20
0.095476
 30
0.000000
  0
VERTEX
  8
LAYER-1
 10
4.960146
 20
0.094607
 30
0.000000
  0
VERTEX
  8
LAYER-1
 10
4.964486
 20
0.096344
 30
0.000000
  0
VERTEX
  8
LAYER-1
 10
4.966223
 20
0.100683
 30
0.000000
  0
VERTEX
  8
LAYER-1
 10
4.966223
 20
0.105025
 30
0.000000
  0
VERTEX
  8
LAYER-1
 10
4.962751
 20
0.109365
 30
0.000000
  0
VERTEX
  8
LAYER-1
 10
4.958410
 20
0.109365
 30
0.000000
  0
VERTEX
  8
LAYER-1
 10
4.954069
 20
0.108496
 30
0.000000
  0
VERTEX
  8
LAYER-1
 10
4.951465
 20
0.104156
 30
0.000000
  0
SEQEND
  8
LAYER-1
  0
POLYLINE
  8
LAYER-1
 66
  1
 70
  0
 62
  0
 10
5.019174
 20
0.138879
 30
0.000000
  0
VERTEX
  8
LAYER-1
 10
5.019174
 20
0.138879
 30
0.000000
  0
VERTEX
  8
LAYER-1
 10
5.019174
 20
0.134538
 30
0.000000
  0
VERTEX
  8
LAYER-1
 10
5.023515
 20
0.131066
 30
0.000000
  0
VERTEX
  8
LAYER-1
 10
5.028723
 20
0.130197
 30
0.000000
  0
VERTEX
  8
LAYER-1
 10
5.033063
 20
0.131934
 30
0.000000
  0
VERTEX
  8
LAYER-1
 10
5.034799
 20
0.136275
 30
0.000000
  0
VERTEX
  8
LAYER-1
 10
5.034799
 20
0.140615
 30
0.000000
  0
VERTEX
  8
LAYER-1
 10
5.031327
 20
0.144956
 30
0.000000
  0
VERTEX
  8
LAYER-1
 10
5.026986
 20
0.144956
 30
0.000000
  0
VERTEX
  8
LAYER-1
 10
5.022646
 20
0.144087
 30
0.000000
  0
VERTEX
  8
LAYER-1
 10
5.020042
 20
0.139747
 30
0.000000
  0
SEQEND
  8
LAYER-1
  0
POLYLINE
  8
LAYER-1
 66
  1
 70
  1
 62
  0
 10
5.058584
 20
0.160146
 30
0.000000
  0
VERTEX
  8
LAYER-1
 10
5.058584
 20
0.160146
 30
0.000000
  0
VERTEX
  8
LAYER-1
 10
5.065529
 20
0.134106
 30
0.000000
  0
VERTEX
  8
LAYER-1
 10
5.090702
 20
0.147993
 30
0.000000
  0
SEQEND
  8
LAYER-1
  0
POLYLINE
  8
LAYER-1
 66
  1
 70
  1
 62
  0
 10
5.220130
 20
0.188794
 30
0.000000
  0
VERTEX
  8
LAYER-1
 10
5.220130
 20
0.188794
 30
0.000000
  0
VERTEX
  8
LAYER-1
 10
5.207108
 20
0.166222
 30
0.000000
  0
VERTEX
  8
LAYER-1
 10
5.237491
 20
0.187056
 30
0.000000
  0
SEQEND
  8
LAYER-1
  0
POLYLINE
  8
LAYER-1
 66
  1
 70
  1
 62
  0
 10
5.612491
 20
0.159275
 30
0.000000
  0
VERTEX
  8
LAYER-1
 10
5.612491
 20
0.159275
 30
0.000000
  0
VERTEX
  8
LAYER-1
 10
5.595998
 20
0.134101
 30
0.000000
  0
VERTEX
  8
LAYER-1
 10
5.610755
 20
0.126289
 30
0.000000
  0
SEQEND
  8
LAYER-1
  0
POLYLINE
  8
LAYER-1
 66
  1
 70
  0
 62
  0
 10
5.008324
 20
0.191396
 30
0.000000
  0
VERTEX
  8
LAYER-1
 10
5.008324
 20
0.191396
 30
0.000000
  0
VERTEX
  8
LAYER-1
 10
5.003983
 20
0.191396
 30
0.000000
  0
VERTEX
  8
LAYER-1
 10
5.000512
 20
0.187056
 30
0.000000
  0
VERTEX
  8
LAYER-1
 10
4.999644
 20
0.181847
 30
0.000000
  0
VERTEX
  8
LAYER-1
 10
5.001380
 20
0.177507
 30
0.000000
  0
VERTEX
  8
LAYER-1
 10
5.005720
 20
0.175771
 30
0.000000
  0
VERTEX
  8
LAYER-1
 10
5.010060
 20
0.175771
 30
0.000000
  0
VERTEX
  8
LAYER-1
 10
5.014401
 20
0.179243
 30
0.000000
  0
VERTEX
  8
LAYER-1
 10
5.014401
 20
0.183584
 30
0.000000
  0
VERTEX
  8
LAYER-1
 10
5.013533
 20
0.187925
 30
0.000000
  0
VERTEX
  8
LAYER-1
 10
5.009192
 20
0.190529
 30
0.000000
  0
SEQEND
  8
LAYER-1
  0
POLYLINE
  8
LAYER-1
 66
  1
 70
  1
 62
  0
 10
5.071693
 20
0.115007
 30
0.000000
  0
VERTEX
  8
LAYER-1
 10
5.071693
 20
0.115007
 30
0.000000
  0
VERTEX
  8
LAYER-1
 10
5.058672
 20
0.092437
 30
0.000000
  0
VERTEX
  8
LAYER-1
 10
5.089054
 20
0.113269
 30
0.000000
  0
SEQEND
  8
LAYER-1
  0
POLYLINE
  8
LAYER-1
 66
  1
 70
  1
 62
  0
 10
5.140436
 20
0.092769
 30
0.000000
  0
VERTEX
  8
LAYER-1
 10
5.140436
 20
0.092769
 30
0.000000
  0
VERTEX
  8
LAYER-1
 10
5.153124
 20
0.112133
 30
0.000000
  0
VERTEX
  8
LAYER-1
 10
5.141772
 20
0.118145
 30
0.000000
  0
SEQEND
  8
LAYER-1
  0
POLYLINE
  8
LAYER-1
 66
  1
 70
  0
 62
  0
 10
5.160233
 20
0.193132
 30
0.000000
  0
VERTEX
  8
LAYER-1
 10
5.160233
 20
0.193132
 30
0.000000
  0
VERTEX
  8
LAYER-1
 10
5.155894
 20
0.193132
 30
0.000000
  0
VERTEX
  8
LAYER-1
 10
5.152421
 20
0.188791
 30
0.000000
  0
VERTEX
  8
LAYER-1
 10
5.151553
 20
0.183584
 30
0.000000
  0
VERTEX
  8
LAYER-1
 10
5.153289
 20
0.179243
 30
0.000000
  0
VERTEX
  8
LAYER-1
 10
5.157630
 20
0.177507
 30
0.000000
  0
VERTEX
  8
LAYER-1
 10
5.161970
 20
0.177507
 30
0.000000
  0
VERTEX
  8
LAYER-1
 10
5.166310
 20
0.180979
 30
0.000000
  0
VERTEX
  8
LAYER-1
 10
5.166310
 20
0.185320
 30
0.000000
  0
VERTEX
  8
LAYER-1
 10
5.165442
 20
0.189660
 30
0.000000
  0
VERTEX
  8
LAYER-1
 10
5.161101
 20
0.192265
 30
0.000000
  0
SEQEND
  8
LAYER-1
  0
POLYLINE
  8
LAYER-1
 66
  1
 70
  0
 62
  0
 10
5.664575
 20
0.153198
 30
0.000000
  0
VERTEX
  8
LAYER-1
 10
5.664575
 20
0.153198
 30
0.000000
  0
VERTEX
  8
LAYER-1
 10
5.660234
 20
0.153198
 30
0.000000
  0
VERTEX
  8
LAYER-1
 10
5.656762
 20
0.148857
 30
0.000000
  0
VERTEX
  8
LAYER-1
 10
5.655894
 20
0.143650
 30
0.000000
  0
VERTEX
  8
LAYER-1
 10
5.657630
 20
0.139309
 30
0.000000
  0
VERTEX
  8
LAYER-1
 10
5.661971
 20
0.137573
 30
0.000000
  0
VERTEX
  8
LAYER-1
 10
5.666311
 20
0.137573
 30
0.000000
  0
VERTEX
  8
LAYER-1
 10
5.670651
 20
0.141045
 30
0.000000
  0
VERTEX
  8
LAYER-1
 10
5.670651
 20
0.145386
 30
0.000000
  0
VERTEX
  8
LAYER-1
 10
5.669783
 20
0.149726
 30
0.000000
  0
VERTEX
  8
LAYER-1
 10
5.665443
 20
0.152331
 30
0.000000
  0
SEQEND
  8
LAYER-1
  0
POLYLINE
  8
LAYER-1
 66
  1
 70
  0
 62
  0
 10
5.573430
 20
0.121080
 30
0.000000
  0
VERTEX
  8
LAYER-1
 10
5.573430
 20
0.121080
 30
0.000000
  0
VERTEX
  8
LAYER-1
 10
5.569089
 20
0.121080
 30
0.000000
  0
VERTEX
  8
LAYER-1
 10
5.565617
 20
0.116739
 30
0.000000
  0
VERTEX
  8
LAYER-1
 10
5.564749
 20
0.111532
 30
0.000000
  0
VERTEX
  8
LAYER-1
 10
5.566485
 20
0.107190
 30
0.000000
  0
VERTEX
  8
LAYER-1
 10
5.570826
 20
0.105455
 30
0.000000
  0
VERTEX
  8
LAYER-1
 10
5.575165
 20
0.105455
 30
0.000000
  0
VERTEX
  8
LAYER-1
 10
5.579506
 20
0.108927
 30
0.000000
  0
VERTEX
  8
LAYER-1
 10
5.579506
 20
0.113268
 30
0.000000
  0
VERTEX
  8
LAYER-1
 10
5.578638
 20
0.117608
 30
0.000000
  0
VERTEX
  8
LAYER-1
 10
5.574298
 20
0.120213
 30
0.000000
  0
SEQEND
  8
LAYER-1
  0
POLYLINE
  8
LAYER-1
 66
  1
 70
  1
 62
  0
 10
5.258324
 20
0.175339
 30
0.000000
  0
VERTEX
  8
LAYER-1
 10
5.258324
 20
0.175339
 30
0.000000
  0
VERTEX
  8
LAYER-1
 10
5.284364
 20
0.182283
 30
0.000000
  0
VERTEX
  8
LAYER-1
 10
5.270477
 20
0.207457
 30
0.000000
  0
SEQEND
  8
LAYER-1
  0
POLYLINE
  8
LAYER-1
 66
  1
 70
  0
 62
  0
 10
5.227074
 20
0.125859
 30
0.000000
  0
VERTEX
  8
LAYER-1
 10
5.227074
 20
0.125859
 30
0.000000
  0
VERTEX
  8
LAYER-1
 10
5.227074
 20
0.121519
 30
0.000000
  0
VERTEX
  8
LAYER-1
 10
5.231415
 20
0.118046
 30
0.000000
  0
VERTEX
  8
LAYER-1
 10
5.236623
 20
0.117179
 30
0.000000
  0
VERTEX
  8
LAYER-1
 10
5.240963
 20
0.118915
 30
0.000000
  0
VERTEX
  8
LAYER-1
 10
5.242699
 20
0.123255
 30
0.000000
  0
VERTEX
  8
LAYER-1
 10
5.242699
 20
0.127596
 30
0.000000
  0
VERTEX
  8
LAYER-1
 10
5.239227
 20
0.131935
 30
0.000000
  0
VERTEX
  8
LAYER-1
 10
5.234887
 20
0.131935
 30
0.000000
  0
VERTEX
  8
LAYER-1
 10
5.230546
 20
0.131068
 30
0.000000
  0
VERTEX
  8
LAYER-1
 10
5.227941
 20
0.126728
 30
0.000000
  0
SEQEND
  8
LAYER-1
  0
POLYLINE
  8
LAYER-1
 66
  1
 70
  1
 62
  0
 10
5.322127
 20
0.139314
 30
0.000000
  0
VERTEX
  8
LAYER-1
 10
5.322127
 20
0.139314
 30
0.000000
  0
VERTEX
  8
LAYER-1
 10
5.335147
 20
0.161884
 30
0.000000
  0
VERTEX
  8
LAYER-1
 10
5.304766
 20
0.141051
 30
0.000000
  0
SEQEND
  8
LAYER-1
  0
POLYLINE
  8
LAYER-1
 66
  1
 70
  0
 62
  0
 10
5.377248
 20
0.173603
 30
0.000000
  0
VERTEX
  8
LAYER-1
 10
5.377248
 20
0.173603
 30
0.000000
  0
VERTEX
  8
LAYER-1
 10
5.377248
 20
0.169262
 30
0.000000
  0
VERTEX
  8
LAYER-1
 10
5.381588
 20
0.165790
 30
0.000000
  0
VERTEX
  8
LAYER-1
 10
5.386796
 20
0.164921
 30
0.000000
  0
VERTEX
  8
LAYER-1
 10
5.391137
 20
0.166658
 30
0.000000
  0
VERTEX
  8
LAYER-1
 10
5.392873
 20
0.170998
 30
0.000000
  0
VERTEX
  8
LAYER-1
 10
5.392873
 20
0.175339
 30
0.000000
  0
VERTEX
  8
LAYER-1
 10
5.389401
 20
0.179679
 30
0.000000
  0
VERTEX
  8
LAYER-1
 10
5.385060
 20
0.179679
 30
0.000000
  0
VERTEX
  8
LAYER-1
 10
5.380720
 20
0.178810
 30
0.000000
  0
VERTEX
  8
LAYER-1
 10
5.378114
 20
0.174471
 30
0.000000
  0
SEQEND
  8
LAYER-1
  0
POLYLINE
  8
LAYER-1
 66
  1
 70
  1
 62
  0
 10
6.123173
 20
0.190008
 30
0.000000
  0
VERTEX
  8
LAYER-1
 10
6.123173
 20
0.190008
 30
0.000000
  0
VERTEX
  8
LAYER-1
 10
6.116227
 20
0.216048
 30
0.000000
  0
VERTEX
  8
LAYER-1
 10
6.091054
 20
0.202160
 30
0.000000
  0
SEQEND
  8
LAYER-1
  0
POLYLINE
  8
LAYER-1
 66
  1
 70
  0
 62
  0
 10
6.163711
 20
0.063791
 30
0.000000
  0
VERTEX
  8
LAYER-1
 10
6.163711
 20
0.063791
 30
0.000000
  0
VERTEX
  8
LAYER-1
 10
6.168051
 20
0.063791
 30
0.000000
  0
VERTEX
  8
LAYER-1
 10
6.171524
 20
0.068132
 30
0.000000
  0
VERTEX
  8
LAYER-1
 10
6.172390
 20
0.073340
 30
0.000000
  0
VERTEX
  8
LAYER-1
 10
6.170655
 20
0.077681
 30
0.000000
  0
VERTEX
  8
LAYER-1
 10
6.166315
 20
0.079416
 30
0.000000
  0
VERTEX
  8
LAYER-1
 10
6.161974
 20
0.079416
 30
0.000000
  0
VERTEX
  8
LAYER-1
 10
6.157634
 20
0.075945
 30
0.000000
  0
VERTEX
  8
LAYER-1
 10
6.157634
 20
0.071604
 30
0.000000
  0
VERTEX
  8
LAYER-1
 10
6.158502
 20
0.067263
 30
0.000000
  0
VERTEX
  8
LAYER-1
 10
6.162842
 20
0.064659
 30
0.000000
  0
SEQEND
  8
LAYER-1
  0
POLYLINE
  8
LAYER-1
 66
  1
 70
  1
 62
  0
 10
5.460147
 20
0.096778
 30
0.000000
  0
VERTEX
  8
LAYER-1
 10
5.460147
 20
0.096778
 30
0.000000
  0
VERTEX
  8
LAYER-1
 10
5.473167
 20
0.119347
 30
0.000000
  0
VERTEX
  8
LAYER-1
 10
5.442786
 20
0.098515
 30
0.000000
  0
SEQEND
  8
LAYER-1
  0
POLYLINE
  8
LAYER-1
 66
  1
 70
  0
 62
  0
 10
5.503899
 20
0.175112
 30
0.000000
  0
VERTEX
  8
LAYER-1
 10
5.503899
 20
0.175112
 30
0.000000
  0
VERTEX
  8
LAYER-1
 10
5.508240
 20
0.175112
 30
0.000000
  0
VERTEX
  8
LAYER-1
 10
5.511712
 20
0.179453
 30
0.000000
  0
VERTEX
  8
LAYER-1
 10
5.512580
 20
0.184660
 30
0.000000
  0
VERTEX
  8
LAYER-1
 10
5.510843
 20
0.189001
 30
0.000000
  0
VERTEX
  8
LAYER-1
 10
5.506504
 20
0.190737
 30
0.000000
  0
VERTEX
  8
LAYER-1
 10
5.502163
 20
0.190737
 30
0.000000
  0
VERTEX
  8
LAYER-1
 10
5.497822
 20
0.187265
 30
0.000000
  0
VERTEX
  8
LAYER-1
 10
5.497822
 20
0.182924
 30
0.000000
  0
VERTEX
  8
LAYER-1
 10
5.498691
 20
0.178584
 30
0.000000
  0
VERTEX
  8
LAYER-1
 10
5.503031
 20
0.175980
 30
0.000000
  0
SEQEND
  8
LAYER-1
  0
POLYLINE
  8
LAYER-1
 66
  1
 70
  1
 62
  0
 10
6.043485
 20
0.105894
 30
0.000000
  0
VERTEX
  8
LAYER-1
 10
6.043485
 20
0.105894
 30
0.000000
  0
VERTEX
  8
LAYER-1
 10
6.017444
 20
0.098949
 30
0.000000
  0
VERTEX
  8
LAYER-1
 10
6.031332
 20
0.073775
 30
0.000000
  0
SEQEND
  8
LAYER-1
  0
POLYLINE
  8
LAYER-1
 66
  1
 70
  0
 62
  0
 10
5.408498
 20
0.120652
 30
0.000000
  0
VERTEX
  8
LAYER-1
 10
5.408498
 20
0.120652
 30
0.000000
  0
VERTEX
  8
LAYER-1
 10
5.408498
 20
0.124991
 30
0.000000
  0
VERTEX
  8
LAYER-1
 10
5.404157
 20
0.128465
 30
0.000000
  0
VERTEX
  8
LAYER-1
 10
5.398949
 20
0.129332
 30
0.000000
  0
VERTEX
  8
LAYER-1
 10
5.394608
 20
0.127596
 30
0.000000
  0
VERTEX
  8
LAYER-1
 10
5.392873
 20
0.123255
 30
0.000000
  0
VERTEX
  8
LAYER-1
 10
5.392873
 20
0.118914
 30
0.000000
  0
VERTEX
  8
LAYER-1
 10
5.396345
 20
0.114576
 30
0.000000
  0
VERTEX
  8
LAYER-1
 10
5.400685
 20
0.114576
 30
0.000000
  0
VERTEX
  8
LAYER-1
 10
5.405026
 20
0.115443
 30
0.000000
  0
VERTEX
  8
LAYER-1
 10
5.407630
 20
0.119783
 30
0.000000
  0
SEQEND
  8
LAYER-1
  0
POLYLINE
  8
LAYER-1
 66
  1
 70
  1
 62
  0
 10
5.992270
 20
0.095478
 30
0.000000
  0
VERTEX
  8
LAYER-1
 10
5.992270
 20
0.095478
 30
0.000000
  0
VERTEX
  8
LAYER-1
 10
5.964492
 20
0.111970
 30
0.000000
  0
VERTEX
  8
LAYER-1
 10
5.985324
 20
0.081589
 30
0.000000
  0
SEQEND
  8
LAYER-1
  0
POLYLINE
  8
LAYER-1
 66
  1
 70
  0
 62
  0
 10
5.702769
 20
0.177071
 30
0.000000
  0
VERTEX
  8
LAYER-1
 10
5.702769
 20
0.177071
 30
0.000000
  0
VERTEX
  8
LAYER-1
 10
5.702769
 20
0.181412
 30
0.000000
  0
VERTEX
  8
LAYER-1
 10
5.698429
 20
0.184883
 30
0.000000
  0
VERTEX
  8
LAYER-1
 10
5.693221
 20
0.185752
 30
0.000000
  0
VERTEX
  8
LAYER-1
 10
5.688880
 20
0.184014
 30
0.000000
  0
VERTEX
  8
LAYER-1
 10
5.687144
 20
0.179676
 30
0.000000
  0
VERTEX
  8
LAYER-1
 10
5.687144
 20
0.175335
 30
0.000000
  0
VERTEX
  8
LAYER-1
 10
5.690616
 20
0.170994
 30
0.000000
  0
VERTEX
  8
LAYER-1
 10
5.694957
 20
0.170994
 30
0.000000
  0
VERTEX
  8
LAYER-1
 10
5.699298
 20
0.171863
 30
0.000000
  0
VERTEX
  8
LAYER-1
 10
5.701901
 20
0.176202
 30
0.000000
  0
SEQEND
  8
LAYER-1
  0
POLYLINE
  8
LAYER-1
 66
  1
 70
  1
 62
  0
 10
6.273434
 20
0.083585
 30
0.000000
  0
VERTEX
  8
LAYER-1
 10
6.273434
 20
0.083585
 30
0.000000
  0
VERTEX
  8
LAYER-1
 10
6.266488
 20
0.109627
 30
0.000000
  0
VERTEX
  8
LAYER-1
 10
6.241315
 20
0.095738
 30
0.000000
  0
SEQEND
  8
LAYER-1
  0
POLYLINE
  8
LAYER-1
 66
  1
 70
  0
 62
  0
 10
6.363278
 20
0.183846
 30
0.000000
  0
VERTEX
  8
LAYER-1
 10
6.363278
 20
0.183846
 30
0.000000
  0
VERTEX
  8
LAYER-1
 10
6.367619
 20
0.183846
 30
0.000000
  0
VERTEX
  8
LAYER-1
 10
6.371090
 20
0.188186
 30
0.000000
  0
VERTEX
  8
LAYER-1
 10
6.371957
 20
0.193393
 30
0.000000
  0
VERTEX
  8
LAYER-1
 10
6.370221
 20
0.197734
 30
0.000000
  0
VERTEX
  8
LAYER-1
 10
6.365882
 20
0.199471
 30
0.000000
  0
VERTEX
  8
LAYER-1
 10
6.361542
 20
0.199471
 30
0.000000
  0
VERTEX
  8
LAYER-1
 10
6.357201
 20
0.195998
 30
0.000000
  0
VERTEX
  8
LAYER-1
 10
6.357201
 20
0.191658
 30
0.000000
  0
VERTEX
  8
LAYER-1
 10
6.358070
 20
0.187317
 30
0.000000
  0
VERTEX
  8
LAYER-1
 10
6.362409
 20
0.184713
 30
0.000000
  0
SEQEND
  8
LAYER-1
  0
POLYLINE
  8
LAYER-1
 66
  1
 70
  1
 62
  0
 10
6.348520
 20
0.219002
 30
0.000000
  0
VERTEX
  8
LAYER-1
 10
6.348520
 20
0.219002
 30
0.000000
  0
VERTEX
  8
LAYER-1
 10
6.322478
 20
0.212056
 30
0.000000
  0
VERTEX
  8
LAYER-1
 10
6.336366
 20
0.186884
 30
0.000000
  0
SEQEND
  8
LAYER-1
  0
POLYLINE
  8
LAYER-1
 66
  1
 70
  1
 62
  0
 10
5.597300
 20
0.077684
 30
0.000000
  0
VERTEX
  8
LAYER-1
 10
5.597300
 20
0.077684
 30
0.000000
  0
VERTEX
  8
LAYER-1
 10
5.610320
 20
0.100254
 30
0.000000
  0
VERTEX
  8
LAYER-1
 10
5.579939
 20
0.079421
 30
0.000000
  0
SEQEND
  8
LAYER-1
  0
POLYLINE
  8
LAYER-1
 66
  1
 70
  0
 62
  0
 10
5.593827
 20
0.184453
 30
0.000000
  0
VERTEX
  8
LAYER-1
 10
5.593827
 20
0.184453
 30
0.000000
  0
VERTEX
  8
LAYER-1
 10
5.598168
 20
0.184453
 30
0.000000
  0
VERTEX
  8
LAYER-1
 10
5.601640
 20
0.188794
 30
0.000000
  0
VERTEX
  8
LAYER-1
 10
5.602509
 20
0.194002
 30
0.000000
  0
VERTEX
  8
LAYER-1
 10
5.600773
 20
0.198343
 30
0.000000
  0
VERTEX
  8
LAYER-1
 10
5.596432
 20
0.200078
 30
0.000000
  0
VERTEX
  8
LAYER-1
 10
5.592091
 20
0.200078
 30
0.000000
  0
VERTEX
  8
LAYER-1
 10
5.587751
 20
0.196607
 30
0.000000
  0
VERTEX
  8
LAYER-1
 10
5.587751
 20
0.192266
 30
0.000000
  0
VERTEX
  8
LAYER-1
 10
5.588620
 20
0.187926
 30
0.000000
  0
VERTEX
  8
LAYER-1
 10
5.592960
 20
0.185321
 30
0.000000
  0
SEQEND
  8
LAYER-1
  0
POLYLINE
  8
LAYER-1
 66
  1
 70
  1
 62
  0
 10
5.546518
 20
0.163184
 30
0.000000
  0
VERTEX
  8
LAYER-1
 10
5.546518
 20
0.163184
 30
0.000000
  0
VERTEX
  8
LAYER-1
 10
5.571693
 20
0.146691
 30
0.000000
  0
VERTEX
  8
LAYER-1
 10
5.579505
 20
0.161449
 30
0.000000
  0
SEQEND
  8
LAYER-1
  0
POLYLINE
  8
LAYER-1
 66
  1
 70
  1
 62
  0
 10
5.533165
 20
0.135573
 30
0.000000
  0
VERTEX
  8
LAYER-1
 10
5.533165
 20
0.135573
 30
0.000000
  0
VERTEX
  8
LAYER-1
 10
5.513801
 20
0.148260
 30
0.000000
  0
VERTEX
  8
LAYER-1
 10
5.507790
 20
0.136909
 30
0.000000
  0
SEQEND
  8
LAYER-1
  0
POLYLINE
  8
LAYER-1
 66
  1
 70
  1
 62
  0
 10
1.310409
 20
0.194434
 30
0.000000
  0
VERTEX
  8
LAYER-1
 10
1.310409
 20
0.194434
 30
0.000000
  0
VERTEX
  8
LAYER-1
 10
1.297388
 20
0.171865
 30
0.000000
  0
VERTEX
  8
LAYER-1
 10
1.327770
 20
0.192697
 30
0.000000
  0
SEQEND
  8
LAYER-1
  0
POLYLINE
  8
LAYER-1
 66
  1
 70
  1
 62
  0
 10
5.859890
 20
0.121520
 30
0.000000
  0
VERTEX
  8
LAYER-1
 10
5.859890
 20
0.121520
 30
0.000000
  0
VERTEX
  8
LAYER-1
 10
5.882460
 20
0.108499
 30
0.000000
  0
VERTEX
  8
LAYER-1
 10
5.861627
 20
0.138881
 30
0.000000
  0
SEQEND
  8
LAYER-1
  0
POLYLINE
  8
LAYER-1
 66
  1
 70
  0
 62
  0
 10
5.787842
 20
0.168393
 30
0.000000
  0
VERTEX
  8
LAYER-1
 10
5.787842
 20
0.168393
 30
0.000000
  0
VERTEX
  8
LAYER-1
 10
5.787842
 20
0.164051
 30
0.000000
  0
VERTEX
  8
LAYER-1
 10
5.792182
 20
0.160580
 30
0.000000
  0
VERTEX
  8
LAYER-1
 10
5.797390
 20
0.159712
 30
0.000000
  0
VERTEX
  8
LAYER-1
 10
5.801731
 20
0.161447
 30
0.000000
  0
VERTEX
  8
LAYER-1
 10
5.803467
 20
0.165788
 30
0.000000
  0
VERTEX
  8
LAYER-1
 10
5.803467
 20
0.170128
 30
0.000000
  0
VERTEX
  8
LAYER-1
 10
5.799995
 20
0.174469
 30
0.000000
  0
VERTEX
  8
LAYER-1
 10
5.795654
 20
0.174469
 30
0.000000
  0
VERTEX
  8
LAYER-1
 10
5.791314
 20
0.173601
 30
0.000000
  0
VERTEX
  8
LAYER-1
 10
5.788710
 20
0.169260
 30
0.000000
  0
SEQEND
  8
LAYER-1
  0
POLYLINE
  8
LAYER-1
 66
  1
 70
  1
 62
  0
 10
5.737494
 20
0.179678
 30
0.000000
  0
VERTEX
  8
LAYER-1
 10
5.737494
 20
0.179678
 30
0.000000
  0
VERTEX
  8
LAYER-1
 10
5.760064
 20
0.166657
 30
0.000000
  0
VERTEX
  8
LAYER-1
 10
5.739231
 20
0.197039
 30
0.000000
  0
SEQEND
  8
LAYER-1
  0
POLYLINE
  8
LAYER-1
 66
  1
 70
  0
 62
  0
 10
5.999647
 20
0.121520
 30
0.000000
  0
VERTEX
  8
LAYER-1
 10
5.999647
 20
0.121520
 30
0.000000
  0
VERTEX
  8
LAYER-1
 10
5.999647
 20
0.117179
 30
0.000000
  0
VERTEX
  8
LAYER-1
 10
6.003988
 20
0.113708
 30
0.000000
  0
VERTEX
  8
LAYER-1
 10
6.009196
 20
0.112840
 30
0.000000
  0
VERTEX
  8
LAYER-1
 10
6.013536
 20
0.114576
 30
0.000000
  0
VERTEX
  8
LAYER-1
 10
6.015272
 20
0.118915
 30
0.000000
  0
VERTEX
  8
LAYER-1
 10
6.015272
 20
0.123256
 30
0.000000
  0
VERTEX
  8
LAYER-1
 10
6.011801
 20
0.127597
 30
0.000000
  0
VERTEX
  8
LAYER-1
 10
6.007460
 20
0.127597
 30
0.000000
  0
VERTEX
  8
LAYER-1
 10
6.003119
 20
0.126728
 30
0.000000
  0
VERTEX
  8
LAYER-1
 10
6.000515
 20
0.122388
 30
0.000000
  0
SEQEND
  8
LAYER-1
  0
POLYLINE
  8
LAYER-1
 66
  1
 70
  0
 62
  0
 10
5.833849
 20
0.176208
 30
0.000000
  0
VERTEX
  8
LAYER-1
 10
5.833849
 20
0.176208
 30
0.000000
  0
VERTEX
  8
LAYER-1
 10
5.833849
 20
0.171867
 30
0.000000
  0
VERTEX
  8
LAYER-1
 10
5.838189
 20
0.168395
 30
0.000000
  0
VERTEX
  8
LAYER-1
 10
5.843397
 20
0.167527
 30
0.000000
  0
VERTEX
  8
LAYER-1
 10
5.847738
 20
0.169263
 30
0.000000
  0
VERTEX
  8
LAYER-1
 10
5.849474
 20
0.173603
 30
0.000000
  0
VERTEX
  8
LAYER-1
 10
5.849474
 20
0.177944
 30
0.000000
  0
VERTEX
  8
LAYER-1
 10
5.846002
 20
0.182284
 30
0.000000
  0
VERTEX
  8
LAYER-1
 10
5.841661
 20
0.182284
 30
0.000000
  0
VERTEX
  8
LAYER-1
 10
5.837321
 20
0.181415
 30
0.000000
  0
VERTEX
  8
LAYER-1
 10
5.834716
 20
0.177076
 30
0.000000
  0
SEQEND
  8
LAYER-1
  0
POLYLINE
  8
LAYER-1
 66
  1
 70
  1
 62
  0
 10
5.758329
 20
0.111538
 30
0.000000
  0
VERTEX
  8
LAYER-1
 10
5.758329
 20
0.111538
 30
0.000000
  0
VERTEX
  8
LAYER-1
 10
5.745307
 20
0.088966
 30
0.000000
  0
VERTEX
  8
LAYER-1
 10
5.775689
 20
0.109800
 30
0.000000
  0
SEQEND
  8
LAYER-1
  0
POLYLINE
  8
LAYER-1
 66
  1
 70
  0
 62
  0
 10
5.684628
 20
0.103672
 30
0.000000
  0
VERTEX
  8
LAYER-1
 10
5.684628
 20
0.103672
 30
0.000000
  0
VERTEX
  8
LAYER-1
 10
5.680288
 20
0.103672
 30
0.000000
  0
VERTEX
  8
LAYER-1
 10
5.676815
 20
0.099331
 30
0.000000
  0
VERTEX
  8
LAYER-1
 10
5.675947
 20
0.094124
 30
0.000000
  0
VERTEX
  8
LAYER-1
 10
5.677684
 20
0.089783
 30
0.000000
  0
VERTEX
  8
LAYER-1
 10
5.682024
 20
0.088047
 30
0.000000
  0
VERTEX
  8
LAYER-1
 10
5.686365
 20
0.088047
 30
0.000000
  0
VERTEX
  8
LAYER-1
 10
5.690704
 20
0.091519
 30
0.000000
  0
VERTEX
  8
LAYER-1
 10
5.690704
 20
0.095859
 30
0.000000
  0
VERTEX
  8
LAYER-1
 10
5.689837
 20
0.100200
 30
0.000000
  0
VERTEX
  8
LAYER-1
 10
5.685496
 20
0.102805
 30
0.000000
  0
SEQEND
  8
LAYER-1
  0
POLYLINE
  8
LAYER-1
 66
  1
 70
  0
 62
  0
 10
5.758329
 20
0.141918
 30
0.000000
  0
VERTEX
  8
LAYER-1
 10
5.758329
 20
0.141918
 30
0.000000
  0
VERTEX
  8
LAYER-1
 10
5.753988
 20
0.141918
 30
0.000000
  0
VERTEX
  8
LAYER-1
 10
5.750516
 20
0.137577
 30
0.000000
  0
VERTEX
  8
LAYER-1
 10
5.749648
 20
0.132369
 30
0.000000
  0
VERTEX
  8
LAYER-1
 10
5.751384
 20
0.128028
 30
0.000000
  0
VERTEX
  8
LAYER-1
 10
5.755725
 20
0.126293
 30
0.000000
  0
VERTEX
  8
LAYER-1
 10
5.760064
 20
0.126293
 30
0.000000
  0
VERTEX
  8
LAYER-1
 10
5.764405
 20
0.129764
 30
0.000000
  0
VERTEX
  8
LAYER-1
 10
5.764405
 20
0.134105
 30
0.000000
  0
VERTEX
  8
LAYER-1
 10
5.763537
 20
0.138446
 30
0.000000
  0
VERTEX
  8
LAYER-1
 10
5.759196
 20
0.141051
 30
0.000000
  0
SEQEND
  8
LAYER-1
  0
POLYLINE
  8
LAYER-1
 66
  1
 70
  1
 62
  0
 10
6.065620
 20
0.158412
 30
0.000000
  0
VERTEX
  8
LAYER-1
 10
6.065620
 20
0.158412
 30
0.000000
  0
VERTEX
  8
LAYER-1
 10
6.072564
 20
0.132370
 30
0.000000
  0
VERTEX
  8
LAYER-1
 10
6.097738
 20
0.146258
 30
0.000000
  0
SEQEND
  8
LAYER-1
  0
POLYLINE
  8
LAYER-1
 66
  1
 70
  1
 62
  0
 10
6.227946
 20
0.187057
 30
0.000000
  0
VERTEX
  8
LAYER-1
 10
6.227946
 20
0.187057
 30
0.000000
  0
VERTEX
  8
LAYER-1
 10
6.214926
 20
0.164488
 30
0.000000
  0
VERTEX
  8
LAYER-1
 10
6.245307
 20
0.185321
 30
0.000000
  0
SEQEND
  8
LAYER-1
  0
POLYLINE
  8
LAYER-1
 66
  1
 70
  0
 62
  0
 10
6.016141
 20
0.189662
 30
0.000000
  0
VERTEX
  8
LAYER-1
 10
6.016141
 20
0.189662
 30
0.000000
  0
VERTEX
  8
LAYER-1
 10
6.011801
 20
0.189662
 30
0.000000
  0
VERTEX
  8
LAYER-1
 10
6.008329
 20
0.185321
 30
0.000000
  0
VERTEX
  8
LAYER-1
 10
6.007460
 20
0.180113
 30
0.000000
  0
VERTEX
  8
LAYER-1
 10
6.009196
 20
0.175772
 30
0.000000
  0
VERTEX
  8
LAYER-1
 10
6.013536
 20
0.174037
 30
0.000000
  0
VERTEX
  8
LAYER-1
 10
6.017877
 20
0.174037
 30
0.000000
  0
VERTEX
  8
LAYER-1
 10
6.022218
 20
0.177508
 30
0.000000
  0
VERTEX
  8
LAYER-1
 10
6.022218
 20
0.181849
 30
0.000000
  0
VERTEX
  8
LAYER-1
 10
6.021349
 20
0.186189
 30
0.000000
  0
VERTEX
  8
LAYER-1
 10
6.017009
 20
0.188794
 30
0.000000
  0
SEQEND
  8
LAYER-1
  0
POLYLINE
  8
LAYER-1
 66
  1
 70
  1
 62
  0
 10
6.126386
 20
0.121952
 30
0.000000
  0
VERTEX
  8
LAYER-1
 10
6.126386
 20
0.121952
 30
0.000000
  0
VERTEX
  8
LAYER-1
 10
6.113364
 20
0.099383
 30
0.000000
  0
VERTEX
  8
LAYER-1
 10
6.143746
 20
0.120216
 30
0.000000
  0
SEQEND
  8
LAYER-1
  0
POLYLINE
  8
LAYER-1
 66
  1
 70
  0
 62
  0
 10
6.168051
 20
0.191397
 30
0.000000
  0
VERTEX
  8
LAYER-1
 10
6.168051
 20
0.191397
 30
0.000000
  0
VERTEX
  8
LAYER-1
 10
6.163710
 20
0.191397
 30
0.000000
  0
VERTEX
  8
LAYER-1
 10
6.160238
 20
0.187057
 30
0.000000
  0
VERTEX
  8
LAYER-1
 10
6.159370
 20
0.181849
 30
0.000000
  0
VERTEX
  8
LAYER-1
 10
6.161106
 20
0.177508
 30
0.000000
  0
VERTEX
  8
LAYER-1
 10
6.165446
 20
0.175772
 30
0.000000
  0
VERTEX
  8
LAYER-1
 10
6.169786
 20
0.175772
 30
0.000000
  0
VERTEX
  8
LAYER-1
 10
6.174127
 20
0.179244
 30
0.000000
  0
VERTEX
  8
LAYER-1
 10
6.174127
 20
0.183584
 30
0.000000
  0
VERTEX
  8
LAYER-1
 10
6.173259
 20
0.187926
 30
0.000000
  0
VERTEX
  8
LAYER-1
 10
6.168918
 20
0.190529
 30
0.000000
  0
SEQEND
  8
LAYER-1
  0
POLYLINE
  8
LAYER-1
 66
  1
 70
  1
 62
  0
 10
6.507460
 20
0.182716
 30
0.000000
  0
VERTEX
  8
LAYER-1
 10
6.507460
 20
0.182716
 30
0.000000
  0
VERTEX
  8
LAYER-1
 10
6.514404
 20
0.156676
 30
0.000000
  0
VERTEX
  8
LAYER-1
 10
6.539577
 20
0.170564
 30
0.000000
  0
SEQEND
  8
LAYER-1
  0
POLYLINE
  8
LAYER-1
 66
  1
 70
  1
 62
  0
 10
6.669786
 20
0.211364
 30
0.000000
  0
VERTEX
  8
LAYER-1
 10
6.669786
 20
0.211364
 30
0.000000
  0
VERTEX
  8
LAYER-1
 10
6.656765
 20
0.188794
 30
0.000000
  0
VERTEX
  8
LAYER-1
 10
6.687147
 20
0.209626
 30
0.000000
  0
SEQEND
  8
LAYER-1
  0
POLYLINE
  8
LAYER-1
 66
  1
 70
  1
 62
  0
 10
5.898085
 20
0.147127
 30
0.000000
  0
VERTEX
  8
LAYER-1
 10
5.898085
 20
0.147127
 30
0.000000
  0
VERTEX
  8
LAYER-1
 10
5.923258
 20
0.130633
 30
0.000000
  0
VERTEX
  8
LAYER-1
 10
5.931071
 20
0.145391
 30
0.000000
  0
SEQEND
  8
LAYER-1
  0
POLYLINE
  8
LAYER-1
 66
  1
 70
  0
 62
  0
 10
6.468397
 20
0.203551
 30
0.000000
  0
VERTEX
  8
LAYER-1
 10
6.468397
 20
0.203551
 30
0.000000
  0
VERTEX
  8
LAYER-1
 10
6.464057
 20
0.203551
 30
0.000000
  0
VERTEX
  8
LAYER-1
 10
6.460585
 20
0.199210
 30
0.000000
  0
VERTEX
  8
LAYER-1
 10
6.459717
 20
0.194003
 30
0.000000
  0
VERTEX
  8
LAYER-1
 10
6.461452
 20
0.189663
 30
0.000000
  0
VERTEX
  8
LAYER-1
 10
6.465793
 20
0.187926
 30
0.000000
  0
VERTEX
  8
LAYER-1
 10
6.470133
 20
0.187926
 30
0.000000
  0
VERTEX
  8
LAYER-1
 10
6.474474
 20
0.191398
 30
0.000000
  0
VERTEX
  8
LAYER-1
 10
6.474474
 20
0.195739
 30
0.000000
  0
VERTEX
  8
LAYER-1
 10
6.473606
 20
0.200079
 30
0.000000
  0
VERTEX
  8
LAYER-1
 10
6.469265
 20
0.202684
 30
0.000000
  0
SEQEND
  8
LAYER-1
  0
POLYLINE
  8
LAYER-1
 66
  1
 70
  1
 62
  0
 10
6.484023
 20
0.115009
 30
0.000000
  0
VERTEX
  8
LAYER-1
 10
6.484023
 20
0.115009
 30
0.000000
  0
VERTEX
  8
LAYER-1
 10
6.471002
 20
0.092439
 30
0.000000
  0
VERTEX
  8
LAYER-1
 10
6.501384
 20
0.113271
 30
0.000000
  0
SEQEND
  8
LAYER-1
  0
POLYLINE
  8
LAYER-1
 66
  1
 70
  1
 62
  0
 10
6.578473
 20
0.129427
 30
0.000000
  0
VERTEX
  8
LAYER-1
 10
6.578473
 20
0.129427
 30
0.000000
  0
VERTEX
  8
LAYER-1
 10
6.565787
 20
0.110062
 30
0.000000
  0
VERTEX
  8
LAYER-1
 10
6.577137
 20
0.104051
 30
0.000000
  0
SEQEND
  8
LAYER-1
  0
POLYLINE
  8
LAYER-1
 66
  1
 70
  0
 62
  0
 10
6.609890
 20
0.207891
 30
0.000000
  0
VERTEX
  8
LAYER-1
 10
6.609890
 20
0.207891
 30
0.000000
  0
VERTEX
  8
LAYER-1
 10
6.605551
 20
0.207891
 30
0.000000
  0
VERTEX
  8
LAYER-1
 10
6.602077
 20
0.203551
 30
0.000000
  0
VERTEX
  8
LAYER-1
 10
6.601210
 20
0.198343
 30
0.000000
  0
VERTEX
  8
LAYER-1
 10
6.602946
 20
0.194002
 30
0.000000
  0
VERTEX
  8
LAYER-1
 10
6.607286
 20
0.192266
 30
0.000000
  0
VERTEX
  8
LAYER-1
 10
6.611627
 20
0.192266
 30
0.000000
  0
VERTEX
  8
LAYER-1
 10
6.615967
 20
0.195738
 30
0.000000
  0
VERTEX
  8
LAYER-1
 10
6.615967
 20
0.200078
 30
0.000000
  0
VERTEX
  8
LAYER-1
 10
6.615099
 20
0.204419
 30
0.000000
  0
VERTEX
  8
LAYER-1
 10
6.610758
 20
0.207024
 30
0.000000
  0
SEQEND
  8
LAYER-1
  0
POLYLINE
  8
LAYER-1
 66
  1
 70
  0
 62
  0
 10
5.886801
 20
0.200078
 30
0.000000
  0
VERTEX
  8
LAYER-1
 10
5.886801
 20
0.200078
 30
0.000000
  0
VERTEX
  8
LAYER-1
 10
5.886801
 20
0.195738
 30
0.000000
  0
VERTEX
  8
LAYER-1
 10
5.891142
 20
0.192266
 30
0.000000
  0
VERTEX
  8
LAYER-1
 10
5.896349
 20
0.191397
 30
0.000000
  0
VERTEX
  8
LAYER-1
 10
5.900690
 20
0.193133
 30
0.000000
  0
VERTEX
  8
LAYER-1
 10
5.902426
 20
0.197474
 30
0.000000
  0
VERTEX
  8
LAYER-1
 10
5.902426
 20
0.201814
 30
0.000000
  0
VERTEX
  8
LAYER-1
 10
5.898954
 20
0.206156
 30
0.000000
  0
VERTEX
  8
LAYER-1
 10
5.894613
 20
0.206156
 30
0.000000
  0
VERTEX
  8
LAYER-1
 10
5.890273
 20
0.205287
 30
0.000000
  0
VERTEX
  8
LAYER-1
 10
5.887668
 20
0.200946
 30
0.000000
  0
SEQEND
  8
LAYER-1
  0
POLYLINE
  8
LAYER-1
 66
  1
 70
  0
 62
  0
 10
6.450167
 20
0.115875
 30
0.000000
  0
VERTEX
  8
LAYER-1
 10
6.450167
 20
0.115875
 30
0.000000
  0
VERTEX
  8
LAYER-1
 10
6.445827
 20
0.115875
 30
0.000000
  0
VERTEX
  8
LAYER-1
 10
6.442355
 20
0.111534
 30
0.000000
  0
VERTEX
  8
LAYER-1
 10
6.441487
 20
0.106327
 30
0.000000
  0
VERTEX
  8
LAYER-1
 10
6.443223
 20
0.101986
 30
0.000000
  0
VERTEX
  8
LAYER-1
 10
6.447564
 20
0.100250
 30
0.000000
  0
VERTEX
  8
LAYER-1
 10
6.451903
 20
0.100250
 30
0.000000
  0
VERTEX
  8
LAYER-1
 10
6.456244
 20
0.103722
 30
0.000000
  0
VERTEX
  8
LAYER-1
 10
6.456244
 20
0.108063
 30
0.000000
  0
VERTEX
  8
LAYER-1
 10
6.455376
 20
0.112403
 30
0.000000
  0
VERTEX
  8
LAYER-1
 10
6.451035
 20
0.115008
 30
0.000000
  0
SEQEND
  8
LAYER-1
  0
POLYLINE
  8
LAYER-1
 66
  1
 70
  0
 62
  0
 10
6.348607
 20
0.153637
 30
0.000000
  0
VERTEX
  8
LAYER-1
 10
6.348607
 20
0.153637
 30
0.000000
  0
VERTEX
  8
LAYER-1
 10
6.348607
 20
0.157978
 30
0.000000
  0
VERTEX
  8
LAYER-1
 10
6.344266
 20
0.161450
 30
0.000000
  0
VERTEX
  8
LAYER-1
 10
6.339058
 20
0.162318
 30
0.000000
  0
VERTEX
  8
LAYER-1
 10
6.334718
 20
0.160582
 30
0.000000
  0
VERTEX
  8
LAYER-1
 10
6.332982
 20
0.156241
 30
0.000000
  0
VERTEX
  8
LAYER-1
 10
6.332982
 20
0.151901
 30
0.000000
  0
VERTEX
  8
LAYER-1
 10
6.336454
 20
0.147562
 30
0.000000
  0
VERTEX
  8
LAYER-1
 10
6.340794
 20
0.147562
 30
0.000000
  0
VERTEX
  8
LAYER-1
 10
6.345135
 20
0.148428
 30
0.000000
  0
VERTEX
  8
LAYER-1
 10
6.347738
 20
0.152769
 30
0.000000
  0
SEQEND
  8
LAYER-1
  0
POLYLINE
  8
LAYER-1
 66
  1
 70
  1
 62
  0
 10
6.280897
 20
0.140616
 30
0.000000
  0
VERTEX
  8
LAYER-1
 10
6.280897
 20
0.140616
 30
0.000000
  0
VERTEX
  8
LAYER-1
 10
6.258329
 20
0.153637
 30
0.000000
  0
VERTEX
  8
LAYER-1
 10
6.279161
 20
0.123254
 30
0.000000
  0
SEQEND
  8
LAYER-1
  0
POLYLINE
  8
LAYER-1
 66
  1
 70
  0
 62
  0
 10
6.198433
 20
0.105894
 30
0.000000
  0
VERTEX
  8
LAYER-1
 10
6.198433
 20
0.105894
 30
0.000000
  0
VERTEX
  8
LAYER-1
 10
6.198433
 20
0.110235
 30
0.000000
  0
VERTEX
  8
LAYER-1
 10
6.194093
 20
0.113707
 30
0.000000
  0
VERTEX
  8
LAYER-1
 10
6.188885
 20
0.114575
 30
0.000000
  0
VERTEX
  8
LAYER-1
 10
6.184544
 20
0.112839
 30
0.000000
  0
VERTEX
  8
LAYER-1
 10
6.182808
 20
0.108499
 30
0.000000
  0
VERTEX
  8
LAYER-1
 10
6.182808
 20
0.104158
 30
0.000000
  0
VERTEX
  8
LAYER-1
 10
6.186280
 20
0.099818
 30
0.000000
  0
VERTEX
  8
LAYER-1
 10
6.190621
 20
0.099818
 30
0.000000
  0
VERTEX
  8
LAYER-1
 10
6.194962
 20
0.100687
 30
0.000000
  0
VERTEX
  8
LAYER-1
 10
6.197564
 20
0.105026
 30
0.000000
  0
SEQEND
  8
LAYER-1
  0
POLYLINE
  8
LAYER-1
 66
  1
 70
  1
 62
  0
 10
6.388711
 20
0.096173
 30
0.000000
  0
VERTEX
  8
LAYER-1
 10
6.388711
 20
0.096173
 30
0.000000
  0
VERTEX
  8
LAYER-1
 10
6.381766
 20
0.122213
 30
0.000000
  0
VERTEX
  8
LAYER-1
 10
6.356593
 20
0.108326
 30
0.000000
  0
SEQEND
  8
LAYER-1
  0
POLYLINE
  8
LAYER-1
 66
  1
 70
  1
 62
  0
 10
6.410238
 20
0.150599
 30
0.000000
  0
VERTEX
  8
LAYER-1
 10
6.410238
 20
0.150599
 30
0.000000
  0
VERTEX
  8
LAYER-1
 10
6.423259
 20
0.173169
 30
0.000000
  0
VERTEX
  8
LAYER-1
 10
6.392877
 20
0.152337
 30
0.000000
  0
SEQEND
  8
LAYER-1
  0
POLYLINE
  8
LAYER-1
 66
  1
 70
  1
 62
  0
 10
5.838189
 20
0.094176
 30
0.000000
  0
VERTEX
  8
LAYER-1
 10
5.838189
 20
0.094176
 30
0.000000
  0
VERTEX
  8
LAYER-1
 10
5.815619
 20
0.107197
 30
0.000000
  0
VERTEX
  8
LAYER-1
 10
5.836452
 20
0.076814
 30
0.000000
  0
SEQEND
  8
LAYER-1
  0
POLYLINE
  8
LAYER-1
 66
  1
 70
  1
 62
  0
 10
6.615968
 20
0.118482
 30
0.000000
  0
VERTEX
  8
LAYER-1
 10
6.615968
 20
0.118482
 30
0.000000
  0
VERTEX
  8
LAYER-1
 10
6.632461
 20
0.143656
 30
0.000000
  0
VERTEX
  8
LAYER-1
 10
6.617704
 20
0.151468
 30
0.000000
  0
SEQEND
  8
LAYER-1
  0
POLYLINE
  8
LAYER-1
 66
  1
 70
  0
 62
  0
 10
6.646868
 20
0.045078
 30
0.000000
  0
VERTEX
  8
LAYER-1
 10
6.646868
 20
0.045078
 30
0.000000
  0
VERTEX
  8
LAYER-1
 10
6.651209
 20
0.045078
 30
0.000000
  0
VERTEX
  8
LAYER-1
 10
6.654680
 20
0.049419
 30
0.000000
  0
VERTEX
  8
LAYER-1
 10
6.655548
 20
0.054626
 30
0.000000
  0
VERTEX
  8
LAYER-1
 10
6.653812
 20
0.058968
 30
0.000000
  0
VERTEX
  8
LAYER-1
 10
6.649472
 20
0.060703
 30
0.000000
  0
VERTEX
  8
LAYER-1
 10
6.645132
 20
0.060703
 30
0.000000
  0
VERTEX
  8
LAYER-1
 10
6.640791
 20
0.057231
 30
0.000000
  0
VERTEX
  8
LAYER-1
 10
6.640791
 20
0.052890
 30
0.000000
  0
VERTEX
  8
LAYER-1
 10
6.641659
 20
0.048550
 30
0.000000
  0
VERTEX
  8
LAYER-1
 10
6.645999
 20
0.045945
 30
0.000000
  0
SEQEND
  8
LAYER-1
  0
POLYLINE
  8
LAYER-1
 66
  1
 70
  0
 62
  0
 10
6.623431
 20
0.070257
 30
0.000000
  0
VERTEX
  8
LAYER-1
 10
6.623431
 20
0.070257
 30
0.000000
  0
VERTEX
  8
LAYER-1
 10
6.627771
 20
0.070257
 30
0.000000
  0
VERTEX
  8
LAYER-1
 10
6.631243
 20
0.074598
 30
0.000000
  0
VERTEX
  8
LAYER-1
 10
6.632111
 20
0.079806
 30
0.000000
  0
VERTEX
  8
LAYER-1
 10
6.630375
 20
0.084146
 30
0.000000
  0
VERTEX
  8
LAYER-1
 10
6.626035
 20
0.085882
 30
0.000000
  0
VERTEX
  8
LAYER-1
 10
6.621695
 20
0.085882
 30
0.000000
  0
VERTEX
  8
LAYER-1
 10
6.617354
 20
0.082410
 30
0.000000
  0
VERTEX
  8
LAYER-1
 10
6.617354
 20
0.078070
 30
0.000000
  0
VERTEX
  8
LAYER-1
 10
6.618222
 20
0.073729
 30
0.000000
  0
VERTEX
  8
LAYER-1
 10
6.622563
 20
0.071125
 30
0.000000
  0
SEQEND
  8
LAYER-1
  0
POLYLINE
  8
LAYER-1
 66
  1
 70
  1
 62
  0
 10
6.697649
 20
0.086313
 30
0.000000
  0
VERTEX
  8
LAYER-1
 10
6.697649
 20
0.086313
 30
0.000000
  0
VERTEX
  8
LAYER-1
 10
6.672476
 20
0.102806
 30
0.000000
  0
VERTEX
  8
LAYER-1
 10
6.664664
 20
0.088049
 30
0.000000
  0
SEQEND
  8
LAYER-1
  0
POLYLINE
  8
LAYER-1
 66
  1
 70
  0
 62
  0
 10
6.708066
 20
0.125377
 30
0.000000
  0
VERTEX
  8
LAYER-1
 10
6.708066
 20
0.125377
 30
0.000000
  0
VERTEX
  8
LAYER-1
 10
6.708066
 20
0.129718
 30
0.000000
  0
VERTEX
  8
LAYER-1
 10
6.703725
 20
0.133190
 30
0.000000
  0
VERTEX
  8
LAYER-1
 10
6.698518
 20
0.134058
 30
0.000000
  0
VERTEX
  8
LAYER-1
 10
6.694177
 20
0.132322
 30
0.000000
  0
VERTEX
  8
LAYER-1
 10
6.692441
 20
0.127981
 30
0.000000
  0
VERTEX
  8
LAYER-1
 10
6.692441
 20
0.123641
 30
0.000000
  0
VERTEX
  8
LAYER-1
 10
6.695913
 20
0.119301
 30
0.000000
  0
VERTEX
  8
LAYER-1
 10
6.700254
 20
0.119301
 30
0.000000
  0
VERTEX
  8
LAYER-1
 10
6.704594
 20
0.120169
 30
0.000000
  0
VERTEX
  8
LAYER-1
 10
6.707199
 20
0.124509
 30
0.000000
  0
SEQEND
  8
LAYER-1
  0
POLYLINE
  8
LAYER-1
 66
  1
 70
  1
 62
  0
 10
6.654588
 20
0.131229
 30
0.000000
  0
VERTEX
  8
LAYER-1
 10
6.654588
 20
0.131229
 30
0.000000
  0
VERTEX
  8
LAYER-1
 10
6.667275
 20
0.150593
 30
0.000000
  0
VERTEX
  8
LAYER-1
 10
6.655924
 20
0.156604
 30
0.000000
  0
SEQEND
  8
LAYER-1
  0
POLYLINE
  8
LAYER-1
 66
  1
 70
  0
 62
  0
 10
5.977945
 20
0.161016
 30
0.000000
  0
VERTEX
  8
LAYER-1
 10
5.977945
 20
0.161016
 30
0.000000
  0
VERTEX
  8
LAYER-1
 10
5.977945
 20
0.165355
 30
0.000000
  0
VERTEX
  8
LAYER-1
 10
5.973604
 20
0.168828
 30
0.000000
  0
VERTEX
  8
LAYER-1
 10
5.968397
 20
0.169696
 30
0.000000
  0
VERTEX
  8
LAYER-1
 10
5.964056
 20
0.167959
 30
0.000000
  0
VERTEX
  8
LAYER-1
 10
5.962320
 20
0.163619
 30
0.000000
  0
VERTEX
  8
LAYER-1
 10
5.962320
 20
0.159278
 30
0.000000
  0
VERTEX
  8
LAYER-1
 10
5.965792
 20
0.154939
 30
0.000000
  0
VERTEX
  8
LAYER-1
 10
5.970133
 20
0.154939
 30
0.000000
  0
VERTEX
  8
LAYER-1
 10
5.974473
 20
0.155807
 30
0.000000
  0
VERTEX
  8
LAYER-1
 10
5.977078
 20
0.160147
 30
0.000000
  0
SEQEND
  8
LAYER-1
  0
POLYLINE
  8
LAYER-1
 66
  1
 70
  0
 62
  0
 10
6.563884
 20
0.124558
 30
0.000000
  0
VERTEX
  8
LAYER-1
 10
6.563884
 20
0.124558
 30
0.000000
  0
VERTEX
  8
LAYER-1
 10
6.568225
 20
0.124558
 30
0.000000
  0
VERTEX
  8
LAYER-1
 10
6.571696
 20
0.128899
 30
0.000000
  0
VERTEX
  8
LAYER-1
 10
6.572564
 20
0.134107
 30
0.000000
  0
VERTEX
  8
LAYER-1
 10
6.570829
 20
0.138447
 30
0.000000
  0
VERTEX
  8
LAYER-1
 10
6.566488
 20
0.140183
 30
0.000000
  0
VERTEX
  8
LAYER-1
 10
6.562148
 20
0.140183
 30
0.000000
  0
VERTEX
  8
LAYER-1
 10
6.557807
 20
0.136712
 30
0.000000
  0
VERTEX
  8
LAYER-1
 10
6.557807
 20
0.132371
 30
0.000000
  0
VERTEX
  8
LAYER-1
 10
6.558676
 20
0.128031
 30
0.000000
  0
VERTEX
  8
LAYER-1
 10
6.563016
 20
0.125426
 30
0.000000
  0
SEQEND
  8
LAYER-1
  0
POLYLINE
  8
LAYER-1
 66
  1
 70
  1
 62
  0
 10
0.821519
 20
0.128240
 30
0.000000
  0
VERTEX
  8
LAYER-1
 10
0.821519
 20
0.128240
 30
0.000000
  0
VERTEX
  8
LAYER-1
 10
0.798948
 20
0.141260
 30
0.000000
  0
VERTEX
  8
LAYER-1
 10
0.819781
 20
0.110879
 30
0.000000
  0
SEQEND
  8
LAYER-1
  0
POLYLINE
  8
LAYER-1
 66
  1
 70
  0
 62
  0
 10
0.810234
 20
0.061399
 30
0.000000
  0
VERTEX
  8
LAYER-1
 10
0.810234
 20
0.061399
 30
0.000000
  0
VERTEX
  8
LAYER-1
 10
0.810234
 20
0.065737
 30
0.000000
  0
VERTEX
  8
LAYER-1
 10
0.805894
 20
0.069211
 30
0.000000
  0
VERTEX
  8
LAYER-1
 10
0.800686
 20
0.070079
 30
0.000000
  0
VERTEX
  8
LAYER-1
 10
0.796345
 20
0.068342
 30
0.000000
  0
VERTEX
  8
LAYER-1
 10
0.794609
 20
0.064002
 30
0.000000
  0
VERTEX
  8
LAYER-1
 10
0.794609
 20
0.059661
 30
0.000000
  0
VERTEX
  8
LAYER-1
 10
0.798081
 20
0.055322
 30
0.000000
  0
VERTEX
  8
LAYER-1
 10
0.802422
 20
0.055322
 30
0.000000
  0
VERTEX
  8
LAYER-1
 10
0.806763
 20
0.056190
 30
0.000000
  0
VERTEX
  8
LAYER-1
 10
0.809367
 20
0.060530
 30
0.000000
  0
SEQEND
  8
LAYER-1
  0
POLYLINE
  8
LAYER-1
 66
  1
 70
  1
 62
  0
 10
1.088274
 20
0.050198
 30
0.000000
  0
VERTEX
  8
LAYER-1
 10
1.088274
 20
0.050198
 30
0.000000
  0
VERTEX
  8
LAYER-1
 10
1.104767
 20
0.075372
 30
0.000000
  0
VERTEX
  8
LAYER-1
 10
1.090010
 20
0.083185
 30
0.000000
  0
SEQEND
  8
LAYER-1
  0
POLYLINE
  8
LAYER-1
 66
  1
 70
  1
 62
  0
 10
1.136183
 20
0.065293
 30
0.000000
  0
VERTEX
  8
LAYER-1
 10
1.136183
 20
0.065293
 30
0.000000
  0
VERTEX
  8
LAYER-1
 10
1.148871
 20
0.084657
 30
0.000000
  0
VERTEX
  8
LAYER-1
 10
1.137519
 20
0.090668
 30
0.000000
  0
SEQEND
  8
LAYER-1
  0
POLYLINE
  8
LAYER-1
 66
  1
 70
  0
 62
  0
 10
1.200253
 20
0.041521
 30
0.000000
  0
VERTEX
  8
LAYER-1
 10
1.200253
 20
0.041521
 30
0.000000
  0
VERTEX
  8
LAYER-1
 10
1.204593
 20
0.041521
 30
0.000000
  0
VERTEX
  8
LAYER-1
 10
1.208065
 20
0.045861
 30
0.000000
  0
VERTEX
  8
LAYER-1
 10
1.208933
 20
0.051069
 30
0.000000
  0
VERTEX
  8
LAYER-1
 10
1.207197
 20
0.055410
 30
0.000000
  0
VERTEX
  8
LAYER-1
 10
1.202857
 20
0.057146
 30
0.000000
  0
VERTEX
  8
LAYER-1
 10
1.198517
 20
0.057146
 30
0.000000
  0
VERTEX
  8
LAYER-1
 10
1.194176
 20
0.053674
 30
0.000000
  0
VERTEX
  8
LAYER-1
 10
1.194176
 20
0.049333
 30
0.000000
  0
VERTEX
  8
LAYER-1
 10
1.195044
 20
0.044992
 30
0.000000
  0
VERTEX
  8
LAYER-1
 10
1.199385
 20
0.042389
 30
0.000000
  0
SEQEND
  8
LAYER-1
  0
POLYLINE
  8
LAYER-1
 66
  1
 70
  1
 62
  0
 10
1.234107
 20
0.104453
 30
0.000000
  0
VERTEX
  8
LAYER-1
 10
1.234107
 20
0.104453
 30
0.000000
  0
VERTEX
  8
LAYER-1
 10
1.208065
 20
0.097509
 30
0.000000
  0
VERTEX
  8
LAYER-1
 10
1.221953
 20
0.072335
 30
0.000000
  0
SEQEND
  8
LAYER-1
  0
POLYLINE
  8
LAYER-1
 66
  1
 70
  0
 62
  0
 10
2.601989
 20
0.072161
 30
0.000000
  0
VERTEX
  8
LAYER-1
 10
2.601989
 20
0.072161
 30
0.000000
  0
VERTEX
  8
LAYER-1
 10
2.601989
 20
0.076501
 30
0.000000
  0
VERTEX
  8
LAYER-1
 10
2.597648
 20
0.079973
 30
0.000000
  0
VERTEX
  8
LAYER-1
 10
2.592440
 20
0.080841
 30
0.000000
  0
VERTEX
  8
LAYER-1
 10
2.588100
 20
0.079105
 30
0.000000
  0
VERTEX
  8
LAYER-1
 10
2.586364
 20
0.074766
 30
0.000000
  0
VERTEX
  8
LAYER-1
 10
2.586364
 20
0.070424
 30
0.000000
  0
VERTEX
  8
LAYER-1
 10
2.589835
 20
0.066084
 30
0.000000
  0
VERTEX
  8
LAYER-1
 10
2.594176
 20
0.066084
 30
0.000000
  0
VERTEX
  8
LAYER-1
 10
2.598517
 20
0.066953
 30
0.000000
  0
VERTEX
  8
LAYER-1
 10
2.601121
 20
0.071292
 30
0.000000
  0
SEQEND
  8
LAYER-1
  0
POLYLINE
  8
LAYER-1
 66
  1
 70
  1
 62
  0
 10
2.536016
 20
0.035269
 30
0.000000
  0
VERTEX
  8
LAYER-1
 10
2.536016
 20
0.035269
 30
0.000000
  0
VERTEX
  8
LAYER-1
 10
2.529071
 20
0.061311
 30
0.000000
  0
VERTEX
  8
LAYER-1
 10
2.503898
 20
0.047423
 30
0.000000
  0
SEQEND
  8
LAYER-1
  0
POLYLINE
  8
LAYER-1
 66
  1
 70
  1
 62
  0
 10
2.548168
 20
0.071728
 30
0.000000
  0
VERTEX
  8
LAYER-1
 10
2.548168
 20
0.071728
 30
0.000000
  0
VERTEX
  8
LAYER-1
 10
2.561189
 20
0.094298
 30
0.000000
  0
VERTEX
  8
LAYER-1
 10
2.530807
 20
0.073465
 30
0.000000
  0
SEQEND
  8
LAYER-1
  0
POLYLINE
  8
LAYER-1
 66
  1
 70
  0
 62
  0
 10
2.384367
 20
0.082578
 30
0.000000
  0
VERTEX
  8
LAYER-1
 10
2.384367
 20
0.082578
 30
0.000000
  0
VERTEX
  8
LAYER-1
 10
2.380026
 20
0.082578
 30
0.000000
  0
VERTEX
  8
LAYER-1
 10
2.376554
 20
0.078237
 30
0.000000
  0
VERTEX
  8
LAYER-1
 10
2.375686
 20
0.073029
 30
0.000000
  0
VERTEX
  8
LAYER-1
 10
2.377422
 20
0.068688
 30
0.000000
  0
VERTEX
  8
LAYER-1
 10
2.381763
 20
0.066953
 30
0.000000
  0
VERTEX
  8
LAYER-1
 10
2.386103
 20
0.066953
 30
0.000000
  0
VERTEX
  8
LAYER-1
 10
2.390444
 20
0.070424
 30
0.000000
  0
VERTEX
  8
LAYER-1
 10
2.390444
 20
0.074766
 30
0.000000
  0
VERTEX
  8
LAYER-1
 10
2.389576
 20
0.079106
 30
0.000000
  0
VERTEX
  8
LAYER-1
 10
2.385235
 20
0.081711
 30
0.000000
  0
SEQEND
  8
LAYER-1
  0
POLYLINE
  8
LAYER-1
 66
  1
 70
  1
 62
  0
 10
2.464228
 20
0.045251
 30
0.000000
  0
VERTEX
  8
LAYER-1
 10
2.464228
 20
0.045251
 30
0.000000
  0
VERTEX
  8
LAYER-1
 10
2.441657
 20
0.058273
 30
0.000000
  0
VERTEX
  8
LAYER-1
 10
2.462490
 20
0.027891
 30
0.000000
  0
SEQEND
  8
LAYER-1
  0
POLYLINE
  8
LAYER-1
 66
  1
 70
  1
 62
  0
 10
3.059199
 20
0.046102
 30
0.000000
  0
VERTEX
  8
LAYER-1
 10
3.059199
 20
0.046102
 30
0.000000
  0
VERTEX
  8
LAYER-1
 10
3.072220
 20
0.068672
 30
0.000000
  0
VERTEX
  8
LAYER-1
 10
3.041838
 20
0.047840
 30
0.000000
  0
SEQEND
  8
LAYER-1
  0
POLYLINE
  8
LAYER-1
 66
  1
 70
  1
 62
  0
 10
2.964749
 20
0.052515
 30
0.000000
  0
VERTEX
  8
LAYER-1
 10
2.964749
 20
0.052515
 30
0.000000
  0
VERTEX
  8
LAYER-1
 10
2.977436
 20
0.071879
 30
0.000000
  0
VERTEX
  8
LAYER-1
 10
2.966085
 20
0.077890
 30
0.000000
  0
SEQEND
  8
LAYER-1
  0
POLYLINE
  8
LAYER-1
 66
  1
 70
  0
 62
  0
 10
3.093054
 20
0.045235
 30
0.000000
  0
VERTEX
  8
LAYER-1
 10
3.093054
 20
0.045235
 30
0.000000
  0
VERTEX
  8
LAYER-1
 10
3.097395
 20
0.045235
 30
0.000000
  0
VERTEX
  8
LAYER-1
 10
3.100867
 20
0.049576
 30
0.000000
  0
VERTEX
  8
LAYER-1
 10
3.101735
 20
0.054783
 30
0.000000
  0
VERTEX
  8
LAYER-1
 10
3.099999
 20
0.059124
 30
0.000000
  0
VERTEX
  8
LAYER-1
 10
3.095659
 20
0.060860
 30
0.000000
  0
VERTEX
  8
LAYER-1
 10
3.091319
 20
0.060860
 30
0.000000
  0
VERTEX
  8
LAYER-1
 10
3.086978
 20
0.057388
 30
0.000000
  0
VERTEX
  8
LAYER-1
 10
3.086978
 20
0.053047
 30
0.000000
  0
VERTEX
  8
LAYER-1
 10
3.087846
 20
0.048707
 30
0.000000
  0
VERTEX
  8
LAYER-1
 10
3.092187
 20
0.046102
 30
0.000000
  0
SEQEND
  8
LAYER-1
  0
POLYLINE
  8
LAYER-1
 66
  1
 70
  0
 62
  0
 10
2.979338
 20
0.036552
 30
0.000000
  0
VERTEX
  8
LAYER-1
 10
2.979338
 20
0.036552
 30
0.000000
  0
VERTEX
  8
LAYER-1
 10
2.974997
 20
0.036552
 30
0.000000
  0
VERTEX
  8
LAYER-1
 10
2.971525
 20
0.032210
 30
0.000000
  0
VERTEX
  8
LAYER-1
 10
2.970658
 20
0.027003
 30
0.000000
  0
VERTEX
  8
LAYER-1
 10
2.972393
 20
0.022663
 30
0.000000
  0
VERTEX
  8
LAYER-1
 10
2.976734
 20
0.020927
 30
0.000000
  0
VERTEX
  8
LAYER-1
 10
2.981074
 20
0.020927
 30
0.000000
  0
VERTEX
  8
LAYER-1
 10
2.985415
 20
0.024398
 30
0.000000
  0
VERTEX
  8
LAYER-1
 10
2.985415
 20
0.028739
 30
0.000000
  0
VERTEX
  8
LAYER-1
 10
2.984547
 20
0.033079
 30
0.000000
  0
VERTEX
  8
LAYER-1
 10
2.980206
 20
0.035684
 30
0.000000
  0
SEQEND
  8
LAYER-1
  0
POLYLINE
  8
LAYER-1
 66
  1
 70
  1
 62
  0
 10
2.820391
 20
0.049852
 30
0.000000
  0
VERTEX
  8
LAYER-1
 10
2.820391
 20
0.049852
 30
0.000000
  0
VERTEX
  8
LAYER-1
 10
2.833412
 20
0.072422
 30
0.000000
  0
VERTEX
  8
LAYER-1
 10
2.803030
 20
0.051590
 30
0.000000
  0
SEQEND
  8
LAYER-1
  0
POLYLINE
  8
LAYER-1
 66
  1
 70
  0
 62
  0
 10
2.854247
 20
0.048985
 30
0.000000
  0
VERTEX
  8
LAYER-1
 10
2.854247
 20
0.048985
 30
0.000000
  0
VERTEX
  8
LAYER-1
 10
2.858588
 20
0.048985
 30
0.000000
  0
VERTEX
  8
LAYER-1
 10
2.862059
 20
0.053326
 30
0.000000
  0
VERTEX
  8
LAYER-1
 10
2.862928
 20
0.058534
 30
0.000000
  0
VERTEX
  8
LAYER-1
 10
2.861192
 20
0.062875
 30
0.000000
  0
VERTEX
  8
LAYER-1
 10
2.856851
 20
0.064610
 30
0.000000
  0
VERTEX
  8
LAYER-1
 10
2.852511
 20
0.064610
 30
0.000000
  0
VERTEX
  8
LAYER-1
 10
2.848170
 20
0.061139
 30
0.000000
  0
VERTEX
  8
LAYER-1
 10
2.848170
 20
0.056797
 30
0.000000
  0
VERTEX
  8
LAYER-1
 10
2.849038
 20
0.052457
 30
0.000000
  0
VERTEX
  8
LAYER-1
 10
2.853379
 20
0.049852
 30
0.000000
  0
SEQEND
  8
LAYER-1
  0
POLYLINE
  8
LAYER-1
 66
  1
 70
  1
 62
  0
 10
3.452509
 20
0.084923
 30
0.000000
  0
VERTEX
  8
LAYER-1
 10
3.452509
 20
0.084923
 30
0.000000
  0
VERTEX
  8
LAYER-1
 10
3.475079
 20
0.071902
 30
0.000000
  0
VERTEX
  8
LAYER-1
 10
3.454247
 20
0.102284
 30
0.000000
  0
SEQEND
  8
LAYER-1
  0
POLYLINE
  8
LAYER-1
 66
  1
 70
  0
 62
  0
 10
3.451642
 20
0.051067
 30
0.000000
  0
VERTEX
  8
LAYER-1
 10
3.451642
 20
0.051067
 30
0.000000
  0
VERTEX
  8
LAYER-1
 10
3.451642
 20
0.046727
 30
0.000000
  0
VERTEX
  8
LAYER-1
 10
3.455983
 20
0.043254
 30
0.000000
  0
VERTEX
  8
LAYER-1
 10
3.461190
 20
0.042387
 30
0.000000
  0
VERTEX
  8
LAYER-1
 10
3.465531
 20
0.044122
 30
0.000000
  0
VERTEX
  8
LAYER-1
 10
3.467267
 20
0.048464
 30
0.000000
  0
VERTEX
  8
LAYER-1
 10
3.467267
 20
0.052803
 30
0.000000
  0
VERTEX
  8
LAYER-1
 10
3.463795
 20
0.057144
 30
0.000000
  0
VERTEX
  8
LAYER-1
 10
3.459454
 20
0.057144
 30
0.000000
  0
VERTEX
  8
LAYER-1
 10
3.455114
 20
0.056276
 30
0.000000
  0
VERTEX
  8
LAYER-1
 10
3.452509
 20
0.051935
 30
0.000000
  0
SEQEND
  8
LAYER-1
  0
POLYLINE
  8
LAYER-1
 66
  1
 70
  1
 62
  0
 10
4.001989
 20
0.116953
 30
0.000000
  0
VERTEX
  8
LAYER-1
 10
4.001989
 20
0.116953
 30
0.000000
  0
VERTEX
  8
LAYER-1
 10
4.008934
 20
0.090911
 30
0.000000
  0
VERTEX
  8
LAYER-1
 10
4.034107
 20
0.104799
 30
0.000000
  0
SEQEND
  8
LAYER-1
  0
POLYLINE
  8
LAYER-1
 66
  1
 70
  1
 62
  0
 10
3.973776
 20
0.080059
 30
0.000000
  0
VERTEX
  8
LAYER-1
 10
3.973776
 20
0.080059
 30
0.000000
  0
VERTEX
  8
LAYER-1
 10
3.996346
 20
0.067039
 30
0.000000
  0
VERTEX
  8
LAYER-1
 10
3.975513
 20
0.097420
 30
0.000000
  0
SEQEND
  8
LAYER-1
  0
POLYLINE
  8
LAYER-1
 66
  1
 70
  1
 62
  0
 10
4.090430
 20
0.072079
 30
0.000000
  0
VERTEX
  8
LAYER-1
 10
4.090430
 20
0.072079
 30
0.000000
  0
VERTEX
  8
LAYER-1
 10
4.109795
 20
0.059391
 30
0.000000
  0
VERTEX
  8
LAYER-1
 10
4.115806
 20
0.070742
 30
0.000000
  0
SEQEND
  8
LAYER-1
  0
POLYLINE
  8
LAYER-1
 66
  1
 70
  0
 62
  0
 10
4.034976
 20
0.077886
 30
0.000000
  0
VERTEX
  8
LAYER-1
 10
4.034976
 20
0.077886
 30
0.000000
  0
VERTEX
  8
LAYER-1
 10
4.030635
 20
0.077886
 30
0.000000
  0
VERTEX
  8
LAYER-1
 10
4.027163
 20
0.073546
 30
0.000000
  0
VERTEX
  8
LAYER-1
 10
4.026296
 20
0.068338
 30
0.000000
  0
VERTEX
  8
LAYER-1
 10
4.028031
 20
0.063997
 30
0.000000
  0
VERTEX
  8
LAYER-1
 10
4.032371
 20
0.062261
 30
0.000000
  0
VERTEX
  8
LAYER-1
 10
4.036712
 20
0.062261
 30
0.000000
  0
VERTEX
  8
LAYER-1
 10
4.041053
 20
0.065733
 30
0.000000
  0
VERTEX
  8
LAYER-1
 10
4.041053
 20
0.070073
 30
0.000000
  0
VERTEX
  8
LAYER-1
 10
4.040184
 20
0.074415
 30
0.000000
  0
VERTEX
  8
LAYER-1
 10
4.035844
 20
0.077018
 30
0.000000
  0
SEQEND
  8
LAYER-1
  0
POLYLINE
  8
LAYER-1
 66
  1
 70
  0
 62
  0
 10
3.919524
 20
0.055317
 30
0.000000
  0
VERTEX
  8
LAYER-1
 10
3.919524
 20
0.055317
 30
0.000000
  0
VERTEX
  8
LAYER-1
 10
3.923865
 20
0.055317
 30
0.000000
  0
VERTEX
  8
LAYER-1
 10
3.927337
 20
0.059658
 30
0.000000
  0
VERTEX
  8
LAYER-1
 10
3.928206
 20
0.064866
 30
0.000000
  0
VERTEX
  8
LAYER-1
 10
3.926470
 20
0.069207
 30
0.000000
  0
VERTEX
  8
LAYER-1
 10
3.922129
 20
0.070942
 30
0.000000
  0
VERTEX
  8
LAYER-1
 10
3.917788
 20
0.070942
 30
0.000000
  0
VERTEX
  8
LAYER-1
 10
3.913447
 20
0.067471
 30
0.000000
  0
VERTEX
  8
LAYER-1
 10
3.913447
 20
0.063130
 30
0.000000
  0
VERTEX
  8
LAYER-1
 10
3.914316
 20
0.058790
 30
0.000000
  0
VERTEX
  8
LAYER-1
 10
3.918657
 20
0.056185
 30
0.000000
  0
SEQEND
  8
LAYER-1
  0
POLYLINE
  8
LAYER-1
 66
  1
 70
  1
 62
  0
 10
4.406171
 20
0.025631
 30
0.000000
  0
VERTEX
  8
LAYER-1
 10
4.406171
 20
0.025631
 30
0.000000
  0
VERTEX
  8
LAYER-1
 10
4.399226
 20
0.051672
 30
0.000000
  0
VERTEX
  8
LAYER-1
 10
4.374053
 20
0.037783
 30
0.000000
  0
SEQEND
  8
LAYER-1
  0
POLYLINE
  8
LAYER-1
 66
  1
 70
  1
 62
  0
 10
4.434383
 20
0.062525
 30
0.000000
  0
VERTEX
  8
LAYER-1
 10
4.434383
 20
0.062525
 30
0.000000
  0
VERTEX
  8
LAYER-1
 10
4.411814
 20
0.075545
 30
0.000000
  0
VERTEX
  8
LAYER-1
 10
4.432646
 20
0.045163
 30
0.000000
  0
SEQEND
  8
LAYER-1
  0
POLYLINE
  8
LAYER-1
 66
  1
 70
  1
 62
  0
 10
4.317729
 20
0.070504
 30
0.000000
  0
VERTEX
  8
LAYER-1
 10
4.317729
 20
0.070504
 30
0.000000
  0
VERTEX
  8
LAYER-1
 10
4.298364
 20
0.083192
 30
0.000000
  0
VERTEX
  8
LAYER-1
 10
4.292354
 20
0.071840
 30
0.000000
  0
SEQEND
  8
LAYER-1
  0
POLYLINE
  8
LAYER-1
 66
  1
 70
  0
 62
  0
 10
4.373184
 20
0.064697
 30
0.000000
  0
VERTEX
  8
LAYER-1
 10
4.373184
 20
0.064697
 30
0.000000
  0
VERTEX
  8
LAYER-1
 10
4.377524
 20
0.064697
 30
0.000000
  0
VERTEX
  8
LAYER-1
 10
4.380996
 20
0.069038
 30
0.000000
  0
VERTEX
  8
LAYER-1
 10
4.381864
 20
0.074245
 30
0.000000
  0
VERTEX
  8
LAYER-1
 10
4.380128
 20
0.078586
 30
0.000000
  0
VERTEX
  8
LAYER-1
 10
4.375788
 20
0.080322
 30
0.000000
  0
VERTEX
  8
LAYER-1
 10
4.371448
 20
0.080322
 30
0.000000
  0
VERTEX
  8
LAYER-1
 10
4.367107
 20
0.076850
 30
0.000000
  0
VERTEX
  8
LAYER-1
 10
4.367107
 20
0.072510
 30
0.000000
  0
VERTEX
  8
LAYER-1
 10
4.367976
 20
0.068169
 30
0.000000
  0
VERTEX
  8
LAYER-1
 10
4.372316
 20
0.065564
 30
0.000000
  0
SEQEND
  8
LAYER-1
  0
POLYLINE
  8
LAYER-1
 66
  1
 70
  0
 62
  0
 10
4.488635
 20
0.087266
 30
0.000000
  0
VERTEX
  8
LAYER-1
 10
4.488635
 20
0.087266
 30
0.000000
  0
VERTEX
  8
LAYER-1
 10
4.484294
 20
0.087266
 30
0.000000
  0
VERTEX
  8
LAYER-1
 10
4.480823
 20
0.082925
 30
0.000000
  0
VERTEX
  8
LAYER-1
 10
4.479954
 20
0.077717
 30
0.000000
  0
VERTEX
  8
LAYER-1
 10
4.481690
 20
0.073376
 30
0.000000
  0
VERTEX
  8
LAYER-1
 10
4.486031
 20
0.071641
 30
0.000000
  0
VERTEX
  8
LAYER-1
 10
4.490371
 20
0.071641
 30
0.000000
  0
VERTEX
  8
LAYER-1
 10
4.494712
 20
0.075112
 30
0.000000
  0
VERTEX
  8
LAYER-1
 10
4.494712
 20
0.079453
 30
0.000000
  0
VERTEX
  8
LAYER-1
 10
4.493843
 20
0.083794
 30
0.000000
  0
VERTEX
  8
LAYER-1
 10
4.489502
 20
0.086399
 30
0.000000
  0
SEQEND
  8
LAYER-1
  0
POLYLINE
  8
LAYER-1
 66
  1
 70
  1
 62
  0
 10
4.658514
 20
0.009224
 30
0.000000
  0
VERTEX
  8
LAYER-1
 10
4.658514
 20
0.009224
 30
0.000000
  0
VERTEX
  8
LAYER-1
 10
4.651570
 20
0.035266
 30
0.000000
  0
VERTEX
  8
LAYER-1
 10
4.626397
 20
0.021378
 30
0.000000
  0
SEQEND
  8
LAYER-1
  0
POLYLINE
  8
LAYER-1
 66
  1
 70
  1
 62
  0
 10
4.686727
 20
0.046118
 30
0.000000
  0
VERTEX
  8
LAYER-1
 10
4.686727
 20
0.046118
 30
0.000000
  0
VERTEX
  8
LAYER-1
 10
4.664157
 20
0.059138
 30
0.000000
  0
VERTEX
  8
LAYER-1
 10
4.684990
 20
0.028757
 30
0.000000
  0
SEQEND
  8
LAYER-1
  0
POLYLINE
  8
LAYER-1
 66
  1
 70
  1
 62
  0
 10
4.570073
 20
0.054097
 30
0.000000
  0
VERTEX
  8
LAYER-1
 10
4.570073
 20
0.054097
 30
0.000000
  0
VERTEX
  8
LAYER-1
 10
4.550708
 20
0.066785
 30
0.000000
  0
VERTEX
  8
LAYER-1
 10
4.544698
 20
0.055434
 30
0.000000
  0
SEQEND
  8
LAYER-1
  0
POLYLINE
  8
LAYER-1
 66
  1
 70
  0
 62
  0
 10
4.625528
 20
0.048291
 30
0.000000
  0
VERTEX
  8
LAYER-1
 10
4.625528
 20
0.048291
 30
0.000000
  0
VERTEX
  8
LAYER-1
 10
4.629868
 20
0.048291
 30
0.000000
  0
VERTEX
  8
LAYER-1
 10
4.633340
 20
0.052631
 30
0.000000
  0
VERTEX
  8
LAYER-1
 10
4.634208
 20
0.057838
 30
0.000000
  0
VERTEX
  8
LAYER-1
 10
4.632472
 20
0.062180
 30
0.000000
  0
VERTEX
  8
LAYER-1
 10
4.628132
 20
0.063916
 30
0.000000
  0
VERTEX
  8
LAYER-1
 10
4.623792
 20
0.063916
 30
0.000000
  0
VERTEX
  8
LAYER-1
 10
4.619451
 20
0.060443
 30
0.000000
  0
VERTEX
  8
LAYER-1
 10
4.619451
 20
0.056103
 30
0.000000
  0
VERTEX
  8
LAYER-1
 10
4.620320
 20
0.051762
 30
0.000000
  0
VERTEX
  8
LAYER-1
 10
4.624660
 20
0.049159
 30
0.000000
  0
SEQEND
  8
LAYER-1
  0
POLYLINE
  8
LAYER-1
 66
  1
 70
  0
 62
  0
 10
4.740979
 20
0.070859
 30
0.000000
  0
VERTEX
  8
LAYER-1
 10
4.740979
 20
0.070859
 30
0.000000
  0
VERTEX
  8
LAYER-1
 10
4.736638
 20
0.070859
 30
0.000000
  0
VERTEX
  8
LAYER-1
 10
4.733167
 20
0.066518
 30
0.000000
  0
VERTEX
  8
LAYER-1
 10
4.732298
 20
0.061311
 30
0.000000
  0
VERTEX
  8
LAYER-1
 10
4.734034
 20
0.056970
 30
0.000000
  0
VERTEX
  8
LAYER-1
 10
4.738374
 20
0.055234
 30
0.000000
  0
VERTEX
  8
LAYER-1
 10
4.742715
 20
0.055234
 30
0.000000
  0
VERTEX
  8
LAYER-1
 10
4.747056
 20
0.058706
 30
0.000000
  0
VERTEX
  8
LAYER-1
 10
4.747056
 20
0.063047
 30
0.000000
  0
VERTEX
  8
LAYER-1
 10
4.746187
 20
0.067387
 30
0.000000
  0
VERTEX
  8
LAYER-1
 10
4.741846
 20
0.069992
 30
0.000000
  0
SEQEND
  8
LAYER-1
  0
POLYLINE
  8
LAYER-1
 66
  1
 70
  1
 62
  0
 10
4.879073
 20
0.108273
 30
0.000000
  0
VERTEX
  8
LAYER-1
 10
4.879073
 20
0.108273
 30
0.000000
  0
VERTEX
  8
LAYER-1
 10
4.886018
 20
0.082231
 30
0.000000
  0
VERTEX
  8
LAYER-1
 10
4.911191
 20
0.096120
 30
0.000000
  0
SEQEND
  8
LAYER-1
  0
POLYLINE
  8
LAYER-1
 66
  1
 70
  1
 62
  0
 10
4.850861
 20
0.071379
 30
0.000000
  0
VERTEX
  8
LAYER-1
 10
4.850861
 20
0.071379
 30
0.000000
  0
VERTEX
  8
LAYER-1
 10
4.873430
 20
0.058359
 30
0.000000
  0
VERTEX
  8
LAYER-1
 10
4.852598
 20
0.088740
 30
0.000000
  0
SEQEND
  8
LAYER-1
  0
POLYLINE
  8
LAYER-1
 66
  1
 70
  0
 62
  0
 10
4.796608
 20
0.046638
 30
0.000000
  0
VERTEX
  8
LAYER-1
 10
4.796608
 20
0.046638
 30
0.000000
  0
VERTEX
  8
LAYER-1
 10
4.800949
 20
0.046638
 30
0.000000
  0
VERTEX
  8
LAYER-1
 10
4.804421
 20
0.050979
 30
0.000000
  0
VERTEX
  8
LAYER-1
 10
4.805290
 20
0.056186
 30
0.000000
  0
VERTEX
  8
LAYER-1
 10
4.803554
 20
0.060527
 30
0.000000
  0
VERTEX
  8
LAYER-1
 10
4.799213
 20
0.062263
 30
0.000000
  0
VERTEX
  8
LAYER-1
 10
4.794873
 20
0.062263
 30
0.000000
  0
VERTEX
  8
LAYER-1
 10
4.790532
 20
0.058791
 30
0.000000
  0
VERTEX
  8
LAYER-1
 10
4.790532
 20
0.054451
 30
0.000000
  0
VERTEX
  8
LAYER-1
 10
4.791401
 20
0.050110
 30
0.000000
  0
VERTEX
  8
LAYER-1
 10
4.795742
 20
0.047505
 30
0.000000
  0
SEQEND
  8
LAYER-1
  0
POLYLINE
  8
LAYER-1
 66
  1
 70
  1
 62
  0
 10
5.432196
 20
0.220390
 30
0.000000
  0
VERTEX
  8
LAYER-1
 10
5.432196
 20
0.220390
 30
0.000000
  0
VERTEX
  8
LAYER-1
 10
5.439141
 20
0.194350
 30
0.000000
  0
VERTEX
  8
LAYER-1
 10
5.464314
 20
0.208238
 30
0.000000
  0
SEQEND
  8
LAYER-1
  0
POLYLINE
  8
LAYER-1
 66
  1
 70
  1
 62
  0
 10
5.445305
 20
0.175251
 30
0.000000
  0
VERTEX
  8
LAYER-1
 10
5.445305
 20
0.175251
 30
0.000000
  0
VERTEX
  8
LAYER-1
 10
5.432284
 20
0.152681
 30
0.000000
  0
VERTEX
  8
LAYER-1
 10
5.462666
 20
0.173514
 30
0.000000
  0
SEQEND
  8
LAYER-1
  0
POLYLINE
  8
LAYER-1
 66
  1
 70
  1
 62
  0
 10
5.136798
 20
0.143774
 30
0.000000
  0
VERTEX
  8
LAYER-1
 10
5.136798
 20
0.143774
 30
0.000000
  0
VERTEX
  8
LAYER-1
 10
5.129854
 20
0.169815
 30
0.000000
  0
VERTEX
  8
LAYER-1
 10
5.104681
 20
0.155928
 30
0.000000
  0
SEQEND
  8
LAYER-1
  0
POLYLINE
  8
LAYER-1
 66
  1
 70
  1
 62
  0
 10
5.123689
 20
0.188913
 30
0.000000
  0
VERTEX
  8
LAYER-1
 10
5.123689
 20
0.188913
 30
0.000000
  0
VERTEX
  8
LAYER-1
 10
5.136712
 20
0.211484
 30
0.000000
  0
VERTEX
  8
LAYER-1
 10
5.106328
 20
0.190651
 30
0.000000
  0
SEQEND
  8
LAYER-1
  0
POLYLINE
  8
LAYER-1
 66
  1
 70
  1
 62
  0
 10
5.641571
 20
0.045945
 30
0.000000
  0
VERTEX
  8
LAYER-1
 10
5.641571
 20
0.045945
 30
0.000000
  0
VERTEX
  8
LAYER-1
 10
5.667612
 20
0.052890
 30
0.000000
  0
VERTEX
  8
LAYER-1
 10
5.653725
 20
0.078064
 30
0.000000
  0
SEQEND
  8
LAYER-1
  0
POLYLINE
  8
LAYER-1
 66
  1
 70
  1
 62
  0
 10
5.686711
 20
0.059054
 30
0.000000
  0
VERTEX
  8
LAYER-1
 10
5.686711
 20
0.059054
 30
0.000000
  0
VERTEX
  8
LAYER-1
 10
5.709281
 20
0.046033
 30
0.000000
  0
VERTEX
  8
LAYER-1
 10
5.688449
 20
0.076414
 30
0.000000
  0
SEQEND
  8
LAYER-1
  0
ENDSEC
  0
EOF
