  0
SECTION
  2
HEADER
999
MacDraft 5.0\0
  9
$ACADVER
  1
AC1006
  9
$CLAYER
  8
LAYER-1
  9
$EXTMIN
 10
0.000000
 20
0.000000
  9
$EXTMAX
 10
6.764222
 20
10.042252
  9
$FASTZOOM
 70
0
  9
$FILLMODE
 70
1
  0
ENDSEC
  0
SECTION
  2
TABLES
  0
TABLE
  2
LTYPE
 70
16
  0
LTYPE
  2
CONTINUOUS
 70
64
  3
Solid Line
 72
65
 73
0
 40
0.000000
  0
LTYPE
  2
LTYPE01
 70
64
  3
CUSTOM
 72
65
 73
2
 40
0.111111
 49
0.083333
 49
-0.027778
  0
LTYPE
  2
LTYPE02
 70
64
  3
CUSTOM
 72
65
 73
2
 40
0.194444
 49
0.166667
 49
-0.027778
  0
LTYPE
  2
LTYPE03
 70
64
  3
CUSTOM
 72
65
 73
2
 40
0.375000
 49
0.333333
 49
-0.041667
  0
LTYPE
  2
LTYPE04
 70
64
  3
CUSTOM
 72
65
 73
2
 40
0.722222
 49
0.666667
 49
-0.055556
  0
LTYPE
  2
LTYPE05
 70
64
  3
CUSTOM
 72
65
 73
4
 40
0.152778
 49
0.083333
 49
-0.027778
 49
0.013889
 49
-0.027778
  0
LTYPE
  2
LTYPE06
 70
64
  3
CUSTOM
 72
65
 73
4
 40
0.236111
 49
0.166667
 49
-0.027778
 49
0.013889
 49
-0.027778
  0
LTYPE
  2
LTYPE07
 70
64
  3
CUSTOM
 72
65
 73
4
 40
0.444444
 49
0.333333
 49
-0.041667
 49
0.027778
 49
-0.041667
  0
LTYPE
  2
LTYPE08
 70
64
  3
CUSTOM
 72
65
 73
4
 40
0.805556
 49
0.666667
 49
-0.055556
 49
0.027778
 49
-0.055556
  0
LTYPE
  2
LTYPE09
 70
64
  3
CUSTOM
 72
65
 73
6
 40
0.194444
 49
0.083333
 49
-0.027778
 49
0.013889
 49
-0.027778
 49
0.013889
 49
-0.027778
  0
LTYPE
  2
LTYPE10
 70
64
  3
CUSTOM
 72
65
 73
6
 40
0.277778
 49
0.166667
 49
-0.027778
 49
0.013889
 49
-0.027778
 49
0.013889
 49
-0.027778
  0
LTYPE
  2
LTYPE11
 70
64
  3
CUSTOM
 72
65
 73
6
 40
0.500000
 49
0.333333
 49
-0.041667
 49
0.027778
 49
-0.027778
 49
0.027778
 49
-0.041667
  0
LTYPE
  2
LTYPE12
 70
64
  3
CUSTOM
 72
65
 73
6
 40
0.861111
 49
0.666667
 49
-0.055556
 49
0.027778
 49
-0.027778
 49
0.027778
 49
-0.055556
  0
LTYPE
  2
LTYPE13
 70
64
  3
CUSTOM
 72
65
 73
8
 40
0.319444
 49
0.166667
 49
-0.027778
 49
0.013889
 49
-0.027778
 49
0.013889
 49
-0.027778
 49
0.013889
 49
-0.027778
  0
LTYPE
  2
LTYPE14
 70
64
  3
CUSTOM
 72
65
 73
8
 40
0.555556
 49
0.333333
 49
-0.041667
 49
0.027778
 49
-0.027778
 49
0.027778
 49
-0.027778
 49
0.027778
 49
-0.041667
  0
LTYPE
  2
LTYPE15
 70
64
  3
CUSTOM
 72
65
 73
8
 40
0.944444
 49
0.666667
 49
-0.055556
 49
0.027778
 49
-0.041667
 49
0.027778
 49
-0.041667
 49
0.027778
 49
-0.055556
  0
ENDTAB
  0
TABLE
  2
LAYER
 70
1
  0
LAYER
  2
LAYER-1
 70
0
 62
7
  6
CONTINUOUS
  0
ENDTAB
  0
ENDSEC
  0
SECTION
  2
BLOCKS
  0
ENDSEC
  0
SECTION
  2
ENTITIES
  0
ARC
  8
LAYER-1
 62
  0
 10
5.445001
 20
8.975471
 30
0.000000
 40
0.254425
 50
270.000000
 51
90.000000
  0
POLYLINE
  8
LAYER-1
 66
  1
 70
  0
 62
  0
 10
5.445001
 20
9.229897
 30
0.000000
  0
VERTEX
  8
LAYER-1
 10
5.445001
 20
9.229897
 30
0.000000
  0
VERTEX
  8
LAYER-1
 10
1.780080
 20
9.229897
 30
0.000000
  0
SEQEND
  8
LAYER-1
  0
POLYLINE
  8
LAYER-1
 66
  1
 70
  0
 62
  0
 10
1.780080
 20
9.229897
 30
0.000000
  0
VERTEX
  8
LAYER-1
 10
1.780080
 20
9.229897
 30
0.000000
  0
VERTEX
  8
LAYER-1
 10
1.780080
 20
8.721047
 30
0.000000
  0
SEQEND
  8
LAYER-1
  0
POLYLINE
  8
LAYER-1
 66
  1
 70
  0
 62
  0
 10
5.445001
 20
8.721047
 30
0.000000
  0
VERTEX
  8
LAYER-1
 10
5.445001
 20
8.721047
 30
0.000000
  0
VERTEX
  8
LAYER-1
 10
1.780080
 20
8.721047
 30
0.000000
  0
SEQEND
  8
LAYER-1
  0
TEXT
  8
LAYER-1
 62
  0
 10
3.583667
 20
9.513666
 30
0.000000
 40
0.333333
  1
MobilFlex
 72
  5
 11
5.736445
 21
9.513666
 31
0.000000
  0
POLYLINE
  8
LAYER-1
 66
  1
 70
  1
 62
  0
  0
VERTEX
  8
LAYER-1
 10
1.781583
 20
10.040585
 30
0.000000
  0
VERTEX
  8
LAYER-1
 10
2.019430
 20
10.040585
 30
0.000000
  0
VERTEX
  8
LAYER-1
 10
2.019430
 20
9.523640
 30
0.000000
  0
VERTEX
  8
LAYER-1
 10
1.781583
 20
9.523640
 30
0.000000
  0
SEQEND
  8
LAYER-1
  0
POLYLINE
  8
LAYER-1
 66
  1
 70
  1
 62
  0
  0
VERTEX
  8
LAYER-1
 10
2.094083
 20
10.040585
 30
0.000000
  0
VERTEX
  8
LAYER-1
 10
2.331930
 20
10.040585
 30
0.000000
  0
VERTEX
  8
LAYER-1
 10
2.331930
 20
9.523640
 30
0.000000
  0
VERTEX
  8
LAYER-1
 10
2.094083
 20
9.523640
 30
0.000000
  0
SEQEND
  8
LAYER-1
  0
POLYLINE
  8
LAYER-1
 66
  1
 70
  1
 62
  0
  0
VERTEX
  8
LAYER-1
 10
2.394430
 20
10.040585
 30
0.000000
  0
VERTEX
  8
LAYER-1
 10
2.632278
 20
10.040585
 30
0.000000
  0
VERTEX
  8
LAYER-1
 10
2.632278
 20
9.523640
 30
0.000000
  0
VERTEX
  8
LAYER-1
 10
2.394430
 20
9.523640
 30
0.000000
  0
SEQEND
  8
LAYER-1
  0
POLYLINE
  8
LAYER-1
 66
  1
 70
  1
 62
  0
  0
VERTEX
  8
LAYER-1
 10
2.698250
 20
10.040585
 30
0.000000
  0
VERTEX
  8
LAYER-1
 10
2.936097
 20
10.040585
 30
0.000000
  0
VERTEX
  8
LAYER-1
 10
2.936097
 20
9.523640
 30
0.000000
  0
VERTEX
  8
LAYER-1
 10
2.698250
 20
9.523640
 30
0.000000
  0
SEQEND
  8
LAYER-1
  0
POLYLINE
  8
LAYER-1
 66
  1
 70
  1
 62
  0
  0
VERTEX
  8
LAYER-1
 10
3.015090
 20
10.036669
 30
0.000000
  0
VERTEX
  8
LAYER-1
 10
3.390524
 20
10.036669
 30
0.000000
  0
VERTEX
  8
LAYER-1
 10
3.390524
 20
9.898649
 30
0.000000
  0
VERTEX
  8
LAYER-1
 10
3.015090
 20
9.898649
 30
0.000000
  0
SEQEND
  8
LAYER-1
  0
POLYLINE
  8
LAYER-1
 66
  1
 70
  1
 62
  0
  0
VERTEX
  8
LAYER-1
 10
3.014656
 20
9.809239
 30
0.000000
  0
VERTEX
  8
LAYER-1
 10
3.322816
 20
9.809239
 30
0.000000
  0
VERTEX
  8
LAYER-1
 10
3.322816
 20
9.675124
 30
0.000000
  0
VERTEX
  8
LAYER-1
 10
3.014656
 20
9.675124
 30
0.000000
  0
SEQEND
  8
LAYER-1
  0
POLYLINE
  8
LAYER-1
 66
  1
 70
  1
 62
  0
  0
VERTEX
  8
LAYER-1
 10
1.781583
 20
9.439013
 30
0.000000
  0
VERTEX
  8
LAYER-1
 10
5.699986
 20
9.439013
 30
0.000000
  0
VERTEX
  8
LAYER-1
 10
5.699986
 20
9.395610
 30
0.000000
  0
VERTEX
  8
LAYER-1
 10
1.781583
 20
9.395610
 30
0.000000
  0
SEQEND
  8
LAYER-1
  0
POLYLINE
  8
LAYER-1
 66
  1
 70
  1
 62
  7
  0
VERTEX
  8
LAYER-1
 10
3.851896
 20
7.196000
 30
0.000000
  0
VERTEX
  8
LAYER-1
 10
4.022036
 20
7.196000
 30
0.000000
  0
VERTEX
  8
LAYER-1
 10
4.022036
 20
6.779080
 30
0.000000
  0
VERTEX
  8
LAYER-1
 10
3.851896
 20
6.779080
 30
0.000000
  0
SEQEND
  8
LAYER-1
  0
POLYLINE
  8
LAYER-1
 66
  1
 70
  1
 62
  7
  0
VERTEX
  8
LAYER-1
 10
4.261377
 20
7.196000
 30
0.000000
  0
VERTEX
  8
LAYER-1
 10
4.431516
 20
7.196000
 30
0.000000
  0
VERTEX
  8
LAYER-1
 10
4.431516
 20
6.779080
 30
0.000000
  0
VERTEX
  8
LAYER-1
 10
4.261377
 20
6.779080
 30
0.000000
  0
SEQEND
  8
LAYER-1
  0
POLYLINE
  8
LAYER-1
 66
  1
 70
  1
 62
  7
  0
VERTEX
  8
LAYER-1
 10
4.668251
 20
7.196000
 30
0.000000
  0
VERTEX
  8
LAYER-1
 10
4.838390
 20
7.196000
 30
0.000000
  0
VERTEX
  8
LAYER-1
 10
4.838390
 20
6.779080
 30
0.000000
  0
VERTEX
  8
LAYER-1
 10
4.668251
 20
6.779080
 30
0.000000
  0
SEQEND
  8
LAYER-1
  0
POLYLINE
  8
LAYER-1
 66
  1
 70
  1
 62
  7
  0
VERTEX
  8
LAYER-1
 10
5.076862
 20
7.196000
 30
0.000000
  0
VERTEX
  8
LAYER-1
 10
5.247001
 20
7.196000
 30
0.000000
  0
VERTEX
  8
LAYER-1
 10
5.247001
 20
6.779080
 30
0.000000
  0
VERTEX
  8
LAYER-1
 10
5.076862
 20
6.779080
 30
0.000000
  0
SEQEND
  8
LAYER-1
  0
POLYLINE
  8
LAYER-1
 66
  1
 70
  1
 62
  7
  0
VERTEX
  8
LAYER-1
 10
5.484606
 20
7.196000
 30
0.000000
  0
VERTEX
  8
LAYER-1
 10
5.654745
 20
7.196000
 30
0.000000
  0
VERTEX
  8
LAYER-1
 10
5.654745
 20
6.779080
 30
0.000000
  0
VERTEX
  8
LAYER-1
 10
5.484606
 20
6.779080
 30
0.000000
  0
SEQEND
  8
LAYER-1
  0
POLYLINE
  8
LAYER-1
 66
  1
 70
  1
 62
  7
  0
VERTEX
  8
LAYER-1
 10
4.057070
 20
6.779502
 30
0.000000
  0
VERTEX
  8
LAYER-1
 10
4.227209
 20
6.779502
 30
0.000000
  0
VERTEX
  8
LAYER-1
 10
4.227209
 20
6.162859
 30
0.000000
  0
VERTEX
  8
LAYER-1
 10
4.057070
 20
6.162859
 30
0.000000
  0
SEQEND
  8
LAYER-1
  0
POLYLINE
  8
LAYER-1
 66
  1
 70
  1
 62
  7
  0
VERTEX
  8
LAYER-1
 10
4.463946
 20
6.779502
 30
0.000000
  0
VERTEX
  8
LAYER-1
 10
4.634085
 20
6.779502
 30
0.000000
  0
VERTEX
  8
LAYER-1
 10
4.634085
 20
6.162859
 30
0.000000
  0
VERTEX
  8
LAYER-1
 10
4.463946
 20
6.162859
 30
0.000000
  0
SEQEND
  8
LAYER-1
  0
POLYLINE
  8
LAYER-1
 66
  1
 70
  1
 62
  7
  0
VERTEX
  8
LAYER-1
 10
4.869954
 20
6.779502
 30
0.000000
  0
VERTEX
  8
LAYER-1
 10
5.040093
 20
6.779502
 30
0.000000
  0
VERTEX
  8
LAYER-1
 10
5.040093
 20
6.162859
 30
0.000000
  0
VERTEX
  8
LAYER-1
 10
4.869954
 20
6.162859
 30
0.000000
  0
SEQEND
  8
LAYER-1
  0
POLYLINE
  8
LAYER-1
 66
  1
 70
  1
 62
  7
  0
VERTEX
  8
LAYER-1
 10
5.280301
 20
6.779502
 30
0.000000
  0
VERTEX
  8
LAYER-1
 10
5.450439
 20
6.779502
 30
0.000000
  0
VERTEX
  8
LAYER-1
 10
5.450439
 20
6.162859
 30
0.000000
  0
VERTEX
  8
LAYER-1
 10
5.280301
 20
6.162859
 30
0.000000
  0
SEQEND
  8
LAYER-1
  0
POLYLINE
  8
LAYER-1
 66
  1
 70
  1
 62
  7
  0
VERTEX
  8
LAYER-1
 10
5.485474
 20
6.162857
 30
0.000000
  0
VERTEX
  8
LAYER-1
 10
5.655613
 20
6.162857
 30
0.000000
  0
VERTEX
  8
LAYER-1
 10
5.655613
 20
5.546213
 30
0.000000
  0
VERTEX
  8
LAYER-1
 10
5.485474
 20
5.546213
 30
0.000000
  0
SEQEND
  8
LAYER-1
  0
POLYLINE
  8
LAYER-1
 66
  1
 70
  1
 62
  7
  0
VERTEX
  8
LAYER-1
 10
5.075994
 20
6.162857
 30
0.000000
  0
VERTEX
  8
LAYER-1
 10
5.246133
 20
6.162857
 30
0.000000
  0
VERTEX
  8
LAYER-1
 10
5.246133
 20
5.546213
 30
0.000000
  0
VERTEX
  8
LAYER-1
 10
5.075994
 20
5.546213
 30
0.000000
  0
SEQEND
  8
LAYER-1
  0
POLYLINE
  8
LAYER-1
 66
  1
 70
  1
 62
  7
  0
VERTEX
  8
LAYER-1
 10
4.667383
 20
6.162857
 30
0.000000
  0
VERTEX
  8
LAYER-1
 10
4.837523
 20
6.162857
 30
0.000000
  0
VERTEX
  8
LAYER-1
 10
4.837523
 20
5.546213
 30
0.000000
  0
VERTEX
  8
LAYER-1
 10
4.667383
 20
5.546213
 30
0.000000
  0
SEQEND
  8
LAYER-1
  0
POLYLINE
  8
LAYER-1
 66
  1
 70
  1
 62
  7
  0
VERTEX
  8
LAYER-1
 10
4.260509
 20
6.162857
 30
0.000000
  0
VERTEX
  8
LAYER-1
 10
4.430648
 20
6.162857
 30
0.000000
  0
VERTEX
  8
LAYER-1
 10
4.430648
 20
5.546213
 30
0.000000
  0
VERTEX
  8
LAYER-1
 10
4.260509
 20
5.546213
 30
0.000000
  0
SEQEND
  8
LAYER-1
  0
POLYLINE
  8
LAYER-1
 66
  1
 70
  1
 62
  7
  0
VERTEX
  8
LAYER-1
 10
3.851896
 20
6.162857
 30
0.000000
  0
VERTEX
  8
LAYER-1
 10
4.022036
 20
6.162857
 30
0.000000
  0
VERTEX
  8
LAYER-1
 10
4.022036
 20
5.546213
 30
0.000000
  0
VERTEX
  8
LAYER-1
 10
3.851896
 20
5.546213
 30
0.000000
  0
SEQEND
  8
LAYER-1
  0
POLYLINE
  8
LAYER-1
 66
  1
 70
  1
 62
  7
  0
VERTEX
  8
LAYER-1
 10
4.057070
 20
5.546482
 30
0.000000
  0
VERTEX
  8
LAYER-1
 10
4.227209
 20
5.546482
 30
0.000000
  0
VERTEX
  8
LAYER-1
 10
4.227209
 20
4.929838
 30
0.000000
  0
VERTEX
  8
LAYER-1
 10
4.057070
 20
4.929838
 30
0.000000
  0
SEQEND
  8
LAYER-1
  0
POLYLINE
  8
LAYER-1
 66
  1
 70
  1
 62
  7
  0
VERTEX
  8
LAYER-1
 10
4.463946
 20
5.546482
 30
0.000000
  0
VERTEX
  8
LAYER-1
 10
4.634085
 20
5.546482
 30
0.000000
  0
VERTEX
  8
LAYER-1
 10
4.634085
 20
4.929838
 30
0.000000
  0
VERTEX
  8
LAYER-1
 10
4.463946
 20
4.929838
 30
0.000000
  0
SEQEND
  8
LAYER-1
  0
POLYLINE
  8
LAYER-1
 66
  1
 70
  1
 62
  7
  0
VERTEX
  8
LAYER-1
 10
4.869954
 20
5.546482
 30
0.000000
  0
VERTEX
  8
LAYER-1
 10
5.040093
 20
5.546482
 30
0.000000
  0
VERTEX
  8
LAYER-1
 10
5.040093
 20
4.929838
 30
0.000000
  0
VERTEX
  8
LAYER-1
 10
4.869954
 20
4.929838
 30
0.000000
  0
SEQEND
  8
LAYER-1
  0
POLYLINE
  8
LAYER-1
 66
  1
 70
  1
 62
  7
  0
VERTEX
  8
LAYER-1
 10
5.280301
 20
5.546482
 30
0.000000
  0
VERTEX
  8
LAYER-1
 10
5.450439
 20
5.546482
 30
0.000000
  0
VERTEX
  8
LAYER-1
 10
5.450439
 20
4.929838
 30
0.000000
  0
VERTEX
  8
LAYER-1
 10
5.280301
 20
4.929838
 30
0.000000
  0
SEQEND
  8
LAYER-1
  0
POLYLINE
  8
LAYER-1
 66
  1
 70
  1
 62
  7
  0
VERTEX
  8
LAYER-1
 10
5.485474
 20
4.929836
 30
0.000000
  0
VERTEX
  8
LAYER-1
 10
5.655613
 20
4.929836
 30
0.000000
  0
VERTEX
  8
LAYER-1
 10
5.655613
 20
4.313193
 30
0.000000
  0
VERTEX
  8
LAYER-1
 10
5.485474
 20
4.313193
 30
0.000000
  0
SEQEND
  8
LAYER-1
  0
POLYLINE
  8
LAYER-1
 66
  1
 70
  1
 62
  7
  0
VERTEX
  8
LAYER-1
 10
5.075126
 20
4.929836
 30
0.000000
  0
VERTEX
  8
LAYER-1
 10
5.245265
 20
4.929836
 30
0.000000
  0
VERTEX
  8
LAYER-1
 10
5.245265
 20
4.313193
 30
0.000000
  0
VERTEX
  8
LAYER-1
 10
5.075126
 20
4.313193
 30
0.000000
  0
SEQEND
  8
LAYER-1
  0
POLYLINE
  8
LAYER-1
 66
  1
 70
  1
 62
  7
  0
VERTEX
  8
LAYER-1
 10
4.667383
 20
4.929836
 30
0.000000
  0
VERTEX
  8
LAYER-1
 10
4.837523
 20
4.929836
 30
0.000000
  0
VERTEX
  8
LAYER-1
 10
4.837523
 20
4.313193
 30
0.000000
  0
VERTEX
  8
LAYER-1
 10
4.667383
 20
4.313193
 30
0.000000
  0
SEQEND
  8
LAYER-1
  0
POLYLINE
  8
LAYER-1
 66
  1
 70
  1
 62
  7
  0
VERTEX
  8
LAYER-1
 10
4.260509
 20
4.929836
 30
0.000000
  0
VERTEX
  8
LAYER-1
 10
4.430648
 20
4.929836
 30
0.000000
  0
VERTEX
  8
LAYER-1
 10
4.430648
 20
4.313193
 30
0.000000
  0
VERTEX
  8
LAYER-1
 10
4.260509
 20
4.313193
 30
0.000000
  0
SEQEND
  8
LAYER-1
  0
POLYLINE
  8
LAYER-1
 66
  1
 70
  1
 62
  7
  0
VERTEX
  8
LAYER-1
 10
3.851896
 20
4.929836
 30
0.000000
  0
VERTEX
  8
LAYER-1
 10
4.022036
 20
4.929836
 30
0.000000
  0
VERTEX
  8
LAYER-1
 10
4.022036
 20
4.313193
 30
0.000000
  0
VERTEX
  8
LAYER-1
 10
3.851896
 20
4.313193
 30
0.000000
  0
SEQEND
  8
LAYER-1
  0
POLYLINE
  8
LAYER-1
 66
  1
 70
  1
 62
  7
  0
VERTEX
  8
LAYER-1
 10
4.057070
 20
4.313461
 30
0.000000
  0
VERTEX
  8
LAYER-1
 10
4.227209
 20
4.313461
 30
0.000000
  0
VERTEX
  8
LAYER-1
 10
4.227209
 20
3.696817
 30
0.000000
  0
VERTEX
  8
LAYER-1
 10
4.057070
 20
3.696817
 30
0.000000
  0
SEQEND
  8
LAYER-1
  0
POLYLINE
  8
LAYER-1
 66
  1
 70
  1
 62
  7
  0
VERTEX
  8
LAYER-1
 10
4.463946
 20
4.313461
 30
0.000000
  0
VERTEX
  8
LAYER-1
 10
4.634085
 20
4.313461
 30
0.000000
  0
VERTEX
  8
LAYER-1
 10
4.634085
 20
3.696817
 30
0.000000
  0
VERTEX
  8
LAYER-1
 10
4.463946
 20
3.696817
 30
0.000000
  0
SEQEND
  8
LAYER-1
  0
POLYLINE
  8
LAYER-1
 66
  1
 70
  1
 62
  7
  0
VERTEX
  8
LAYER-1
 10
4.870822
 20
4.313461
 30
0.000000
  0
VERTEX
  8
LAYER-1
 10
5.040961
 20
4.313461
 30
0.000000
  0
VERTEX
  8
LAYER-1
 10
5.040961
 20
3.696817
 30
0.000000
  0
VERTEX
  8
LAYER-1
 10
4.870822
 20
3.696817
 30
0.000000
  0
SEQEND
  8
LAYER-1
  0
POLYLINE
  8
LAYER-1
 66
  1
 70
  1
 62
  7
  0
VERTEX
  8
LAYER-1
 10
5.280301
 20
4.313461
 30
0.000000
  0
VERTEX
  8
LAYER-1
 10
5.450439
 20
4.313461
 30
0.000000
  0
VERTEX
  8
LAYER-1
 10
5.450439
 20
3.696817
 30
0.000000
  0
VERTEX
  8
LAYER-1
 10
5.280301
 20
3.696817
 30
0.000000
  0
SEQEND
  8
LAYER-1
  0
POLYLINE
  8
LAYER-1
 66
  1
 70
  1
 62
  7
  0
VERTEX
  8
LAYER-1
 10
5.485474
 20
3.696815
 30
0.000000
  0
VERTEX
  8
LAYER-1
 10
5.655613
 20
3.696815
 30
0.000000
  0
VERTEX
  8
LAYER-1
 10
5.655613
 20
3.080172
 30
0.000000
  0
VERTEX
  8
LAYER-1
 10
5.485474
 20
3.080172
 30
0.000000
  0
SEQEND
  8
LAYER-1
  0
POLYLINE
  8
LAYER-1
 66
  1
 70
  1
 62
  7
  0
VERTEX
  8
LAYER-1
 10
5.075994
 20
3.696815
 30
0.000000
  0
VERTEX
  8
LAYER-1
 10
5.246133
 20
3.696815
 30
0.000000
  0
VERTEX
  8
LAYER-1
 10
5.246133
 20
3.080172
 30
0.000000
  0
VERTEX
  8
LAYER-1
 10
5.075994
 20
3.080172
 30
0.000000
  0
SEQEND
  8
LAYER-1
  0
POLYLINE
  8
LAYER-1
 66
  1
 70
  1
 62
  7
  0
VERTEX
  8
LAYER-1
 10
4.667383
 20
3.696815
 30
0.000000
  0
VERTEX
  8
LAYER-1
 10
4.837523
 20
3.696815
 30
0.000000
  0
VERTEX
  8
LAYER-1
 10
4.837523
 20
3.080172
 30
0.000000
  0
VERTEX
  8
LAYER-1
 10
4.667383
 20
3.080172
 30
0.000000
  0
SEQEND
  8
LAYER-1
  0
POLYLINE
  8
LAYER-1
 66
  1
 70
  1
 62
  7
  0
VERTEX
  8
LAYER-1
 10
4.260509
 20
3.696815
 30
0.000000
  0
VERTEX
  8
LAYER-1
 10
4.430648
 20
3.696815
 30
0.000000
  0
VERTEX
  8
LAYER-1
 10
4.430648
 20
3.080172
 30
0.000000
  0
VERTEX
  8
LAYER-1
 10
4.260509
 20
3.080172
 30
0.000000
  0
SEQEND
  8
LAYER-1
  0
POLYLINE
  8
LAYER-1
 66
  1
 70
  1
 62
  7
  0
VERTEX
  8
LAYER-1
 10
3.851896
 20
3.696815
 30
0.000000
  0
VERTEX
  8
LAYER-1
 10
4.022036
 20
3.696815
 30
0.000000
  0
VERTEX
  8
LAYER-1
 10
4.022036
 20
3.080172
 30
0.000000
  0
VERTEX
  8
LAYER-1
 10
3.851896
 20
3.080172
 30
0.000000
  0
SEQEND
  8
LAYER-1
  0
POLYLINE
  8
LAYER-1
 66
  1
 70
  1
 62
  7
  0
VERTEX
  8
LAYER-1
 10
4.057070
 20
3.080439
 30
0.000000
  0
VERTEX
  8
LAYER-1
 10
4.227209
 20
3.080439
 30
0.000000
  0
VERTEX
  8
LAYER-1
 10
4.227209
 20
2.463795
 30
0.000000
  0
VERTEX
  8
LAYER-1
 10
4.057070
 20
2.463795
 30
0.000000
  0
SEQEND
  8
LAYER-1
  0
POLYLINE
  8
LAYER-1
 66
  1
 70
  1
 62
  7
  0
VERTEX
  8
LAYER-1
 10
4.463946
 20
3.080439
 30
0.000000
  0
VERTEX
  8
LAYER-1
 10
4.634085
 20
3.080439
 30
0.000000
  0
VERTEX
  8
LAYER-1
 10
4.634085
 20
2.463795
 30
0.000000
  0
VERTEX
  8
LAYER-1
 10
4.463946
 20
2.463795
 30
0.000000
  0
SEQEND
  8
LAYER-1
  0
POLYLINE
  8
LAYER-1
 66
  1
 70
  1
 62
  7
  0
VERTEX
  8
LAYER-1
 10
4.870822
 20
3.080439
 30
0.000000
  0
VERTEX
  8
LAYER-1
 10
5.040961
 20
3.080439
 30
0.000000
  0
VERTEX
  8
LAYER-1
 10
5.040961
 20
2.463795
 30
0.000000
  0
VERTEX
  8
LAYER-1
 10
4.870822
 20
2.463795
 30
0.000000
  0
SEQEND
  8
LAYER-1
  0
POLYLINE
  8
LAYER-1
 66
  1
 70
  1
 62
  7
  0
VERTEX
  8
LAYER-1
 10
5.280301
 20
3.080439
 30
0.000000
  0
VERTEX
  8
LAYER-1
 10
5.450439
 20
3.080439
 30
0.000000
  0
VERTEX
  8
LAYER-1
 10
5.450439
 20
2.463795
 30
0.000000
  0
VERTEX
  8
LAYER-1
 10
5.280301
 20
2.463795
 30
0.000000
  0
SEQEND
  8
LAYER-1
  0
POLYLINE
  8
LAYER-1
 66
  1
 70
  1
 62
  7
  0
VERTEX
  8
LAYER-1
 10
5.485474
 20
2.463793
 30
0.000000
  0
VERTEX
  8
LAYER-1
 10
5.655613
 20
2.463793
 30
0.000000
  0
VERTEX
  8
LAYER-1
 10
5.655613
 20
1.847149
 30
0.000000
  0
VERTEX
  8
LAYER-1
 10
5.485474
 20
1.847149
 30
0.000000
  0
SEQEND
  8
LAYER-1
  0
POLYLINE
  8
LAYER-1
 66
  1
 70
  1
 62
  7
  0
VERTEX
  8
LAYER-1
 10
5.075994
 20
2.463793
 30
0.000000
  0
VERTEX
  8
LAYER-1
 10
5.246133
 20
2.463793
 30
0.000000
  0
VERTEX
  8
LAYER-1
 10
5.246133
 20
1.847149
 30
0.000000
  0
VERTEX
  8
LAYER-1
 10
5.075994
 20
1.847149
 30
0.000000
  0
SEQEND
  8
LAYER-1
  0
POLYLINE
  8
LAYER-1
 66
  1
 70
  1
 62
  7
  0
VERTEX
  8
LAYER-1
 10
4.667383
 20
2.463793
 30
0.000000
  0
VERTEX
  8
LAYER-1
 10
4.837523
 20
2.463793
 30
0.000000
  0
VERTEX
  8
LAYER-1
 10
4.837523
 20
1.847149
 30
0.000000
  0
VERTEX
  8
LAYER-1
 10
4.667383
 20
1.847149
 30
0.000000
  0
SEQEND
  8
LAYER-1
  0
POLYLINE
  8
LAYER-1
 66
  1
 70
  1
 62
  7
  0
VERTEX
  8
LAYER-1
 10
4.260509
 20
2.463793
 30
0.000000
  0
VERTEX
  8
LAYER-1
 10
4.430648
 20
2.463793
 30
0.000000
  0
VERTEX
  8
LAYER-1
 10
4.430648
 20
1.847149
 30
0.000000
  0
VERTEX
  8
LAYER-1
 10
4.260509
 20
1.847149
 30
0.000000
  0
SEQEND
  8
LAYER-1
  0
POLYLINE
  8
LAYER-1
 66
  1
 70
  1
 62
  7
  0
VERTEX
  8
LAYER-1
 10
3.851896
 20
2.463793
 30
0.000000
  0
VERTEX
  8
LAYER-1
 10
4.022036
 20
2.463793
 30
0.000000
  0
VERTEX
  8
LAYER-1
 10
4.022036
 20
1.847149
 30
0.000000
  0
VERTEX
  8
LAYER-1
 10
3.851896
 20
1.847149
 30
0.000000
  0
SEQEND
  8
LAYER-1
  0
POLYLINE
  8
LAYER-1
 66
  1
 70
  1
 62
  7
  0
VERTEX
  8
LAYER-1
 10
4.057070
 20
1.847419
 30
0.000000
  0
VERTEX
  8
LAYER-1
 10
4.227209
 20
1.847419
 30
0.000000
  0
VERTEX
  8
LAYER-1
 10
4.227209
 20
1.230776
 30
0.000000
  0
VERTEX
  8
LAYER-1
 10
4.057070
 20
1.230776
 30
0.000000
  0
SEQEND
  8
LAYER-1
  0
POLYLINE
  8
LAYER-1
 66
  1
 70
  1
 62
  7
  0
VERTEX
  8
LAYER-1
 10
4.464814
 20
1.847419
 30
0.000000
  0
VERTEX
  8
LAYER-1
 10
4.634953
 20
1.847419
 30
0.000000
  0
VERTEX
  8
LAYER-1
 10
4.634953
 20
1.230776
 30
0.000000
  0
VERTEX
  8
LAYER-1
 10
4.464814
 20
1.230776
 30
0.000000
  0
SEQEND
  8
LAYER-1
  0
POLYLINE
  8
LAYER-1
 66
  1
 70
  1
 62
  7
  0
VERTEX
  8
LAYER-1
 10
4.870822
 20
1.847419
 30
0.000000
  0
VERTEX
  8
LAYER-1
 10
5.040961
 20
1.847419
 30
0.000000
  0
VERTEX
  8
LAYER-1
 10
5.040961
 20
1.230776
 30
0.000000
  0
VERTEX
  8
LAYER-1
 10
4.870822
 20
1.230776
 30
0.000000
  0
SEQEND
  8
LAYER-1
  0
POLYLINE
  8
LAYER-1
 66
  1
 70
  1
 62
  7
  0
VERTEX
  8
LAYER-1
 10
5.280301
 20
1.847419
 30
0.000000
  0
VERTEX
  8
LAYER-1
 10
5.450439
 20
1.847419
 30
0.000000
  0
VERTEX
  8
LAYER-1
 10
5.450439
 20
1.230776
 30
0.000000
  0
VERTEX
  8
LAYER-1
 10
5.280301
 20
1.230776
 30
0.000000
  0
SEQEND
  8
LAYER-1
  0
POLYLINE
  8
LAYER-1
 66
  1
 70
  1
 62
  7
  0
VERTEX
  8
LAYER-1
 10
5.485474
 20
1.230773
 30
0.000000
  0
VERTEX
  8
LAYER-1
 10
5.655613
 20
1.230773
 30
0.000000
  0
VERTEX
  8
LAYER-1
 10
5.655613
 20
0.614132
 30
0.000000
  0
VERTEX
  8
LAYER-1
 10
5.485474
 20
0.614132
 30
0.000000
  0
SEQEND
  8
LAYER-1
  0
POLYLINE
  8
LAYER-1
 66
  1
 70
  1
 62
  7
  0
VERTEX
  8
LAYER-1
 10
5.075994
 20
1.230773
 30
0.000000
  0
VERTEX
  8
LAYER-1
 10
5.246133
 20
1.230773
 30
0.000000
  0
VERTEX
  8
LAYER-1
 10
5.246133
 20
0.614132
 30
0.000000
  0
VERTEX
  8
LAYER-1
 10
5.075994
 20
0.614132
 30
0.000000
  0
SEQEND
  8
LAYER-1
  0
POLYLINE
  8
LAYER-1
 66
  1
 70
  1
 62
  7
  0
VERTEX
  8
LAYER-1
 10
4.667383
 20
1.230773
 30
0.000000
  0
VERTEX
  8
LAYER-1
 10
4.837523
 20
1.230773
 30
0.000000
  0
VERTEX
  8
LAYER-1
 10
4.837523
 20
0.614132
 30
0.000000
  0
VERTEX
  8
LAYER-1
 10
4.667383
 20
0.614132
 30
0.000000
  0
SEQEND
  8
LAYER-1
  0
POLYLINE
  8
LAYER-1
 66
  1
 70
  1
 62
  7
  0
VERTEX
  8
LAYER-1
 10
4.261377
 20
1.230773
 30
0.000000
  0
VERTEX
  8
LAYER-1
 10
4.431516
 20
1.230773
 30
0.000000
  0
VERTEX
  8
LAYER-1
 10
4.431516
 20
0.614132
 30
0.000000
  0
VERTEX
  8
LAYER-1
 10
4.261377
 20
0.614132
 30
0.000000
  0
SEQEND
  8
LAYER-1
  0
POLYLINE
  8
LAYER-1
 66
  1
 70
  1
 62
  7
  0
VERTEX
  8
LAYER-1
 10
3.851896
 20
1.230773
 30
0.000000
  0
VERTEX
  8
LAYER-1
 10
4.022036
 20
1.230773
 30
0.000000
  0
VERTEX
  8
LAYER-1
 10
4.022036
 20
0.614132
 30
0.000000
  0
VERTEX
  8
LAYER-1
 10
3.851896
 20
0.614132
 30
0.000000
  0
SEQEND
  8
LAYER-1
  0
POLYLINE
  8
LAYER-1
 66
  1
 70
  1
 62
  7
  0
VERTEX
  8
LAYER-1
 10
1.805021
 20
7.196309
 30
0.000000
  0
VERTEX
  8
LAYER-1
 10
1.975160
 20
7.196309
 30
0.000000
  0
VERTEX
  8
LAYER-1
 10
1.975160
 20
6.779388
 30
0.000000
  0
VERTEX
  8
LAYER-1
 10
1.805021
 20
6.779388
 30
0.000000
  0
SEQEND
  8
LAYER-1
  0
POLYLINE
  8
LAYER-1
 66
  1
 70
  1
 62
  7
  0
VERTEX
  8
LAYER-1
 10
2.214501
 20
7.196309
 30
0.000000
  0
VERTEX
  8
LAYER-1
 10
2.384640
 20
7.196309
 30
0.000000
  0
VERTEX
  8
LAYER-1
 10
2.384640
 20
6.779388
 30
0.000000
  0
VERTEX
  8
LAYER-1
 10
2.214501
 20
6.779388
 30
0.000000
  0
SEQEND
  8
LAYER-1
  0
POLYLINE
  8
LAYER-1
 66
  1
 70
  1
 62
  7
  0
VERTEX
  8
LAYER-1
 10
2.623980
 20
7.196309
 30
0.000000
  0
VERTEX
  8
LAYER-1
 10
2.794119
 20
7.196309
 30
0.000000
  0
VERTEX
  8
LAYER-1
 10
2.794119
 20
6.779388
 30
0.000000
  0
VERTEX
  8
LAYER-1
 10
2.623980
 20
6.779388
 30
0.000000
  0
SEQEND
  8
LAYER-1
  0
POLYLINE
  8
LAYER-1
 66
  1
 70
  1
 62
  7
  0
VERTEX
  8
LAYER-1
 10
3.029987
 20
7.196309
 30
0.000000
  0
VERTEX
  8
LAYER-1
 10
3.200126
 20
7.196309
 30
0.000000
  0
VERTEX
  8
LAYER-1
 10
3.200126
 20
6.779388
 30
0.000000
  0
VERTEX
  8
LAYER-1
 10
3.029987
 20
6.779388
 30
0.000000
  0
SEQEND
  8
LAYER-1
  0
POLYLINE
  8
LAYER-1
 66
  1
 70
  1
 62
  7
  0
VERTEX
  8
LAYER-1
 10
3.437731
 20
7.196309
 30
0.000000
  0
VERTEX
  8
LAYER-1
 10
3.607869
 20
7.196309
 30
0.000000
  0
VERTEX
  8
LAYER-1
 10
3.607869
 20
6.779388
 30
0.000000
  0
VERTEX
  8
LAYER-1
 10
3.437731
 20
6.779388
 30
0.000000
  0
SEQEND
  8
LAYER-1
  0
POLYLINE
  8
LAYER-1
 66
  1
 70
  1
 62
  7
  0
VERTEX
  8
LAYER-1
 10
3.233425
 20
6.779811
 30
0.000000
  0
VERTEX
  8
LAYER-1
 10
3.403564
 20
6.779811
 30
0.000000
  0
VERTEX
  8
LAYER-1
 10
3.403564
 20
6.163167
 30
0.000000
  0
VERTEX
  8
LAYER-1
 10
3.233425
 20
6.163167
 30
0.000000
  0
SEQEND
  8
LAYER-1
  0
POLYLINE
  8
LAYER-1
 66
  1
 70
  1
 62
  7
  0
VERTEX
  8
LAYER-1
 10
2.827418
 20
6.779811
 30
0.000000
  0
VERTEX
  8
LAYER-1
 10
2.997557
 20
6.779811
 30
0.000000
  0
VERTEX
  8
LAYER-1
 10
2.997557
 20
6.163167
 30
0.000000
  0
VERTEX
  8
LAYER-1
 10
2.827418
 20
6.163167
 30
0.000000
  0
SEQEND
  8
LAYER-1
  0
POLYLINE
  8
LAYER-1
 66
  1
 70
  1
 62
  7
  0
VERTEX
  8
LAYER-1
 10
2.419675
 20
6.779811
 30
0.000000
  0
VERTEX
  8
LAYER-1
 10
2.589813
 20
6.779811
 30
0.000000
  0
VERTEX
  8
LAYER-1
 10
2.589813
 20
6.163167
 30
0.000000
  0
VERTEX
  8
LAYER-1
 10
2.419675
 20
6.163167
 30
0.000000
  0
SEQEND
  8
LAYER-1
  0
POLYLINE
  8
LAYER-1
 66
  1
 70
  1
 62
  7
  0
VERTEX
  8
LAYER-1
 10
2.011063
 20
6.779811
 30
0.000000
  0
VERTEX
  8
LAYER-1
 10
2.181202
 20
6.779811
 30
0.000000
  0
VERTEX
  8
LAYER-1
 10
2.181202
 20
6.163167
 30
0.000000
  0
VERTEX
  8
LAYER-1
 10
2.011063
 20
6.163167
 30
0.000000
  0
SEQEND
  8
LAYER-1
  0
POLYLINE
  8
LAYER-1
 66
  1
 70
  1
 62
  7
  0
VERTEX
  8
LAYER-1
 10
1.805021
 20
6.163165
 30
0.000000
  0
VERTEX
  8
LAYER-1
 10
1.975160
 20
6.163165
 30
0.000000
  0
VERTEX
  8
LAYER-1
 10
1.975160
 20
5.546522
 30
0.000000
  0
VERTEX
  8
LAYER-1
 10
1.805021
 20
5.546522
 30
0.000000
  0
SEQEND
  8
LAYER-1
  0
POLYLINE
  8
LAYER-1
 66
  1
 70
  1
 62
  7
  0
VERTEX
  8
LAYER-1
 10
2.214501
 20
6.163165
 30
0.000000
  0
VERTEX
  8
LAYER-1
 10
2.384640
 20
6.163165
 30
0.000000
  0
VERTEX
  8
LAYER-1
 10
2.384640
 20
5.546522
 30
0.000000
  0
VERTEX
  8
LAYER-1
 10
2.214501
 20
5.546522
 30
0.000000
  0
SEQEND
  8
LAYER-1
  0
POLYLINE
  8
LAYER-1
 66
  1
 70
  1
 62
  7
  0
VERTEX
  8
LAYER-1
 10
2.623980
 20
6.163165
 30
0.000000
  0
VERTEX
  8
LAYER-1
 10
2.794119
 20
6.163165
 30
0.000000
  0
VERTEX
  8
LAYER-1
 10
2.794119
 20
5.546522
 30
0.000000
  0
VERTEX
  8
LAYER-1
 10
2.623980
 20
5.546522
 30
0.000000
  0
SEQEND
  8
LAYER-1
  0
POLYLINE
  8
LAYER-1
 66
  1
 70
  1
 62
  7
  0
VERTEX
  8
LAYER-1
 10
3.029987
 20
6.163165
 30
0.000000
  0
VERTEX
  8
LAYER-1
 10
3.200126
 20
6.163165
 30
0.000000
  0
VERTEX
  8
LAYER-1
 10
3.200126
 20
5.546522
 30
0.000000
  0
VERTEX
  8
LAYER-1
 10
3.029987
 20
5.546522
 30
0.000000
  0
SEQEND
  8
LAYER-1
  0
POLYLINE
  8
LAYER-1
 66
  1
 70
  1
 62
  7
  0
VERTEX
  8
LAYER-1
 10
3.437731
 20
6.163165
 30
0.000000
  0
VERTEX
  8
LAYER-1
 10
3.607869
 20
6.163165
 30
0.000000
  0
VERTEX
  8
LAYER-1
 10
3.607869
 20
5.546522
 30
0.000000
  0
VERTEX
  8
LAYER-1
 10
3.437731
 20
5.546522
 30
0.000000
  0
SEQEND
  8
LAYER-1
  0
POLYLINE
  8
LAYER-1
 66
  1
 70
  1
 62
  7
  0
VERTEX
  8
LAYER-1
 10
3.233425
 20
5.546789
 30
0.000000
  0
VERTEX
  8
LAYER-1
 10
3.403564
 20
5.546789
 30
0.000000
  0
VERTEX
  8
LAYER-1
 10
3.403564
 20
4.930146
 30
0.000000
  0
VERTEX
  8
LAYER-1
 10
3.233425
 20
4.930146
 30
0.000000
  0
SEQEND
  8
LAYER-1
  0
POLYLINE
  8
LAYER-1
 66
  1
 70
  1
 62
  7
  0
VERTEX
  8
LAYER-1
 10
2.827418
 20
5.546789
 30
0.000000
  0
VERTEX
  8
LAYER-1
 10
2.997557
 20
5.546789
 30
0.000000
  0
VERTEX
  8
LAYER-1
 10
2.997557
 20
4.930146
 30
0.000000
  0
VERTEX
  8
LAYER-1
 10
2.827418
 20
4.930146
 30
0.000000
  0
SEQEND
  8
LAYER-1
  0
POLYLINE
  8
LAYER-1
 66
  1
 70
  1
 62
  7
  0
VERTEX
  8
LAYER-1
 10
2.419675
 20
5.546789
 30
0.000000
  0
VERTEX
  8
LAYER-1
 10
2.589813
 20
5.546789
 30
0.000000
  0
VERTEX
  8
LAYER-1
 10
2.589813
 20
4.930146
 30
0.000000
  0
VERTEX
  8
LAYER-1
 10
2.419675
 20
4.930146
 30
0.000000
  0
SEQEND
  8
LAYER-1
  0
POLYLINE
  8
LAYER-1
 66
  1
 70
  1
 62
  7
  0
VERTEX
  8
LAYER-1
 10
2.011063
 20
5.546789
 30
0.000000
  0
VERTEX
  8
LAYER-1
 10
2.181202
 20
5.546789
 30
0.000000
  0
VERTEX
  8
LAYER-1
 10
2.181202
 20
4.930146
 30
0.000000
  0
VERTEX
  8
LAYER-1
 10
2.011063
 20
4.930146
 30
0.000000
  0
SEQEND
  8
LAYER-1
  0
POLYLINE
  8
LAYER-1
 66
  1
 70
  1
 62
  7
  0
VERTEX
  8
LAYER-1
 10
1.805021
 20
4.930144
 30
0.000000
  0
VERTEX
  8
LAYER-1
 10
1.975160
 20
4.930144
 30
0.000000
  0
VERTEX
  8
LAYER-1
 10
1.975160
 20
4.313501
 30
0.000000
  0
VERTEX
  8
LAYER-1
 10
1.805021
 20
4.313501
 30
0.000000
  0
SEQEND
  8
LAYER-1
  0
POLYLINE
  8
LAYER-1
 66
  1
 70
  1
 62
  7
  0
VERTEX
  8
LAYER-1
 10
2.214501
 20
4.930144
 30
0.000000
  0
VERTEX
  8
LAYER-1
 10
2.384640
 20
4.930144
 30
0.000000
  0
VERTEX
  8
LAYER-1
 10
2.384640
 20
4.313501
 30
0.000000
  0
VERTEX
  8
LAYER-1
 10
2.214501
 20
4.313501
 30
0.000000
  0
SEQEND
  8
LAYER-1
  0
POLYLINE
  8
LAYER-1
 66
  1
 70
  1
 62
  7
  0
VERTEX
  8
LAYER-1
 10
2.623980
 20
4.930144
 30
0.000000
  0
VERTEX
  8
LAYER-1
 10
2.794119
 20
4.930144
 30
0.000000
  0
VERTEX
  8
LAYER-1
 10
2.794119
 20
4.313501
 30
0.000000
  0
VERTEX
  8
LAYER-1
 10
2.623980
 20
4.313501
 30
0.000000
  0
SEQEND
  8
LAYER-1
  0
POLYLINE
  8
LAYER-1
 66
  1
 70
  1
 62
  7
  0
VERTEX
  8
LAYER-1
 10
3.029987
 20
4.930144
 30
0.000000
  0
VERTEX
  8
LAYER-1
 10
3.200126
 20
4.930144
 30
0.000000
  0
VERTEX
  8
LAYER-1
 10
3.200126
 20
4.313501
 30
0.000000
  0
VERTEX
  8
LAYER-1
 10
3.029987
 20
4.313501
 30
0.000000
  0
SEQEND
  8
LAYER-1
  0
POLYLINE
  8
LAYER-1
 66
  1
 70
  1
 62
  7
  0
VERTEX
  8
LAYER-1
 10
3.437731
 20
4.930144
 30
0.000000
  0
VERTEX
  8
LAYER-1
 10
3.607869
 20
4.930144
 30
0.000000
  0
VERTEX
  8
LAYER-1
 10
3.607869
 20
4.313501
 30
0.000000
  0
VERTEX
  8
LAYER-1
 10
3.437731
 20
4.313501
 30
0.000000
  0
SEQEND
  8
LAYER-1
  0
POLYLINE
  8
LAYER-1
 66
  1
 70
  1
 62
  7
  0
VERTEX
  8
LAYER-1
 10
3.233425
 20
4.313769
 30
0.000000
  0
VERTEX
  8
LAYER-1
 10
3.403564
 20
4.313769
 30
0.000000
  0
VERTEX
  8
LAYER-1
 10
3.403564
 20
3.697126
 30
0.000000
  0
VERTEX
  8
LAYER-1
 10
3.233425
 20
3.697126
 30
0.000000
  0
SEQEND
  8
LAYER-1
  0
POLYLINE
  8
LAYER-1
 66
  1
 70
  1
 62
  7
  0
VERTEX
  8
LAYER-1
 10
2.827418
 20
4.313769
 30
0.000000
  0
VERTEX
  8
LAYER-1
 10
2.997557
 20
4.313769
 30
0.000000
  0
VERTEX
  8
LAYER-1
 10
2.997557
 20
3.697126
 30
0.000000
  0
VERTEX
  8
LAYER-1
 10
2.827418
 20
3.697126
 30
0.000000
  0
SEQEND
  8
LAYER-1
  0
POLYLINE
  8
LAYER-1
 66
  1
 70
  1
 62
  7
  0
VERTEX
  8
LAYER-1
 10
2.419675
 20
4.313769
 30
0.000000
  0
VERTEX
  8
LAYER-1
 10
2.589813
 20
4.313769
 30
0.000000
  0
VERTEX
  8
LAYER-1
 10
2.589813
 20
3.697126
 30
0.000000
  0
VERTEX
  8
LAYER-1
 10
2.419675
 20
3.697126
 30
0.000000
  0
SEQEND
  8
LAYER-1
  0
POLYLINE
  8
LAYER-1
 66
  1
 70
  1
 62
  7
  0
VERTEX
  8
LAYER-1
 10
2.011063
 20
4.313769
 30
0.000000
  0
VERTEX
  8
LAYER-1
 10
2.181202
 20
4.313769
 30
0.000000
  0
VERTEX
  8
LAYER-1
 10
2.181202
 20
3.697126
 30
0.000000
  0
VERTEX
  8
LAYER-1
 10
2.011063
 20
3.697126
 30
0.000000
  0
SEQEND
  8
LAYER-1
  0
POLYLINE
  8
LAYER-1
 66
  1
 70
  1
 62
  7
  0
VERTEX
  8
LAYER-1
 10
1.805021
 20
3.697124
 30
0.000000
  0
VERTEX
  8
LAYER-1
 10
1.975160
 20
3.697124
 30
0.000000
  0
VERTEX
  8
LAYER-1
 10
1.975160
 20
3.080481
 30
0.000000
  0
VERTEX
  8
LAYER-1
 10
1.805021
 20
3.080481
 30
0.000000
  0
SEQEND
  8
LAYER-1
  0
POLYLINE
  8
LAYER-1
 66
  1
 70
  1
 62
  7
  0
VERTEX
  8
LAYER-1
 10
2.214501
 20
3.697124
 30
0.000000
  0
VERTEX
  8
LAYER-1
 10
2.384640
 20
3.697124
 30
0.000000
  0
VERTEX
  8
LAYER-1
 10
2.384640
 20
3.080481
 30
0.000000
  0
VERTEX
  8
LAYER-1
 10
2.214501
 20
3.080481
 30
0.000000
  0
SEQEND
  8
LAYER-1
  0
POLYLINE
  8
LAYER-1
 66
  1
 70
  1
 62
  7
  0
VERTEX
  8
LAYER-1
 10
2.623980
 20
3.697124
 30
0.000000
  0
VERTEX
  8
LAYER-1
 10
2.794119
 20
3.697124
 30
0.000000
  0
VERTEX
  8
LAYER-1
 10
2.794119
 20
3.080481
 30
0.000000
  0
VERTEX
  8
LAYER-1
 10
2.623980
 20
3.080481
 30
0.000000
  0
SEQEND
  8
LAYER-1
  0
POLYLINE
  8
LAYER-1
 66
  1
 70
  1
 62
  7
  0
VERTEX
  8
LAYER-1
 10
3.029987
 20
3.697124
 30
0.000000
  0
VERTEX
  8
LAYER-1
 10
3.200126
 20
3.697124
 30
0.000000
  0
VERTEX
  8
LAYER-1
 10
3.200126
 20
3.080481
 30
0.000000
  0
VERTEX
  8
LAYER-1
 10
3.029987
 20
3.080481
 30
0.000000
  0
SEQEND
  8
LAYER-1
  0
POLYLINE
  8
LAYER-1
 66
  1
 70
  1
 62
  7
  0
VERTEX
  8
LAYER-1
 10
3.437731
 20
3.697124
 30
0.000000
  0
VERTEX
  8
LAYER-1
 10
3.607869
 20
3.697124
 30
0.000000
  0
VERTEX
  8
LAYER-1
 10
3.607869
 20
3.080481
 30
0.000000
  0
VERTEX
  8
LAYER-1
 10
3.437731
 20
3.080481
 30
0.000000
  0
SEQEND
  8
LAYER-1
  0
POLYLINE
  8
LAYER-1
 66
  1
 70
  1
 62
  7
  0
VERTEX
  8
LAYER-1
 10
2.011063
 20
3.080747
 30
0.000000
  0
VERTEX
  8
LAYER-1
 10
2.181202
 20
3.080747
 30
0.000000
  0
VERTEX
  8
LAYER-1
 10
2.181202
 20
2.464104
 30
0.000000
  0
VERTEX
  8
LAYER-1
 10
2.011063
 20
2.464104
 30
0.000000
  0
SEQEND
  8
LAYER-1
  0
POLYLINE
  8
LAYER-1
 66
  1
 70
  1
 62
  7
  0
VERTEX
  8
LAYER-1
 10
2.419675
 20
3.080747
 30
0.000000
  0
VERTEX
  8
LAYER-1
 10
2.589813
 20
3.080747
 30
0.000000
  0
VERTEX
  8
LAYER-1
 10
2.589813
 20
2.464104
 30
0.000000
  0
VERTEX
  8
LAYER-1
 10
2.419675
 20
2.464104
 30
0.000000
  0
SEQEND
  8
LAYER-1
  0
POLYLINE
  8
LAYER-1
 66
  1
 70
  1
 62
  7
  0
VERTEX
  8
LAYER-1
 10
2.827418
 20
3.080747
 30
0.000000
  0
VERTEX
  8
LAYER-1
 10
2.997557
 20
3.080747
 30
0.000000
  0
VERTEX
  8
LAYER-1
 10
2.997557
 20
2.464104
 30
0.000000
  0
VERTEX
  8
LAYER-1
 10
2.827418
 20
2.464104
 30
0.000000
  0
SEQEND
  8
LAYER-1
  0
POLYLINE
  8
LAYER-1
 66
  1
 70
  1
 62
  7
  0
VERTEX
  8
LAYER-1
 10
3.233425
 20
3.080747
 30
0.000000
  0
VERTEX
  8
LAYER-1
 10
3.403564
 20
3.080747
 30
0.000000
  0
VERTEX
  8
LAYER-1
 10
3.403564
 20
2.464104
 30
0.000000
  0
VERTEX
  8
LAYER-1
 10
3.233425
 20
2.464104
 30
0.000000
  0
SEQEND
  8
LAYER-1
  0
POLYLINE
  8
LAYER-1
 66
  1
 70
  1
 62
  7
  0
VERTEX
  8
LAYER-1
 10
3.437731
 20
2.464102
 30
0.000000
  0
VERTEX
  8
LAYER-1
 10
3.607869
 20
2.464102
 30
0.000000
  0
VERTEX
  8
LAYER-1
 10
3.607869
 20
1.847458
 30
0.000000
  0
VERTEX
  8
LAYER-1
 10
3.437731
 20
1.847458
 30
0.000000
  0
SEQEND
  8
LAYER-1
  0
POLYLINE
  8
LAYER-1
 66
  1
 70
  1
 62
  7
  0
VERTEX
  8
LAYER-1
 10
3.029987
 20
2.464102
 30
0.000000
  0
VERTEX
  8
LAYER-1
 10
3.200126
 20
2.464102
 30
0.000000
  0
VERTEX
  8
LAYER-1
 10
3.200126
 20
1.847458
 30
0.000000
  0
VERTEX
  8
LAYER-1
 10
3.029987
 20
1.847458
 30
0.000000
  0
SEQEND
  8
LAYER-1
  0
POLYLINE
  8
LAYER-1
 66
  1
 70
  1
 62
  7
  0
VERTEX
  8
LAYER-1
 10
2.623980
 20
2.464102
 30
0.000000
  0
VERTEX
  8
LAYER-1
 10
2.794119
 20
2.464102
 30
0.000000
  0
VERTEX
  8
LAYER-1
 10
2.794119
 20
1.847458
 30
0.000000
  0
VERTEX
  8
LAYER-1
 10
2.623980
 20
1.847458
 30
0.000000
  0
SEQEND
  8
LAYER-1
  0
POLYLINE
  8
LAYER-1
 66
  1
 70
  1
 62
  7
  0
VERTEX
  8
LAYER-1
 10
2.214501
 20
2.464102
 30
0.000000
  0
VERTEX
  8
LAYER-1
 10
2.384640
 20
2.464102
 30
0.000000
  0
VERTEX
  8
LAYER-1
 10
2.384640
 20
1.847458
 30
0.000000
  0
VERTEX
  8
LAYER-1
 10
2.214501
 20
1.847458
 30
0.000000
  0
SEQEND
  8
LAYER-1
  0
POLYLINE
  8
LAYER-1
 66
  1
 70
  1
 62
  7
  0
VERTEX
  8
LAYER-1
 10
1.805021
 20
2.464102
 30
0.000000
  0
VERTEX
  8
LAYER-1
 10
1.975160
 20
2.464102
 30
0.000000
  0
VERTEX
  8
LAYER-1
 10
1.975160
 20
1.847458
 30
0.000000
  0
VERTEX
  8
LAYER-1
 10
1.805021
 20
1.847458
 30
0.000000
  0
SEQEND
  8
LAYER-1
  0
POLYLINE
  8
LAYER-1
 66
  1
 70
  1
 62
  7
  0
VERTEX
  8
LAYER-1
 10
3.233425
 20
1.847727
 30
0.000000
  0
VERTEX
  8
LAYER-1
 10
3.403564
 20
1.847727
 30
0.000000
  0
VERTEX
  8
LAYER-1
 10
3.403564
 20
1.231084
 30
0.000000
  0
VERTEX
  8
LAYER-1
 10
3.233425
 20
1.231084
 30
0.000000
  0
SEQEND
  8
LAYER-1
  0
POLYLINE
  8
LAYER-1
 66
  1
 70
  1
 62
  7
  0
VERTEX
  8
LAYER-1
 10
2.827418
 20
1.847727
 30
0.000000
  0
VERTEX
  8
LAYER-1
 10
2.997557
 20
1.847727
 30
0.000000
  0
VERTEX
  8
LAYER-1
 10
2.997557
 20
1.231084
 30
0.000000
  0
VERTEX
  8
LAYER-1
 10
2.827418
 20
1.231084
 30
0.000000
  0
SEQEND
  8
LAYER-1
  0
POLYLINE
  8
LAYER-1
 66
  1
 70
  1
 62
  7
  0
VERTEX
  8
LAYER-1
 10
2.419675
 20
1.847727
 30
0.000000
  0
VERTEX
  8
LAYER-1
 10
2.589813
 20
1.847727
 30
0.000000
  0
VERTEX
  8
LAYER-1
 10
2.589813
 20
1.231084
 30
0.000000
  0
VERTEX
  8
LAYER-1
 10
2.419675
 20
1.231084
 30
0.000000
  0
SEQEND
  8
LAYER-1
  0
POLYLINE
  8
LAYER-1
 66
  1
 70
  1
 62
  7
  0
VERTEX
  8
LAYER-1
 10
2.011063
 20
1.847727
 30
0.000000
  0
VERTEX
  8
LAYER-1
 10
2.181202
 20
1.847727
 30
0.000000
  0
VERTEX
  8
LAYER-1
 10
2.181202
 20
1.231084
 30
0.000000
  0
VERTEX
  8
LAYER-1
 10
2.011063
 20
1.231084
 30
0.000000
  0
SEQEND
  8
LAYER-1
  0
POLYLINE
  8
LAYER-1
 66
  1
 70
  1
 62
  7
  0
VERTEX
  8
LAYER-1
 10
2.214501
 20
1.231082
 30
0.000000
  0
VERTEX
  8
LAYER-1
 10
2.384640
 20
1.231082
 30
0.000000
  0
VERTEX
  8
LAYER-1
 10
2.384640
 20
0.614439
 30
0.000000
  0
VERTEX
  8
LAYER-1
 10
2.214501
 20
0.614439
 30
0.000000
  0
SEQEND
  8
LAYER-1
  0
POLYLINE
  8
LAYER-1
 66
  1
 70
  1
 62
  7
  0
VERTEX
  8
LAYER-1
 10
2.623980
 20
1.231082
 30
0.000000
  0
VERTEX
  8
LAYER-1
 10
2.794119
 20
1.231082
 30
0.000000
  0
VERTEX
  8
LAYER-1
 10
2.794119
 20
0.614439
 30
0.000000
  0
VERTEX
  8
LAYER-1
 10
2.623980
 20
0.614439
 30
0.000000
  0
SEQEND
  8
LAYER-1
  0
POLYLINE
  8
LAYER-1
 66
  1
 70
  1
 62
  7
  0
VERTEX
  8
LAYER-1
 10
3.029987
 20
1.231082
 30
0.000000
  0
VERTEX
  8
LAYER-1
 10
3.200126
 20
1.231082
 30
0.000000
  0
VERTEX
  8
LAYER-1
 10
3.200126
 20
0.614439
 30
0.000000
  0
VERTEX
  8
LAYER-1
 10
3.029987
 20
0.614439
 30
0.000000
  0
SEQEND
  8
LAYER-1
  0
POLYLINE
  8
LAYER-1
 66
  1
 70
  1
 62
  7
  0
VERTEX
  8
LAYER-1
 10
3.437731
 20
1.231082
 30
0.000000
  0
VERTEX
  8
LAYER-1
 10
3.607869
 20
1.231082
 30
0.000000
  0
VERTEX
  8
LAYER-1
 10
3.607869
 20
0.614439
 30
0.000000
  0
VERTEX
  8
LAYER-1
 10
3.437731
 20
0.614439
 30
0.000000
  0
SEQEND
  8
LAYER-1
  0
POLYLINE
  8
LAYER-1
 66
  1
 70
  1
 62
  7
  0
VERTEX
  8
LAYER-1
 10
1.805021
 20
1.231082
 30
0.000000
  0
VERTEX
  8
LAYER-1
 10
1.975160
 20
1.231082
 30
0.000000
  0
VERTEX
  8
LAYER-1
 10
1.975160
 20
0.614439
 30
0.000000
  0
VERTEX
  8
LAYER-1
 10
1.805021
 20
0.614439
 30
0.000000
  0
SEQEND
  8
LAYER-1
  0
POLYLINE
  8
LAYER-1
 66
  1
 70
  1
 62
  0
  0
VERTEX
  8
LAYER-1
 10
4.021520
 20
7.196317
 30
0.000000
  0
VERTEX
  8
LAYER-1
 10
4.057471
 20
7.196317
 30
0.000000
  0
VERTEX
  8
LAYER-1
 10
4.057471
 20
0.614655
 30
0.000000
  0
VERTEX
  8
LAYER-1
 10
4.021520
 20
0.614655
 30
0.000000
  0
SEQEND
  8
LAYER-1
  0
POLYLINE
  8
LAYER-1
 66
  1
 70
  1
 62
  0
  0
VERTEX
  8
LAYER-1
 10
4.428916
 20
7.196317
 30
0.000000
  0
VERTEX
  8
LAYER-1
 10
4.464867
 20
7.196317
 30
0.000000
  0
VERTEX
  8
LAYER-1
 10
4.464867
 20
0.612803
 30
0.000000
  0
VERTEX
  8
LAYER-1
 10
4.428916
 20
0.612803
 30
0.000000
  0
SEQEND
  8
LAYER-1
  0
POLYLINE
  8
LAYER-1
 66
  1
 70
  1
 62
  0
  0
VERTEX
  8
LAYER-1
 10
4.835444
 20
7.196317
 30
0.000000
  0
VERTEX
  8
LAYER-1
 10
4.871395
 20
7.196317
 30
0.000000
  0
VERTEX
  8
LAYER-1
 10
4.871395
 20
0.614068
 30
0.000000
  0
VERTEX
  8
LAYER-1
 10
4.835444
 20
0.614068
 30
0.000000
  0
SEQEND
  8
LAYER-1
  0
POLYLINE
  8
LAYER-1
 66
  1
 70
  1
 62
  0
  0
VERTEX
  8
LAYER-1
 10
5.245444
 20
7.196317
 30
0.000000
  0
VERTEX
  8
LAYER-1
 10
5.281395
 20
7.196317
 30
0.000000
  0
VERTEX
  8
LAYER-1
 10
5.281395
 20
0.613480
 30
0.000000
  0
VERTEX
  8
LAYER-1
 10
5.245444
 20
0.613480
 30
0.000000
  0
SEQEND
  8
LAYER-1
  0
POLYLINE
  8
LAYER-1
 66
  1
 70
  1
 62
  0
  0
VERTEX
  8
LAYER-1
 10
5.655879
 20
7.196317
 30
0.000000
  0
VERTEX
  8
LAYER-1
 10
5.691829
 20
7.196317
 30
0.000000
  0
VERTEX
  8
LAYER-1
 10
5.691829
 20
0.613201
 30
0.000000
  0
VERTEX
  8
LAYER-1
 10
5.655879
 20
0.613201
 30
0.000000
  0
SEQEND
  8
LAYER-1
  0
POLYLINE
  8
LAYER-1
 66
  1
 70
  1
 62
  0
  0
VERTEX
  8
LAYER-1
 10
3.402284
 20
7.196521
 30
0.000000
  0
VERTEX
  8
LAYER-1
 10
3.438235
 20
7.196521
 30
0.000000
  0
VERTEX
  8
LAYER-1
 10
3.438235
 20
0.614505
 30
0.000000
  0
VERTEX
  8
LAYER-1
 10
3.402284
 20
0.614505
 30
0.000000
  0
SEQEND
  8
LAYER-1
  0
POLYLINE
  8
LAYER-1
 66
  1
 70
  1
 62
  0
  0
VERTEX
  8
LAYER-1
 10
2.995756
 20
7.196521
 30
0.000000
  0
VERTEX
  8
LAYER-1
 10
3.031707
 20
7.196521
 30
0.000000
  0
VERTEX
  8
LAYER-1
 10
3.031707
 20
0.614950
 30
0.000000
  0
VERTEX
  8
LAYER-1
 10
2.995756
 20
0.614950
 30
0.000000
  0
SEQEND
  8
LAYER-1
  0
POLYLINE
  8
LAYER-1
 66
  1
 70
  1
 62
  0
  0
VERTEX
  8
LAYER-1
 10
2.588360
 20
7.196521
 30
0.000000
  0
VERTEX
  8
LAYER-1
 10
2.624311
 20
7.196521
 30
0.000000
  0
VERTEX
  8
LAYER-1
 10
2.624311
 20
0.613612
 30
0.000000
  0
VERTEX
  8
LAYER-1
 10
2.588360
 20
0.613612
 30
0.000000
  0
SEQEND
  8
LAYER-1
  0
POLYLINE
  8
LAYER-1
 66
  1
 70
  1
 62
  0
  0
VERTEX
  8
LAYER-1
 10
2.179228
 20
7.196521
 30
0.000000
  0
VERTEX
  8
LAYER-1
 10
2.215178
 20
7.196521
 30
0.000000
  0
VERTEX
  8
LAYER-1
 10
2.215178
 20
0.615422
 30
0.000000
  0
VERTEX
  8
LAYER-1
 10
2.179228
 20
0.615422
 30
0.000000
  0
SEQEND
  8
LAYER-1
  0
POLYLINE
  8
LAYER-1
 66
  1
 70
  1
 62
  0
  0
VERTEX
  8
LAYER-1
 10
1.768794
 20
7.196521
 30
0.000000
  0
VERTEX
  8
LAYER-1
 10
1.804744
 20
7.196521
 30
0.000000
  0
VERTEX
  8
LAYER-1
 10
1.804744
 20
0.614480
 30
0.000000
  0
VERTEX
  8
LAYER-1
 10
1.768794
 20
0.614480
 30
0.000000
  0
SEQEND
  8
LAYER-1
  0
POLYLINE
  8
LAYER-1
 66
  1
 70
  1
 62
  0
  0
VERTEX
  8
LAYER-1
 10
3.607422
 20
7.196510
 30
0.000000
  0
VERTEX
  8
LAYER-1
 10
3.643373
 20
7.196510
 30
0.000000
  0
VERTEX
  8
LAYER-1
 10
3.643373
 20
0.612828
 30
0.000000
  0
VERTEX
  8
LAYER-1
 10
3.607422
 20
0.612828
 30
0.000000
  0
SEQEND
  8
LAYER-1
  0
POLYLINE
  8
LAYER-1
 66
  1
 70
  1
 62
  0
  0
VERTEX
  8
LAYER-1
 10
3.199158
 20
7.196510
 30
0.000000
  0
VERTEX
  8
LAYER-1
 10
3.235109
 20
7.196510
 30
0.000000
  0
VERTEX
  8
LAYER-1
 10
3.235109
 20
0.612828
 30
0.000000
  0
VERTEX
  8
LAYER-1
 10
3.199158
 20
0.612828
 30
0.000000
  0
SEQEND
  8
LAYER-1
  0
POLYLINE
  8
LAYER-1
 66
  1
 70
  1
 62
  0
  0
VERTEX
  8
LAYER-1
 10
2.792630
 20
7.196510
 30
0.000000
  0
VERTEX
  8
LAYER-1
 10
2.828581
 20
7.196510
 30
0.000000
  0
VERTEX
  8
LAYER-1
 10
2.828581
 20
0.612828
 30
0.000000
  0
VERTEX
  8
LAYER-1
 10
2.792630
 20
0.612828
 30
0.000000
  0
SEQEND
  8
LAYER-1
  0
POLYLINE
  8
LAYER-1
 66
  1
 70
  1
 62
  0
  0
VERTEX
  8
LAYER-1
 10
2.384366
 20
7.196510
 30
0.000000
  0
VERTEX
  8
LAYER-1
 10
2.420316
 20
7.196510
 30
0.000000
  0
VERTEX
  8
LAYER-1
 10
2.420316
 20
0.612828
 30
0.000000
  0
VERTEX
  8
LAYER-1
 10
2.384366
 20
0.612828
 30
0.000000
  0
SEQEND
  8
LAYER-1
  0
POLYLINE
  8
LAYER-1
 66
  1
 70
  1
 62
  0
  0
VERTEX
  8
LAYER-1
 10
1.974799
 20
7.196510
 30
0.000000
  0
VERTEX
  8
LAYER-1
 10
2.010750
 20
7.196510
 30
0.000000
  0
VERTEX
  8
LAYER-1
 10
2.010750
 20
0.612828
 30
0.000000
  0
VERTEX
  8
LAYER-1
 10
1.974799
 20
0.612828
 30
0.000000
  0
SEQEND
  8
LAYER-1
  0
POLYLINE
  8
LAYER-1
 66
  1
 70
  1
 62
  0
 10
3.645939
 20
0.342022
 30
0.000000
  0
VERTEX
  8
LAYER-1
 10
3.645939
 20
0.342022
 30
0.000000
  0
VERTEX
  8
LAYER-1
 10
1.750021
 20
0.342123
 30
0.000000
  0
VERTEX
  8
LAYER-1
 10
1.750021
 20
0.613657
 30
0.000000
  0
VERTEX
  8
LAYER-1
 10
3.645939
 20
0.613773
 30
0.000000
  0
SEQEND
  8
LAYER-1
  0
POLYLINE
  8
LAYER-1
 66
  1
 70
  0
 62
  0
 10
3.646158
 20
0.409930
 30
0.000000
  0
VERTEX
  8
LAYER-1
 10
3.646158
 20
0.409930
 30
0.000000
  0
VERTEX
  8
LAYER-1
 10
3.606432
 20
0.409930
 30
0.000000
  0
SEQEND
  8
LAYER-1
  0
POLYLINE
  8
LAYER-1
 66
  1
 70
  0
 62
  0
 10
3.646158
 20
0.539840
 30
0.000000
  0
VERTEX
  8
LAYER-1
 10
3.646158
 20
0.539840
 30
0.000000
  0
VERTEX
  8
LAYER-1
 10
3.606432
 20
0.539840
 30
0.000000
  0
SEQEND
  8
LAYER-1
  0
POLYLINE
  8
LAYER-1
 66
  1
 70
  0
 62
  0
 10
3.607802
 20
0.336878
 30
0.000000
  0
VERTEX
  8
LAYER-1
 10
3.607802
 20
0.336878
 30
0.000000
  0
VERTEX
  8
LAYER-1
 10
3.620974
 20
0.329831
 30
0.000000
  0
VERTEX
  8
LAYER-1
 10
3.638054
 20
0.334162
 30
0.000000
  0
VERTEX
  8
LAYER-1
 10
3.644706
 20
0.336877
 30
0.000000
  0
SEQEND
  8
LAYER-1
  0
POLYLINE
  8
LAYER-1
 66
  1
 70
  1
 62
  0
  0
VERTEX
  8
LAYER-1
 10
3.651909
 20
0.336255
 30
0.000000
  0
VERTEX
  8
LAYER-1
 10
3.597294
 20
0.336255
 30
0.000000
  0
VERTEX
  8
LAYER-1
 10
3.597294
 20
0.342160
 30
0.000000
  0
VERTEX
  8
LAYER-1
 10
3.651909
 20
0.342160
 30
0.000000
  0
SEQEND
  8
LAYER-1
  0
POLYLINE
  8
LAYER-1
 66
  1
 70
  1
 62
  0
 10
3.645733
 20
7.468142
 30
0.000000
  0
VERTEX
  8
LAYER-1
 10
3.645733
 20
7.468142
 30
0.000000
  0
VERTEX
  8
LAYER-1
 10
1.749381
 20
7.468041
 30
0.000000
  0
VERTEX
  8
LAYER-1
 10
1.749381
 20
7.196508
 30
0.000000
  0
VERTEX
  8
LAYER-1
 10
3.645733
 20
7.196392
 30
0.000000
  0
SEQEND
  8
LAYER-1
  0
POLYLINE
  8
LAYER-1
 66
  1
 70
  0
 62
  0
 10
3.384444
 20
7.468141
 30
0.000000
  0
VERTEX
  8
LAYER-1
 10
3.384444
 20
7.468141
 30
0.000000
  0
VERTEX
  8
LAYER-1
 10
3.384444
 20
7.196509
 30
0.000000
  0
SEQEND
  8
LAYER-1
  0
POLYLINE
  8
LAYER-1
 66
  1
 70
  0
 62
  0
 10
3.053947
 20
7.196509
 30
0.000000
  0
VERTEX
  8
LAYER-1
 10
3.053947
 20
7.196509
 30
0.000000
  0
VERTEX
  8
LAYER-1
 10
3.053947
 20
7.468141
 30
0.000000
  0
SEQEND
  8
LAYER-1
  0
POLYLINE
  8
LAYER-1
 66
  1
 70
  0
 62
  0
 10
2.241115
 20
7.196510
 30
0.000000
  0
VERTEX
  8
LAYER-1
 10
2.241115
 20
7.196510
 30
0.000000
  0
VERTEX
  8
LAYER-1
 10
2.241115
 20
7.468141
 30
0.000000
  0
SEQEND
  8
LAYER-1
  0
POLYLINE
  8
LAYER-1
 66
  1
 70
  0
 62
  0
 10
2.422283
 20
7.468181
 30
0.000000
  0
VERTEX
  8
LAYER-1
 10
2.422283
 20
7.468181
 30
0.000000
  0
VERTEX
  8
LAYER-1
 10
2.422283
 20
7.196553
 30
0.000000
  0
SEQEND
  8
LAYER-1
  0
POLYLINE
  8
LAYER-1
 66
  1
 70
  0
 62
  0
 10
2.382424
 20
7.468181
 30
0.000000
  0
VERTEX
  8
LAYER-1
 10
2.382424
 20
7.468181
 30
0.000000
  0
VERTEX
  8
LAYER-1
 10
2.382424
 20
7.196553
 30
0.000000
  0
SEQEND
  8
LAYER-1
  0
POLYLINE
  8
LAYER-1
 66
  1
 70
  0
 62
  0
 10
3.236301
 20
7.468181
 30
0.000000
  0
VERTEX
  8
LAYER-1
 10
3.236301
 20
7.468181
 30
0.000000
  0
VERTEX
  8
LAYER-1
 10
3.236301
 20
7.196553
 30
0.000000
  0
SEQEND
  8
LAYER-1
  0
POLYLINE
  8
LAYER-1
 66
  1
 70
  0
 62
  0
 10
3.197484
 20
7.468181
 30
0.000000
  0
VERTEX
  8
LAYER-1
 10
3.197484
 20
7.468181
 30
0.000000
  0
VERTEX
  8
LAYER-1
 10
3.197484
 20
7.196553
 30
0.000000
  0
SEQEND
  8
LAYER-1
  0
POLYLINE
  8
LAYER-1
 66
  1
 70
  0
 62
  0
 10
2.969624
 20
7.468141
 30
0.000000
  0
VERTEX
  8
LAYER-1
 10
2.969624
 20
7.468141
 30
0.000000
  0
VERTEX
  8
LAYER-1
 10
2.969624
 20
7.196510
 30
0.000000
  0
SEQEND
  8
LAYER-1
  0
POLYLINE
  8
LAYER-1
 66
  1
 70
  0
 62
  0
 10
2.156794
 20
7.468141
 30
0.000000
  0
VERTEX
  8
LAYER-1
 10
2.156794
 20
7.468141
 30
0.000000
  0
VERTEX
  8
LAYER-1
 10
2.156794
 20
7.196510
 30
0.000000
  0
SEQEND
  8
LAYER-1
  0
POLYLINE
  8
LAYER-1
 66
  1
 70
  0
 62
  0
 10
2.011889
 20
7.467747
 30
0.000000
  0
VERTEX
  8
LAYER-1
 10
2.011889
 20
7.467747
 30
0.000000
  0
VERTEX
  8
LAYER-1
 10
2.011889
 20
7.196119
 30
0.000000
  0
SEQEND
  8
LAYER-1
  0
POLYLINE
  8
LAYER-1
 66
  1
 70
  0
 62
  0
 10
1.973506
 20
7.467747
 30
0.000000
  0
VERTEX
  8
LAYER-1
 10
1.973506
 20
7.467747
 30
0.000000
  0
VERTEX
  8
LAYER-1
 10
1.973506
 20
7.196119
 30
0.000000
  0
SEQEND
  8
LAYER-1
  0
POLYLINE
  8
LAYER-1
 66
  1
 70
  0
 62
  0
 10
2.829727
 20
7.468217
 30
0.000000
  0
VERTEX
  8
LAYER-1
 10
2.829727
 20
7.468217
 30
0.000000
  0
VERTEX
  8
LAYER-1
 10
2.829727
 20
7.196588
 30
0.000000
  0
SEQEND
  8
LAYER-1
  0
POLYLINE
  8
LAYER-1
 66
  1
 70
  0
 62
  0
 10
2.791344
 20
7.468217
 30
0.000000
  0
VERTEX
  8
LAYER-1
 10
2.791344
 20
7.468217
 30
0.000000
  0
VERTEX
  8
LAYER-1
 10
2.791344
 20
7.196588
 30
0.000000
  0
SEQEND
  8
LAYER-1
  0
POLYLINE
  8
LAYER-1
 66
  1
 70
  0
 62
  0
 10
3.456778
 20
7.196514
 30
0.000000
  0
VERTEX
  8
LAYER-1
 10
3.456778
 20
7.196514
 30
0.000000
  0
VERTEX
  8
LAYER-1
 10
3.456778
 20
7.468142
 30
0.000000
  0
SEQEND
  8
LAYER-1
  0
POLYLINE
  8
LAYER-1
 66
  1
 70
  0
 62
  0
 10
3.421348
 20
7.468142
 30
0.000000
  0
VERTEX
  8
LAYER-1
 10
3.421348
 20
7.468142
 30
0.000000
  0
VERTEX
  8
LAYER-1
 10
3.421348
 20
7.196512
 30
0.000000
  0
SEQEND
  8
LAYER-1
  0
POLYLINE
  8
LAYER-1
 66
  1
 70
  0
 62
  0
 10
3.455874
 20
7.468143
 30
0.000000
  0
VERTEX
  8
LAYER-1
 10
3.455874
 20
7.468143
 30
0.000000
  0
VERTEX
  8
LAYER-1
 10
3.441998
 20
7.479080
 30
0.000000
  0
VERTEX
  8
LAYER-1
 10
3.427234
 20
7.477002
 30
0.000000
  0
VERTEX
  8
LAYER-1
 10
3.422319
 20
7.468154
 30
0.000000
  0
SEQEND
  8
LAYER-1
  0
POLYLINE
  8
LAYER-1
 66
  1
 70
  0
 62
  0
 10
3.421348
 20
7.468143
 30
0.000000
  0
VERTEX
  8
LAYER-1
 10
3.421348
 20
7.468143
 30
0.000000
  0
VERTEX
  8
LAYER-1
 10
3.404240
 20
7.479126
 30
0.000000
  0
VERTEX
  8
LAYER-1
 10
3.387160
 20
7.474794
 30
0.000000
  0
VERTEX
  8
LAYER-1
 10
3.384445
 20
7.468141
 30
0.000000
  0
SEQEND
  8
LAYER-1
  0
POLYLINE
  8
LAYER-1
 66
  1
 70
  0
 62
  0
 10
3.005793
 20
7.467649
 30
0.000000
  0
VERTEX
  8
LAYER-1
 10
3.005793
 20
7.467649
 30
0.000000
  0
VERTEX
  8
LAYER-1
 10
2.986288
 20
7.477641
 30
0.000000
  0
VERTEX
  8
LAYER-1
 10
2.968215
 20
7.470915
 30
0.000000
  0
VERTEX
  8
LAYER-1
 10
2.968885
 20
7.467648
 30
0.000000
  0
SEQEND
  8
LAYER-1
  0
POLYLINE
  8
LAYER-1
 66
  1
 70
  0
 62
  0
 10
2.192834
 20
7.468118
 30
0.000000
  0
VERTEX
  8
LAYER-1
 10
2.192834
 20
7.468118
 30
0.000000
  0
VERTEX
  8
LAYER-1
 10
2.173330
 20
7.478110
 30
0.000000
  0
VERTEX
  8
LAYER-1
 10
2.155256
 20
7.471385
 30
0.000000
  0
VERTEX
  8
LAYER-1
 10
2.155927
 20
7.468118
 30
0.000000
  0
SEQEND
  8
LAYER-1
  0
POLYLINE
  8
LAYER-1
 66
  1
 70
  0
 62
  0
 10
3.053502
 20
7.467650
 30
0.000000
  0
VERTEX
  8
LAYER-1
 10
3.053502
 20
7.467650
 30
0.000000
  0
VERTEX
  8
LAYER-1
 10
3.033998
 20
7.477642
 30
0.000000
  0
VERTEX
  8
LAYER-1
 10
3.015924
 20
7.470915
 30
0.000000
  0
VERTEX
  8
LAYER-1
 10
3.016594
 20
7.467649
 30
0.000000
  0
SEQEND
  8
LAYER-1
  0
POLYLINE
  8
LAYER-1
 66
  1
 70
  0
 62
  0
 10
3.031559
 20
7.468208
 30
0.000000
  0
VERTEX
  8
LAYER-1
 10
3.031559
 20
7.468208
 30
0.000000
  0
VERTEX
  8
LAYER-1
 10
3.020808
 20
7.481213
 30
0.000000
  0
VERTEX
  8
LAYER-1
 10
3.006792
 20
7.482807
 30
0.000000
  0
VERTEX
  8
LAYER-1
 10
2.995756
 20
7.474024
 30
0.000000
  0
VERTEX
  8
LAYER-1
 10
2.996131
 20
7.468208
 30
0.000000
  0
SEQEND
  8
LAYER-1
  0
POLYLINE
  8
LAYER-1
 66
  1
 70
  0
 62
  0
 10
3.031559
 20
7.468208
 30
0.000000
  0
VERTEX
  8
LAYER-1
 10
3.031559
 20
7.468208
 30
0.000000
  0
VERTEX
  8
LAYER-1
 10
2.996130
 20
7.468208
 30
0.000000
  0
SEQEND
  8
LAYER-1
  0
POLYLINE
  8
LAYER-1
 66
  1
 70
  0
 62
  0
 10
2.241485
 20
7.468119
 30
0.000000
  0
VERTEX
  8
LAYER-1
 10
2.241485
 20
7.468119
 30
0.000000
  0
VERTEX
  8
LAYER-1
 10
2.221980
 20
7.478111
 30
0.000000
  0
VERTEX
  8
LAYER-1
 10
2.203907
 20
7.471386
 30
0.000000
  0
VERTEX
  8
LAYER-1
 10
2.204577
 20
7.468118
 30
0.000000
  0
SEQEND
  8
LAYER-1
  0
POLYLINE
  8
LAYER-1
 66
  1
 70
  0
 62
  0
 10
2.215312
 20
7.468208
 30
0.000000
  0
VERTEX
  8
LAYER-1
 10
2.215312
 20
7.468208
 30
0.000000
  0
VERTEX
  8
LAYER-1
 10
2.204560
 20
7.481213
 30
0.000000
  0
VERTEX
  8
LAYER-1
 10
2.190545
 20
7.482807
 30
0.000000
  0
VERTEX
  8
LAYER-1
 10
2.179508
 20
7.474024
 30
0.000000
  0
VERTEX
  8
LAYER-1
 10
2.179884
 20
7.468208
 30
0.000000
  0
SEQEND
  8
LAYER-1
  0
POLYLINE
  8
LAYER-1
 66
  1
 70
  0
 62
  0
 10
2.215312
 20
7.468208
 30
0.000000
  0
VERTEX
  8
LAYER-1
 10
2.215312
 20
7.468208
 30
0.000000
  0
VERTEX
  8
LAYER-1
 10
2.179884
 20
7.468208
 30
0.000000
  0
SEQEND
  8
LAYER-1
  0
POLYLINE
  8
LAYER-1
 66
  1
 70
  0
 62
  0
 10
3.422624
 20
7.195926
 30
0.000000
  0
VERTEX
  8
LAYER-1
 10
3.422624
 20
7.195926
 30
0.000000
  0
VERTEX
  8
LAYER-1
 10
3.432860
 20
7.189332
 30
0.000000
  0
VERTEX
  8
LAYER-1
 10
3.447545
 20
7.191906
 30
0.000000
  0
VERTEX
  8
LAYER-1
 10
3.455844
 20
7.196487
 30
0.000000
  0
SEQEND
  8
LAYER-1
  0
POLYLINE
  8
LAYER-1
 66
  1
 70
  0
 62
  0
 10
3.422625
 20
7.195926
 30
0.000000
  0
VERTEX
  8
LAYER-1
 10
3.422625
 20
7.195926
 30
0.000000
  0
VERTEX
  8
LAYER-1
 10
3.455844
 20
7.196487
 30
0.000000
  0
SEQEND
  8
LAYER-1
  0
POLYLINE
  8
LAYER-1
 66
  1
 70
  0
 62
  0
 10
3.383512
 20
7.196487
 30
0.000000
  0
VERTEX
  8
LAYER-1
 10
3.383512
 20
7.196487
 30
0.000000
  0
VERTEX
  8
LAYER-1
 10
3.396683
 20
7.189440
 30
0.000000
  0
VERTEX
  8
LAYER-1
 10
3.413763
 20
7.193771
 30
0.000000
  0
VERTEX
  8
LAYER-1
 10
3.420416
 20
7.196487
 30
0.000000
  0
SEQEND
  8
LAYER-1
  0
POLYLINE
  8
LAYER-1
 66
  1
 70
  0
 62
  0
 10
3.383512
 20
7.196487
 30
0.000000
  0
VERTEX
  8
LAYER-1
 10
3.383512
 20
7.196487
 30
0.000000
  0
VERTEX
  8
LAYER-1
 10
3.420415
 20
7.196487
 30
0.000000
  0
SEQEND
  8
LAYER-1
  0
POLYLINE
  8
LAYER-1
 66
  1
 70
  0
 62
  0
 10
3.016668
 20
7.196041
 30
0.000000
  0
VERTEX
  8
LAYER-1
 10
3.016668
 20
7.196041
 30
0.000000
  0
VERTEX
  8
LAYER-1
 10
3.032235
 20
7.189985
 30
0.000000
  0
VERTEX
  8
LAYER-1
 10
3.050309
 20
7.196711
 30
0.000000
  0
VERTEX
  8
LAYER-1
 10
3.053576
 20
7.196040
 30
0.000000
  0
SEQEND
  8
LAYER-1
  0
POLYLINE
  8
LAYER-1
 66
  1
 70
  0
 62
  0
 10
2.969428
 20
7.196041
 30
0.000000
  0
VERTEX
  8
LAYER-1
 10
2.969428
 20
7.196041
 30
0.000000
  0
VERTEX
  8
LAYER-1
 10
2.984995
 20
7.189985
 30
0.000000
  0
VERTEX
  8
LAYER-1
 10
3.003068
 20
7.196711
 30
0.000000
  0
VERTEX
  8
LAYER-1
 10
3.006335
 20
7.196040
 30
0.000000
  0
SEQEND
  8
LAYER-1
  0
POLYLINE
  8
LAYER-1
 66
  1
 70
  0
 62
  0
 10
2.996673
 20
7.195951
 30
0.000000
  0
VERTEX
  8
LAYER-1
 10
2.996673
 20
7.195951
 30
0.000000
  0
VERTEX
  8
LAYER-1
 10
3.003488
 20
7.186883
 30
0.000000
  0
VERTEX
  8
LAYER-1
 10
3.017503
 20
7.185289
 30
0.000000
  0
VERTEX
  8
LAYER-1
 10
3.028540
 20
7.194072
 30
0.000000
  0
VERTEX
  8
LAYER-1
 10
3.032102
 20
7.195951
 30
0.000000
  0
SEQEND
  8
LAYER-1
  0
POLYLINE
  8
LAYER-1
 66
  1
 70
  0
 62
  0
 10
3.032102
 20
7.195951
 30
0.000000
  0
VERTEX
  8
LAYER-1
 10
3.032102
 20
7.195951
 30
0.000000
  0
VERTEX
  8
LAYER-1
 10
2.996673
 20
7.195951
 30
0.000000
  0
SEQEND
  8
LAYER-1
  0
POLYLINE
  8
LAYER-1
 66
  1
 70
  0
 62
  0
 10
2.204114
 20
7.196041
 30
0.000000
  0
VERTEX
  8
LAYER-1
 10
2.204114
 20
7.196041
 30
0.000000
  0
VERTEX
  8
LAYER-1
 10
2.219681
 20
7.189985
 30
0.000000
  0
VERTEX
  8
LAYER-1
 10
2.237754
 20
7.196711
 30
0.000000
  0
VERTEX
  8
LAYER-1
 10
2.241021
 20
7.196040
 30
0.000000
  0
SEQEND
  8
LAYER-1
  0
POLYLINE
  8
LAYER-1
 66
  1
 70
  0
 62
  0
 10
2.155934
 20
7.196041
 30
0.000000
  0
VERTEX
  8
LAYER-1
 10
2.155934
 20
7.196041
 30
0.000000
  0
VERTEX
  8
LAYER-1
 10
2.171501
 20
7.189985
 30
0.000000
  0
VERTEX
  8
LAYER-1
 10
2.189574
 20
7.196711
 30
0.000000
  0
VERTEX
  8
LAYER-1
 10
2.192841
 20
7.196040
 30
0.000000
  0
SEQEND
  8
LAYER-1
  0
POLYLINE
  8
LAYER-1
 66
  1
 70
  0
 62
  0
 10
2.179889
 20
7.195951
 30
0.000000
  0
VERTEX
  8
LAYER-1
 10
2.179889
 20
7.195951
 30
0.000000
  0
VERTEX
  8
LAYER-1
 10
2.186704
 20
7.186883
 30
0.000000
  0
VERTEX
  8
LAYER-1
 10
2.200720
 20
7.185289
 30
0.000000
  0
VERTEX
  8
LAYER-1
 10
2.211756
 20
7.194072
 30
0.000000
  0
VERTEX
  8
LAYER-1
 10
2.215318
 20
7.195951
 30
0.000000
  0
SEQEND
  8
LAYER-1
  0
POLYLINE
  8
LAYER-1
 66
  1
 70
  0
 62
  0
 10
2.215318
 20
7.195951
 30
0.000000
  0
VERTEX
  8
LAYER-1
 10
2.215318
 20
7.195951
 30
0.000000
  0
VERTEX
  8
LAYER-1
 10
2.179890
 20
7.195951
 30
0.000000
  0
SEQEND
  8
LAYER-1
  0
POLYLINE
  8
LAYER-1
 66
  1
 70
  1
 62
  0
  0
VERTEX
  8
LAYER-1
 10
2.996129
 20
7.468141
 30
0.000000
  0
VERTEX
  8
LAYER-1
 10
3.031559
 20
7.468141
 30
0.000000
  0
VERTEX
  8
LAYER-1
 10
3.031559
 20
7.196513
 30
0.000000
  0
VERTEX
  8
LAYER-1
 10
2.996129
 20
7.196513
 30
0.000000
  0
SEQEND
  8
LAYER-1
  0
POLYLINE
  8
LAYER-1
 66
  1
 70
  1
 62
  0
  0
VERTEX
  8
LAYER-1
 10
2.179815
 20
7.468141
 30
0.000000
  0
VERTEX
  8
LAYER-1
 10
2.215246
 20
7.468141
 30
0.000000
  0
VERTEX
  8
LAYER-1
 10
2.215246
 20
7.196513
 30
0.000000
  0
VERTEX
  8
LAYER-1
 10
2.179815
 20
7.196513
 30
0.000000
  0
SEQEND
  8
LAYER-1
  0
POLYLINE
  8
LAYER-1
 66
  1
 70
  0
 62
  0
 10
3.031559
 20
7.400235
 30
0.000000
  0
VERTEX
  8
LAYER-1
 10
3.031559
 20
7.400235
 30
0.000000
  0
VERTEX
  8
LAYER-1
 10
2.996129
 20
7.400235
 30
0.000000
  0
SEQEND
  8
LAYER-1
  0
POLYLINE
  8
LAYER-1
 66
  1
 70
  0
 62
  0
 10
3.031559
 20
7.270326
 30
0.000000
  0
VERTEX
  8
LAYER-1
 10
3.031559
 20
7.270326
 30
0.000000
  0
VERTEX
  8
LAYER-1
 10
2.996129
 20
7.270326
 30
0.000000
  0
SEQEND
  8
LAYER-1
  0
POLYLINE
  8
LAYER-1
 66
  1
 70
  0
 62
  0
 10
2.215246
 20
7.400235
 30
0.000000
  0
VERTEX
  8
LAYER-1
 10
2.215246
 20
7.400235
 30
0.000000
  0
VERTEX
  8
LAYER-1
 10
2.179817
 20
7.400235
 30
0.000000
  0
SEQEND
  8
LAYER-1
  0
POLYLINE
  8
LAYER-1
 66
  1
 70
  0
 62
  0
 10
2.215246
 20
7.270325
 30
0.000000
  0
VERTEX
  8
LAYER-1
 10
2.215246
 20
7.270325
 30
0.000000
  0
VERTEX
  8
LAYER-1
 10
2.179817
 20
7.270325
 30
0.000000
  0
SEQEND
  8
LAYER-1
  0
POLYLINE
  8
LAYER-1
 66
  1
 70
  0
 62
  0
 10
3.233891
 20
7.467699
 30
0.000000
  0
VERTEX
  8
LAYER-1
 10
3.233891
 20
7.467699
 30
0.000000
  0
VERTEX
  8
LAYER-1
 10
3.220014
 20
7.478636
 30
0.000000
  0
VERTEX
  8
LAYER-1
 10
3.205251
 20
7.476557
 30
0.000000
  0
VERTEX
  8
LAYER-1
 10
3.200672
 20
7.468258
 30
0.000000
  0
SEQEND
  8
LAYER-1
  0
POLYLINE
  8
LAYER-1
 66
  1
 70
  0
 62
  0
 10
2.420397
 20
7.468080
 30
0.000000
  0
VERTEX
  8
LAYER-1
 10
2.420397
 20
7.468080
 30
0.000000
  0
VERTEX
  8
LAYER-1
 10
2.403289
 20
7.479063
 30
0.000000
  0
VERTEX
  8
LAYER-1
 10
2.386209
 20
7.474732
 30
0.000000
  0
VERTEX
  8
LAYER-1
 10
2.383493
 20
7.468080
 30
0.000000
  0
SEQEND
  8
LAYER-1
  0
POLYLINE
  8
LAYER-1
 66
  1
 70
  0
 62
  0
 10
2.607593
 20
7.195924
 30
0.000000
  0
VERTEX
  8
LAYER-1
 10
2.607593
 20
7.195924
 30
0.000000
  0
VERTEX
  8
LAYER-1
 10
2.617829
 20
7.189329
 30
0.000000
  0
VERTEX
  8
LAYER-1
 10
2.632513
 20
7.191905
 30
0.000000
  0
VERTEX
  8
LAYER-1
 10
2.640813
 20
7.196484
 30
0.000000
  0
SEQEND
  8
LAYER-1
  0
POLYLINE
  8
LAYER-1
 66
  1
 70
  0
 62
  0
 10
2.607593
 20
7.195924
 30
0.000000
  0
VERTEX
  8
LAYER-1
 10
2.607593
 20
7.195924
 30
0.000000
  0
VERTEX
  8
LAYER-1
 10
2.640812
 20
7.196484
 30
0.000000
  0
SEQEND
  8
LAYER-1
  0
POLYLINE
  8
LAYER-1
 66
  1
 70
  0
 62
  0
 10
2.568480
 20
7.196485
 30
0.000000
  0
VERTEX
  8
LAYER-1
 10
2.568480
 20
7.196485
 30
0.000000
  0
VERTEX
  8
LAYER-1
 10
2.581651
 20
7.189438
 30
0.000000
  0
VERTEX
  8
LAYER-1
 10
2.598732
 20
7.193769
 30
0.000000
  0
VERTEX
  8
LAYER-1
 10
2.605384
 20
7.196484
 30
0.000000
  0
SEQEND
  8
LAYER-1
  0
POLYLINE
  8
LAYER-1
 66
  1
 70
  0
 62
  0
 10
2.568481
 20
7.196485
 30
0.000000
  0
VERTEX
  8
LAYER-1
 10
2.568481
 20
7.196485
 30
0.000000
  0
VERTEX
  8
LAYER-1
 10
2.605384
 20
7.196484
 30
0.000000
  0
SEQEND
  8
LAYER-1
  0
POLYLINE
  8
LAYER-1
 66
  1
 70
  0
 62
  0
 10
2.569652
 20
7.468141
 30
0.000000
  0
VERTEX
  8
LAYER-1
 10
2.569652
 20
7.468141
 30
0.000000
  0
VERTEX
  8
LAYER-1
 10
2.569652
 20
7.196509
 30
0.000000
  0
SEQEND
  8
LAYER-1
  0
POLYLINE
  8
LAYER-1
 66
  1
 70
  0
 62
  0
 10
2.641986
 20
7.196514
 30
0.000000
  0
VERTEX
  8
LAYER-1
 10
2.641986
 20
7.196514
 30
0.000000
  0
VERTEX
  8
LAYER-1
 10
2.641986
 20
7.468142
 30
0.000000
  0
SEQEND
  8
LAYER-1
  0
POLYLINE
  8
LAYER-1
 66
  1
 70
  0
 62
  0
 10
2.606556
 20
7.468142
 30
0.000000
  0
VERTEX
  8
LAYER-1
 10
2.606556
 20
7.468142
 30
0.000000
  0
VERTEX
  8
LAYER-1
 10
2.606556
 20
7.196512
 30
0.000000
  0
SEQEND
  8
LAYER-1
  0
POLYLINE
  8
LAYER-1
 66
  1
 70
  0
 62
  0
 10
2.641681
 20
7.468001
 30
0.000000
  0
VERTEX
  8
LAYER-1
 10
2.641681
 20
7.468001
 30
0.000000
  0
VERTEX
  8
LAYER-1
 10
2.627804
 20
7.478939
 30
0.000000
  0
VERTEX
  8
LAYER-1
 10
2.613041
 20
7.476861
 30
0.000000
  0
VERTEX
  8
LAYER-1
 10
2.608461
 20
7.468561
 30
0.000000
  0
SEQEND
  8
LAYER-1
  0
POLYLINE
  8
LAYER-1
 66
  1
 70
  0
 62
  0
 10
2.608462
 20
7.468561
 30
0.000000
  0
VERTEX
  8
LAYER-1
 10
2.608462
 20
7.468561
 30
0.000000
  0
VERTEX
  8
LAYER-1
 10
2.641681
 20
7.468001
 30
0.000000
  0
SEQEND
  8
LAYER-1
  0
POLYLINE
  8
LAYER-1
 66
  1
 70
  0
 62
  0
 10
2.606253
 20
7.468001
 30
0.000000
  0
VERTEX
  8
LAYER-1
 10
2.606253
 20
7.468001
 30
0.000000
  0
VERTEX
  8
LAYER-1
 10
2.589144
 20
7.478984
 30
0.000000
  0
VERTEX
  8
LAYER-1
 10
2.572064
 20
7.474653
 30
0.000000
  0
VERTEX
  8
LAYER-1
 10
2.569349
 20
7.468000
 30
0.000000
  0
SEQEND
  8
LAYER-1
  0
POLYLINE
  8
LAYER-1
 66
  1
 70
  0
 62
  0
 10
2.569349
 20
7.468000
 30
0.000000
  0
VERTEX
  8
LAYER-1
 10
2.569349
 20
7.468000
 30
0.000000
  0
VERTEX
  8
LAYER-1
 10
2.606252
 20
7.468001
 30
0.000000
  0
SEQEND
  8
LAYER-1
  0
POLYLINE
  8
LAYER-1
 66
  1
 70
  0
 62
  0
 10
1.787593
 20
7.195924
 30
0.000000
  0
VERTEX
  8
LAYER-1
 10
1.787593
 20
7.195924
 30
0.000000
  0
VERTEX
  8
LAYER-1
 10
1.797829
 20
7.189329
 30
0.000000
  0
VERTEX
  8
LAYER-1
 10
1.812513
 20
7.191905
 30
0.000000
  0
VERTEX
  8
LAYER-1
 10
1.820813
 20
7.196484
 30
0.000000
  0
SEQEND
  8
LAYER-1
  0
POLYLINE
  8
LAYER-1
 66
  1
 70
  0
 62
  0
 10
1.787593
 20
7.195924
 30
0.000000
  0
VERTEX
  8
LAYER-1
 10
1.787593
 20
7.195924
 30
0.000000
  0
VERTEX
  8
LAYER-1
 10
1.820812
 20
7.196484
 30
0.000000
  0
SEQEND
  8
LAYER-1
  0
POLYLINE
  8
LAYER-1
 66
  1
 70
  0
 62
  0
 10
1.748480
 20
7.196485
 30
0.000000
  0
VERTEX
  8
LAYER-1
 10
1.748480
 20
7.196485
 30
0.000000
  0
VERTEX
  8
LAYER-1
 10
1.761651
 20
7.189438
 30
0.000000
  0
VERTEX
  8
LAYER-1
 10
1.778732
 20
7.193769
 30
0.000000
  0
VERTEX
  8
LAYER-1
 10
1.785384
 20
7.196484
 30
0.000000
  0
SEQEND
  8
LAYER-1
  0
POLYLINE
  8
LAYER-1
 66
  1
 70
  0
 62
  0
 10
1.748481
 20
7.196485
 30
0.000000
  0
VERTEX
  8
LAYER-1
 10
1.748481
 20
7.196485
 30
0.000000
  0
VERTEX
  8
LAYER-1
 10
1.785383
 20
7.196484
 30
0.000000
  0
SEQEND
  8
LAYER-1
  0
POLYLINE
  8
LAYER-1
 66
  1
 70
  0
 62
  0
 10
1.749652
 20
7.468141
 30
0.000000
  0
VERTEX
  8
LAYER-1
 10
1.749652
 20
7.468141
 30
0.000000
  0
VERTEX
  8
LAYER-1
 10
1.749652
 20
7.196509
 30
0.000000
  0
SEQEND
  8
LAYER-1
  0
POLYLINE
  8
LAYER-1
 66
  1
 70
  0
 62
  0
 10
1.821985
 20
7.196514
 30
0.000000
  0
VERTEX
  8
LAYER-1
 10
1.821985
 20
7.196514
 30
0.000000
  0
VERTEX
  8
LAYER-1
 10
1.821985
 20
7.468142
 30
0.000000
  0
SEQEND
  8
LAYER-1
  0
POLYLINE
  8
LAYER-1
 66
  1
 70
  0
 62
  0
 10
1.786556
 20
7.468142
 30
0.000000
  0
VERTEX
  8
LAYER-1
 10
1.786556
 20
7.468142
 30
0.000000
  0
VERTEX
  8
LAYER-1
 10
1.786556
 20
7.196512
 30
0.000000
  0
SEQEND
  8
LAYER-1
  0
POLYLINE
  8
LAYER-1
 66
  1
 70
  0
 62
  0
 10
1.821681
 20
7.468001
 30
0.000000
  0
VERTEX
  8
LAYER-1
 10
1.821681
 20
7.468001
 30
0.000000
  0
VERTEX
  8
LAYER-1
 10
1.807804
 20
7.478939
 30
0.000000
  0
VERTEX
  8
LAYER-1
 10
1.793041
 20
7.476861
 30
0.000000
  0
VERTEX
  8
LAYER-1
 10
1.788461
 20
7.468561
 30
0.000000
  0
SEQEND
  8
LAYER-1
  0
POLYLINE
  8
LAYER-1
 66
  1
 70
  0
 62
  0
 10
1.788462
 20
7.468561
 30
0.000000
  0
VERTEX
  8
LAYER-1
 10
1.788462
 20
7.468561
 30
0.000000
  0
VERTEX
  8
LAYER-1
 10
1.821681
 20
7.468001
 30
0.000000
  0
SEQEND
  8
LAYER-1
  0
POLYLINE
  8
LAYER-1
 66
  1
 70
  0
 62
  0
 10
1.786253
 20
7.468001
 30
0.000000
  0
VERTEX
  8
LAYER-1
 10
1.786253
 20
7.468001
 30
0.000000
  0
VERTEX
  8
LAYER-1
 10
1.769144
 20
7.478984
 30
0.000000
  0
VERTEX
  8
LAYER-1
 10
1.752064
 20
7.474653
 30
0.000000
  0
VERTEX
  8
LAYER-1
 10
1.749349
 20
7.468000
 30
0.000000
  0
SEQEND
  8
LAYER-1
  0
POLYLINE
  8
LAYER-1
 66
  1
 70
  0
 62
  0
 10
1.749349
 20
7.468000
 30
0.000000
  0
VERTEX
  8
LAYER-1
 10
1.749349
 20
7.468000
 30
0.000000
  0
VERTEX
  8
LAYER-1
 10
1.786252
 20
7.468001
 30
0.000000
  0
SEQEND
  8
LAYER-1
  0
POLYLINE
  8
LAYER-1
 66
  1
 70
  0
 62
  0
 10
3.645952
 20
7.400235
 30
0.000000
  0
VERTEX
  8
LAYER-1
 10
3.645952
 20
7.400235
 30
0.000000
  0
VERTEX
  8
LAYER-1
 10
3.606226
 20
7.400235
 30
0.000000
  0
SEQEND
  8
LAYER-1
  0
POLYLINE
  8
LAYER-1
 66
  1
 70
  0
 62
  0
 10
3.645952
 20
7.270325
 30
0.000000
  0
VERTEX
  8
LAYER-1
 10
3.645952
 20
7.270325
 30
0.000000
  0
VERTEX
  8
LAYER-1
 10
3.606226
 20
7.270325
 30
0.000000
  0
SEQEND
  8
LAYER-1
  0
POLYLINE
  8
LAYER-1
 66
  1
 70
  0
 62
  0
 10
3.644500
 20
7.473289
 30
0.000000
  0
VERTEX
  8
LAYER-1
 10
3.644500
 20
7.473289
 30
0.000000
  0
VERTEX
  8
LAYER-1
 10
3.627391
 20
7.484272
 30
0.000000
  0
VERTEX
  8
LAYER-1
 10
3.610312
 20
7.479940
 30
0.000000
  0
VERTEX
  8
LAYER-1
 10
3.607597
 20
7.473287
 30
0.000000
  0
SEQEND
  8
LAYER-1
  0
POLYLINE
  8
LAYER-1
 66
  1
 70
  1
 62
  0
  0
VERTEX
  8
LAYER-1
 10
3.597087
 20
7.473910
 30
0.000000
  0
VERTEX
  8
LAYER-1
 10
3.651703
 20
7.473910
 30
0.000000
  0
VERTEX
  8
LAYER-1
 10
3.651703
 20
7.468005
 30
0.000000
  0
VERTEX
  8
LAYER-1
 10
3.597087
 20
7.468005
 30
0.000000
  0
SEQEND
  8
LAYER-1
  0
POLYLINE
  8
LAYER-1
 66
  1
 70
  0
 62
  0
 10
3.605792
 20
7.468140
 30
0.000000
  0
VERTEX
  8
LAYER-1
 10
3.605792
 20
7.468140
 30
0.000000
  0
VERTEX
  8
LAYER-1
 10
3.605792
 20
7.196392
 30
0.000000
  0
SEQEND
  8
LAYER-1
  0
POLYLINE
  8
LAYER-1
 66
  1
 70
  0
 62
  0
 10
3.605802
 20
0.613928
 30
0.000000
  0
VERTEX
  8
LAYER-1
 10
3.605802
 20
0.613928
 30
0.000000
  0
VERTEX
  8
LAYER-1
 10
3.605802
 20
0.342228
 30
0.000000
  0
SEQEND
  8
LAYER-1
  0
POLYLINE
  8
LAYER-1
 66
  1
 70
  0
 62
  0
 10
3.384883
 20
0.341789
 30
0.000000
  0
VERTEX
  8
LAYER-1
 10
3.384883
 20
0.341789
 30
0.000000
  0
VERTEX
  8
LAYER-1
 10
3.384883
 20
0.613420
 30
0.000000
  0
SEQEND
  8
LAYER-1
  0
POLYLINE
  8
LAYER-1
 66
  1
 70
  0
 62
  0
 10
3.054385
 20
0.613420
 30
0.000000
  0
VERTEX
  8
LAYER-1
 10
3.054385
 20
0.613420
 30
0.000000
  0
VERTEX
  8
LAYER-1
 10
3.054385
 20
0.341789
 30
0.000000
  0
SEQEND
  8
LAYER-1
  0
POLYLINE
  8
LAYER-1
 66
  1
 70
  0
 62
  0
 10
2.241554
 20
0.613420
 30
0.000000
  0
VERTEX
  8
LAYER-1
 10
2.241554
 20
0.613420
 30
0.000000
  0
VERTEX
  8
LAYER-1
 10
2.241554
 20
0.341789
 30
0.000000
  0
SEQEND
  8
LAYER-1
  0
POLYLINE
  8
LAYER-1
 66
  1
 70
  0
 62
  0
 10
2.422721
 20
0.341749
 30
0.000000
  0
VERTEX
  8
LAYER-1
 10
2.422721
 20
0.341749
 30
0.000000
  0
VERTEX
  8
LAYER-1
 10
2.422721
 20
0.613378
 30
0.000000
  0
SEQEND
  8
LAYER-1
  0
POLYLINE
  8
LAYER-1
 66
  1
 70
  0
 62
  0
 10
2.382863
 20
0.341749
 30
0.000000
  0
VERTEX
  8
LAYER-1
 10
2.382863
 20
0.341749
 30
0.000000
  0
VERTEX
  8
LAYER-1
 10
2.382863
 20
0.613378
 30
0.000000
  0
SEQEND
  8
LAYER-1
  0
POLYLINE
  8
LAYER-1
 66
  1
 70
  0
 62
  0
 10
3.236739
 20
0.341749
 30
0.000000
  0
VERTEX
  8
LAYER-1
 10
3.236739
 20
0.341749
 30
0.000000
  0
VERTEX
  8
LAYER-1
 10
3.236739
 20
0.613378
 30
0.000000
  0
SEQEND
  8
LAYER-1
  0
POLYLINE
  8
LAYER-1
 66
  1
 70
  0
 62
  0
 10
3.197923
 20
0.341749
 30
0.000000
  0
VERTEX
  8
LAYER-1
 10
3.197923
 20
0.341749
 30
0.000000
  0
VERTEX
  8
LAYER-1
 10
3.197923
 20
0.613378
 30
0.000000
  0
SEQEND
  8
LAYER-1
  0
POLYLINE
  8
LAYER-1
 66
  1
 70
  0
 62
  0
 10
2.970063
 20
0.341789
 30
0.000000
  0
VERTEX
  8
LAYER-1
 10
2.970063
 20
0.341789
 30
0.000000
  0
VERTEX
  8
LAYER-1
 10
2.970063
 20
0.613420
 30
0.000000
  0
SEQEND
  8
LAYER-1
  0
POLYLINE
  8
LAYER-1
 66
  1
 70
  0
 62
  0
 10
2.157232
 20
0.341789
 30
0.000000
  0
VERTEX
  8
LAYER-1
 10
2.157232
 20
0.341789
 30
0.000000
  0
VERTEX
  8
LAYER-1
 10
2.157232
 20
0.613420
 30
0.000000
  0
SEQEND
  8
LAYER-1
  0
POLYLINE
  8
LAYER-1
 66
  1
 70
  0
 62
  0
 10
2.012327
 20
0.342183
 30
0.000000
  0
VERTEX
  8
LAYER-1
 10
2.012327
 20
0.342183
 30
0.000000
  0
VERTEX
  8
LAYER-1
 10
2.012327
 20
0.613812
 30
0.000000
  0
SEQEND
  8
LAYER-1
  0
POLYLINE
  8
LAYER-1
 66
  1
 70
  0
 62
  0
 10
1.973945
 20
0.342183
 30
0.000000
  0
VERTEX
  8
LAYER-1
 10
1.973945
 20
0.342183
 30
0.000000
  0
VERTEX
  8
LAYER-1
 10
1.973945
 20
0.613812
 30
0.000000
  0
SEQEND
  8
LAYER-1
  0
POLYLINE
  8
LAYER-1
 66
  1
 70
  0
 62
  0
 10
2.830166
 20
0.341714
 30
0.000000
  0
VERTEX
  8
LAYER-1
 10
2.830166
 20
0.341714
 30
0.000000
  0
VERTEX
  8
LAYER-1
 10
2.830166
 20
0.613341
 30
0.000000
  0
SEQEND
  8
LAYER-1
  0
POLYLINE
  8
LAYER-1
 66
  1
 70
  0
 62
  0
 10
2.791783
 20
0.341714
 30
0.000000
  0
VERTEX
  8
LAYER-1
 10
2.791783
 20
0.341714
 30
0.000000
  0
VERTEX
  8
LAYER-1
 10
2.791783
 20
0.613341
 30
0.000000
  0
SEQEND
  8
LAYER-1
  0
POLYLINE
  8
LAYER-1
 66
  1
 70
  0
 62
  0
 10
3.457216
 20
0.613417
 30
0.000000
  0
VERTEX
  8
LAYER-1
 10
3.457216
 20
0.613417
 30
0.000000
  0
VERTEX
  8
LAYER-1
 10
3.457216
 20
0.341788
 30
0.000000
  0
SEQEND
  8
LAYER-1
  0
POLYLINE
  8
LAYER-1
 66
  1
 70
  0
 62
  0
 10
3.421786
 20
0.341788
 30
0.000000
  0
VERTEX
  8
LAYER-1
 10
3.421786
 20
0.341788
 30
0.000000
  0
VERTEX
  8
LAYER-1
 10
3.421786
 20
0.613419
 30
0.000000
  0
SEQEND
  8
LAYER-1
  0
POLYLINE
  8
LAYER-1
 66
  1
 70
  0
 62
  0
 10
3.422757
 20
0.341777
 30
0.000000
  0
VERTEX
  8
LAYER-1
 10
3.422757
 20
0.341777
 30
0.000000
  0
VERTEX
  8
LAYER-1
 10
3.432704
 20
0.334784
 30
0.000000
  0
VERTEX
  8
LAYER-1
 10
3.447465
 20
0.336873
 30
0.000000
  0
VERTEX
  8
LAYER-1
 10
3.456313
 20
0.341788
 30
0.000000
  0
SEQEND
  8
LAYER-1
  0
POLYLINE
  8
LAYER-1
 66
  1
 70
  0
 62
  0
 10
3.384884
 20
0.341789
 30
0.000000
  0
VERTEX
  8
LAYER-1
 10
3.384884
 20
0.341789
 30
0.000000
  0
VERTEX
  8
LAYER-1
 10
3.398054
 20
0.334741
 30
0.000000
  0
VERTEX
  8
LAYER-1
 10
3.415135
 20
0.339072
 30
0.000000
  0
VERTEX
  8
LAYER-1
 10
3.421786
 20
0.341788
 30
0.000000
  0
SEQEND
  8
LAYER-1
  0
POLYLINE
  8
LAYER-1
 66
  1
 70
  0
 62
  0
 10
2.969324
 20
0.342282
 30
0.000000
  0
VERTEX
  8
LAYER-1
 10
2.969324
 20
0.342282
 30
0.000000
  0
VERTEX
  8
LAYER-1
 10
2.984891
 20
0.336227
 30
0.000000
  0
VERTEX
  8
LAYER-1
 10
3.002964
 20
0.342952
 30
0.000000
  0
VERTEX
  8
LAYER-1
 10
3.006231
 20
0.342282
 30
0.000000
  0
SEQEND
  8
LAYER-1
  0
POLYLINE
  8
LAYER-1
 66
  1
 70
  0
 62
  0
 10
2.156365
 20
0.341812
 30
0.000000
  0
VERTEX
  8
LAYER-1
 10
2.156365
 20
0.341812
 30
0.000000
  0
VERTEX
  8
LAYER-1
 10
2.171933
 20
0.335757
 30
0.000000
  0
VERTEX
  8
LAYER-1
 10
2.190006
 20
0.342482
 30
0.000000
  0
VERTEX
  8
LAYER-1
 10
2.193273
 20
0.341812
 30
0.000000
  0
SEQEND
  8
LAYER-1
  0
POLYLINE
  8
LAYER-1
 66
  1
 70
  0
 62
  0
 10
3.017033
 20
0.342282
 30
0.000000
  0
VERTEX
  8
LAYER-1
 10
3.017033
 20
0.342282
 30
0.000000
  0
VERTEX
  8
LAYER-1
 10
3.032600
 20
0.336227
 30
0.000000
  0
VERTEX
  8
LAYER-1
 10
3.050674
 20
0.342952
 30
0.000000
  0
VERTEX
  8
LAYER-1
 10
3.053941
 20
0.342281
 30
0.000000
  0
SEQEND
  8
LAYER-1
  0
POLYLINE
  8
LAYER-1
 66
  1
 70
  0
 62
  0
 10
2.996569
 20
0.341723
 30
0.000000
  0
VERTEX
  8
LAYER-1
 10
2.996569
 20
0.341723
 30
0.000000
  0
VERTEX
  8
LAYER-1
 10
3.003384
 20
0.332654
 30
0.000000
  0
VERTEX
  8
LAYER-1
 10
3.017399
 20
0.331061
 30
0.000000
  0
VERTEX
  8
LAYER-1
 10
3.028436
 20
0.339844
 30
0.000000
  0
VERTEX
  8
LAYER-1
 10
3.031998
 20
0.341723
 30
0.000000
  0
SEQEND
  8
LAYER-1
  0
POLYLINE
  8
LAYER-1
 66
  1
 70
  0
 62
  0
 10
3.031998
 20
0.341723
 30
0.000000
  0
VERTEX
  8
LAYER-1
 10
3.031998
 20
0.341723
 30
0.000000
  0
VERTEX
  8
LAYER-1
 10
2.996569
 20
0.341723
 30
0.000000
  0
SEQEND
  8
LAYER-1
  0
POLYLINE
  8
LAYER-1
 66
  1
 70
  0
 62
  0
 10
2.205016
 20
0.341812
 30
0.000000
  0
VERTEX
  8
LAYER-1
 10
2.205016
 20
0.341812
 30
0.000000
  0
VERTEX
  8
LAYER-1
 10
2.220583
 20
0.335757
 30
0.000000
  0
VERTEX
  8
LAYER-1
 10
2.238657
 20
0.342482
 30
0.000000
  0
VERTEX
  8
LAYER-1
 10
2.241923
 20
0.341811
 30
0.000000
  0
SEQEND
  8
LAYER-1
  0
POLYLINE
  8
LAYER-1
 66
  1
 70
  0
 62
  0
 10
2.180322
 20
0.341723
 30
0.000000
  0
VERTEX
  8
LAYER-1
 10
2.180322
 20
0.341723
 30
0.000000
  0
VERTEX
  8
LAYER-1
 10
2.187137
 20
0.332654
 30
0.000000
  0
VERTEX
  8
LAYER-1
 10
2.201152
 20
0.331061
 30
0.000000
  0
VERTEX
  8
LAYER-1
 10
2.212189
 20
0.339844
 30
0.000000
  0
VERTEX
  8
LAYER-1
 10
2.215751
 20
0.341723
 30
0.000000
  0
SEQEND
  8
LAYER-1
  0
POLYLINE
  8
LAYER-1
 66
  1
 70
  0
 62
  0
 10
2.215751
 20
0.341723
 30
0.000000
  0
VERTEX
  8
LAYER-1
 10
2.215751
 20
0.341723
 30
0.000000
  0
VERTEX
  8
LAYER-1
 10
2.180322
 20
0.341723
 30
0.000000
  0
SEQEND
  8
LAYER-1
  0
POLYLINE
  8
LAYER-1
 66
  1
 70
  0
 62
  0
 10
3.456283
 20
0.613445
 30
0.000000
  0
VERTEX
  8
LAYER-1
 10
3.456283
 20
0.613445
 30
0.000000
  0
VERTEX
  8
LAYER-1
 10
3.442406
 20
0.624382
 30
0.000000
  0
VERTEX
  8
LAYER-1
 10
3.427643
 20
0.622303
 30
0.000000
  0
VERTEX
  8
LAYER-1
 10
3.423063
 20
0.614004
 30
0.000000
  0
SEQEND
  8
LAYER-1
  0
POLYLINE
  8
LAYER-1
 66
  1
 70
  0
 62
  0
 10
3.423063
 20
0.614005
 30
0.000000
  0
VERTEX
  8
LAYER-1
 10
3.423063
 20
0.614005
 30
0.000000
  0
VERTEX
  8
LAYER-1
 10
3.456283
 20
0.613445
 30
0.000000
  0
SEQEND
  8
LAYER-1
  0
POLYLINE
  8
LAYER-1
 66
  1
 70
  0
 62
  0
 10
3.420854
 20
0.613443
 30
0.000000
  0
VERTEX
  8
LAYER-1
 10
3.420854
 20
0.613443
 30
0.000000
  0
VERTEX
  8
LAYER-1
 10
3.403746
 20
0.624427
 30
0.000000
  0
VERTEX
  8
LAYER-1
 10
3.386666
 20
0.620096
 30
0.000000
  0
VERTEX
  8
LAYER-1
 10
3.383951
 20
0.613442
 30
0.000000
  0
SEQEND
  8
LAYER-1
  0
POLYLINE
  8
LAYER-1
 66
  1
 70
  0
 62
  0
 10
3.383951
 20
0.613443
 30
0.000000
  0
VERTEX
  8
LAYER-1
 10
3.383951
 20
0.613443
 30
0.000000
  0
VERTEX
  8
LAYER-1
 10
3.420854
 20
0.613445
 30
0.000000
  0
SEQEND
  8
LAYER-1
  0
POLYLINE
  8
LAYER-1
 66
  1
 70
  0
 62
  0
 10
3.054015
 20
0.613891
 30
0.000000
  0
VERTEX
  8
LAYER-1
 10
3.054015
 20
0.613891
 30
0.000000
  0
VERTEX
  8
LAYER-1
 10
3.034510
 20
0.623882
 30
0.000000
  0
VERTEX
  8
LAYER-1
 10
3.016437
 20
0.617157
 30
0.000000
  0
VERTEX
  8
LAYER-1
 10
3.017107
 20
0.613890
 30
0.000000
  0
SEQEND
  8
LAYER-1
  0
POLYLINE
  8
LAYER-1
 66
  1
 70
  0
 62
  0
 10
3.006774
 20
0.613891
 30
0.000000
  0
VERTEX
  8
LAYER-1
 10
3.006774
 20
0.613891
 30
0.000000
  0
VERTEX
  8
LAYER-1
 10
2.987269
 20
0.623882
 30
0.000000
  0
VERTEX
  8
LAYER-1
 10
2.969196
 20
0.617157
 30
0.000000
  0
VERTEX
  8
LAYER-1
 10
2.969866
 20
0.613890
 30
0.000000
  0
SEQEND
  8
LAYER-1
  0
POLYLINE
  8
LAYER-1
 66
  1
 70
  0
 62
  0
 10
3.032541
 20
0.613979
 30
0.000000
  0
VERTEX
  8
LAYER-1
 10
3.032541
 20
0.613979
 30
0.000000
  0
VERTEX
  8
LAYER-1
 10
3.021789
 20
0.626984
 30
0.000000
  0
VERTEX
  8
LAYER-1
 10
3.007774
 20
0.628578
 30
0.000000
  0
VERTEX
  8
LAYER-1
 10
2.996737
 20
0.619795
 30
0.000000
  0
VERTEX
  8
LAYER-1
 10
2.997112
 20
0.613979
 30
0.000000
  0
SEQEND
  8
LAYER-1
  0
POLYLINE
  8
LAYER-1
 66
  1
 70
  0
 62
  0
 10
3.032540
 20
0.613980
 30
0.000000
  0
VERTEX
  8
LAYER-1
 10
3.032540
 20
0.613980
 30
0.000000
  0
VERTEX
  8
LAYER-1
 10
2.997112
 20
0.613980
 30
0.000000
  0
SEQEND
  8
LAYER-1
  0
POLYLINE
  8
LAYER-1
 66
  1
 70
  0
 62
  0
 10
2.241460
 20
0.613891
 30
0.000000
  0
VERTEX
  8
LAYER-1
 10
2.241460
 20
0.613891
 30
0.000000
  0
VERTEX
  8
LAYER-1
 10
2.221955
 20
0.623882
 30
0.000000
  0
VERTEX
  8
LAYER-1
 10
2.203882
 20
0.617157
 30
0.000000
  0
VERTEX
  8
LAYER-1
 10
2.204552
 20
0.613890
 30
0.000000
  0
SEQEND
  8
LAYER-1
  0
POLYLINE
  8
LAYER-1
 66
  1
 70
  0
 62
  0
 10
2.193280
 20
0.613891
 30
0.000000
  0
VERTEX
  8
LAYER-1
 10
2.193280
 20
0.613891
 30
0.000000
  0
VERTEX
  8
LAYER-1
 10
2.173775
 20
0.623882
 30
0.000000
  0
VERTEX
  8
LAYER-1
 10
2.155702
 20
0.617157
 30
0.000000
  0
VERTEX
  8
LAYER-1
 10
2.156372
 20
0.613890
 30
0.000000
  0
SEQEND
  8
LAYER-1
  0
POLYLINE
  8
LAYER-1
 66
  1
 70
  0
 62
  0
 10
2.215757
 20
0.613979
 30
0.000000
  0
VERTEX
  8
LAYER-1
 10
2.215757
 20
0.613979
 30
0.000000
  0
VERTEX
  8
LAYER-1
 10
2.205005
 20
0.626984
 30
0.000000
  0
VERTEX
  8
LAYER-1
 10
2.190990
 20
0.628578
 30
0.000000
  0
VERTEX
  8
LAYER-1
 10
2.179953
 20
0.619795
 30
0.000000
  0
VERTEX
  8
LAYER-1
 10
2.180328
 20
0.613979
 30
0.000000
  0
SEQEND
  8
LAYER-1
  0
POLYLINE
  8
LAYER-1
 66
  1
 70
  0
 62
  0
 10
2.215757
 20
0.613980
 30
0.000000
  0
VERTEX
  8
LAYER-1
 10
2.215757
 20
0.613980
 30
0.000000
  0
VERTEX
  8
LAYER-1
 10
2.180329
 20
0.613980
 30
0.000000
  0
SEQEND
  8
LAYER-1
  0
POLYLINE
  8
LAYER-1
 66
  1
 70
  1
 62
  0
  0
VERTEX
  8
LAYER-1
 10
3.031998
 20
0.341789
 30
0.000000
  0
VERTEX
  8
LAYER-1
 10
2.996568
 20
0.341789
 30
0.000000
  0
VERTEX
  8
LAYER-1
 10
2.996568
 20
0.613418
 30
0.000000
  0
VERTEX
  8
LAYER-1
 10
3.031998
 20
0.613418
 30
0.000000
  0
SEQEND
  8
LAYER-1
  0
POLYLINE
  8
LAYER-1
 66
  1
 70
  1
 62
  0
  0
VERTEX
  8
LAYER-1
 10
2.215684
 20
0.341789
 30
0.000000
  0
VERTEX
  8
LAYER-1
 10
2.180254
 20
0.341789
 30
0.000000
  0
VERTEX
  8
LAYER-1
 10
2.180254
 20
0.613418
 30
0.000000
  0
VERTEX
  8
LAYER-1
 10
2.215684
 20
0.613418
 30
0.000000
  0
SEQEND
  8
LAYER-1
  0
POLYLINE
  8
LAYER-1
 66
  1
 70
  0
 62
  0
 10
3.031998
 20
0.409696
 30
0.000000
  0
VERTEX
  8
LAYER-1
 10
3.031998
 20
0.409696
 30
0.000000
  0
VERTEX
  8
LAYER-1
 10
2.996568
 20
0.409696
 30
0.000000
  0
SEQEND
  8
LAYER-1
  0
POLYLINE
  8
LAYER-1
 66
  1
 70
  0
 62
  0
 10
3.031998
 20
0.539605
 30
0.000000
  0
VERTEX
  8
LAYER-1
 10
3.031998
 20
0.539605
 30
0.000000
  0
VERTEX
  8
LAYER-1
 10
2.996568
 20
0.539605
 30
0.000000
  0
SEQEND
  8
LAYER-1
  0
POLYLINE
  8
LAYER-1
 66
  1
 70
  0
 62
  0
 10
2.215684
 20
0.409696
 30
0.000000
  0
VERTEX
  8
LAYER-1
 10
2.215684
 20
0.409696
 30
0.000000
  0
VERTEX
  8
LAYER-1
 10
2.180255
 20
0.409696
 30
0.000000
  0
SEQEND
  8
LAYER-1
  0
POLYLINE
  8
LAYER-1
 66
  1
 70
  0
 62
  0
 10
2.215684
 20
0.539605
 30
0.000000
  0
VERTEX
  8
LAYER-1
 10
2.215684
 20
0.539605
 30
0.000000
  0
VERTEX
  8
LAYER-1
 10
2.180255
 20
0.539605
 30
0.000000
  0
SEQEND
  8
LAYER-1
  0
POLYLINE
  8
LAYER-1
 66
  1
 70
  0
 62
  0
 10
3.201110
 20
0.341671
 30
0.000000
  0
VERTEX
  8
LAYER-1
 10
3.201110
 20
0.341671
 30
0.000000
  0
VERTEX
  8
LAYER-1
 10
3.211346
 20
0.335078
 30
0.000000
  0
VERTEX
  8
LAYER-1
 10
3.226031
 20
0.337653
 30
0.000000
  0
VERTEX
  8
LAYER-1
 10
3.234330
 20
0.342232
 30
0.000000
  0
SEQEND
  8
LAYER-1
  0
POLYLINE
  8
LAYER-1
 66
  1
 70
  0
 62
  0
 10
2.383932
 20
0.341850
 30
0.000000
  0
VERTEX
  8
LAYER-1
 10
2.383932
 20
0.341850
 30
0.000000
  0
VERTEX
  8
LAYER-1
 10
2.397103
 20
0.334804
 30
0.000000
  0
VERTEX
  8
LAYER-1
 10
2.414183
 20
0.339135
 30
0.000000
  0
VERTEX
  8
LAYER-1
 10
2.420836
 20
0.341849
 30
0.000000
  0
SEQEND
  8
LAYER-1
  0
POLYLINE
  8
LAYER-1
 66
  1
 70
  0
 62
  0
 10
2.641251
 20
0.613447
 30
0.000000
  0
VERTEX
  8
LAYER-1
 10
2.641251
 20
0.613447
 30
0.000000
  0
VERTEX
  8
LAYER-1
 10
2.627374
 20
0.624385
 30
0.000000
  0
VERTEX
  8
LAYER-1
 10
2.612611
 20
0.622307
 30
0.000000
  0
VERTEX
  8
LAYER-1
 10
2.608032
 20
0.614007
 30
0.000000
  0
SEQEND
  8
LAYER-1
  0
POLYLINE
  8
LAYER-1
 66
  1
 70
  0
 62
  0
 10
2.608032
 20
0.614007
 30
0.000000
  0
VERTEX
  8
LAYER-1
 10
2.608032
 20
0.614007
 30
0.000000
  0
VERTEX
  8
LAYER-1
 10
2.641251
 20
0.613447
 30
0.000000
  0
SEQEND
  8
LAYER-1
  0
POLYLINE
  8
LAYER-1
 66
  1
 70
  0
 62
  0
 10
2.605823
 20
0.613447
 30
0.000000
  0
VERTEX
  8
LAYER-1
 10
2.605823
 20
0.613447
 30
0.000000
  0
VERTEX
  8
LAYER-1
 10
2.588715
 20
0.624429
 30
0.000000
  0
VERTEX
  8
LAYER-1
 10
2.571635
 20
0.620099
 30
0.000000
  0
VERTEX
  8
LAYER-1
 10
2.568919
 20
0.613446
 30
0.000000
  0
SEQEND
  8
LAYER-1
  0
POLYLINE
  8
LAYER-1
 66
  1
 70
  0
 62
  0
 10
2.568919
 20
0.613446
 30
0.000000
  0
VERTEX
  8
LAYER-1
 10
2.568919
 20
0.613446
 30
0.000000
  0
VERTEX
  8
LAYER-1
 10
2.605822
 20
0.613447
 30
0.000000
  0
SEQEND
  8
LAYER-1
  0
POLYLINE
  8
LAYER-1
 66
  1
 70
  0
 62
  0
 10
2.570090
 20
0.341789
 30
0.000000
  0
VERTEX
  8
LAYER-1
 10
2.570090
 20
0.341789
 30
0.000000
  0
VERTEX
  8
LAYER-1
 10
2.570090
 20
0.613420
 30
0.000000
  0
SEQEND
  8
LAYER-1
  0
POLYLINE
  8
LAYER-1
 66
  1
 70
  0
 62
  0
 10
2.642424
 20
0.613417
 30
0.000000
  0
VERTEX
  8
LAYER-1
 10
2.642424
 20
0.613417
 30
0.000000
  0
VERTEX
  8
LAYER-1
 10
2.642424
 20
0.341788
 30
0.000000
  0
SEQEND
  8
LAYER-1
  0
POLYLINE
  8
LAYER-1
 66
  1
 70
  0
 62
  0
 10
2.606995
 20
0.341788
 30
0.000000
  0
VERTEX
  8
LAYER-1
 10
2.606995
 20
0.341788
 30
0.000000
  0
VERTEX
  8
LAYER-1
 10
2.606995
 20
0.613419
 30
0.000000
  0
SEQEND
  8
LAYER-1
  0
POLYLINE
  8
LAYER-1
 66
  1
 70
  0
 62
  0
 10
2.608900
 20
0.341370
 30
0.000000
  0
VERTEX
  8
LAYER-1
 10
2.608900
 20
0.341370
 30
0.000000
  0
VERTEX
  8
LAYER-1
 10
2.619136
 20
0.334775
 30
0.000000
  0
VERTEX
  8
LAYER-1
 10
2.633820
 20
0.337351
 30
0.000000
  0
VERTEX
  8
LAYER-1
 10
2.642120
 20
0.341929
 30
0.000000
  0
SEQEND
  8
LAYER-1
  0
POLYLINE
  8
LAYER-1
 66
  1
 70
  0
 62
  0
 10
2.608901
 20
0.341369
 30
0.000000
  0
VERTEX
  8
LAYER-1
 10
2.608901
 20
0.341369
 30
0.000000
  0
VERTEX
  8
LAYER-1
 10
2.642120
 20
0.341929
 30
0.000000
  0
SEQEND
  8
LAYER-1
  0
POLYLINE
  8
LAYER-1
 66
  1
 70
  0
 62
  0
 10
2.569788
 20
0.341932
 30
0.000000
  0
VERTEX
  8
LAYER-1
 10
2.569788
 20
0.341932
 30
0.000000
  0
VERTEX
  8
LAYER-1
 10
2.582959
 20
0.334884
 30
0.000000
  0
VERTEX
  8
LAYER-1
 10
2.600039
 20
0.339215
 30
0.000000
  0
VERTEX
  8
LAYER-1
 10
2.606692
 20
0.341930
 30
0.000000
  0
SEQEND
  8
LAYER-1
  0
POLYLINE
  8
LAYER-1
 66
  1
 70
  0
 62
  0
 10
2.569788
 20
0.341930
 30
0.000000
  0
VERTEX
  8
LAYER-1
 10
2.569788
 20
0.341930
 30
0.000000
  0
VERTEX
  8
LAYER-1
 10
2.606691
 20
0.341929
 30
0.000000
  0
SEQEND
  8
LAYER-1
  0
POLYLINE
  8
LAYER-1
 66
  1
 70
  0
 62
  0
 10
1.821252
 20
0.613447
 30
0.000000
  0
VERTEX
  8
LAYER-1
 10
1.821252
 20
0.613447
 30
0.000000
  0
VERTEX
  8
LAYER-1
 10
1.807374
 20
0.624385
 30
0.000000
  0
VERTEX
  8
LAYER-1
 10
1.792611
 20
0.622307
 30
0.000000
  0
VERTEX
  8
LAYER-1
 10
1.788032
 20
0.614007
 30
0.000000
  0
SEQEND
  8
LAYER-1
  0
POLYLINE
  8
LAYER-1
 66
  1
 70
  0
 62
  0
 10
1.788032
 20
0.614007
 30
0.000000
  0
VERTEX
  8
LAYER-1
 10
1.788032
 20
0.614007
 30
0.000000
  0
VERTEX
  8
LAYER-1
 10
1.821251
 20
0.613447
 30
0.000000
  0
SEQEND
  8
LAYER-1
  0
POLYLINE
  8
LAYER-1
 66
  1
 70
  0
 62
  0
 10
1.785823
 20
0.613447
 30
0.000000
  0
VERTEX
  8
LAYER-1
 10
1.785823
 20
0.613447
 30
0.000000
  0
VERTEX
  8
LAYER-1
 10
1.768714
 20
0.624429
 30
0.000000
  0
VERTEX
  8
LAYER-1
 10
1.751634
 20
0.620099
 30
0.000000
  0
VERTEX
  8
LAYER-1
 10
1.748919
 20
0.613446
 30
0.000000
  0
SEQEND
  8
LAYER-1
  0
POLYLINE
  8
LAYER-1
 66
  1
 70
  0
 62
  0
 10
1.748920
 20
0.613446
 30
0.000000
  0
VERTEX
  8
LAYER-1
 10
1.748920
 20
0.613446
 30
0.000000
  0
VERTEX
  8
LAYER-1
 10
1.785822
 20
0.613447
 30
0.000000
  0
SEQEND
  8
LAYER-1
  0
POLYLINE
  8
LAYER-1
 66
  1
 70
  0
 62
  0
 10
1.750090
 20
0.341789
 30
0.000000
  0
VERTEX
  8
LAYER-1
 10
1.750090
 20
0.341789
 30
0.000000
  0
VERTEX
  8
LAYER-1
 10
1.750090
 20
0.613420
 30
0.000000
  0
SEQEND
  8
LAYER-1
  0
POLYLINE
  8
LAYER-1
 66
  1
 70
  0
 62
  0
 10
1.822424
 20
0.613417
 30
0.000000
  0
VERTEX
  8
LAYER-1
 10
1.822424
 20
0.613417
 30
0.000000
  0
VERTEX
  8
LAYER-1
 10
1.822424
 20
0.341788
 30
0.000000
  0
SEQEND
  8
LAYER-1
  0
POLYLINE
  8
LAYER-1
 66
  1
 70
  0
 62
  0
 10
1.786995
 20
0.341788
 30
0.000000
  0
VERTEX
  8
LAYER-1
 10
1.786995
 20
0.341788
 30
0.000000
  0
VERTEX
  8
LAYER-1
 10
1.786995
 20
0.613419
 30
0.000000
  0
SEQEND
  8
LAYER-1
  0
POLYLINE
  8
LAYER-1
 66
  1
 70
  0
 62
  0
 10
1.788900
 20
0.341370
 30
0.000000
  0
VERTEX
  8
LAYER-1
 10
1.788900
 20
0.341370
 30
0.000000
  0
VERTEX
  8
LAYER-1
 10
1.799136
 20
0.334775
 30
0.000000
  0
VERTEX
  8
LAYER-1
 10
1.813821
 20
0.337351
 30
0.000000
  0
VERTEX
  8
LAYER-1
 10
1.822120
 20
0.341929
 30
0.000000
  0
SEQEND
  8
LAYER-1
  0
POLYLINE
  8
LAYER-1
 66
  1
 70
  0
 62
  0
 10
1.788901
 20
0.341369
 30
0.000000
  0
VERTEX
  8
LAYER-1
 10
1.788901
 20
0.341369
 30
0.000000
  0
VERTEX
  8
LAYER-1
 10
1.822119
 20
0.341929
 30
0.000000
  0
SEQEND
  8
LAYER-1
  0
POLYLINE
  8
LAYER-1
 66
  1
 70
  0
 62
  0
 10
1.749787
 20
0.341932
 30
0.000000
  0
VERTEX
  8
LAYER-1
 10
1.749787
 20
0.341932
 30
0.000000
  0
VERTEX
  8
LAYER-1
 10
1.762959
 20
0.334884
 30
0.000000
  0
VERTEX
  8
LAYER-1
 10
1.780039
 20
0.339215
 30
0.000000
  0
VERTEX
  8
LAYER-1
 10
1.786691
 20
0.341930
 30
0.000000
  0
SEQEND
  8
LAYER-1
  0
POLYLINE
  8
LAYER-1
 66
  1
 70
  0
 62
  0
 10
1.749788
 20
0.341930
 30
0.000000
  0
VERTEX
  8
LAYER-1
 10
1.749788
 20
0.341930
 30
0.000000
  0
VERTEX
  8
LAYER-1
 10
1.786691
 20
0.341929
 30
0.000000
  0
SEQEND
  8
LAYER-1
  0
POLYLINE
  8
LAYER-1
 66
  1
 70
  1
 62
  0
  0
VERTEX
  8
LAYER-1
 10
3.645717
 20
7.467627
 30
0.000000
  0
VERTEX
  8
LAYER-1
 10
3.814600
 20
7.467627
 30
0.000000
  0
VERTEX
  8
LAYER-1
 10
3.814600
 20
0.341376
 30
0.000000
  0
VERTEX
  8
LAYER-1
 10
3.645717
 20
0.341376
 30
0.000000
  0
SEQEND
  8
LAYER-1
  0
CIRCLE
  8
LAYER-1
 62
  0
 10
3.730364
 20
3.177629
 30
0.000000
 40
0.064283
  0
POLYLINE
  8
LAYER-1
 66
  1
 70
  0
 62
  0
 10
3.688018
 20
2.119991
 30
0.000000
  0
VERTEX
  8
LAYER-1
 10
3.688018
 20
2.119991
 30
0.000000
  0
VERTEX
  8
LAYER-1
 10
3.688019
 20
2.119991
 30
0.000000
  0
SEQEND
  8
LAYER-1
  0
POLYLINE
  8
LAYER-1
 66
  1
 70
  0
 62
  0
 10
3.695983
 20
2.112027
 30
0.000000
  0
VERTEX
  8
LAYER-1
 10
3.695983
 20
2.112027
 30
0.000000
  0
VERTEX
  8
LAYER-1
 10
3.695983
 20
1.862484
 30
0.000000
  0
SEQEND
  8
LAYER-1
  0
POLYLINE
  8
LAYER-1
 66
  1
 70
  0
 62
  0
 10
3.688019
 20
1.854520
 30
0.000000
  0
VERTEX
  8
LAYER-1
 10
3.688019
 20
1.854520
 30
0.000000
  0
VERTEX
  8
LAYER-1
 10
3.688018
 20
1.854520
 30
0.000000
  0
SEQEND
  8
LAYER-1
  0
POLYLINE
  8
LAYER-1
 66
  1
 70
  0
 62
  0
 10
3.680053
 20
1.862484
 30
0.000000
  0
VERTEX
  8
LAYER-1
 10
3.680053
 20
1.862484
 30
0.000000
  0
VERTEX
  8
LAYER-1
 10
3.680053
 20
2.112027
 30
0.000000
  0
SEQEND
  8
LAYER-1
  0
ARC
  8
LAYER-1
 62
  0
 10
3.688018
 20
2.112027
 30
0.000000
 40
0.007964
 50
270.000000
 51
0.000000
  0
ARC
  8
LAYER-1
 62
  0
 10
3.688018
 20
1.862484
 30
0.000000
 40
0.007964
 50
0.000000
 51
90.000000
  0
ARC
  8
LAYER-1
 62
  0
 10
3.688019
 20
1.862484
 30
0.000000
 40
0.007964
 50
90.000000
 51
180.000000
  0
ARC
  8
LAYER-1
 62
  0
 10
3.688019
 20
2.112027
 30
0.000000
 40
0.007964
 50
180.000000
 51
270.000000
  0
CIRCLE
  8
LAYER-1
 62
  7
 10
3.730364
 20
3.177388
 30
0.000000
 40
0.047124
  0
CIRCLE
  8
LAYER-1
 62
  0
 10
3.730364
 20
3.177388
 30
0.000000
 40
0.042287
  0
CIRCLE
  8
LAYER-1
 62
  0
 10
3.730364
 20
3.160592
 30
0.000000
 40
0.018794
  0
CIRCLE
  8
LAYER-1
 62
  0
 10
3.730364
 20
3.152557
 30
0.000000
 40
0.008035
  0
TEXT
  8
LAYER-1
 62
  0
 10
3.694778
 20
3.180333
 30
0.000000
 40
0.010417
  1
MobilFlex
 72
  5
 11
3.847556
 21
3.180333
 31
0.000000
  0
POLYLINE
  8
LAYER-1
 66
  1
 70
  1
 62
  0
 10
3.726740
 20
3.142346
 30
0.000000
  0
VERTEX
  8
LAYER-1
 10
3.726740
 20
3.142346
 30
0.000000
  0
VERTEX
  8
LAYER-1
 10
3.726740
 20
3.151047
 30
0.000000
  0
VERTEX
  8
LAYER-1
 10
3.730122
 20
3.151047
 30
0.000000
  0
VERTEX
  8
LAYER-1
 10
3.730122
 20
3.154430
 30
0.000000
  0
VERTEX
  8
LAYER-1
 10
3.726498
 20
3.158055
 30
0.000000
  0
VERTEX
  8
LAYER-1
 10
3.726498
 20
3.160471
 30
0.000000
  0
VERTEX
  8
LAYER-1
 10
3.728915
 20
3.167721
 30
0.000000
  0
VERTEX
  8
LAYER-1
 10
3.732056
 20
3.167721
 30
0.000000
  0
VERTEX
  8
LAYER-1
 10
3.731331
 20
3.162404
 30
0.000000
  0
VERTEX
  8
LAYER-1
 10
3.731574
 20
3.160471
 30
0.000000
  0
VERTEX
  8
LAYER-1
 10
3.733023
 20
3.160471
 30
0.000000
  0
VERTEX
  8
LAYER-1
 10
3.733023
 20
3.148147
 30
0.000000
  0
VERTEX
  8
LAYER-1
 10
3.730364
 20
3.146938
 30
0.000000
  0
VERTEX
  8
LAYER-1
 10
3.730364
 20
3.144521
 30
0.000000
  0
VERTEX
  8
LAYER-1
 10
3.733023
 20
3.144038
 30
0.000000
  0
VERTEX
  8
LAYER-1
 10
3.733023
 20
3.142346
 30
0.000000
  0
SEQEND
  8
LAYER-1
  0
CIRCLE
  8
LAYER-1
 62
  0
 10
3.688351
 20
1.857172
 30
0.000000
 40
0.022565
  0
CIRCLE
  8
LAYER-1
 62
  0
 10
3.688351
 20
1.857172
 30
0.000000
 40
0.016522
  0
CIRCLE
  8
LAYER-1
 62
  0
 10
3.688351
 20
1.857172
 30
0.000000
 40
0.013746
  0
CIRCLE
  8
LAYER-1
 62
  0
 10
3.688351
 20
1.857172
 30
0.000000
 40
0.008860
  0
LINE
  8
LAYER-1
 62
  0
 10
6.732972
 20
7.535055
 30
0.000000
 11
0.739917
 21
7.535055
 31
0.000000
  0
LINE
  8
LAYER-1
 62
  0
 10
6.732972
 20
7.645054
 30
0.000000
 11
0.739917
 21
7.645054
 31
0.000000
  0
LINE
  8
LAYER-1
 62
  0
 10
1.292000
 20
7.534933
 30
0.000000
 11
1.292000
 21
7.645176
 31
0.000000
  0
LINE
  8
LAYER-1
 62
  0
 10
1.226462
 20
7.534933
 30
0.000000
 11
1.417000
 21
7.534933
 31
0.000000
  0
LINE
  8
LAYER-1
 62
  0
 10
1.228632
 20
7.645176
 30
0.000000
 11
1.417000
 21
7.645176
 31
0.000000
  0
LINE
  8
LAYER-1
 62
  0
 10
1.292000
 20
7.645176
 30
0.000000
 11
1.292000
 21
7.277555
 31
0.000000
  0
LINE
  8
LAYER-1
 62
  0
 10
1.262538
 20
7.564396
 30
0.000000
 11
1.321463
 21
7.505470
 31
0.000000
  0
LINE
  8
LAYER-1
 62
  0
 10
1.262538
 20
7.674639
 30
0.000000
 11
1.321463
 21
7.615713
 31
0.000000
  0
TEXT
  8
LAYER-1
 62
  0
 10
1.281939
 20
7.151680
 30
0.000000
 40
0.125000
  1
 
  0
POLYLINE
  8
LAYER-1
 66
  1
 70
  1
 62
  0
  0
VERTEX
  8
LAYER-1
 10
3.753484
 20
7.533051
 30
0.000000
  0
VERTEX
  8
LAYER-1
 10
3.778579
 20
7.533051
 30
0.000000
  0
VERTEX
  8
LAYER-1
 10
3.778579
 20
7.467601
 30
0.000000
  0
VERTEX
  8
LAYER-1
 10
3.753484
 20
7.467601
 30
0.000000
  0
SEQEND
  8
LAYER-1
  0
POLYLINE
  8
LAYER-1
 66
  1
 70
  1
 62
  0
  0
VERTEX
  8
LAYER-1
 10
4.636789
 20
7.533393
 30
0.000000
  0
VERTEX
  8
LAYER-1
 10
4.661885
 20
7.533393
 30
0.000000
  0
VERTEX
  8
LAYER-1
 10
4.661885
 20
7.467473
 30
0.000000
  0
VERTEX
  8
LAYER-1
 10
4.636789
 20
7.467473
 30
0.000000
  0
SEQEND
  8
LAYER-1
  0
POLYLINE
  8
LAYER-1
 66
  1
 70
  1
 62
  0
  0
VERTEX
  8
LAYER-1
 10
5.453760
 20
7.533394
 30
0.000000
  0
VERTEX
  8
LAYER-1
 10
5.478856
 20
7.533394
 30
0.000000
  0
VERTEX
  8
LAYER-1
 10
5.478856
 20
7.467473
 30
0.000000
  0
VERTEX
  8
LAYER-1
 10
5.453760
 20
7.467473
 30
0.000000
  0
SEQEND
  8
LAYER-1
  0
POLYLINE
  8
LAYER-1
 66
  1
 70
  1
 62
  0
  0
VERTEX
  8
LAYER-1
 10
3.674922
 20
0.341504
 30
0.000000
  0
VERTEX
  8
LAYER-1
 10
3.708479
 20
0.341504
 30
0.000000
  0
VERTEX
  8
LAYER-1
 10
3.708479
 20
0.246866
 30
0.000000
  0
VERTEX
  8
LAYER-1
 10
3.674922
 20
0.246866
 30
0.000000
  0
SEQEND
  8
LAYER-1
  0
POLYLINE
  8
LAYER-1
 66
  1
 70
  1
 62
  0
  0
VERTEX
  8
LAYER-1
 10
2.798254
 20
7.533097
 30
0.000000
  0
VERTEX
  8
LAYER-1
 10
2.823350
 20
7.533097
 30
0.000000
  0
VERTEX
  8
LAYER-1
 10
2.823350
 20
7.468116
 30
0.000000
  0
VERTEX
  8
LAYER-1
 10
2.798254
 20
7.468116
 30
0.000000
  0
SEQEND
  8
LAYER-1
  0
POLYLINE
  8
LAYER-1
 66
  1
 70
  1
 62
  0
  0
VERTEX
  8
LAYER-1
 10
1.980415
 20
7.533097
 30
0.000000
  0
VERTEX
  8
LAYER-1
 10
2.005511
 20
7.533097
 30
0.000000
  0
VERTEX
  8
LAYER-1
 10
2.005511
 20
7.468116
 30
0.000000
  0
VERTEX
  8
LAYER-1
 10
1.980415
 20
7.468116
 30
0.000000
  0
SEQEND
  8
LAYER-1
  0
POLYLINE
  8
LAYER-1
 66
  1
 70
  0
 62
  0
 10
3.645018
 20
0.239206
 30
0.000000
  0
VERTEX
  8
LAYER-1
 10
3.645018
 20
0.239206
 30
0.000000
  0
VERTEX
  8
LAYER-1
 10
3.657796
 20
0.246770
 30
0.000000
  0
SEQEND
  8
LAYER-1
  0
POLYLINE
  8
LAYER-1
 66
  1
 70
  0
 62
  0
 10
3.645018
 20
0.239206
 30
0.000000
  0
VERTEX
  8
LAYER-1
 10
3.645018
 20
0.239206
 30
0.000000
  0
VERTEX
  8
LAYER-1
 10
3.645018
 20
0.237641
 30
0.000000
  0
SEQEND
  8
LAYER-1
  0
POLYLINE
  8
LAYER-1
 66
  1
 70
  1
 62
  0
  0
VERTEX
  8
LAYER-1
 10
3.663461
 20
0.237628
 30
0.000000
  0
VERTEX
  8
LAYER-1
 10
3.720048
 20
0.237628
 30
0.000000
  0
VERTEX
  8
LAYER-1
 10
3.720048
 20
0.049964
 30
0.000000
  0
VERTEX
  8
LAYER-1
 10
3.663461
 20
0.049964
 30
0.000000
  0
SEQEND
  8
LAYER-1
  0
POLYLINE
  8
LAYER-1
  6
LTYPE01
 66
  1
 70
  1
 62
  0
  0
VERTEX
  8
LAYER-1
  6
LTYPE01
 10
3.668155
 20
0.246753
 30
0.000000
  0
VERTEX
  8
LAYER-1
  6
LTYPE01
 10
3.715095
 20
0.246753
 30
0.000000
  0
VERTEX
  8
LAYER-1
  6
LTYPE01
 10
3.715095
 20
0.059525
 30
0.000000
  0
VERTEX
  8
LAYER-1
  6
LTYPE01
 10
3.668155
 20
0.059525
 30
0.000000
  0
SEQEND
  8
LAYER-1
  0
POLYLINE
  8
LAYER-1
 66
  1
 70
  0
 62
  0
 10
3.645018
 20
0.237641
 30
0.000000
  0
VERTEX
  8
LAYER-1
 10
3.645018
 20
0.237641
 30
0.000000
  0
VERTEX
  8
LAYER-1
 10
3.738635
 20
0.237641
 30
0.000000
  0
SEQEND
  8
LAYER-1
  0
POLYLINE
  8
LAYER-1
 66
  1
 70
  0
 62
  0
 10
3.738635
 20
0.237641
 30
0.000000
  0
VERTEX
  8
LAYER-1
 10
3.738635
 20
0.237641
 30
0.000000
  0
VERTEX
  8
LAYER-1
 10
3.738635
 20
0.239206
 30
0.000000
  0
SEQEND
  8
LAYER-1
  0
POLYLINE
  8
LAYER-1
 66
  1
 70
  0
 62
  0
 10
3.738635
 20
0.239206
 30
0.000000
  0
VERTEX
  8
LAYER-1
 10
3.738635
 20
0.239206
 30
0.000000
  0
VERTEX
  8
LAYER-1
 10
3.725596
 20
0.246770
 30
0.000000
  0
SEQEND
  8
LAYER-1
  0
POLYLINE
  8
LAYER-1
  6
LTYPE02
 66
  1
 70
  0
 62
  0
  6
LTYPE02
 10
3.669400
 20
0.145983
 30
0.000000
  0
VERTEX
  8
LAYER-1
  6
LTYPE02
 10
3.669400
 20
0.145983
 30
0.000000
  0
VERTEX
  8
LAYER-1
  6
LTYPE02
 10
3.669400
 20
0.112084
 30
0.000000
  0
SEQEND
  8
LAYER-1
  0
POLYLINE
  8
LAYER-1
  6
LTYPE02
 66
  1
 70
  0
 62
  0
  6
LTYPE02
 10
3.673308
 20
0.145983
 30
0.000000
  0
VERTEX
  8
LAYER-1
  6
LTYPE02
 10
3.673308
 20
0.145983
 30
0.000000
  0
VERTEX
  8
LAYER-1
  6
LTYPE02
 10
3.669400
 20
0.145983
 30
0.000000
  0
SEQEND
  8
LAYER-1
  0
POLYLINE
  8
LAYER-1
  6
LTYPE02
 66
  1
 70
  0
 62
  0
  6
LTYPE02
 10
3.673308
 20
0.145983
 30
0.000000
  0
VERTEX
  8
LAYER-1
  6
LTYPE02
 10
3.673308
 20
0.145983
 30
0.000000
  0
VERTEX
  8
LAYER-1
  6
LTYPE02
 10
3.673308
 20
0.150416
 30
0.000000
  0
SEQEND
  8
LAYER-1
  0
POLYLINE
  8
LAYER-1
  6
LTYPE02
 66
  1
 70
  0
 62
  0
  6
LTYPE02
 10
3.673308
 20
0.150416
 30
0.000000
  0
VERTEX
  8
LAYER-1
  6
LTYPE02
 10
3.673308
 20
0.150416
 30
0.000000
  0
VERTEX
  8
LAYER-1
  6
LTYPE02
 10
3.710568
 20
0.150416
 30
0.000000
  0
SEQEND
  8
LAYER-1
  0
POLYLINE
  8
LAYER-1
  6
LTYPE02
 66
  1
 70
  0
 62
  0
  6
LTYPE02
 10
3.669400
 20
0.112084
 30
0.000000
  0
VERTEX
  8
LAYER-1
  6
LTYPE02
 10
3.669400
 20
0.112084
 30
0.000000
  0
VERTEX
  8
LAYER-1
  6
LTYPE02
 10
3.713732
 20
0.112084
 30
0.000000
  0
SEQEND
  8
LAYER-1
  0
POLYLINE
  8
LAYER-1
  6
LTYPE02
 66
  1
 70
  0
 62
  0
  6
LTYPE02
 10
3.713732
 20
0.112084
 30
0.000000
  0
VERTEX
  8
LAYER-1
  6
LTYPE02
 10
3.713732
 20
0.112084
 30
0.000000
  0
VERTEX
  8
LAYER-1
  6
LTYPE02
 10
3.713732
 20
0.145983
 30
0.000000
  0
SEQEND
  8
LAYER-1
  0
POLYLINE
  8
LAYER-1
  6
LTYPE02
 66
  1
 70
  0
 62
  0
  6
LTYPE02
 10
3.710568
 20
0.145983
 30
0.000000
  0
VERTEX
  8
LAYER-1
  6
LTYPE02
 10
3.710568
 20
0.145983
 30
0.000000
  0
VERTEX
  8
LAYER-1
  6
LTYPE02
 10
3.713732
 20
0.145983
 30
0.000000
  0
SEQEND
  8
LAYER-1
  0
POLYLINE
  8
LAYER-1
  6
LTYPE02
 66
  1
 70
  0
 62
  0
  6
LTYPE02
 10
3.710568
 20
0.150416
 30
0.000000
  0
VERTEX
  8
LAYER-1
  6
LTYPE02
 10
3.710568
 20
0.150416
 30
0.000000
  0
VERTEX
  8
LAYER-1
  6
LTYPE02
 10
3.710568
 20
0.145983
 30
0.000000
  0
SEQEND
  8
LAYER-1
  0
POLYLINE
  8
LAYER-1
  6
LTYPE01
 66
  1
 70
  1
 62
  0
  0
VERTEX
  8
LAYER-1
  6
LTYPE01
 10
3.674538
 20
0.111938
 30
0.000000
  0
VERTEX
  8
LAYER-1
  6
LTYPE01
 10
3.708959
 20
0.111938
 30
0.000000
  0
VERTEX
  8
LAYER-1
  6
LTYPE01
 10
3.708959
 20
0.059785
 30
0.000000
  0
VERTEX
  8
LAYER-1
  6
LTYPE01
 10
3.674538
 20
0.059785
 30
0.000000
  0
SEQEND
  8
LAYER-1
  0
POLYLINE
  8
LAYER-1
  6
LTYPE02
 66
  1
 70
  0
 62
  0
  6
LTYPE02
 10
3.708959
 20
0.111938
 30
0.000000
  0
VERTEX
  8
LAYER-1
  6
LTYPE02
 10
3.708959
 20
0.111938
 30
0.000000
  0
VERTEX
  8
LAYER-1
  6
LTYPE02
 10
3.674538
 20
0.109070
 30
0.000000
  0
SEQEND
  8
LAYER-1
  0
POLYLINE
  8
LAYER-1
  6
LTYPE02
 66
  1
 70
  0
 62
  0
  6
LTYPE02
 10
3.708959
 20
0.110374
 30
0.000000
  0
VERTEX
  8
LAYER-1
  6
LTYPE02
 10
3.708959
 20
0.110374
 30
0.000000
  0
VERTEX
  8
LAYER-1
  6
LTYPE02
 10
3.674538
 20
0.107245
 30
0.000000
  0
SEQEND
  8
LAYER-1
  0
POLYLINE
  8
LAYER-1
  6
LTYPE02
 66
  1
 70
  0
 62
  0
  6
LTYPE02
 10
3.708959
 20
0.106984
 30
0.000000
  0
VERTEX
  8
LAYER-1
  6
LTYPE02
 10
3.708959
 20
0.106984
 30
0.000000
  0
VERTEX
  8
LAYER-1
  6
LTYPE02
 10
3.674538
 20
0.104114
 30
0.000000
  0
SEQEND
  8
LAYER-1
  0
POLYLINE
  8
LAYER-1
  6
LTYPE02
 66
  1
 70
  0
 62
  0
  6
LTYPE02
 10
3.708959
 20
0.105419
 30
0.000000
  0
VERTEX
  8
LAYER-1
  6
LTYPE02
 10
3.708959
 20
0.105419
 30
0.000000
  0
VERTEX
  8
LAYER-1
  6
LTYPE02
 10
3.674538
 20
0.102290
 30
0.000000
  0
SEQEND
  8
LAYER-1
  0
POLYLINE
  8
LAYER-1
  6
LTYPE02
 66
  1
 70
  0
 62
  0
  6
LTYPE02
 10
3.708959
 20
0.101835
 30
0.000000
  0
VERTEX
  8
LAYER-1
  6
LTYPE02
 10
3.708959
 20
0.101835
 30
0.000000
  0
VERTEX
  8
LAYER-1
  6
LTYPE02
 10
3.674538
 20
0.098965
 30
0.000000
  0
SEQEND
  8
LAYER-1
  0
POLYLINE
  8
LAYER-1
  6
LTYPE02
 66
  1
 70
  0
 62
  0
  6
LTYPE02
 10
3.708959
 20
0.100271
 30
0.000000
  0
VERTEX
  8
LAYER-1
  6
LTYPE02
 10
3.708959
 20
0.100271
 30
0.000000
  0
VERTEX
  8
LAYER-1
  6
LTYPE02
 10
3.674538
 20
0.097141
 30
0.000000
  0
SEQEND
  8
LAYER-1
  0
POLYLINE
  8
LAYER-1
  6
LTYPE02
 66
  1
 70
  0
 62
  0
  6
LTYPE02
 10
3.708895
 20
0.097335
 30
0.000000
  0
VERTEX
  8
LAYER-1
  6
LTYPE02
 10
3.708895
 20
0.097335
 30
0.000000
  0
VERTEX
  8
LAYER-1
  6
LTYPE02
 10
3.674472
 20
0.094468
 30
0.000000
  0
SEQEND
  8
LAYER-1
  0
POLYLINE
  8
LAYER-1
  6
LTYPE02
 66
  1
 70
  0
 62
  0
  6
LTYPE02
 10
3.708895
 20
0.095772
 30
0.000000
  0
VERTEX
  8
LAYER-1
  6
LTYPE02
 10
3.708895
 20
0.095772
 30
0.000000
  0
VERTEX
  8
LAYER-1
  6
LTYPE02
 10
3.674472
 20
0.092644
 30
0.000000
  0
SEQEND
  8
LAYER-1
  0
POLYLINE
  8
LAYER-1
  6
LTYPE02
 66
  1
 70
  0
 62
  0
  6
LTYPE02
 10
3.708895
 20
0.092513
 30
0.000000
  0
VERTEX
  8
LAYER-1
  6
LTYPE02
 10
3.708895
 20
0.092513
 30
0.000000
  0
VERTEX
  8
LAYER-1
  6
LTYPE02
 10
3.674472
 20
0.089645
 30
0.000000
  0
SEQEND
  8
LAYER-1
  0
POLYLINE
  8
LAYER-1
  6
LTYPE02
 66
  1
 70
  0
 62
  0
  6
LTYPE02
 10
3.708895
 20
0.090947
 30
0.000000
  0
VERTEX
  8
LAYER-1
  6
LTYPE02
 10
3.708895
 20
0.090947
 30
0.000000
  0
VERTEX
  8
LAYER-1
  6
LTYPE02
 10
3.674472
 20
0.087818
 30
0.000000
  0
SEQEND
  8
LAYER-1
  0
POLYLINE
  8
LAYER-1
  6
LTYPE02
 66
  1
 70
  0
 62
  0
  6
LTYPE02
 10
3.708895
 20
0.087556
 30
0.000000
  0
VERTEX
  8
LAYER-1
  6
LTYPE02
 10
3.708895
 20
0.087556
 30
0.000000
  0
VERTEX
  8
LAYER-1
  6
LTYPE02
 10
3.674472
 20
0.084688
 30
0.000000
  0
SEQEND
  8
LAYER-1
  0
POLYLINE
  8
LAYER-1
  6
LTYPE02
 66
  1
 70
  0
 62
  0
  6
LTYPE02
 10
3.708895
 20
0.085993
 30
0.000000
  0
VERTEX
  8
LAYER-1
  6
LTYPE02
 10
3.708895
 20
0.085993
 30
0.000000
  0
VERTEX
  8
LAYER-1
  6
LTYPE02
 10
3.674472
 20
0.082863
 30
0.000000
  0
SEQEND
  8
LAYER-1
  0
POLYLINE
  8
LAYER-1
  6
LTYPE02
 66
  1
 70
  0
 62
  0
  6
LTYPE02
 10
3.708895
 20
0.082407
 30
0.000000
  0
VERTEX
  8
LAYER-1
  6
LTYPE02
 10
3.708895
 20
0.082407
 30
0.000000
  0
VERTEX
  8
LAYER-1
  6
LTYPE02
 10
3.674472
 20
0.079538
 30
0.000000
  0
SEQEND
  8
LAYER-1
  0
POLYLINE
  8
LAYER-1
  6
LTYPE02
 66
  1
 70
  0
 62
  0
  6
LTYPE02
 10
3.708895
 20
0.080842
 30
0.000000
  0
VERTEX
  8
LAYER-1
  6
LTYPE02
 10
3.708895
 20
0.080842
 30
0.000000
  0
VERTEX
  8
LAYER-1
  6
LTYPE02
 10
3.674472
 20
0.077714
 30
0.000000
  0
SEQEND
  8
LAYER-1
  0
POLYLINE
  8
LAYER-1
  6
LTYPE02
 66
  1
 70
  0
 62
  0
  6
LTYPE02
 10
3.708829
 20
0.077908
 30
0.000000
  0
VERTEX
  8
LAYER-1
  6
LTYPE02
 10
3.708829
 20
0.077908
 30
0.000000
  0
VERTEX
  8
LAYER-1
  6
LTYPE02
 10
3.674408
 20
0.075040
 30
0.000000
  0
SEQEND
  8
LAYER-1
  0
POLYLINE
  8
LAYER-1
  6
LTYPE02
 66
  1
 70
  0
 62
  0
  6
LTYPE02
 10
3.708829
 20
0.076345
 30
0.000000
  0
VERTEX
  8
LAYER-1
  6
LTYPE02
 10
3.708829
 20
0.076345
 30
0.000000
  0
VERTEX
  8
LAYER-1
  6
LTYPE02
 10
3.674408
 20
0.073215
 30
0.000000
  0
SEQEND
  8
LAYER-1
  0
POLYLINE
  8
LAYER-1
  6
LTYPE02
 66
  1
 70
  0
 62
  0
  6
LTYPE02
 10
3.708959
 20
0.073541
 30
0.000000
  0
VERTEX
  8
LAYER-1
  6
LTYPE02
 10
3.708959
 20
0.073541
 30
0.000000
  0
VERTEX
  8
LAYER-1
  6
LTYPE02
 10
3.674538
 20
0.070673
 30
0.000000
  0
SEQEND
  8
LAYER-1
  0
POLYLINE
  8
LAYER-1
  6
LTYPE02
 66
  1
 70
  0
 62
  0
  6
LTYPE02
 10
3.708959
 20
0.071977
 30
0.000000
  0
VERTEX
  8
LAYER-1
  6
LTYPE02
 10
3.708959
 20
0.071977
 30
0.000000
  0
VERTEX
  8
LAYER-1
  6
LTYPE02
 10
3.674538
 20
0.068848
 30
0.000000
  0
SEQEND
  8
LAYER-1
  0
POLYLINE
  8
LAYER-1
  6
LTYPE02
 66
  1
 70
  0
 62
  0
  6
LTYPE02
 10
3.708959
 20
0.068587
 30
0.000000
  0
VERTEX
  8
LAYER-1
  6
LTYPE02
 10
3.708959
 20
0.068587
 30
0.000000
  0
VERTEX
  8
LAYER-1
  6
LTYPE02
 10
3.674538
 20
0.065719
 30
0.000000
  0
SEQEND
  8
LAYER-1
  0
POLYLINE
  8
LAYER-1
  6
LTYPE02
 66
  1
 70
  0
 62
  0
  6
LTYPE02
 10
3.708959
 20
0.067023
 30
0.000000
  0
VERTEX
  8
LAYER-1
  6
LTYPE02
 10
3.708959
 20
0.067023
 30
0.000000
  0
VERTEX
  8
LAYER-1
  6
LTYPE02
 10
3.674538
 20
0.063893
 30
0.000000
  0
SEQEND
  8
LAYER-1
  0
POLYLINE
  8
LAYER-1
  6
LTYPE02
 66
  1
 70
  0
 62
  0
  6
LTYPE02
 10
3.708959
 20
0.063436
 30
0.000000
  0
VERTEX
  8
LAYER-1
  6
LTYPE02
 10
3.708959
 20
0.063436
 30
0.000000
  0
VERTEX
  8
LAYER-1
  6
LTYPE02
 10
3.674538
 20
0.060567
 30
0.000000
  0
SEQEND
  8
LAYER-1
  0
POLYLINE
  8
LAYER-1
  6
LTYPE02
 66
  1
 70
  0
 62
  0
  6
LTYPE02
 10
3.708959
 20
0.061872
 30
0.000000
  0
VERTEX
  8
LAYER-1
  6
LTYPE02
 10
3.708959
 20
0.061872
 30
0.000000
  0
VERTEX
  8
LAYER-1
  6
LTYPE02
 10
3.685946
 20
0.059785
 30
0.000000
  0
SEQEND
  8
LAYER-1
  0
POLYLINE
  8
LAYER-1
  6
LTYPE02
 66
  1
 70
  0
 62
  0
  6
LTYPE02
 10
3.675529
 20
0.171149
 30
0.000000
  0
VERTEX
  8
LAYER-1
  6
LTYPE02
 10
3.675529
 20
0.171149
 30
0.000000
  0
VERTEX
  8
LAYER-1
  6
LTYPE02
 10
3.675529
 20
0.246770
 30
0.000000
  0
SEQEND
  8
LAYER-1
  0
POLYLINE
  8
LAYER-1
  6
LTYPE02
 66
  1
 70
  0
 62
  0
  6
LTYPE02
 10
3.707863
 20
0.171149
 30
0.000000
  0
VERTEX
  8
LAYER-1
  6
LTYPE02
 10
3.707863
 20
0.171149
 30
0.000000
  0
VERTEX
  8
LAYER-1
  6
LTYPE02
 10
3.707863
 20
0.246770
 30
0.000000
  0
SEQEND
  8
LAYER-1
  0
POLYLINE
  8
LAYER-1
  6
LTYPE01
 66
  1
 70
  0
 62
  0
  6
LTYPE01
 10
3.675529
 20
0.171149
 30
0.000000
  0
VERTEX
  8
LAYER-1
  6
LTYPE01
 10
3.675529
 20
0.171149
 30
0.000000
  0
VERTEX
  8
LAYER-1
  6
LTYPE01
 10
3.678295
 20
0.161685
 30
0.000000
  0
VERTEX
  8
LAYER-1
  6
LTYPE01
 10
3.689728
 20
0.156949
 30
0.000000
  0
VERTEX
  8
LAYER-1
  6
LTYPE01
 10
3.701160
 20
0.161685
 30
0.000000
  0
VERTEX
  8
LAYER-1
  6
LTYPE01
 10
3.707864
 20
0.171149
 30
0.000000
  0
SEQEND
  8
LAYER-1
  0
POLYLINE
  8
LAYER-1
 66
  1
 70
  0
 62
  0
 10
3.657796
 20
0.246770
 30
0.000000
  0
VERTEX
  8
LAYER-1
 10
3.657796
 20
0.246770
 30
0.000000
  0
VERTEX
  8
LAYER-1
 10
3.725596
 20
0.246770
 30
0.000000
  0
SEQEND
  8
LAYER-1
  0
TEXT
  8
LAYER-1
 62
  7
 10
1.958667
 20
8.874777
 30
0.000000
 40
0.187500
  1
Elevation model Concept 99
 72
  5
 11
5.361445
 21
8.874777
 31
0.000000
  0
TEXT
  8
LAYER-1
 62
  0
 10
1.042000
 20
6.902555
 30
0.000000
 40
0.125000
  1
1-
 72
  5
 11
1.264222
 21
6.902555
 31
0.000000
  0
TEXT
  8
LAYER-1
 62
  0
 10
1.264222
 20
6.902555
 30
0.000000
 40
0.104167
  1
9/16
 72
  5
 11
1.625334
 21
6.902555
 31
0.000000
  0
TEXT
  8
LAYER-1
 62
  0
 10
1.625334
 20
6.902555
 30
0.000000
 40
0.125000
  1
"
 72
  5
 11
1.750334
 21
6.902555
 31
0.000000
  0
TEXT
  8
LAYER-1
 62
  0
 10
1.042000
 20
6.708110
 30
0.000000
 40
0.125000
  1
40mm
 72
  5
 11
1.611445
 21
6.708110
 31
0.000000
  0
TEXT
  8
LAYER-1
 62
  0
 10
2.778111
 20
7.930333
 30
0.000000
 40
0.125000
  1
Intermediate
 72
  5
 11
3.805889
 21
7.930333
 31
0.000000
  0
TEXT
  8
LAYER-1
 62
  0
 10
2.778111
 20
7.735888
 30
0.000000
 40
0.125000
  1
post #3
 72
  5
 11
3.417000
 21
7.735888
 31
0.000000
  0
POLYLINE
  8
LAYER-1
 66
  1
 70
  0
 62
  0
 10
3.479500
 20
7.798388
 30
0.000000
  0
VERTEX
  8
LAYER-1
 10
3.479500
 20
7.798388
 30
0.000000
  0
VERTEX
  8
LAYER-1
 10
3.720577
 20
7.483293
 30
0.000000
  0
SEQEND
  8
LAYER-1
  0
POLYLINE
  8
LAYER-1
 66
  1
 70
  1
 62
  0
  0
VERTEX
  8
LAYER-1
 10
3.732538
 20
7.467659
 30
0.000000
  0
VERTEX
  8
LAYER-1
 10
3.657248
 20
7.497494
 30
0.000000
  0
VERTEX
  8
LAYER-1
 10
3.690340
 20
7.522812
 30
0.000000
  0
VERTEX
  8
LAYER-1
 10
3.723432
 20
7.548131
 30
0.000000
  0
VERTEX
  8
LAYER-1
 10
3.732538
 20
7.467659
 30
0.000000
  0
SEQEND
  8
LAYER-1
  0
LINE
  8
LAYER-1
 62
  0
 10
5.837137
 20
5.546482
 30
0.000000
 11
5.837137
 21
6.162857
 31
0.000000
  0
LINE
  8
LAYER-1
 62
  0
 10
5.752939
 20
5.546482
 30
0.000000
 11
5.962137
 21
5.546482
 31
0.000000
  0
LINE
  8
LAYER-1
 62
  0
 10
5.752836
 20
6.162857
 30
0.000000
 11
5.962137
 21
6.162857
 31
0.000000
  0
LINE
  8
LAYER-1
 62
  0
 10
5.837137
 20
6.055333
 30
0.000000
 11
5.837137
 21
5.546482
 31
0.000000
  0
LINE
  8
LAYER-1
 62
  0
 10
5.807674
 20
5.575945
 30
0.000000
 11
5.866600
 21
5.517018
 31
0.000000
  0
LINE
  8
LAYER-1
 62
  0
 10
5.807674
 20
6.192320
 30
0.000000
 11
5.866600
 21
6.133394
 31
0.000000
  0
TEXT
  8
LAYER-1
 62
  0
 10
5.995164
 20
5.811486
 30
0.000000
 40
0.125000
  1
     
 50
90.000000
  0
TEXT
  8
LAYER-1
 62
  0
 10
1.055889
 20
7.124777
 30
0.000000
 40
0.125000
  1
Track
 72
  5
 11
1.542000
 21
7.124777
 31
0.000000
  0
POLYLINE
  8
LAYER-1
 66
  1
 70
  1
 62
  0
  0
VERTEX
  8
LAYER-1
 10
3.817180
 20
7.196307
 30
0.000000
  0
VERTEX
  8
LAYER-1
 10
3.853131
 20
7.196307
 30
0.000000
  0
VERTEX
  8
LAYER-1
 10
3.853131
 20
0.612622
 30
0.000000
  0
VERTEX
  8
LAYER-1
 10
3.817180
 20
0.612622
 30
0.000000
  0
SEQEND
  8
LAYER-1
  0
POLYLINE
  8
LAYER-1
 66
  1
 70
  1
 62
  0
  0
VERTEX
  8
LAYER-1
 10
4.225444
 20
7.196307
 30
0.000000
  0
VERTEX
  8
LAYER-1
 10
4.261395
 20
7.196307
 30
0.000000
  0
VERTEX
  8
LAYER-1
 10
4.261395
 20
0.612622
 30
0.000000
  0
VERTEX
  8
LAYER-1
 10
4.225444
 20
0.612622
 30
0.000000
  0
SEQEND
  8
LAYER-1
  0
POLYLINE
  8
LAYER-1
 66
  1
 70
  1
 62
  0
  0
VERTEX
  8
LAYER-1
 10
4.631972
 20
7.196307
 30
0.000000
  0
VERTEX
  8
LAYER-1
 10
4.667923
 20
7.196307
 30
0.000000
  0
VERTEX
  8
LAYER-1
 10
4.667923
 20
0.612622
 30
0.000000
  0
VERTEX
  8
LAYER-1
 10
4.631972
 20
0.612622
 30
0.000000
  0
SEQEND
  8
LAYER-1
  0
POLYLINE
  8
LAYER-1
 66
  1
 70
  1
 62
  0
  0
VERTEX
  8
LAYER-1
 10
5.040237
 20
7.196307
 30
0.000000
  0
VERTEX
  8
LAYER-1
 10
5.076188
 20
7.196307
 30
0.000000
  0
VERTEX
  8
LAYER-1
 10
5.076188
 20
0.612622
 30
0.000000
  0
VERTEX
  8
LAYER-1
 10
5.040237
 20
0.612622
 30
0.000000
  0
SEQEND
  8
LAYER-1
  0
POLYLINE
  8
LAYER-1
 66
  1
 70
  1
 62
  0
  0
VERTEX
  8
LAYER-1
 10
5.449803
 20
7.196307
 30
0.000000
  0
VERTEX
  8
LAYER-1
 10
5.485753
 20
7.196307
 30
0.000000
  0
VERTEX
  8
LAYER-1
 10
5.485753
 20
0.612622
 30
0.000000
  0
VERTEX
  8
LAYER-1
 10
5.449803
 20
0.612622
 30
0.000000
  0
SEQEND
  8
LAYER-1
  0
POLYLINE
  8
LAYER-1
 66
  1
 70
  1
 62
  0
 10
3.814614
 20
0.341817
 30
0.000000
  0
VERTEX
  8
LAYER-1
 10
3.814614
 20
0.341817
 30
0.000000
  0
VERTEX
  8
LAYER-1
 10
5.710531
 20
0.341919
 30
0.000000
  0
VERTEX
  8
LAYER-1
 10
5.710531
 20
0.613452
 30
0.000000
  0
VERTEX
  8
LAYER-1
 10
3.814614
 20
0.613569
 30
0.000000
  0
SEQEND
  8
LAYER-1
  0
POLYLINE
  8
LAYER-1
 66
  1
 70
  0
 62
  0
 10
3.814395
 20
0.409725
 30
0.000000
  0
VERTEX
  8
LAYER-1
 10
3.814395
 20
0.409725
 30
0.000000
  0
VERTEX
  8
LAYER-1
 10
3.854121
 20
0.409725
 30
0.000000
  0
SEQEND
  8
LAYER-1
  0
POLYLINE
  8
LAYER-1
 66
  1
 70
  0
 62
  0
 10
3.814395
 20
0.539635
 30
0.000000
  0
VERTEX
  8
LAYER-1
 10
3.814395
 20
0.539635
 30
0.000000
  0
VERTEX
  8
LAYER-1
 10
3.854121
 20
0.539635
 30
0.000000
  0
SEQEND
  8
LAYER-1
  0
POLYLINE
  8
LAYER-1
 66
  1
 70
  0
 62
  0
 10
3.815847
 20
0.336671
 30
0.000000
  0
VERTEX
  8
LAYER-1
 10
3.815847
 20
0.336671
 30
0.000000
  0
VERTEX
  8
LAYER-1
 10
3.829018
 20
0.329626
 30
0.000000
  0
VERTEX
  8
LAYER-1
 10
3.846097
 20
0.333957
 30
0.000000
  0
VERTEX
  8
LAYER-1
 10
3.852750
 20
0.336672
 30
0.000000
  0
SEQEND
  8
LAYER-1
  0
POLYLINE
  8
LAYER-1
 66
  1
 70
  1
 62
  0
  0
VERTEX
  8
LAYER-1
 10
3.863259
 20
0.336050
 30
0.000000
  0
VERTEX
  8
LAYER-1
 10
3.808644
 20
0.336050
 30
0.000000
  0
VERTEX
  8
LAYER-1
 10
3.808644
 20
0.341955
 30
0.000000
  0
VERTEX
  8
LAYER-1
 10
3.863259
 20
0.341955
 30
0.000000
  0
SEQEND
  8
LAYER-1
  0
POLYLINE
  8
LAYER-1
 66
  1
 70
  1
 62
  0
 10
3.814820
 20
7.467938
 30
0.000000
  0
VERTEX
  8
LAYER-1
 10
3.814820
 20
7.467938
 30
0.000000
  0
VERTEX
  8
LAYER-1
 10
5.711172
 20
7.467838
 30
0.000000
  0
VERTEX
  8
LAYER-1
 10
5.711172
 20
7.196304
 30
0.000000
  0
VERTEX
  8
LAYER-1
 10
3.814820
 20
7.196187
 30
0.000000
  0
SEQEND
  8
LAYER-1
  0
POLYLINE
  8
LAYER-1
 66
  1
 70
  0
 62
  0
 10
4.076110
 20
7.467938
 30
0.000000
  0
VERTEX
  8
LAYER-1
 10
4.076110
 20
7.467938
 30
0.000000
  0
VERTEX
  8
LAYER-1
 10
4.076110
 20
7.196306
 30
0.000000
  0
SEQEND
  8
LAYER-1
  0
POLYLINE
  8
LAYER-1
 66
  1
 70
  0
 62
  0
 10
4.406606
 20
7.196306
 30
0.000000
  0
VERTEX
  8
LAYER-1
 10
4.406606
 20
7.196306
 30
0.000000
  0
VERTEX
  8
LAYER-1
 10
4.406606
 20
7.467938
 30
0.000000
  0
SEQEND
  8
LAYER-1
  0
POLYLINE
  8
LAYER-1
 66
  1
 70
  0
 62
  0
 10
5.219438
 20
7.196306
 30
0.000000
  0
VERTEX
  8
LAYER-1
 10
5.219438
 20
7.196306
 30
0.000000
  0
VERTEX
  8
LAYER-1
 10
5.219438
 20
7.467938
 30
0.000000
  0
SEQEND
  8
LAYER-1
  0
POLYLINE
  8
LAYER-1
 66
  1
 70
  0
 62
  0
 10
5.038270
 20
7.467977
 30
0.000000
  0
VERTEX
  8
LAYER-1
 10
5.038270
 20
7.467977
 30
0.000000
  0
VERTEX
  8
LAYER-1
 10
5.038270
 20
7.196348
 30
0.000000
  0
SEQEND
  8
LAYER-1
  0
POLYLINE
  8
LAYER-1
 66
  1
 70
  0
 62
  0
 10
5.078129
 20
7.467977
 30
0.000000
  0
VERTEX
  8
LAYER-1
 10
5.078129
 20
7.467977
 30
0.000000
  0
VERTEX
  8
LAYER-1
 10
5.078129
 20
7.196348
 30
0.000000
  0
SEQEND
  8
LAYER-1
  0
POLYLINE
  8
LAYER-1
 66
  1
 70
  0
 62
  0
 10
4.224252
 20
7.467977
 30
0.000000
  0
VERTEX
  8
LAYER-1
 10
4.224252
 20
7.467977
 30
0.000000
  0
VERTEX
  8
LAYER-1
 10
4.224252
 20
7.196348
 30
0.000000
  0
SEQEND
  8
LAYER-1
  0
POLYLINE
  8
LAYER-1
 66
  1
 70
  0
 62
  0
 10
4.263069
 20
7.467977
 30
0.000000
  0
VERTEX
  8
LAYER-1
 10
4.263069
 20
7.467977
 30
0.000000
  0
VERTEX
  8
LAYER-1
 10
4.263069
 20
7.196348
 30
0.000000
  0
SEQEND
  8
LAYER-1
  0
POLYLINE
  8
LAYER-1
 66
  1
 70
  0
 62
  0
 10
4.490928
 20
7.467938
 30
0.000000
  0
VERTEX
  8
LAYER-1
 10
4.490928
 20
7.467938
 30
0.000000
  0
VERTEX
  8
LAYER-1
 10
4.490928
 20
7.196306
 30
0.000000
  0
SEQEND
  8
LAYER-1
  0
POLYLINE
  8
LAYER-1
 66
  1
 70
  0
 62
  0
 10
5.303760
 20
7.467938
 30
0.000000
  0
VERTEX
  8
LAYER-1
 10
5.303760
 20
7.467938
 30
0.000000
  0
VERTEX
  8
LAYER-1
 10
5.303760
 20
7.196306
 30
0.000000
  0
SEQEND
  8
LAYER-1
  0
POLYLINE
  8
LAYER-1
 66
  1
 70
  0
 62
  0
 10
5.448664
 20
7.467543
 30
0.000000
  0
VERTEX
  8
LAYER-1
 10
5.448664
 20
7.467543
 30
0.000000
  0
VERTEX
  8
LAYER-1
 10
5.448664
 20
7.195914
 30
0.000000
  0
SEQEND
  8
LAYER-1
  0
POLYLINE
  8
LAYER-1
 66
  1
 70
  0
 62
  0
 10
5.487047
 20
7.467543
 30
0.000000
  0
VERTEX
  8
LAYER-1
 10
5.487047
 20
7.467543
 30
0.000000
  0
VERTEX
  8
LAYER-1
 10
5.487047
 20
7.195914
 30
0.000000
  0
SEQEND
  8
LAYER-1
  0
POLYLINE
  8
LAYER-1
 66
  1
 70
  0
 62
  0
 10
4.630826
 20
7.468012
 30
0.000000
  0
VERTEX
  8
LAYER-1
 10
4.630826
 20
7.468012
 30
0.000000
  0
VERTEX
  8
LAYER-1
 10
4.630826
 20
7.196384
 30
0.000000
  0
SEQEND
  8
LAYER-1
  0
POLYLINE
  8
LAYER-1
 66
  1
 70
  0
 62
  0
 10
4.669209
 20
7.468012
 30
0.000000
  0
VERTEX
  8
LAYER-1
 10
4.669209
 20
7.468012
 30
0.000000
  0
VERTEX
  8
LAYER-1
 10
4.669209
 20
7.196384
 30
0.000000
  0
SEQEND
  8
LAYER-1
  0
POLYLINE
  8
LAYER-1
 66
  1
 70
  0
 62
  0
 10
4.003777
 20
7.196309
 30
0.000000
  0
VERTEX
  8
LAYER-1
 10
4.003777
 20
7.196309
 30
0.000000
  0
VERTEX
  8
LAYER-1
 10
4.003777
 20
7.467938
 30
0.000000
  0
SEQEND
  8
LAYER-1
  0
POLYLINE
  8
LAYER-1
 66
  1
 70
  0
 62
  0
 10
4.039206
 20
7.467938
 30
0.000000
  0
VERTEX
  8
LAYER-1
 10
4.039206
 20
7.467938
 30
0.000000
  0
VERTEX
  8
LAYER-1
 10
4.039206
 20
7.196308
 30
0.000000
  0
SEQEND
  8
LAYER-1
  0
POLYLINE
  8
LAYER-1
 66
  1
 70
  0
 62
  0
 10
4.038236
 20
7.467950
 30
0.000000
  0
VERTEX
  8
LAYER-1
 10
4.038236
 20
7.467950
 30
0.000000
  0
VERTEX
  8
LAYER-1
 10
4.024353
 20
7.478880
 30
0.000000
  0
VERTEX
  8
LAYER-1
 10
4.009591
 20
7.476791
 30
0.000000
  0
VERTEX
  8
LAYER-1
 10
4.004680
 20
7.467939
 30
0.000000
  0
SEQEND
  8
LAYER-1
  0
POLYLINE
  8
LAYER-1
 66
  1
 70
  0
 62
  0
 10
4.076108
 20
7.467938
 30
0.000000
  0
VERTEX
  8
LAYER-1
 10
4.076108
 20
7.467938
 30
0.000000
  0
VERTEX
  8
LAYER-1
 10
4.059002
 20
7.478922
 30
0.000000
  0
VERTEX
  8
LAYER-1
 10
4.041921
 20
7.474591
 30
0.000000
  0
VERTEX
  8
LAYER-1
 10
4.039206
 20
7.467939
 30
0.000000
  0
SEQEND
  8
LAYER-1
  0
POLYLINE
  8
LAYER-1
 66
  1
 70
  0
 62
  0
 10
4.491668
 20
7.467445
 30
0.000000
  0
VERTEX
  8
LAYER-1
 10
4.491668
 20
7.467445
 30
0.000000
  0
VERTEX
  8
LAYER-1
 10
4.472164
 20
7.477437
 30
0.000000
  0
VERTEX
  8
LAYER-1
 10
4.454090
 20
7.470712
 30
0.000000
  0
VERTEX
  8
LAYER-1
 10
4.454761
 20
7.467445
 30
0.000000
  0
SEQEND
  8
LAYER-1
  0
POLYLINE
  8
LAYER-1
 66
  1
 70
  0
 62
  0
 10
5.304626
 20
7.467914
 30
0.000000
  0
VERTEX
  8
LAYER-1
 10
5.304626
 20
7.467914
 30
0.000000
  0
VERTEX
  8
LAYER-1
 10
5.285122
 20
7.477907
 30
0.000000
  0
VERTEX
  8
LAYER-1
 10
5.267048
 20
7.471181
 30
0.000000
  0
VERTEX
  8
LAYER-1
 10
5.267718
 20
7.467915
 30
0.000000
  0
SEQEND
  8
LAYER-1
  0
POLYLINE
  8
LAYER-1
 66
  1
 70
  0
 62
  0
 10
4.443959
 20
7.467445
 30
0.000000
  0
VERTEX
  8
LAYER-1
 10
4.443959
 20
7.467445
 30
0.000000
  0
VERTEX
  8
LAYER-1
 10
4.424455
 20
7.477437
 30
0.000000
  0
VERTEX
  8
LAYER-1
 10
4.406381
 20
7.470712
 30
0.000000
  0
VERTEX
  8
LAYER-1
 10
4.407051
 20
7.467445
 30
0.000000
  0
SEQEND
  8
LAYER-1
  0
POLYLINE
  8
LAYER-1
 66
  1
 70
  0
 62
  0
 10
4.464422
 20
7.468004
 30
0.000000
  0
VERTEX
  8
LAYER-1
 10
4.464422
 20
7.468004
 30
0.000000
  0
VERTEX
  8
LAYER-1
 10
4.453670
 20
7.481010
 30
0.000000
  0
VERTEX
  8
LAYER-1
 10
4.439655
 20
7.482603
 30
0.000000
  0
VERTEX
  8
LAYER-1
 10
4.428618
 20
7.473819
 30
0.000000
  0
VERTEX
  8
LAYER-1
 10
4.428993
 20
7.468004
 30
0.000000
  0
SEQEND
  8
LAYER-1
  0
POLYLINE
  8
LAYER-1
 66
  1
 70
  0
 62
  0
 10
4.428994
 20
7.468004
 30
0.000000
  0
VERTEX
  8
LAYER-1
 10
4.428994
 20
7.468004
 30
0.000000
  0
VERTEX
  8
LAYER-1
 10
4.464422
 20
7.468004
 30
0.000000
  0
SEQEND
  8
LAYER-1
  0
POLYLINE
  8
LAYER-1
 66
  1
 70
  0
 62
  0
 10
5.255976
 20
7.467914
 30
0.000000
  0
VERTEX
  8
LAYER-1
 10
5.255976
 20
7.467914
 30
0.000000
  0
VERTEX
  8
LAYER-1
 10
5.236471
 20
7.477907
 30
0.000000
  0
VERTEX
  8
LAYER-1
 10
5.218398
 20
7.471181
 30
0.000000
  0
VERTEX
  8
LAYER-1
 10
5.219068
 20
7.467915
 30
0.000000
  0
SEQEND
  8
LAYER-1
  0
POLYLINE
  8
LAYER-1
 66
  1
 70
  0
 62
  0
 10
5.280670
 20
7.468004
 30
0.000000
  0
VERTEX
  8
LAYER-1
 10
5.280670
 20
7.468004
 30
0.000000
  0
VERTEX
  8
LAYER-1
 10
5.269917
 20
7.481010
 30
0.000000
  0
VERTEX
  8
LAYER-1
 10
5.255902
 20
7.482603
 30
0.000000
  0
VERTEX
  8
LAYER-1
 10
5.244865
 20
7.473819
 30
0.000000
  0
VERTEX
  8
LAYER-1
 10
5.245241
 20
7.468004
 30
0.000000
  0
SEQEND
  8
LAYER-1
  0
POLYLINE
  8
LAYER-1
 66
  1
 70
  0
 62
  0
 10
5.245241
 20
7.468004
 30
0.000000
  0
VERTEX
  8
LAYER-1
 10
5.245241
 20
7.468004
 30
0.000000
  0
VERTEX
  8
LAYER-1
 10
5.280669
 20
7.468004
 30
0.000000
  0
SEQEND
  8
LAYER-1
  0
POLYLINE
  8
LAYER-1
 66
  1
 70
  0
 62
  0
 10
4.004710
 20
7.196282
 30
0.000000
  0
VERTEX
  8
LAYER-1
 10
4.004710
 20
7.196282
 30
0.000000
  0
VERTEX
  8
LAYER-1
 10
4.014650
 20
7.189282
 30
0.000000
  0
VERTEX
  8
LAYER-1
 10
4.029413
 20
7.191360
 30
0.000000
  0
VERTEX
  8
LAYER-1
 10
4.037929
 20
7.195722
 30
0.000000
  0
SEQEND
  8
LAYER-1
  0
POLYLINE
  8
LAYER-1
 66
  1
 70
  0
 62
  0
 10
4.037929
 20
7.195722
 30
0.000000
  0
VERTEX
  8
LAYER-1
 10
4.037929
 20
7.195722
 30
0.000000
  0
VERTEX
  8
LAYER-1
 10
4.004710
 20
7.196282
 30
0.000000
  0
SEQEND
  8
LAYER-1
  0
POLYLINE
  8
LAYER-1
 66
  1
 70
  0
 62
  0
 10
4.040138
 20
7.196282
 30
0.000000
  0
VERTEX
  8
LAYER-1
 10
4.040138
 20
7.196282
 30
0.000000
  0
VERTEX
  8
LAYER-1
 10
4.053310
 20
7.189236
 30
0.000000
  0
VERTEX
  8
LAYER-1
 10
4.070390
 20
7.193568
 30
0.000000
  0
VERTEX
  8
LAYER-1
 10
4.077042
 20
7.196283
 30
0.000000
  0
SEQEND
  8
LAYER-1
  0
POLYLINE
  8
LAYER-1
 66
  1
 70
  0
 62
  0
 10
4.077041
 20
7.196283
 30
0.000000
  0
VERTEX
  8
LAYER-1
 10
4.077041
 20
7.196283
 30
0.000000
  0
VERTEX
  8
LAYER-1
 10
4.040139
 20
7.196282
 30
0.000000
  0
SEQEND
  8
LAYER-1
  0
POLYLINE
  8
LAYER-1
 66
  1
 70
  0
 62
  0
 10
4.406977
 20
7.195836
 30
0.000000
  0
VERTEX
  8
LAYER-1
 10
4.406977
 20
7.195836
 30
0.000000
  0
VERTEX
  8
LAYER-1
 10
4.422544
 20
7.189781
 30
0.000000
  0
VERTEX
  8
LAYER-1
 10
4.440618
 20
7.196507
 30
0.000000
  0
VERTEX
  8
LAYER-1
 10
4.443885
 20
7.195836
 30
0.000000
  0
SEQEND
  8
LAYER-1
  0
POLYLINE
  8
LAYER-1
 66
  1
 70
  0
 62
  0
 10
4.454217
 20
7.195836
 30
0.000000
  0
VERTEX
  8
LAYER-1
 10
4.454217
 20
7.195836
 30
0.000000
  0
VERTEX
  8
LAYER-1
 10
4.469785
 20
7.189781
 30
0.000000
  0
VERTEX
  8
LAYER-1
 10
4.487858
 20
7.196507
 30
0.000000
  0
VERTEX
  8
LAYER-1
 10
4.491125
 20
7.195836
 30
0.000000
  0
SEQEND
  8
LAYER-1
  0
POLYLINE
  8
LAYER-1
 66
  1
 70
  0
 62
  0
 10
4.428451
 20
7.195747
 30
0.000000
  0
VERTEX
  8
LAYER-1
 10
4.428451
 20
7.195747
 30
0.000000
  0
VERTEX
  8
LAYER-1
 10
4.435266
 20
7.186679
 30
0.000000
  0
VERTEX
  8
LAYER-1
 10
4.449281
 20
7.185086
 30
0.000000
  0
VERTEX
  8
LAYER-1
 10
4.460317
 20
7.193868
 30
0.000000
  0
VERTEX
  8
LAYER-1
 10
4.463880
 20
7.195747
 30
0.000000
  0
SEQEND
  8
LAYER-1
  0
POLYLINE
  8
LAYER-1
 66
  1
 70
  0
 62
  0
 10
4.428451
 20
7.195747
 30
0.000000
  0
VERTEX
  8
LAYER-1
 10
4.428451
 20
7.195747
 30
0.000000
  0
VERTEX
  8
LAYER-1
 10
4.463880
 20
7.195747
 30
0.000000
  0
SEQEND
  8
LAYER-1
  0
POLYLINE
  8
LAYER-1
 66
  1
 70
  0
 62
  0
 10
5.219532
 20
7.195836
 30
0.000000
  0
VERTEX
  8
LAYER-1
 10
5.219532
 20
7.195836
 30
0.000000
  0
VERTEX
  8
LAYER-1
 10
5.235099
 20
7.189781
 30
0.000000
  0
VERTEX
  8
LAYER-1
 10
5.253173
 20
7.196507
 30
0.000000
  0
VERTEX
  8
LAYER-1
 10
5.256440
 20
7.195836
 30
0.000000
  0
SEQEND
  8
LAYER-1
  0
POLYLINE
  8
LAYER-1
 66
  1
 70
  0
 62
  0
 10
5.267711
 20
7.195836
 30
0.000000
  0
VERTEX
  8
LAYER-1
 10
5.267711
 20
7.195836
 30
0.000000
  0
VERTEX
  8
LAYER-1
 10
5.283279
 20
7.189781
 30
0.000000
  0
VERTEX
  8
LAYER-1
 10
5.301352
 20
7.196507
 30
0.000000
  0
VERTEX
  8
LAYER-1
 10
5.304619
 20
7.195836
 30
0.000000
  0
SEQEND
  8
LAYER-1
  0
POLYLINE
  8
LAYER-1
 66
  1
 70
  0
 62
  0
 10
5.245234
 20
7.195747
 30
0.000000
  0
VERTEX
  8
LAYER-1
 10
5.245234
 20
7.195747
 30
0.000000
  0
VERTEX
  8
LAYER-1
 10
5.252049
 20
7.186679
 30
0.000000
  0
VERTEX
  8
LAYER-1
 10
5.266065
 20
7.185086
 30
0.000000
  0
VERTEX
  8
LAYER-1
 10
5.277101
 20
7.193868
 30
0.000000
  0
VERTEX
  8
LAYER-1
 10
5.280663
 20
7.195747
 30
0.000000
  0
SEQEND
  8
LAYER-1
  0
POLYLINE
  8
LAYER-1
 66
  1
 70
  0
 62
  0
 10
5.245235
 20
7.195747
 30
0.000000
  0
VERTEX
  8
LAYER-1
 10
5.245235
 20
7.195747
 30
0.000000
  0
VERTEX
  8
LAYER-1
 10
5.280663
 20
7.195747
 30
0.000000
  0
SEQEND
  8
LAYER-1
  0
POLYLINE
  8
LAYER-1
 66
  1
 70
  1
 62
  0
  0
VERTEX
  8
LAYER-1
 10
4.428994
 20
7.467938
 30
0.000000
  0
VERTEX
  8
LAYER-1
 10
4.464424
 20
7.467938
 30
0.000000
  0
VERTEX
  8
LAYER-1
 10
4.464424
 20
7.196309
 30
0.000000
  0
VERTEX
  8
LAYER-1
 10
4.428994
 20
7.196309
 30
0.000000
  0
SEQEND
  8
LAYER-1
  0
POLYLINE
  8
LAYER-1
 66
  1
 70
  1
 62
  0
  0
VERTEX
  8
LAYER-1
 10
5.245307
 20
7.467938
 30
0.000000
  0
VERTEX
  8
LAYER-1
 10
5.280737
 20
7.467938
 30
0.000000
  0
VERTEX
  8
LAYER-1
 10
5.280737
 20
7.196309
 30
0.000000
  0
VERTEX
  8
LAYER-1
 10
5.245307
 20
7.196309
 30
0.000000
  0
SEQEND
  8
LAYER-1
  0
POLYLINE
  8
LAYER-1
 66
  1
 70
  0
 62
  0
 10
4.428994
 20
7.400030
 30
0.000000
  0
VERTEX
  8
LAYER-1
 10
4.428994
 20
7.400030
 30
0.000000
  0
VERTEX
  8
LAYER-1
 10
4.464424
 20
7.400030
 30
0.000000
  0
SEQEND
  8
LAYER-1
  0
POLYLINE
  8
LAYER-1
 66
  1
 70
  0
 62
  0
 10
4.428994
 20
7.270121
 30
0.000000
  0
VERTEX
  8
LAYER-1
 10
4.428994
 20
7.270121
 30
0.000000
  0
VERTEX
  8
LAYER-1
 10
4.464424
 20
7.270121
 30
0.000000
  0
SEQEND
  8
LAYER-1
  0
POLYLINE
  8
LAYER-1
 66
  1
 70
  0
 62
  0
 10
5.245307
 20
7.400030
 30
0.000000
  0
VERTEX
  8
LAYER-1
 10
5.245307
 20
7.400030
 30
0.000000
  0
VERTEX
  8
LAYER-1
 10
5.280736
 20
7.400030
 30
0.000000
  0
SEQEND
  8
LAYER-1
  0
POLYLINE
  8
LAYER-1
 66
  1
 70
  0
 62
  0
 10
5.245307
 20
7.270121
 30
0.000000
  0
VERTEX
  8
LAYER-1
 10
5.245307
 20
7.270121
 30
0.000000
  0
VERTEX
  8
LAYER-1
 10
5.280736
 20
7.270121
 30
0.000000
  0
SEQEND
  8
LAYER-1
  0
POLYLINE
  8
LAYER-1
 66
  1
 70
  0
 62
  0
 10
4.259881
 20
7.468055
 30
0.000000
  0
VERTEX
  8
LAYER-1
 10
4.259881
 20
7.468055
 30
0.000000
  0
VERTEX
  8
LAYER-1
 10
4.245708
 20
7.478586
 30
0.000000
  0
VERTEX
  8
LAYER-1
 10
4.231024
 20
7.476011
 30
0.000000
  0
VERTEX
  8
LAYER-1
 10
4.226662
 20
7.467495
 30
0.000000
  0
SEQEND
  8
LAYER-1
  0
POLYLINE
  8
LAYER-1
 66
  1
 70
  0
 62
  0
 10
5.077059
 20
7.467876
 30
0.000000
  0
VERTEX
  8
LAYER-1
 10
5.077059
 20
7.467876
 30
0.000000
  0
VERTEX
  8
LAYER-1
 10
5.059951
 20
7.478860
 30
0.000000
  0
VERTEX
  8
LAYER-1
 10
5.042871
 20
7.474529
 30
0.000000
  0
VERTEX
  8
LAYER-1
 10
5.040156
 20
7.467877
 30
0.000000
  0
SEQEND
  8
LAYER-1
  0
POLYLINE
  8
LAYER-1
 66
  1
 70
  0
 62
  0
 10
4.819740
 20
7.196280
 30
0.000000
  0
VERTEX
  8
LAYER-1
 10
4.819740
 20
7.196280
 30
0.000000
  0
VERTEX
  8
LAYER-1
 10
4.829680
 20
7.189279
 30
0.000000
  0
VERTEX
  8
LAYER-1
 10
4.844443
 20
7.191357
 30
0.000000
  0
VERTEX
  8
LAYER-1
 10
4.852960
 20
7.195719
 30
0.000000
  0
SEQEND
  8
LAYER-1
  0
POLYLINE
  8
LAYER-1
 66
  1
 70
  0
 62
  0
 10
4.852960
 20
7.195719
 30
0.000000
  0
VERTEX
  8
LAYER-1
 10
4.852960
 20
7.195719
 30
0.000000
  0
VERTEX
  8
LAYER-1
 10
4.819740
 20
7.196280
 30
0.000000
  0
SEQEND
  8
LAYER-1
  0
POLYLINE
  8
LAYER-1
 66
  1
 70
  0
 62
  0
 10
4.855169
 20
7.196280
 30
0.000000
  0
VERTEX
  8
LAYER-1
 10
4.855169
 20
7.196280
 30
0.000000
  0
VERTEX
  8
LAYER-1
 10
4.868340
 20
7.189234
 30
0.000000
  0
VERTEX
  8
LAYER-1
 10
4.885420
 20
7.193565
 30
0.000000
  0
VERTEX
  8
LAYER-1
 10
4.892072
 20
7.196281
 30
0.000000
  0
SEQEND
  8
LAYER-1
  0
POLYLINE
  8
LAYER-1
 66
  1
 70
  0
 62
  0
 10
4.892072
 20
7.196281
 30
0.000000
  0
VERTEX
  8
LAYER-1
 10
4.892072
 20
7.196281
 30
0.000000
  0
VERTEX
  8
LAYER-1
 10
4.855170
 20
7.196280
 30
0.000000
  0
SEQEND
  8
LAYER-1
  0
POLYLINE
  8
LAYER-1
 66
  1
 70
  0
 62
  0
 10
4.890901
 20
7.467938
 30
0.000000
  0
VERTEX
  8
LAYER-1
 10
4.890901
 20
7.467938
 30
0.000000
  0
VERTEX
  8
LAYER-1
 10
4.890901
 20
7.196306
 30
0.000000
  0
SEQEND
  8
LAYER-1
  0
POLYLINE
  8
LAYER-1
 66
  1
 70
  0
 62
  0
 10
4.818567
 20
7.196309
 30
0.000000
  0
VERTEX
  8
LAYER-1
 10
4.818567
 20
7.196309
 30
0.000000
  0
VERTEX
  8
LAYER-1
 10
4.818567
 20
7.467938
 30
0.000000
  0
SEQEND
  8
LAYER-1
  0
POLYLINE
  8
LAYER-1
 66
  1
 70
  0
 62
  0
 10
4.853997
 20
7.467938
 30
0.000000
  0
VERTEX
  8
LAYER-1
 10
4.853997
 20
7.467938
 30
0.000000
  0
VERTEX
  8
LAYER-1
 10
4.853997
 20
7.196308
 30
0.000000
  0
SEQEND
  8
LAYER-1
  0
POLYLINE
  8
LAYER-1
 66
  1
 70
  0
 62
  0
 10
4.852091
 20
7.468357
 30
0.000000
  0
VERTEX
  8
LAYER-1
 10
4.852091
 20
7.468357
 30
0.000000
  0
VERTEX
  8
LAYER-1
 10
4.837919
 20
7.478889
 30
0.000000
  0
VERTEX
  8
LAYER-1
 10
4.823234
 20
7.476313
 30
0.000000
  0
VERTEX
  8
LAYER-1
 10
4.818872
 20
7.467797
 30
0.000000
  0
SEQEND
  8
LAYER-1
  0
POLYLINE
  8
LAYER-1
 66
  1
 70
  0
 62
  0
 10
4.852091
 20
7.468357
 30
0.000000
  0
VERTEX
  8
LAYER-1
 10
4.852091
 20
7.468357
 30
0.000000
  0
VERTEX
  8
LAYER-1
 10
4.818872
 20
7.467797
 30
0.000000
  0
SEQEND
  8
LAYER-1
  0
POLYLINE
  8
LAYER-1
 66
  1
 70
  0
 62
  0
 10
4.891204
 20
7.467795
 30
0.000000
  0
VERTEX
  8
LAYER-1
 10
4.891204
 20
7.467795
 30
0.000000
  0
VERTEX
  8
LAYER-1
 10
4.874095
 20
7.478780
 30
0.000000
  0
VERTEX
  8
LAYER-1
 10
4.857015
 20
7.474449
 30
0.000000
  0
VERTEX
  8
LAYER-1
 10
4.854300
 20
7.467797
 30
0.000000
  0
SEQEND
  8
LAYER-1
  0
POLYLINE
  8
LAYER-1
 66
  1
 70
  0
 62
  0
 10
4.891204
 20
7.467795
 30
0.000000
  0
VERTEX
  8
LAYER-1
 10
4.891204
 20
7.467795
 30
0.000000
  0
VERTEX
  8
LAYER-1
 10
4.854301
 20
7.467797
 30
0.000000
  0
SEQEND
  8
LAYER-1
  0
POLYLINE
  8
LAYER-1
 66
  1
 70
  0
 62
  0
 10
5.639740
 20
7.196280
 30
0.000000
  0
VERTEX
  8
LAYER-1
 10
5.639740
 20
7.196280
 30
0.000000
  0
VERTEX
  8
LAYER-1
 10
5.649680
 20
7.189279
 30
0.000000
  0
VERTEX
  8
LAYER-1
 10
5.664444
 20
7.191357
 30
0.000000
  0
VERTEX
  8
LAYER-1
 10
5.672960
 20
7.195719
 30
0.000000
  0
SEQEND
  8
LAYER-1
  0
POLYLINE
  8
LAYER-1
 66
  1
 70
  0
 62
  0
 10
5.672960
 20
7.195719
 30
0.000000
  0
VERTEX
  8
LAYER-1
 10
5.672960
 20
7.195719
 30
0.000000
  0
VERTEX
  8
LAYER-1
 10
5.639740
 20
7.196280
 30
0.000000
  0
SEQEND
  8
LAYER-1
  0
POLYLINE
  8
LAYER-1
 66
  1
 70
  0
 62
  0
 10
5.675169
 20
7.196280
 30
0.000000
  0
VERTEX
  8
LAYER-1
 10
5.675169
 20
7.196280
 30
0.000000
  0
VERTEX
  8
LAYER-1
 10
5.688341
 20
7.189234
 30
0.000000
  0
VERTEX
  8
LAYER-1
 10
5.705421
 20
7.193565
 30
0.000000
  0
VERTEX
  8
LAYER-1
 10
5.712073
 20
7.196281
 30
0.000000
  0
SEQEND
  8
LAYER-1
  0
POLYLINE
  8
LAYER-1
 66
  1
 70
  0
 62
  0
 10
5.712072
 20
7.196281
 30
0.000000
  0
VERTEX
  8
LAYER-1
 10
5.712072
 20
7.196281
 30
0.000000
  0
VERTEX
  8
LAYER-1
 10
5.675170
 20
7.196280
 30
0.000000
  0
SEQEND
  8
LAYER-1
  0
POLYLINE
  8
LAYER-1
 66
  1
 70
  0
 62
  0
 10
5.710901
 20
7.467938
 30
0.000000
  0
VERTEX
  8
LAYER-1
 10
5.710901
 20
7.467938
 30
0.000000
  0
VERTEX
  8
LAYER-1
 10
5.710901
 20
7.196306
 30
0.000000
  0
SEQEND
  8
LAYER-1
  0
POLYLINE
  8
LAYER-1
 66
  1
 70
  0
 62
  0
 10
5.638568
 20
7.196309
 30
0.000000
  0
VERTEX
  8
LAYER-1
 10
5.638568
 20
7.196309
 30
0.000000
  0
VERTEX
  8
LAYER-1
 10
5.638568
 20
7.467938
 30
0.000000
  0
SEQEND
  8
LAYER-1
  0
POLYLINE
  8
LAYER-1
 66
  1
 70
  0
 62
  0
 10
5.673997
 20
7.467938
 30
0.000000
  0
VERTEX
  8
LAYER-1
 10
5.673997
 20
7.467938
 30
0.000000
  0
VERTEX
  8
LAYER-1
 10
5.673997
 20
7.196308
 30
0.000000
  0
SEQEND
  8
LAYER-1
  0
POLYLINE
  8
LAYER-1
 66
  1
 70
  0
 62
  0
 10
5.672091
 20
7.468357
 30
0.000000
  0
VERTEX
  8
LAYER-1
 10
5.672091
 20
7.468357
 30
0.000000
  0
VERTEX
  8
LAYER-1
 10
5.657918
 20
7.478889
 30
0.000000
  0
VERTEX
  8
LAYER-1
 10
5.643234
 20
7.476313
 30
0.000000
  0
VERTEX
  8
LAYER-1
 10
5.638872
 20
7.467797
 30
0.000000
  0
SEQEND
  8
LAYER-1
  0
POLYLINE
  8
LAYER-1
 66
  1
 70
  0
 62
  0
 10
5.672091
 20
7.468357
 30
0.000000
  0
VERTEX
  8
LAYER-1
 10
5.672091
 20
7.468357
 30
0.000000
  0
VERTEX
  8
LAYER-1
 10
5.638872
 20
7.467797
 30
0.000000
  0
SEQEND
  8
LAYER-1
  0
POLYLINE
  8
LAYER-1
 66
  1
 70
  0
 62
  0
 10
5.711204
 20
7.467795
 30
0.000000
  0
VERTEX
  8
LAYER-1
 10
5.711204
 20
7.467795
 30
0.000000
  0
VERTEX
  8
LAYER-1
 10
5.694096
 20
7.478780
 30
0.000000
  0
VERTEX
  8
LAYER-1
 10
5.677016
 20
7.474449
 30
0.000000
  0
VERTEX
  8
LAYER-1
 10
5.674300
 20
7.467797
 30
0.000000
  0
SEQEND
  8
LAYER-1
  0
POLYLINE
  8
LAYER-1
 66
  1
 70
  0
 62
  0
 10
5.711203
 20
7.467795
 30
0.000000
  0
VERTEX
  8
LAYER-1
 10
5.711203
 20
7.467795
 30
0.000000
  0
VERTEX
  8
LAYER-1
 10
5.674301
 20
7.467797
 30
0.000000
  0
SEQEND
  8
LAYER-1
  0
POLYLINE
  8
LAYER-1
 66
  1
 70
  0
 62
  0
 10
3.814602
 20
7.400030
 30
0.000000
  0
VERTEX
  8
LAYER-1
 10
3.814602
 20
7.400030
 30
0.000000
  0
VERTEX
  8
LAYER-1
 10
3.854327
 20
7.400030
 30
0.000000
  0
SEQEND
  8
LAYER-1
  0
POLYLINE
  8
LAYER-1
 66
  1
 70
  0
 62
  0
 10
3.814602
 20
7.270121
 30
0.000000
  0
VERTEX
  8
LAYER-1
 10
3.814602
 20
7.270121
 30
0.000000
  0
VERTEX
  8
LAYER-1
 10
3.854327
 20
7.270121
 30
0.000000
  0
SEQEND
  8
LAYER-1
  0
POLYLINE
  8
LAYER-1
 66
  1
 70
  0
 62
  0
 10
3.852957
 20
7.473083
 30
0.000000
  0
VERTEX
  8
LAYER-1
 10
3.852957
 20
7.473083
 30
0.000000
  0
VERTEX
  8
LAYER-1
 10
3.835848
 20
7.484066
 30
0.000000
  0
VERTEX
  8
LAYER-1
 10
3.818768
 20
7.479736
 30
0.000000
  0
VERTEX
  8
LAYER-1
 10
3.816054
 20
7.473084
 30
0.000000
  0
SEQEND
  8
LAYER-1
  0
POLYLINE
  8
LAYER-1
 66
  1
 70
  1
 62
  0
  0
VERTEX
  8
LAYER-1
 10
3.808851
 20
7.473707
 30
0.000000
  0
VERTEX
  8
LAYER-1
 10
3.863465
 20
7.473707
 30
0.000000
  0
VERTEX
  8
LAYER-1
 10
3.863465
 20
7.467801
 30
0.000000
  0
VERTEX
  8
LAYER-1
 10
3.808851
 20
7.467801
 30
0.000000
  0
SEQEND
  8
LAYER-1
  0
POLYLINE
  8
LAYER-1
 66
  1
 70
  0
 62
  0
 10
3.854761
 20
7.467936
 30
0.000000
  0
VERTEX
  8
LAYER-1
 10
3.854761
 20
7.467936
 30
0.000000
  0
VERTEX
  8
LAYER-1
 10
3.854761
 20
7.196187
 30
0.000000
  0
SEQEND
  8
LAYER-1
  0
POLYLINE
  8
LAYER-1
 66
  1
 70
  0
 62
  0
 10
3.854750
 20
0.613722
 30
0.000000
  0
VERTEX
  8
LAYER-1
 10
3.854750
 20
0.613722
 30
0.000000
  0
VERTEX
  8
LAYER-1
 10
3.854750
 20
0.342022
 30
0.000000
  0
SEQEND
  8
LAYER-1
  0
POLYLINE
  8
LAYER-1
 66
  1
 70
  0
 62
  0
 10
4.075670
 20
0.341584
 30
0.000000
  0
VERTEX
  8
LAYER-1
 10
4.075670
 20
0.341584
 30
0.000000
  0
VERTEX
  8
LAYER-1
 10
4.075670
 20
0.613215
 30
0.000000
  0
SEQEND
  8
LAYER-1
  0
POLYLINE
  8
LAYER-1
 66
  1
 70
  0
 62
  0
 10
4.406168
 20
0.613215
 30
0.000000
  0
VERTEX
  8
LAYER-1
 10
4.406168
 20
0.613215
 30
0.000000
  0
VERTEX
  8
LAYER-1
 10
4.406168
 20
0.341584
 30
0.000000
  0
SEQEND
  8
LAYER-1
  0
POLYLINE
  8
LAYER-1
 66
  1
 70
  0
 62
  0
 10
5.218998
 20
0.613215
 30
0.000000
  0
VERTEX
  8
LAYER-1
 10
5.218998
 20
0.613215
 30
0.000000
  0
VERTEX
  8
LAYER-1
 10
5.218998
 20
0.341584
 30
0.000000
  0
SEQEND
  8
LAYER-1
  0
POLYLINE
  8
LAYER-1
 66
  1
 70
  0
 62
  0
 10
5.037832
 20
0.341544
 30
0.000000
  0
VERTEX
  8
LAYER-1
 10
5.037832
 20
0.341544
 30
0.000000
  0
VERTEX
  8
LAYER-1
 10
5.037832
 20
0.613173
 30
0.000000
  0
SEQEND
  8
LAYER-1
  0
POLYLINE
  8
LAYER-1
 66
  1
 70
  0
 62
  0
 10
5.077690
 20
0.341544
 30
0.000000
  0
VERTEX
  8
LAYER-1
 10
5.077690
 20
0.341544
 30
0.000000
  0
VERTEX
  8
LAYER-1
 10
5.077690
 20
0.613173
 30
0.000000
  0
SEQEND
  8
LAYER-1
  0
POLYLINE
  8
LAYER-1
 66
  1
 70
  0
 62
  0
 10
4.223814
 20
0.341544
 30
0.000000
  0
VERTEX
  8
LAYER-1
 10
4.223814
 20
0.341544
 30
0.000000
  0
VERTEX
  8
LAYER-1
 10
4.223814
 20
0.613173
 30
0.000000
  0
SEQEND
  8
LAYER-1
  0
POLYLINE
  8
LAYER-1
 66
  1
 70
  0
 62
  0
 10
4.262630
 20
0.341544
 30
0.000000
  0
VERTEX
  8
LAYER-1
 10
4.262630
 20
0.341544
 30
0.000000
  0
VERTEX
  8
LAYER-1
 10
4.262630
 20
0.613173
 30
0.000000
  0
SEQEND
  8
LAYER-1
  0
POLYLINE
  8
LAYER-1
 66
  1
 70
  0
 62
  0
 10
4.490490
 20
0.341584
 30
0.000000
  0
VERTEX
  8
LAYER-1
 10
4.490490
 20
0.341584
 30
0.000000
  0
VERTEX
  8
LAYER-1
 10
4.490490
 20
0.613215
 30
0.000000
  0
SEQEND
  8
LAYER-1
  0
POLYLINE
  8
LAYER-1
 66
  1
 70
  0
 62
  0
 10
5.303320
 20
0.341584
 30
0.000000
  0
VERTEX
  8
LAYER-1
 10
5.303320
 20
0.341584
 30
0.000000
  0
VERTEX
  8
LAYER-1
 10
5.303320
 20
0.613215
 30
0.000000
  0
SEQEND
  8
LAYER-1
  0
POLYLINE
  8
LAYER-1
 66
  1
 70
  0
 62
  0
 10
5.448226
 20
0.341978
 30
0.000000
  0
VERTEX
  8
LAYER-1
 10
5.448226
 20
0.341978
 30
0.000000
  0
VERTEX
  8
LAYER-1
 10
5.448226
 20
0.613607
 30
0.000000
  0
SEQEND
  8
LAYER-1
  0
POLYLINE
  8
LAYER-1
 66
  1
 70
  0
 62
  0
 10
5.486608
 20
0.341978
 30
0.000000
  0
VERTEX
  8
LAYER-1
 10
5.486608
 20
0.341978
 30
0.000000
  0
VERTEX
  8
LAYER-1
 10
5.486608
 20
0.613607
 30
0.000000
  0
SEQEND
  8
LAYER-1
  0
POLYLINE
  8
LAYER-1
 66
  1
 70
  0
 62
  0
 10
4.630387
 20
0.341510
 30
0.000000
  0
VERTEX
  8
LAYER-1
 10
4.630387
 20
0.341510
 30
0.000000
  0
VERTEX
  8
LAYER-1
 10
4.630387
 20
0.613136
 30
0.000000
  0
SEQEND
  8
LAYER-1
  0
POLYLINE
  8
LAYER-1
 66
  1
 70
  0
 62
  0
 10
4.668770
 20
0.341510
 30
0.000000
  0
VERTEX
  8
LAYER-1
 10
4.668770
 20
0.341510
 30
0.000000
  0
VERTEX
  8
LAYER-1
 10
4.668770
 20
0.613136
 30
0.000000
  0
SEQEND
  8
LAYER-1
  0
POLYLINE
  8
LAYER-1
 66
  1
 70
  0
 62
  0
 10
4.003338
 20
0.613211
 30
0.000000
  0
VERTEX
  8
LAYER-1
 10
4.003338
 20
0.613211
 30
0.000000
  0
VERTEX
  8
LAYER-1
 10
4.003338
 20
0.341582
 30
0.000000
  0
SEQEND
  8
LAYER-1
  0
POLYLINE
  8
LAYER-1
 66
  1
 70
  0
 62
  0
 10
4.038767
 20
0.341582
 30
0.000000
  0
VERTEX
  8
LAYER-1
 10
4.038767
 20
0.341582
 30
0.000000
  0
VERTEX
  8
LAYER-1
 10
4.038767
 20
0.613213
 30
0.000000
  0
SEQEND
  8
LAYER-1
  0
POLYLINE
  8
LAYER-1
 66
  1
 70
  0
 62
  0
 10
4.004242
 20
0.341582
 30
0.000000
  0
VERTEX
  8
LAYER-1
 10
4.004242
 20
0.341582
 30
0.000000
  0
VERTEX
  8
LAYER-1
 10
4.014181
 20
0.334582
 30
0.000000
  0
VERTEX
  8
LAYER-1
 10
4.028944
 20
0.336661
 30
0.000000
  0
VERTEX
  8
LAYER-1
 10
4.037797
 20
0.341571
 30
0.000000
  0
SEQEND
  8
LAYER-1
  0
POLYLINE
  8
LAYER-1
 66
  1
 70
  0
 62
  0
 10
4.038767
 20
0.341582
 30
0.000000
  0
VERTEX
  8
LAYER-1
 10
4.038767
 20
0.341582
 30
0.000000
  0
VERTEX
  8
LAYER-1
 10
4.051938
 20
0.334536
 30
0.000000
  0
VERTEX
  8
LAYER-1
 10
4.069018
 20
0.338867
 30
0.000000
  0
VERTEX
  8
LAYER-1
 10
4.075669
 20
0.341584
 30
0.000000
  0
SEQEND
  8
LAYER-1
  0
POLYLINE
  8
LAYER-1
 66
  1
 70
  0
 62
  0
 10
4.454321
 20
0.342077
 30
0.000000
  0
VERTEX
  8
LAYER-1
 10
4.454321
 20
0.342077
 30
0.000000
  0
VERTEX
  8
LAYER-1
 10
4.469888
 20
0.336021
 30
0.000000
  0
VERTEX
  8
LAYER-1
 10
4.487962
 20
0.342746
 30
0.000000
  0
VERTEX
  8
LAYER-1
 10
4.491229
 20
0.342077
 30
0.000000
  0
SEQEND
  8
LAYER-1
  0
POLYLINE
  8
LAYER-1
 66
  1
 70
  0
 62
  0
 10
5.267280
 20
0.341607
 30
0.000000
  0
VERTEX
  8
LAYER-1
 10
5.267280
 20
0.341607
 30
0.000000
  0
VERTEX
  8
LAYER-1
 10
5.282847
 20
0.335552
 30
0.000000
  0
VERTEX
  8
LAYER-1
 10
5.300921
 20
0.342278
 30
0.000000
  0
VERTEX
  8
LAYER-1
 10
5.304187
 20
0.341607
 30
0.000000
  0
SEQEND
  8
LAYER-1
  0
POLYLINE
  8
LAYER-1
 66
  1
 70
  0
 62
  0
 10
4.406612
 20
0.342077
 30
0.000000
  0
VERTEX
  8
LAYER-1
 10
4.406612
 20
0.342077
 30
0.000000
  0
VERTEX
  8
LAYER-1
 10
4.422179
 20
0.336021
 30
0.000000
  0
VERTEX
  8
LAYER-1
 10
4.440253
 20
0.342746
 30
0.000000
  0
VERTEX
  8
LAYER-1
 10
4.443520
 20
0.342077
 30
0.000000
  0
SEQEND
  8
LAYER-1
  0
POLYLINE
  8
LAYER-1
 66
  1
 70
  0
 62
  0
 10
4.428555
 20
0.341518
 30
0.000000
  0
VERTEX
  8
LAYER-1
 10
4.428555
 20
0.341518
 30
0.000000
  0
VERTEX
  8
LAYER-1
 10
4.435370
 20
0.332449
 30
0.000000
  0
VERTEX
  8
LAYER-1
 10
4.449385
 20
0.330855
 30
0.000000
  0
VERTEX
  8
LAYER-1
 10
4.460422
 20
0.339639
 30
0.000000
  0
VERTEX
  8
LAYER-1
 10
4.463984
 20
0.341518
 30
0.000000
  0
SEQEND
  8
LAYER-1
  0
POLYLINE
  8
LAYER-1
 66
  1
 70
  0
 62
  0
 10
4.428555
 20
0.341517
 30
0.000000
  0
VERTEX
  8
LAYER-1
 10
4.428555
 20
0.341517
 30
0.000000
  0
VERTEX
  8
LAYER-1
 10
4.463984
 20
0.341517
 30
0.000000
  0
SEQEND
  8
LAYER-1
  0
POLYLINE
  8
LAYER-1
 66
  1
 70
  0
 62
  0
 10
5.218630
 20
0.341605
 30
0.000000
  0
VERTEX
  8
LAYER-1
 10
5.218630
 20
0.341605
 30
0.000000
  0
VERTEX
  8
LAYER-1
 10
5.234197
 20
0.335552
 30
0.000000
  0
VERTEX
  8
LAYER-1
 10
5.252271
 20
0.342278
 30
0.000000
  0
VERTEX
  8
LAYER-1
 10
5.255537
 20
0.341607
 30
0.000000
  0
SEQEND
  8
LAYER-1
  0
POLYLINE
  8
LAYER-1
 66
  1
 70
  0
 62
  0
 10
5.244801
 20
0.341518
 30
0.000000
  0
VERTEX
  8
LAYER-1
 10
5.244801
 20
0.341518
 30
0.000000
  0
VERTEX
  8
LAYER-1
 10
5.251617
 20
0.332449
 30
0.000000
  0
VERTEX
  8
LAYER-1
 10
5.265632
 20
0.330855
 30
0.000000
  0
VERTEX
  8
LAYER-1
 10
5.276669
 20
0.339639
 30
0.000000
  0
VERTEX
  8
LAYER-1
 10
5.280231
 20
0.341518
 30
0.000000
  0
SEQEND
  8
LAYER-1
  0
POLYLINE
  8
LAYER-1
 66
  1
 70
  0
 62
  0
 10
5.244803
 20
0.341517
 30
0.000000
  0
VERTEX
  8
LAYER-1
 10
5.244803
 20
0.341517
 30
0.000000
  0
VERTEX
  8
LAYER-1
 10
5.280231
 20
0.341517
 30
0.000000
  0
SEQEND
  8
LAYER-1
  0
POLYLINE
  8
LAYER-1
 66
  1
 70
  0
 62
  0
 10
4.037491
 20
0.613799
 30
0.000000
  0
VERTEX
  8
LAYER-1
 10
4.037491
 20
0.613799
 30
0.000000
  0
VERTEX
  8
LAYER-1
 10
4.023318
 20
0.624331
 30
0.000000
  0
VERTEX
  8
LAYER-1
 10
4.008634
 20
0.621756
 30
0.000000
  0
VERTEX
  8
LAYER-1
 10
4.004272
 20
0.613240
 30
0.000000
  0
SEQEND
  8
LAYER-1
  0
POLYLINE
  8
LAYER-1
 66
  1
 70
  0
 62
  0
 10
4.037491
 20
0.613799
 30
0.000000
  0
VERTEX
  8
LAYER-1
 10
4.037491
 20
0.613799
 30
0.000000
  0
VERTEX
  8
LAYER-1
 10
4.004272
 20
0.613240
 30
0.000000
  0
SEQEND
  8
LAYER-1
  0
POLYLINE
  8
LAYER-1
 66
  1
 70
  0
 62
  0
 10
4.076604
 20
0.613237
 30
0.000000
  0
VERTEX
  8
LAYER-1
 10
4.076604
 20
0.613237
 30
0.000000
  0
VERTEX
  8
LAYER-1
 10
4.059496
 20
0.624221
 30
0.000000
  0
VERTEX
  8
LAYER-1
 10
4.042416
 20
0.619890
 30
0.000000
  0
VERTEX
  8
LAYER-1
 10
4.039700
 20
0.613238
 30
0.000000
  0
SEQEND
  8
LAYER-1
  0
POLYLINE
  8
LAYER-1
 66
  1
 70
  0
 62
  0
 10
4.076603
 20
0.613238
 30
0.000000
  0
VERTEX
  8
LAYER-1
 10
4.076603
 20
0.613238
 30
0.000000
  0
VERTEX
  8
LAYER-1
 10
4.039701
 20
0.613240
 30
0.000000
  0
SEQEND
  8
LAYER-1
  0
POLYLINE
  8
LAYER-1
 66
  1
 70
  0
 62
  0
 10
4.443445
 20
0.613684
 30
0.000000
  0
VERTEX
  8
LAYER-1
 10
4.443445
 20
0.613684
 30
0.000000
  0
VERTEX
  8
LAYER-1
 10
4.423942
 20
0.623677
 30
0.000000
  0
VERTEX
  8
LAYER-1
 10
4.405868
 20
0.616951
 30
0.000000
  0
VERTEX
  8
LAYER-1
 10
4.406538
 20
0.613686
 30
0.000000
  0
SEQEND
  8
LAYER-1
  0
POLYLINE
  8
LAYER-1
 66
  1
 70
  0
 62
  0
 10
4.490687
 20
0.613684
 30
0.000000
  0
VERTEX
  8
LAYER-1
 10
4.490687
 20
0.613684
 30
0.000000
  0
VERTEX
  8
LAYER-1
 10
4.471183
 20
0.623677
 30
0.000000
  0
VERTEX
  8
LAYER-1
 10
4.453109
 20
0.616951
 30
0.000000
  0
VERTEX
  8
LAYER-1
 10
4.453779
 20
0.613686
 30
0.000000
  0
SEQEND
  8
LAYER-1
  0
POLYLINE
  8
LAYER-1
 66
  1
 70
  0
 62
  0
 10
4.463441
 20
0.613773
 30
0.000000
  0
VERTEX
  8
LAYER-1
 10
4.463441
 20
0.613773
 30
0.000000
  0
VERTEX
  8
LAYER-1
 10
4.452689
 20
0.626779
 30
0.000000
  0
VERTEX
  8
LAYER-1
 10
4.438674
 20
0.628373
 30
0.000000
  0
VERTEX
  8
LAYER-1
 10
4.427637
 20
0.619589
 30
0.000000
  0
VERTEX
  8
LAYER-1
 10
4.428012
 20
0.613773
 30
0.000000
  0
SEQEND
  8
LAYER-1
  0
POLYLINE
  8
LAYER-1
 66
  1
 70
  0
 62
  0
 10
4.428013
 20
0.613775
 30
0.000000
  0
VERTEX
  8
LAYER-1
 10
4.428013
 20
0.613775
 30
0.000000
  0
VERTEX
  8
LAYER-1
 10
4.463441
 20
0.613775
 30
0.000000
  0
SEQEND
  8
LAYER-1
  0
POLYLINE
  8
LAYER-1
 66
  1
 70
  0
 62
  0
 10
5.256000
 20
0.613684
 30
0.000000
  0
VERTEX
  8
LAYER-1
 10
5.256000
 20
0.613684
 30
0.000000
  0
VERTEX
  8
LAYER-1
 10
5.236496
 20
0.623677
 30
0.000000
  0
VERTEX
  8
LAYER-1
 10
5.218423
 20
0.616951
 30
0.000000
  0
VERTEX
  8
LAYER-1
 10
5.219093
 20
0.613686
 30
0.000000
  0
SEQEND
  8
LAYER-1
  0
POLYLINE
  8
LAYER-1
 66
  1
 70
  0
 62
  0
 10
5.304181
 20
0.613684
 30
0.000000
  0
VERTEX
  8
LAYER-1
 10
5.304181
 20
0.613684
 30
0.000000
  0
VERTEX
  8
LAYER-1
 10
5.284677
 20
0.623677
 30
0.000000
  0
VERTEX
  8
LAYER-1
 10
5.266603
 20
0.616951
 30
0.000000
  0
VERTEX
  8
LAYER-1
 10
5.267273
 20
0.613686
 30
0.000000
  0
SEQEND
  8
LAYER-1
  0
POLYLINE
  8
LAYER-1
 66
  1
 70
  0
 62
  0
 10
5.280225
 20
0.613773
 30
0.000000
  0
VERTEX
  8
LAYER-1
 10
5.280225
 20
0.613773
 30
0.000000
  0
VERTEX
  8
LAYER-1
 10
5.269473
 20
0.626779
 30
0.000000
  0
VERTEX
  8
LAYER-1
 10
5.255458
 20
0.628373
 30
0.000000
  0
VERTEX
  8
LAYER-1
 10
5.244421
 20
0.619589
 30
0.000000
  0
VERTEX
  8
LAYER-1
 10
5.244796
 20
0.613773
 30
0.000000
  0
SEQEND
  8
LAYER-1
  0
POLYLINE
  8
LAYER-1
 66
  1
 70
  0
 62
  0
 10
5.244796
 20
0.613775
 30
0.000000
  0
VERTEX
  8
LAYER-1
 10
5.244796
 20
0.613775
 30
0.000000
  0
VERTEX
  8
LAYER-1
 10
5.280224
 20
0.613775
 30
0.000000
  0
SEQEND
  8
LAYER-1
  0
POLYLINE
  8
LAYER-1
 66
  1
 70
  1
 62
  0
  0
VERTEX
  8
LAYER-1
 10
4.463985
 20
0.341584
 30
0.000000
  0
VERTEX
  8
LAYER-1
 10
4.428555
 20
0.341584
 30
0.000000
  0
VERTEX
  8
LAYER-1
 10
4.428555
 20
0.613213
 30
0.000000
  0
VERTEX
  8
LAYER-1
 10
4.463985
 20
0.613213
 30
0.000000
  0
SEQEND
  8
LAYER-1
  0
POLYLINE
  8
LAYER-1
 66
  1
 70
  1
 62
  0
  0
VERTEX
  8
LAYER-1
 10
5.280299
 20
0.341584
 30
0.000000
  0
VERTEX
  8
LAYER-1
 10
5.244869
 20
0.341584
 30
0.000000
  0
VERTEX
  8
LAYER-1
 10
5.244869
 20
0.613213
 30
0.000000
  0
VERTEX
  8
LAYER-1
 10
5.280299
 20
0.613213
 30
0.000000
  0
SEQEND
  8
LAYER-1
  0
POLYLINE
  8
LAYER-1
 66
  1
 70
  0
 62
  0
 10
4.428555
 20
0.409490
 30
0.000000
  0
VERTEX
  8
LAYER-1
 10
4.428555
 20
0.409490
 30
0.000000
  0
VERTEX
  8
LAYER-1
 10
4.463985
 20
0.409490
 30
0.000000
  0
SEQEND
  8
LAYER-1
  0
POLYLINE
  8
LAYER-1
 66
  1
 70
  0
 62
  0
 10
4.428555
 20
0.539400
 30
0.000000
  0
VERTEX
  8
LAYER-1
 10
4.428555
 20
0.539400
 30
0.000000
  0
VERTEX
  8
LAYER-1
 10
4.463985
 20
0.539400
 30
0.000000
  0
SEQEND
  8
LAYER-1
  0
POLYLINE
  8
LAYER-1
 66
  1
 70
  0
 62
  0
 10
5.244869
 20
0.409490
 30
0.000000
  0
VERTEX
  8
LAYER-1
 10
5.244869
 20
0.409490
 30
0.000000
  0
VERTEX
  8
LAYER-1
 10
5.280297
 20
0.409490
 30
0.000000
  0
SEQEND
  8
LAYER-1
  0
POLYLINE
  8
LAYER-1
 66
  1
 70
  0
 62
  0
 10
5.244869
 20
0.539400
 30
0.000000
  0
VERTEX
  8
LAYER-1
 10
5.244869
 20
0.539400
 30
0.000000
  0
VERTEX
  8
LAYER-1
 10
5.280297
 20
0.539400
 30
0.000000
  0
SEQEND
  8
LAYER-1
  0
POLYLINE
  8
LAYER-1
 66
  1
 70
  0
 62
  0
 10
4.226223
 20
0.342027
 30
0.000000
  0
VERTEX
  8
LAYER-1
 10
4.226223
 20
0.342027
 30
0.000000
  0
VERTEX
  8
LAYER-1
 10
4.236163
 20
0.335026
 30
0.000000
  0
VERTEX
  8
LAYER-1
 10
4.250926
 20
0.337104
 30
0.000000
  0
VERTEX
  8
LAYER-1
 10
4.259442
 20
0.341467
 30
0.000000
  0
SEQEND
  8
LAYER-1
  0
POLYLINE
  8
LAYER-1
 66
  1
 70
  0
 62
  0
 10
5.039717
 20
0.341644
 30
0.000000
  0
VERTEX
  8
LAYER-1
 10
5.039717
 20
0.341644
 30
0.000000
  0
VERTEX
  8
LAYER-1
 10
5.052889
 20
0.334600
 30
0.000000
  0
VERTEX
  8
LAYER-1
 10
5.069968
 20
0.338931
 30
0.000000
  0
VERTEX
  8
LAYER-1
 10
5.076621
 20
0.341646
 30
0.000000
  0
SEQEND
  8
LAYER-1
  0
POLYLINE
  8
LAYER-1
 66
  1
 70
  0
 62
  0
 10
4.852521
 20
0.613801
 30
0.000000
  0
VERTEX
  8
LAYER-1
 10
4.852521
 20
0.613801
 30
0.000000
  0
VERTEX
  8
LAYER-1
 10
4.838349
 20
0.624333
 30
0.000000
  0
VERTEX
  8
LAYER-1
 10
4.823664
 20
0.621758
 30
0.000000
  0
VERTEX
  8
LAYER-1
 10
4.819302
 20
0.613241
 30
0.000000
  0
SEQEND
  8
LAYER-1
  0
POLYLINE
  8
LAYER-1
 66
  1
 70
  0
 62
  0
 10
4.852520
 20
0.613801
 30
0.000000
  0
VERTEX
  8
LAYER-1
 10
4.852520
 20
0.613801
 30
0.000000
  0
VERTEX
  8
LAYER-1
 10
4.819302
 20
0.613241
 30
0.000000
  0
SEQEND
  8
LAYER-1
  0
POLYLINE
  8
LAYER-1
 66
  1
 70
  0
 62
  0
 10
4.891633
 20
0.613241
 30
0.000000
  0
VERTEX
  8
LAYER-1
 10
4.891633
 20
0.613241
 30
0.000000
  0
VERTEX
  8
LAYER-1
 10
4.874525
 20
0.624225
 30
0.000000
  0
VERTEX
  8
LAYER-1
 10
4.857445
 20
0.619894
 30
0.000000
  0
VERTEX
  8
LAYER-1
 10
4.854730
 20
0.613241
 30
0.000000
  0
SEQEND
  8
LAYER-1
  0
POLYLINE
  8
LAYER-1
 66
  1
 70
  0
 62
  0
 10
4.891634
 20
0.613240
 30
0.000000
  0
VERTEX
  8
LAYER-1
 10
4.891634
 20
0.613240
 30
0.000000
  0
VERTEX
  8
LAYER-1
 10
4.854730
 20
0.613241
 30
0.000000
  0
SEQEND
  8
LAYER-1
  0
POLYLINE
  8
LAYER-1
 66
  1
 70
  0
 62
  0
 10
4.890462
 20
0.341584
 30
0.000000
  0
VERTEX
  8
LAYER-1
 10
4.890462
 20
0.341584
 30
0.000000
  0
VERTEX
  8
LAYER-1
 10
4.890462
 20
0.613215
 30
0.000000
  0
SEQEND
  8
LAYER-1
  0
POLYLINE
  8
LAYER-1
 66
  1
 70
  0
 62
  0
 10
4.818128
 20
0.613211
 30
0.000000
  0
VERTEX
  8
LAYER-1
 10
4.818128
 20
0.613211
 30
0.000000
  0
VERTEX
  8
LAYER-1
 10
4.818128
 20
0.341582
 30
0.000000
  0
SEQEND
  8
LAYER-1
  0
POLYLINE
  8
LAYER-1
 66
  1
 70
  0
 62
  0
 10
4.853558
 20
0.341582
 30
0.000000
  0
VERTEX
  8
LAYER-1
 10
4.853558
 20
0.341582
 30
0.000000
  0
VERTEX
  8
LAYER-1
 10
4.853558
 20
0.613213
 30
0.000000
  0
SEQEND
  8
LAYER-1
  0
POLYLINE
  8
LAYER-1
 66
  1
 70
  0
 62
  0
 10
4.818433
 20
0.341725
 30
0.000000
  0
VERTEX
  8
LAYER-1
 10
4.818433
 20
0.341725
 30
0.000000
  0
VERTEX
  8
LAYER-1
 10
4.828373
 20
0.334724
 30
0.000000
  0
VERTEX
  8
LAYER-1
 10
4.843136
 20
0.336802
 30
0.000000
  0
VERTEX
  8
LAYER-1
 10
4.851652
 20
0.341165
 30
0.000000
  0
SEQEND
  8
LAYER-1
  0
POLYLINE
  8
LAYER-1
 66
  1
 70
  0
 62
  0
 10
4.851652
 20
0.341164
 30
0.000000
  0
VERTEX
  8
LAYER-1
 10
4.851652
 20
0.341164
 30
0.000000
  0
VERTEX
  8
LAYER-1
 10
4.818433
 20
0.341725
 30
0.000000
  0
SEQEND
  8
LAYER-1
  0
POLYLINE
  8
LAYER-1
 66
  1
 70
  0
 62
  0
 10
4.853862
 20
0.341725
 30
0.000000
  0
VERTEX
  8
LAYER-1
 10
4.853862
 20
0.341725
 30
0.000000
  0
VERTEX
  8
LAYER-1
 10
4.867033
 20
0.334678
 30
0.000000
  0
VERTEX
  8
LAYER-1
 10
4.884113
 20
0.339010
 30
0.000000
  0
VERTEX
  8
LAYER-1
 10
4.890765
 20
0.341726
 30
0.000000
  0
SEQEND
  8
LAYER-1
  0
POLYLINE
  8
LAYER-1
 66
  1
 70
  0
 62
  0
 10
4.890765
 20
0.341725
 30
0.000000
  0
VERTEX
  8
LAYER-1
 10
4.890765
 20
0.341725
 30
0.000000
  0
VERTEX
  8
LAYER-1
 10
4.853862
 20
0.341725
 30
0.000000
  0
SEQEND
  8
LAYER-1
  0
POLYLINE
  8
LAYER-1
 66
  1
 70
  0
 62
  0
 10
5.672521
 20
0.613801
 30
0.000000
  0
VERTEX
  8
LAYER-1
 10
5.672521
 20
0.613801
 30
0.000000
  0
VERTEX
  8
LAYER-1
 10
5.658348
 20
0.624333
 30
0.000000
  0
VERTEX
  8
LAYER-1
 10
5.643664
 20
0.621758
 30
0.000000
  0
VERTEX
  8
LAYER-1
 10
5.639301
 20
0.613241
 30
0.000000
  0
SEQEND
  8
LAYER-1
  0
POLYLINE
  8
LAYER-1
 66
  1
 70
  0
 62
  0
 10
5.672521
 20
0.613801
 30
0.000000
  0
VERTEX
  8
LAYER-1
 10
5.672521
 20
0.613801
 30
0.000000
  0
VERTEX
  8
LAYER-1
 10
5.639302
 20
0.613241
 30
0.000000
  0
SEQEND
  8
LAYER-1
  0
POLYLINE
  8
LAYER-1
 66
  1
 70
  0
 62
  0
 10
5.711633
 20
0.613241
 30
0.000000
  0
VERTEX
  8
LAYER-1
 10
5.711633
 20
0.613241
 30
0.000000
  0
VERTEX
  8
LAYER-1
 10
5.694525
 20
0.624225
 30
0.000000
  0
VERTEX
  8
LAYER-1
 10
5.677445
 20
0.619894
 30
0.000000
  0
VERTEX
  8
LAYER-1
 10
5.674730
 20
0.613241
 30
0.000000
  0
SEQEND
  8
LAYER-1
  0
POLYLINE
  8
LAYER-1
 66
  1
 70
  0
 62
  0
 10
5.711633
 20
0.613240
 30
0.000000
  0
VERTEX
  8
LAYER-1
 10
5.711633
 20
0.613240
 30
0.000000
  0
VERTEX
  8
LAYER-1
 10
5.674731
 20
0.613241
 30
0.000000
  0
SEQEND
  8
LAYER-1
  0
POLYLINE
  8
LAYER-1
 66
  1
 70
  0
 62
  0
 10
5.710462
 20
0.341584
 30
0.000000
  0
VERTEX
  8
LAYER-1
 10
5.710462
 20
0.341584
 30
0.000000
  0
VERTEX
  8
LAYER-1
 10
5.710462
 20
0.613215
 30
0.000000
  0
SEQEND
  8
LAYER-1
  0
POLYLINE
  8
LAYER-1
 66
  1
 70
  0
 62
  0
 10
5.638128
 20
0.613211
 30
0.000000
  0
VERTEX
  8
LAYER-1
 10
5.638128
 20
0.613211
 30
0.000000
  0
VERTEX
  8
LAYER-1
 10
5.638128
 20
0.341582
 30
0.000000
  0
SEQEND
  8
LAYER-1
  0
POLYLINE
  8
LAYER-1
 66
  1
 70
  0
 62
  0
 10
5.673559
 20
0.341582
 30
0.000000
  0
VERTEX
  8
LAYER-1
 10
5.673559
 20
0.341582
 30
0.000000
  0
VERTEX
  8
LAYER-1
 10
5.673559
 20
0.613213
 30
0.000000
  0
SEQEND
  8
LAYER-1
  0
POLYLINE
  8
LAYER-1
 66
  1
 70
  0
 62
  0
 10
5.638433
 20
0.341725
 30
0.000000
  0
VERTEX
  8
LAYER-1
 10
5.638433
 20
0.341725
 30
0.000000
  0
VERTEX
  8
LAYER-1
 10
5.648373
 20
0.334724
 30
0.000000
  0
VERTEX
  8
LAYER-1
 10
5.663136
 20
0.336802
 30
0.000000
  0
VERTEX
  8
LAYER-1
 10
5.671652
 20
0.341165
 30
0.000000
  0
SEQEND
  8
LAYER-1
  0
POLYLINE
  8
LAYER-1
 66
  1
 70
  0
 62
  0
 10
5.671652
 20
0.341164
 30
0.000000
  0
VERTEX
  8
LAYER-1
 10
5.671652
 20
0.341164
 30
0.000000
  0
VERTEX
  8
LAYER-1
 10
5.638433
 20
0.341725
 30
0.000000
  0
SEQEND
  8
LAYER-1
  0
POLYLINE
  8
LAYER-1
 66
  1
 70
  0
 62
  0
 10
5.673862
 20
0.341725
 30
0.000000
  0
VERTEX
  8
LAYER-1
 10
5.673862
 20
0.341725
 30
0.000000
  0
VERTEX
  8
LAYER-1
 10
5.687033
 20
0.334678
 30
0.000000
  0
VERTEX
  8
LAYER-1
 10
5.704113
 20
0.339010
 30
0.000000
  0
VERTEX
  8
LAYER-1
 10
5.710765
 20
0.341726
 30
0.000000
  0
SEQEND
  8
LAYER-1
  0
POLYLINE
  8
LAYER-1
 66
  1
 70
  0
 62
  0
 10
5.710765
 20
0.341725
 30
0.000000
  0
VERTEX
  8
LAYER-1
 10
5.710765
 20
0.341725
 30
0.000000
  0
VERTEX
  8
LAYER-1
 10
5.673862
 20
0.341725
 30
0.000000
  0
SEQEND
  8
LAYER-1
  0
POLYLINE
  8
LAYER-1
 66
  1
 70
  0
 62
  0
 40
0.027778
 41
0.027778
 10
3.645018
 20
0.237641
 30
0.000000
  0
VERTEX
  8
LAYER-1
 10
3.645018
 20
0.237641
 30
0.000000
  0
VERTEX
  8
LAYER-1
 10
0.736445
 20
0.237641
 30
0.000000
  0
SEQEND
  8
LAYER-1
  0
POLYLINE
  8
LAYER-1
 66
  1
 70
  0
 62
  0
 40
0.027778
 41
0.027778
 10
3.738635
 20
0.237641
 30
0.000000
  0
VERTEX
  8
LAYER-1
 10
3.738635
 20
0.237641
 30
0.000000
  0
VERTEX
  8
LAYER-1
 10
6.736445
 20
0.237641
 30
0.000000
  0
SEQEND
  8
LAYER-1
  0
POLYLINE
  8
LAYER-1
 66
  1
 70
  1
 62
  7
  0
VERTEX
  8
LAYER-1
 10
0.075117
 20
4.229381
 30
0.000000
  0
VERTEX
  8
LAYER-1
 10
0.157896
 20
4.229381
 30
0.000000
  0
VERTEX
  8
LAYER-1
 10
0.157896
 20
4.013876
 30
0.000000
  0
VERTEX
  8
LAYER-1
 10
0.075117
 20
4.013876
 30
0.000000
  0
SEQEND
  8
LAYER-1
  0
POLYLINE
  8
LAYER-1
 66
  1
 70
  1
 62
  7
  0
VERTEX
  8
LAYER-1
 10
0.219083
 20
4.229381
 30
0.000000
  0
VERTEX
  8
LAYER-1
 10
0.301864
 20
4.229381
 30
0.000000
  0
VERTEX
  8
LAYER-1
 10
0.301864
 20
4.013876
 30
0.000000
  0
VERTEX
  8
LAYER-1
 10
0.219083
 20
4.013876
 30
0.000000
  0
SEQEND
  8
LAYER-1
  0
POLYLINE
  8
LAYER-1
 66
  1
 70
  1
 62
  7
  0
VERTEX
  8
LAYER-1
 10
0.363050
 20
4.229381
 30
0.000000
  0
VERTEX
  8
LAYER-1
 10
0.445828
 20
4.229381
 30
0.000000
  0
VERTEX
  8
LAYER-1
 10
0.445828
 20
4.013876
 30
0.000000
  0
VERTEX
  8
LAYER-1
 10
0.363050
 20
4.013876
 30
0.000000
  0
SEQEND
  8
LAYER-1
  0
POLYLINE
  8
LAYER-1
 66
  1
 70
  1
 62
  7
  0
VERTEX
  8
LAYER-1
 10
0.507016
 20
4.229381
 30
0.000000
  0
VERTEX
  8
LAYER-1
 10
0.589794
 20
4.229381
 30
0.000000
  0
VERTEX
  8
LAYER-1
 10
0.589794
 20
4.013876
 30
0.000000
  0
VERTEX
  8
LAYER-1
 10
0.507016
 20
4.013876
 30
0.000000
  0
SEQEND
  8
LAYER-1
  0
POLYLINE
  8
LAYER-1
 66
  1
 70
  1
 62
  7
  0
VERTEX
  8
LAYER-1
 10
0.650981
 20
4.229381
 30
0.000000
  0
VERTEX
  8
LAYER-1
 10
0.733761
 20
4.229381
 30
0.000000
  0
VERTEX
  8
LAYER-1
 10
0.733761
 20
4.013876
 30
0.000000
  0
VERTEX
  8
LAYER-1
 10
0.650981
 20
4.013876
 30
0.000000
  0
SEQEND
  8
LAYER-1
  0
POLYLINE
  8
LAYER-1
 66
  1
 70
  1
 62
  7
  0
VERTEX
  8
LAYER-1
 10
0.794948
 20
4.229381
 30
0.000000
  0
VERTEX
  8
LAYER-1
 10
0.877727
 20
4.229381
 30
0.000000
  0
VERTEX
  8
LAYER-1
 10
0.877727
 20
4.013876
 30
0.000000
  0
VERTEX
  8
LAYER-1
 10
0.794948
 20
4.013876
 30
0.000000
  0
SEQEND
  8
LAYER-1
  0
POLYLINE
  8
LAYER-1
 66
  1
 70
  1
 62
  7
  0
VERTEX
  8
LAYER-1
 10
0.938914
 20
4.229381
 30
0.000000
  0
VERTEX
  8
LAYER-1
 10
1.021693
 20
4.229381
 30
0.000000
  0
VERTEX
  8
LAYER-1
 10
1.021693
 20
4.013876
 30
0.000000
  0
VERTEX
  8
LAYER-1
 10
0.938914
 20
4.013876
 30
0.000000
  0
SEQEND
  8
LAYER-1
  0
POLYLINE
  8
LAYER-1
 66
  1
 70
  1
 62
  7
  0
VERTEX
  8
LAYER-1
 10
0.003017
 20
4.444871
 30
0.000000
  0
VERTEX
  8
LAYER-1
 10
0.085796
 20
4.444871
 30
0.000000
  0
VERTEX
  8
LAYER-1
 10
0.085796
 20
4.229369
 30
0.000000
  0
VERTEX
  8
LAYER-1
 10
0.003017
 20
4.229369
 30
0.000000
  0
SEQEND
  8
LAYER-1
  0
POLYLINE
  8
LAYER-1
 66
  1
 70
  1
 62
  7
  0
VERTEX
  8
LAYER-1
 10
0.146983
 20
4.444871
 30
0.000000
  0
VERTEX
  8
LAYER-1
 10
0.229762
 20
4.444871
 30
0.000000
  0
VERTEX
  8
LAYER-1
 10
0.229762
 20
4.229369
 30
0.000000
  0
VERTEX
  8
LAYER-1
 10
0.146983
 20
4.229369
 30
0.000000
  0
SEQEND
  8
LAYER-1
  0
POLYLINE
  8
LAYER-1
 66
  1
 70
  1
 62
  7
  0
VERTEX
  8
LAYER-1
 10
0.290949
 20
4.444871
 30
0.000000
  0
VERTEX
  8
LAYER-1
 10
0.373729
 20
4.444871
 30
0.000000
  0
VERTEX
  8
LAYER-1
 10
0.373729
 20
4.229369
 30
0.000000
  0
VERTEX
  8
LAYER-1
 10
0.290949
 20
4.229369
 30
0.000000
  0
SEQEND
  8
LAYER-1
  0
POLYLINE
  8
LAYER-1
 66
  1
 70
  1
 62
  7
  0
VERTEX
  8
LAYER-1
 10
0.434916
 20
4.444871
 30
0.000000
  0
VERTEX
  8
LAYER-1
 10
0.517695
 20
4.444871
 30
0.000000
  0
VERTEX
  8
LAYER-1
 10
0.517695
 20
4.229369
 30
0.000000
  0
VERTEX
  8
LAYER-1
 10
0.434916
 20
4.229369
 30
0.000000
  0
SEQEND
  8
LAYER-1
  0
POLYLINE
  8
LAYER-1
 66
  1
 70
  1
 62
  7
  0
VERTEX
  8
LAYER-1
 10
0.578881
 20
4.444871
 30
0.000000
  0
VERTEX
  8
LAYER-1
 10
0.661661
 20
4.444871
 30
0.000000
  0
VERTEX
  8
LAYER-1
 10
0.661661
 20
4.229369
 30
0.000000
  0
VERTEX
  8
LAYER-1
 10
0.578881
 20
4.229369
 30
0.000000
  0
SEQEND
  8
LAYER-1
  0
POLYLINE
  8
LAYER-1
 66
  1
 70
  1
 62
  7
  0
VERTEX
  8
LAYER-1
 10
0.722848
 20
4.444871
 30
0.000000
  0
VERTEX
  8
LAYER-1
 10
0.805627
 20
4.444871
 30
0.000000
  0
VERTEX
  8
LAYER-1
 10
0.805627
 20
4.229369
 30
0.000000
  0
VERTEX
  8
LAYER-1
 10
0.722848
 20
4.229369
 30
0.000000
  0
SEQEND
  8
LAYER-1
  0
POLYLINE
  8
LAYER-1
 66
  1
 70
  1
 62
  7
  0
VERTEX
  8
LAYER-1
 10
0.866814
 20
4.444871
 30
0.000000
  0
VERTEX
  8
LAYER-1
 10
0.949594
 20
4.444871
 30
0.000000
  0
VERTEX
  8
LAYER-1
 10
0.949594
 20
4.229369
 30
0.000000
  0
VERTEX
  8
LAYER-1
 10
0.866814
 20
4.229369
 30
0.000000
  0
SEQEND
  8
LAYER-1
  0
POLYLINE
  8
LAYER-1
 66
  1
 70
  1
 62
  7
  0
VERTEX
  8
LAYER-1
 10
0.075117
 20
3.798396
 30
0.000000
  0
VERTEX
  8
LAYER-1
 10
0.157896
 20
3.798396
 30
0.000000
  0
VERTEX
  8
LAYER-1
 10
0.157896
 20
3.582893
 30
0.000000
  0
VERTEX
  8
LAYER-1
 10
0.075117
 20
3.582893
 30
0.000000
  0
SEQEND
  8
LAYER-1
  0
POLYLINE
  8
LAYER-1
 66
  1
 70
  1
 62
  7
  0
VERTEX
  8
LAYER-1
 10
0.219083
 20
3.798396
 30
0.000000
  0
VERTEX
  8
LAYER-1
 10
0.301864
 20
3.798396
 30
0.000000
  0
VERTEX
  8
LAYER-1
 10
0.301864
 20
3.582893
 30
0.000000
  0
VERTEX
  8
LAYER-1
 10
0.219083
 20
3.582893
 30
0.000000
  0
SEQEND
  8
LAYER-1
  0
POLYLINE
  8
LAYER-1
 66
  1
 70
  1
 62
  7
  0
VERTEX
  8
LAYER-1
 10
0.363050
 20
3.798396
 30
0.000000
  0
VERTEX
  8
LAYER-1
 10
0.445828
 20
3.798396
 30
0.000000
  0
VERTEX
  8
LAYER-1
 10
0.445828
 20
3.582893
 30
0.000000
  0
VERTEX
  8
LAYER-1
 10
0.363050
 20
3.582893
 30
0.000000
  0
SEQEND
  8
LAYER-1
  0
POLYLINE
  8
LAYER-1
 66
  1
 70
  1
 62
  7
  0
VERTEX
  8
LAYER-1
 10
0.507016
 20
3.798396
 30
0.000000
  0
VERTEX
  8
LAYER-1
 10
0.589794
 20
3.798396
 30
0.000000
  0
VERTEX
  8
LAYER-1
 10
0.589794
 20
3.582893
 30
0.000000
  0
VERTEX
  8
LAYER-1
 10
0.507016
 20
3.582893
 30
0.000000
  0
SEQEND
  8
LAYER-1
  0
POLYLINE
  8
LAYER-1
 66
  1
 70
  1
 62
  7
  0
VERTEX
  8
LAYER-1
 10
0.650981
 20
3.798396
 30
0.000000
  0
VERTEX
  8
LAYER-1
 10
0.733761
 20
3.798396
 30
0.000000
  0
VERTEX
  8
LAYER-1
 10
0.733761
 20
3.582893
 30
0.000000
  0
VERTEX
  8
LAYER-1
 10
0.650981
 20
3.582893
 30
0.000000
  0
SEQEND
  8
LAYER-1
  0
POLYLINE
  8
LAYER-1
 66
  1
 70
  1
 62
  7
  0
VERTEX
  8
LAYER-1
 10
0.794948
 20
3.798396
 30
0.000000
  0
VERTEX
  8
LAYER-1
 10
0.877727
 20
3.798396
 30
0.000000
  0
VERTEX
  8
LAYER-1
 10
0.877727
 20
3.582893
 30
0.000000
  0
VERTEX
  8
LAYER-1
 10
0.794948
 20
3.582893
 30
0.000000
  0
SEQEND
  8
LAYER-1
  0
POLYLINE
  8
LAYER-1
 66
  1
 70
  1
 62
  7
  0
VERTEX
  8
LAYER-1
 10
0.938914
 20
3.798396
 30
0.000000
  0
VERTEX
  8
LAYER-1
 10
1.021693
 20
3.798396
 30
0.000000
  0
VERTEX
  8
LAYER-1
 10
1.021693
 20
3.582893
 30
0.000000
  0
VERTEX
  8
LAYER-1
 10
0.938914
 20
3.582893
 30
0.000000
  0
SEQEND
  8
LAYER-1
  0
POLYLINE
  8
LAYER-1
 66
  1
 70
  1
 62
  7
  0
VERTEX
  8
LAYER-1
 10
0.003017
 20
4.013888
 30
0.000000
  0
VERTEX
  8
LAYER-1
 10
0.085796
 20
4.013888
 30
0.000000
  0
VERTEX
  8
LAYER-1
 10
0.085796
 20
3.798385
 30
0.000000
  0
VERTEX
  8
LAYER-1
 10
0.003017
 20
3.798385
 30
0.000000
  0
SEQEND
  8
LAYER-1
  0
POLYLINE
  8
LAYER-1
 66
  1
 70
  1
 62
  7
  0
VERTEX
  8
LAYER-1
 10
0.146983
 20
4.013888
 30
0.000000
  0
VERTEX
  8
LAYER-1
 10
0.229762
 20
4.013888
 30
0.000000
  0
VERTEX
  8
LAYER-1
 10
0.229762
 20
3.798385
 30
0.000000
  0
VERTEX
  8
LAYER-1
 10
0.146983
 20
3.798385
 30
0.000000
  0
SEQEND
  8
LAYER-1
  0
POLYLINE
  8
LAYER-1
 66
  1
 70
  1
 62
  7
  0
VERTEX
  8
LAYER-1
 10
0.290949
 20
4.013888
 30
0.000000
  0
VERTEX
  8
LAYER-1
 10
0.373729
 20
4.013888
 30
0.000000
  0
VERTEX
  8
LAYER-1
 10
0.373729
 20
3.798385
 30
0.000000
  0
VERTEX
  8
LAYER-1
 10
0.290949
 20
3.798385
 30
0.000000
  0
SEQEND
  8
LAYER-1
  0
POLYLINE
  8
LAYER-1
 66
  1
 70
  1
 62
  7
  0
VERTEX
  8
LAYER-1
 10
0.434916
 20
4.013888
 30
0.000000
  0
VERTEX
  8
LAYER-1
 10
0.517695
 20
4.013888
 30
0.000000
  0
VERTEX
  8
LAYER-1
 10
0.517695
 20
3.798385
 30
0.000000
  0
VERTEX
  8
LAYER-1
 10
0.434916
 20
3.798385
 30
0.000000
  0
SEQEND
  8
LAYER-1
  0
POLYLINE
  8
LAYER-1
 66
  1
 70
  1
 62
  7
  0
VERTEX
  8
LAYER-1
 10
0.578881
 20
4.013888
 30
0.000000
  0
VERTEX
  8
LAYER-1
 10
0.661661
 20
4.013888
 30
0.000000
  0
VERTEX
  8
LAYER-1
 10
0.661661
 20
3.798385
 30
0.000000
  0
VERTEX
  8
LAYER-1
 10
0.578881
 20
3.798385
 30
0.000000
  0
SEQEND
  8
LAYER-1
  0
POLYLINE
  8
LAYER-1
 66
  1
 70
  1
 62
  7
  0
VERTEX
  8
LAYER-1
 10
0.722848
 20
4.013888
 30
0.000000
  0
VERTEX
  8
LAYER-1
 10
0.805627
 20
4.013888
 30
0.000000
  0
VERTEX
  8
LAYER-1
 10
0.805627
 20
3.798385
 30
0.000000
  0
VERTEX
  8
LAYER-1
 10
0.722848
 20
3.798385
 30
0.000000
  0
SEQEND
  8
LAYER-1
  0
POLYLINE
  8
LAYER-1
 66
  1
 70
  1
 62
  7
  0
VERTEX
  8
LAYER-1
 10
0.866814
 20
4.013888
 30
0.000000
  0
VERTEX
  8
LAYER-1
 10
0.949594
 20
4.013888
 30
0.000000
  0
VERTEX
  8
LAYER-1
 10
0.949594
 20
3.798385
 30
0.000000
  0
VERTEX
  8
LAYER-1
 10
0.866814
 20
3.798385
 30
0.000000
  0
SEQEND
  8
LAYER-1
  0
POLYLINE
  8
LAYER-1
 66
  1
 70
  1
 62
  7
  0
VERTEX
  8
LAYER-1
 10
0.075117
 20
3.367416
 30
0.000000
  0
VERTEX
  8
LAYER-1
 10
0.157896
 20
3.367416
 30
0.000000
  0
VERTEX
  8
LAYER-1
 10
0.157896
 20
3.151914
 30
0.000000
  0
VERTEX
  8
LAYER-1
 10
0.075117
 20
3.151914
 30
0.000000
  0
SEQEND
  8
LAYER-1
  0
POLYLINE
  8
LAYER-1
 66
  1
 70
  1
 62
  7
  0
VERTEX
  8
LAYER-1
 10
0.219083
 20
3.367416
 30
0.000000
  0
VERTEX
  8
LAYER-1
 10
0.301864
 20
3.367416
 30
0.000000
  0
VERTEX
  8
LAYER-1
 10
0.301864
 20
3.151914
 30
0.000000
  0
VERTEX
  8
LAYER-1
 10
0.219083
 20
3.151914
 30
0.000000
  0
SEQEND
  8
LAYER-1
  0
POLYLINE
  8
LAYER-1
 66
  1
 70
  1
 62
  7
  0
VERTEX
  8
LAYER-1
 10
0.363050
 20
3.367416
 30
0.000000
  0
VERTEX
  8
LAYER-1
 10
0.445828
 20
3.367416
 30
0.000000
  0
VERTEX
  8
LAYER-1
 10
0.445828
 20
3.151914
 30
0.000000
  0
VERTEX
  8
LAYER-1
 10
0.363050
 20
3.151914
 30
0.000000
  0
SEQEND
  8
LAYER-1
  0
POLYLINE
  8
LAYER-1
 66
  1
 70
  1
 62
  7
  0
VERTEX
  8
LAYER-1
 10
0.507016
 20
3.367416
 30
0.000000
  0
VERTEX
  8
LAYER-1
 10
0.589794
 20
3.367416
 30
0.000000
  0
VERTEX
  8
LAYER-1
 10
0.589794
 20
3.151914
 30
0.000000
  0
VERTEX
  8
LAYER-1
 10
0.507016
 20
3.151914
 30
0.000000
  0
SEQEND
  8
LAYER-1
  0
POLYLINE
  8
LAYER-1
 66
  1
 70
  1
 62
  7
  0
VERTEX
  8
LAYER-1
 10
0.650981
 20
3.367416
 30
0.000000
  0
VERTEX
  8
LAYER-1
 10
0.733761
 20
3.367416
 30
0.000000
  0
VERTEX
  8
LAYER-1
 10
0.733761
 20
3.151914
 30
0.000000
  0
VERTEX
  8
LAYER-1
 10
0.650981
 20
3.151914
 30
0.000000
  0
SEQEND
  8
LAYER-1
  0
POLYLINE
  8
LAYER-1
 66
  1
 70
  1
 62
  7
  0
VERTEX
  8
LAYER-1
 10
0.794948
 20
3.367416
 30
0.000000
  0
VERTEX
  8
LAYER-1
 10
0.877727
 20
3.367416
 30
0.000000
  0
VERTEX
  8
LAYER-1
 10
0.877727
 20
3.151914
 30
0.000000
  0
VERTEX
  8
LAYER-1
 10
0.794948
 20
3.151914
 30
0.000000
  0
SEQEND
  8
LAYER-1
  0
POLYLINE
  8
LAYER-1
 66
  1
 70
  1
 62
  7
  0
VERTEX
  8
LAYER-1
 10
0.938914
 20
3.367416
 30
0.000000
  0
VERTEX
  8
LAYER-1
 10
1.021693
 20
3.367416
 30
0.000000
  0
VERTEX
  8
LAYER-1
 10
1.021693
 20
3.151914
 30
0.000000
  0
VERTEX
  8
LAYER-1
 10
0.938914
 20
3.151914
 30
0.000000
  0
SEQEND
  8
LAYER-1
  0
POLYLINE
  8
LAYER-1
 66
  1
 70
  1
 62
  7
  0
VERTEX
  8
LAYER-1
 10
0.003017
 20
3.582906
 30
0.000000
  0
VERTEX
  8
LAYER-1
 10
0.085796
 20
3.582906
 30
0.000000
  0
VERTEX
  8
LAYER-1
 10
0.085796
 20
3.367404
 30
0.000000
  0
VERTEX
  8
LAYER-1
 10
0.003017
 20
3.367404
 30
0.000000
  0
SEQEND
  8
LAYER-1
  0
POLYLINE
  8
LAYER-1
 66
  1
 70
  1
 62
  7
  0
VERTEX
  8
LAYER-1
 10
0.146983
 20
3.582906
 30
0.000000
  0
VERTEX
  8
LAYER-1
 10
0.229762
 20
3.582906
 30
0.000000
  0
VERTEX
  8
LAYER-1
 10
0.229762
 20
3.367404
 30
0.000000
  0
VERTEX
  8
LAYER-1
 10
0.146983
 20
3.367404
 30
0.000000
  0
SEQEND
  8
LAYER-1
  0
POLYLINE
  8
LAYER-1
 66
  1
 70
  1
 62
  7
  0
VERTEX
  8
LAYER-1
 10
0.290949
 20
3.582906
 30
0.000000
  0
VERTEX
  8
LAYER-1
 10
0.373729
 20
3.582906
 30
0.000000
  0
VERTEX
  8
LAYER-1
 10
0.373729
 20
3.367404
 30
0.000000
  0
VERTEX
  8
LAYER-1
 10
0.290949
 20
3.367404
 30
0.000000
  0
SEQEND
  8
LAYER-1
  0
POLYLINE
  8
LAYER-1
 66
  1
 70
  1
 62
  7
  0
VERTEX
  8
LAYER-1
 10
0.434916
 20
3.582906
 30
0.000000
  0
VERTEX
  8
LAYER-1
 10
0.517695
 20
3.582906
 30
0.000000
  0
VERTEX
  8
LAYER-1
 10
0.517695
 20
3.367404
 30
0.000000
  0
VERTEX
  8
LAYER-1
 10
0.434916
 20
3.367404
 30
0.000000
  0
SEQEND
  8
LAYER-1
  0
POLYLINE
  8
LAYER-1
 66
  1
 70
  1
 62
  7
  0
VERTEX
  8
LAYER-1
 10
0.578881
 20
3.582906
 30
0.000000
  0
VERTEX
  8
LAYER-1
 10
0.661661
 20
3.582906
 30
0.000000
  0
VERTEX
  8
LAYER-1
 10
0.661661
 20
3.367404
 30
0.000000
  0
VERTEX
  8
LAYER-1
 10
0.578881
 20
3.367404
 30
0.000000
  0
SEQEND
  8
LAYER-1
  0
POLYLINE
  8
LAYER-1
 66
  1
 70
  1
 62
  7
  0
VERTEX
  8
LAYER-1
 10
0.722848
 20
3.582906
 30
0.000000
  0
VERTEX
  8
LAYER-1
 10
0.805627
 20
3.582906
 30
0.000000
  0
VERTEX
  8
LAYER-1
 10
0.805627
 20
3.367404
 30
0.000000
  0
VERTEX
  8
LAYER-1
 10
0.722848
 20
3.367404
 30
0.000000
  0
SEQEND
  8
LAYER-1
  0
POLYLINE
  8
LAYER-1
 66
  1
 70
  1
 62
  7
  0
VERTEX
  8
LAYER-1
 10
0.866814
 20
3.582906
 30
0.000000
  0
VERTEX
  8
LAYER-1
 10
0.949594
 20
3.582906
 30
0.000000
  0
VERTEX
  8
LAYER-1
 10
0.949594
 20
3.367404
 30
0.000000
  0
VERTEX
  8
LAYER-1
 10
0.866814
 20
3.367404
 30
0.000000
  0
SEQEND
  8
LAYER-1
  0
POLYLINE
  8
LAYER-1
 66
  1
 70
  1
 62
  7
  0
VERTEX
  8
LAYER-1
 10
0.003017
 20
3.151926
 30
0.000000
  0
VERTEX
  8
LAYER-1
 10
0.085796
 20
3.151926
 30
0.000000
  0
VERTEX
  8
LAYER-1
 10
0.085796
 20
2.936424
 30
0.000000
  0
VERTEX
  8
LAYER-1
 10
0.003017
 20
2.936424
 30
0.000000
  0
SEQEND
  8
LAYER-1
  0
POLYLINE
  8
LAYER-1
 66
  1
 70
  1
 62
  7
  0
VERTEX
  8
LAYER-1
 10
0.146983
 20
3.151926
 30
0.000000
  0
VERTEX
  8
LAYER-1
 10
0.229762
 20
3.151926
 30
0.000000
  0
VERTEX
  8
LAYER-1
 10
0.229762
 20
2.936424
 30
0.000000
  0
VERTEX
  8
LAYER-1
 10
0.146983
 20
2.936424
 30
0.000000
  0
SEQEND
  8
LAYER-1
  0
POLYLINE
  8
LAYER-1
 66
  1
 70
  1
 62
  7
  0
VERTEX
  8
LAYER-1
 10
0.290949
 20
3.151926
 30
0.000000
  0
VERTEX
  8
LAYER-1
 10
0.373729
 20
3.151926
 30
0.000000
  0
VERTEX
  8
LAYER-1
 10
0.373729
 20
2.936424
 30
0.000000
  0
VERTEX
  8
LAYER-1
 10
0.290949
 20
2.936424
 30
0.000000
  0
SEQEND
  8
LAYER-1
  0
POLYLINE
  8
LAYER-1
 66
  1
 70
  1
 62
  7
  0
VERTEX
  8
LAYER-1
 10
0.434916
 20
3.151926
 30
0.000000
  0
VERTEX
  8
LAYER-1
 10
0.517695
 20
3.151926
 30
0.000000
  0
VERTEX
  8
LAYER-1
 10
0.517695
 20
2.936424
 30
0.000000
  0
VERTEX
  8
LAYER-1
 10
0.434916
 20
2.936424
 30
0.000000
  0
SEQEND
  8
LAYER-1
  0
POLYLINE
  8
LAYER-1
 66
  1
 70
  1
 62
  7
  0
VERTEX
  8
LAYER-1
 10
0.578881
 20
3.151926
 30
0.000000
  0
VERTEX
  8
LAYER-1
 10
0.661661
 20
3.151926
 30
0.000000
  0
VERTEX
  8
LAYER-1
 10
0.661661
 20
2.936424
 30
0.000000
  0
VERTEX
  8
LAYER-1
 10
0.578881
 20
2.936424
 30
0.000000
  0
SEQEND
  8
LAYER-1
  0
POLYLINE
  8
LAYER-1
 66
  1
 70
  1
 62
  7
  0
VERTEX
  8
LAYER-1
 10
0.722848
 20
3.151926
 30
0.000000
  0
VERTEX
  8
LAYER-1
 10
0.805627
 20
3.151926
 30
0.000000
  0
VERTEX
  8
LAYER-1
 10
0.805627
 20
2.936424
 30
0.000000
  0
VERTEX
  8
LAYER-1
 10
0.722848
 20
2.936424
 30
0.000000
  0
SEQEND
  8
LAYER-1
  0
POLYLINE
  8
LAYER-1
 66
  1
 70
  1
 62
  7
  0
VERTEX
  8
LAYER-1
 10
0.866814
 20
3.151926
 30
0.000000
  0
VERTEX
  8
LAYER-1
 10
0.949594
 20
3.151926
 30
0.000000
  0
VERTEX
  8
LAYER-1
 10
0.949594
 20
2.936424
 30
0.000000
  0
VERTEX
  8
LAYER-1
 10
0.866814
 20
2.936424
 30
0.000000
  0
SEQEND
  8
LAYER-1
  0
POLYLINE
  8
LAYER-1
 66
  1
 70
  0
 62
  7
 10
1.010902
 20
4.229250
 30
0.000000
  0
VERTEX
  8
LAYER-1
 10
1.010902
 20
4.229250
 30
0.000000
  0
VERTEX
  8
LAYER-1
 10
1.010902
 20
4.013827
 30
0.000000
  0
SEQEND
  8
LAYER-1
  0
POLYLINE
  8
LAYER-1
 66
  1
 70
  0
 62
  7
 10
0.013899
 20
4.013549
 30
0.000000
  0
VERTEX
  8
LAYER-1
 10
0.013899
 20
4.013549
 30
0.000000
  0
VERTEX
  8
LAYER-1
 10
0.013889
 20
3.798264
 30
0.000000
  0
SEQEND
  8
LAYER-1
  0
POLYLINE
  8
LAYER-1
 66
  1
 70
  0
 62
  7
 10
1.010902
 20
3.798264
 30
0.000000
  0
VERTEX
  8
LAYER-1
 10
1.010902
 20
3.798264
 30
0.000000
  0
VERTEX
  8
LAYER-1
 10
1.010902
 20
3.582845
 30
0.000000
  0
SEQEND
  8
LAYER-1
  0
POLYLINE
  8
LAYER-1
 66
  1
 70
  0
 62
  7
 10
0.013899
 20
3.582567
 30
0.000000
  0
VERTEX
  8
LAYER-1
 10
0.013899
 20
3.582567
 30
0.000000
  0
VERTEX
  8
LAYER-1
 10
0.013889
 20
3.367284
 30
0.000000
  0
SEQEND
  8
LAYER-1
  0
POLYLINE
  8
LAYER-1
 66
  1
 70
  0
 62
  7
 10
1.010902
 20
3.367284
 30
0.000000
  0
VERTEX
  8
LAYER-1
 10
1.010902
 20
3.367284
 30
0.000000
  0
VERTEX
  8
LAYER-1
 10
1.010902
 20
3.151865
 30
0.000000
  0
SEQEND
  8
LAYER-1
  0
POLYLINE
  8
LAYER-1
 66
  1
 70
  1
 62
  7
  0
VERTEX
  8
LAYER-1
 10
0.003007
 20
4.540298
 30
0.000000
  0
VERTEX
  8
LAYER-1
 10
0.147112
 20
4.540298
 30
0.000000
  0
VERTEX
  8
LAYER-1
 10
0.147112
 20
4.444713
 30
0.000000
  0
VERTEX
  8
LAYER-1
 10
0.003007
 20
4.444713
 30
0.000000
  0
SEQEND
  8
LAYER-1
  0
POLYLINE
  8
LAYER-1
 66
  1
 70
  1
 62
  7
  0
VERTEX
  8
LAYER-1
 10
0.147050
 20
4.540298
 30
0.000000
  0
VERTEX
  8
LAYER-1
 10
0.291156
 20
4.540298
 30
0.000000
  0
VERTEX
  8
LAYER-1
 10
0.291156
 20
4.444713
 30
0.000000
  0
VERTEX
  8
LAYER-1
 10
0.147050
 20
4.444713
 30
0.000000
  0
SEQEND
  8
LAYER-1
  0
POLYLINE
  8
LAYER-1
 66
  1
 70
  1
 62
  7
  0
VERTEX
  8
LAYER-1
 10
0.290953
 20
4.540298
 30
0.000000
  0
VERTEX
  8
LAYER-1
 10
0.434917
 20
4.540298
 30
0.000000
  0
VERTEX
  8
LAYER-1
 10
0.434917
 20
4.444713
 30
0.000000
  0
VERTEX
  8
LAYER-1
 10
0.290953
 20
4.444713
 30
0.000000
  0
SEQEND
  8
LAYER-1
  0
POLYLINE
  8
LAYER-1
 66
  1
 70
  1
 62
  7
  0
VERTEX
  8
LAYER-1
 10
0.434996
 20
4.540298
 30
0.000000
  0
VERTEX
  8
LAYER-1
 10
0.578960
 20
4.540298
 30
0.000000
  0
VERTEX
  8
LAYER-1
 10
0.578960
 20
4.444713
 30
0.000000
  0
VERTEX
  8
LAYER-1
 10
0.434996
 20
4.444713
 30
0.000000
  0
SEQEND
  8
LAYER-1
  0
POLYLINE
  8
LAYER-1
 66
  1
 70
  1
 62
  7
  0
VERTEX
  8
LAYER-1
 10
0.579038
 20
4.540298
 30
0.000000
  0
VERTEX
  8
LAYER-1
 10
0.722861
 20
4.540298
 30
0.000000
  0
VERTEX
  8
LAYER-1
 10
0.722861
 20
4.444713
 30
0.000000
  0
VERTEX
  8
LAYER-1
 10
0.579038
 20
4.444713
 30
0.000000
  0
SEQEND
  8
LAYER-1
  0
POLYLINE
  8
LAYER-1
 66
  1
 70
  1
 62
  7
  0
VERTEX
  8
LAYER-1
 10
0.722801
 20
4.540298
 30
0.000000
  0
VERTEX
  8
LAYER-1
 10
0.866904
 20
4.540298
 30
0.000000
  0
VERTEX
  8
LAYER-1
 10
0.866904
 20
4.444713
 30
0.000000
  0
VERTEX
  8
LAYER-1
 10
0.722801
 20
4.444713
 30
0.000000
  0
SEQEND
  8
LAYER-1
  0
POLYLINE
  8
LAYER-1
 66
  1
 70
  1
 62
  7
  0
VERTEX
  8
LAYER-1
 10
0.866843
 20
4.540298
 30
0.000000
  0
VERTEX
  8
LAYER-1
 10
1.021790
 20
4.540298
 30
0.000000
  0
VERTEX
  8
LAYER-1
 10
1.021790
 20
4.444713
 30
0.000000
  0
VERTEX
  8
LAYER-1
 10
0.866843
 20
4.444713
 30
0.000000
  0
SEQEND
  8
LAYER-1
  0
POLYLINE
  8
LAYER-1
 66
  1
 70
  0
 62
  7
 10
0.013889
 20
4.540358
 30
0.000000
  0
VERTEX
  8
LAYER-1
 10
0.013889
 20
4.540358
 30
0.000000
  0
VERTEX
  8
LAYER-1
 10
0.013889
 20
4.229372
 30
0.000000
  0
SEQEND
  8
LAYER-1
  0
POLYLINE
  8
LAYER-1
 66
  1
 70
  1
 62
  7
  0
VERTEX
  8
LAYER-1
 10
0.003007
 20
2.936387
 30
0.000000
  0
VERTEX
  8
LAYER-1
 10
0.147112
 20
2.936387
 30
0.000000
  0
VERTEX
  8
LAYER-1
 10
0.147112
 20
2.840801
 30
0.000000
  0
VERTEX
  8
LAYER-1
 10
0.003007
 20
2.840801
 30
0.000000
  0
SEQEND
  8
LAYER-1
  0
POLYLINE
  8
LAYER-1
 66
  1
 70
  1
 62
  7
  0
VERTEX
  8
LAYER-1
 10
0.147050
 20
2.936387
 30
0.000000
  0
VERTEX
  8
LAYER-1
 10
0.291156
 20
2.936387
 30
0.000000
  0
VERTEX
  8
LAYER-1
 10
0.291156
 20
2.840801
 30
0.000000
  0
VERTEX
  8
LAYER-1
 10
0.147050
 20
2.840801
 30
0.000000
  0
SEQEND
  8
LAYER-1
  0
POLYLINE
  8
LAYER-1
 66
  1
 70
  1
 62
  7
  0
VERTEX
  8
LAYER-1
 10
0.290953
 20
2.936387
 30
0.000000
  0
VERTEX
  8
LAYER-1
 10
0.434917
 20
2.936387
 30
0.000000
  0
VERTEX
  8
LAYER-1
 10
0.434917
 20
2.840801
 30
0.000000
  0
VERTEX
  8
LAYER-1
 10
0.290953
 20
2.840801
 30
0.000000
  0
SEQEND
  8
LAYER-1
  0
POLYLINE
  8
LAYER-1
 66
  1
 70
  1
 62
  7
  0
VERTEX
  8
LAYER-1
 10
0.434996
 20
2.936387
 30
0.000000
  0
VERTEX
  8
LAYER-1
 10
0.578960
 20
2.936387
 30
0.000000
  0
VERTEX
  8
LAYER-1
 10
0.578960
 20
2.840801
 30
0.000000
  0
VERTEX
  8
LAYER-1
 10
0.434996
 20
2.840801
 30
0.000000
  0
SEQEND
  8
LAYER-1
  0
POLYLINE
  8
LAYER-1
 66
  1
 70
  1
 62
  7
  0
VERTEX
  8
LAYER-1
 10
0.579038
 20
2.936387
 30
0.000000
  0
VERTEX
  8
LAYER-1
 10
0.722861
 20
2.936387
 30
0.000000
  0
VERTEX
  8
LAYER-1
 10
0.722861
 20
2.840801
 30
0.000000
  0
VERTEX
  8
LAYER-1
 10
0.579038
 20
2.840801
 30
0.000000
  0
SEQEND
  8
LAYER-1
  0
POLYLINE
  8
LAYER-1
 66
  1
 70
  1
 62
  7
  0
VERTEX
  8
LAYER-1
 10
0.722801
 20
2.936387
 30
0.000000
  0
VERTEX
  8
LAYER-1
 10
0.866904
 20
2.936387
 30
0.000000
  0
VERTEX
  8
LAYER-1
 10
0.866904
 20
2.840801
 30
0.000000
  0
VERTEX
  8
LAYER-1
 10
0.722801
 20
2.840801
 30
0.000000
  0
SEQEND
  8
LAYER-1
  0
POLYLINE
  8
LAYER-1
 66
  1
 70
  1
 62
  7
  0
VERTEX
  8
LAYER-1
 10
0.866843
 20
2.936387
 30
0.000000
  0
VERTEX
  8
LAYER-1
 10
1.021790
 20
2.936387
 30
0.000000
  0
VERTEX
  8
LAYER-1
 10
1.021790
 20
2.840801
 30
0.000000
  0
VERTEX
  8
LAYER-1
 10
0.866843
 20
2.840801
 30
0.000000
  0
SEQEND
  8
LAYER-1
  0
POLYLINE
  8
LAYER-1
 66
  1
 70
  0
 62
  7
 10
0.075083
 20
4.540310
 30
0.000000
  0
VERTEX
  8
LAYER-1
 10
0.075083
 20
4.540310
 30
0.000000
  0
VERTEX
  8
LAYER-1
 10
0.075083
 20
2.841019
 30
0.000000
  0
SEQEND
  8
LAYER-1
  0
POLYLINE
  8
LAYER-1
 66
  1
 70
  0
 62
  7
 10
0.085883
 20
4.540310
 30
0.000000
  0
VERTEX
  8
LAYER-1
 10
0.085883
 20
4.540310
 30
0.000000
  0
VERTEX
  8
LAYER-1
 10
0.085883
 20
2.841019
 30
0.000000
  0
SEQEND
  8
LAYER-1
  0
POLYLINE
  8
LAYER-1
 66
  1
 70
  0
 62
  7
 10
0.147066
 20
4.540310
 30
0.000000
  0
VERTEX
  8
LAYER-1
 10
0.147066
 20
4.540310
 30
0.000000
  0
VERTEX
  8
LAYER-1
 10
0.147066
 20
2.841019
 30
0.000000
  0
SEQEND
  8
LAYER-1
  0
POLYLINE
  8
LAYER-1
 66
  1
 70
  0
 62
  7
 10
0.157867
 20
4.540310
 30
0.000000
  0
VERTEX
  8
LAYER-1
 10
0.157867
 20
4.540310
 30
0.000000
  0
VERTEX
  8
LAYER-1
 10
0.157867
 20
2.841019
 30
0.000000
  0
SEQEND
  8
LAYER-1
  0
POLYLINE
  8
LAYER-1
 66
  1
 70
  0
 62
  7
 10
0.219048
 20
4.540310
 30
0.000000
  0
VERTEX
  8
LAYER-1
 10
0.219048
 20
4.540310
 30
0.000000
  0
VERTEX
  8
LAYER-1
 10
0.219048
 20
2.841019
 30
0.000000
  0
SEQEND
  8
LAYER-1
  0
POLYLINE
  8
LAYER-1
 66
  1
 70
  0
 62
  7
 10
0.229850
 20
4.540310
 30
0.000000
  0
VERTEX
  8
LAYER-1
 10
0.229850
 20
4.540310
 30
0.000000
  0
VERTEX
  8
LAYER-1
 10
0.229850
 20
2.841019
 30
0.000000
  0
SEQEND
  8
LAYER-1
  0
POLYLINE
  8
LAYER-1
 66
  1
 70
  0
 62
  7
 10
0.363016
 20
4.540310
 30
0.000000
  0
VERTEX
  8
LAYER-1
 10
0.363016
 20
4.540310
 30
0.000000
  0
VERTEX
  8
LAYER-1
 10
0.363016
 20
2.841019
 30
0.000000
  0
SEQEND
  8
LAYER-1
  0
POLYLINE
  8
LAYER-1
 66
  1
 70
  0
 62
  7
 10
0.373816
 20
4.540310
 30
0.000000
  0
VERTEX
  8
LAYER-1
 10
0.373816
 20
4.540310
 30
0.000000
  0
VERTEX
  8
LAYER-1
 10
0.373816
 20
2.841019
 30
0.000000
  0
SEQEND
  8
LAYER-1
  0
POLYLINE
  8
LAYER-1
 66
  1
 70
  0
 62
  7
 10
0.434998
 20
4.540310
 30
0.000000
  0
VERTEX
  8
LAYER-1
 10
0.434998
 20
4.540310
 30
0.000000
  0
VERTEX
  8
LAYER-1
 10
0.434998
 20
2.841019
 30
0.000000
  0
SEQEND
  8
LAYER-1
  0
POLYLINE
  8
LAYER-1
 66
  1
 70
  0
 62
  7
 10
0.445799
 20
4.540310
 30
0.000000
  0
VERTEX
  8
LAYER-1
 10
0.445799
 20
4.540310
 30
0.000000
  0
VERTEX
  8
LAYER-1
 10
0.445799
 20
2.841019
 30
0.000000
  0
SEQEND
  8
LAYER-1
  0
POLYLINE
  8
LAYER-1
 66
  1
 70
  0
 62
  7
 10
0.506981
 20
4.540310
 30
0.000000
  0
VERTEX
  8
LAYER-1
 10
0.506981
 20
4.540310
 30
0.000000
  0
VERTEX
  8
LAYER-1
 10
0.506981
 20
2.841019
 30
0.000000
  0
SEQEND
  8
LAYER-1
  0
POLYLINE
  8
LAYER-1
 66
  1
 70
  0
 62
  7
 10
0.517781
 20
4.540310
 30
0.000000
  0
VERTEX
  8
LAYER-1
 10
0.517781
 20
4.540310
 30
0.000000
  0
VERTEX
  8
LAYER-1
 10
0.517781
 20
2.841019
 30
0.000000
  0
SEQEND
  8
LAYER-1
  0
POLYLINE
  8
LAYER-1
 66
  1
 70
  0
 62
  7
 10
0.578964
 20
4.540310
 30
0.000000
  0
VERTEX
  8
LAYER-1
 10
0.578964
 20
4.540310
 30
0.000000
  0
VERTEX
  8
LAYER-1
 10
0.578964
 20
2.841019
 30
0.000000
  0
SEQEND
  8
LAYER-1
  0
POLYLINE
  8
LAYER-1
 66
  1
 70
  0
 62
  7
 10
0.589764
 20
4.540310
 30
0.000000
  0
VERTEX
  8
LAYER-1
 10
0.589764
 20
4.540310
 30
0.000000
  0
VERTEX
  8
LAYER-1
 10
0.589764
 20
2.841019
 30
0.000000
  0
SEQEND
  8
LAYER-1
  0
POLYLINE
  8
LAYER-1
 66
  1
 70
  0
 62
  7
 10
0.650947
 20
4.540310
 30
0.000000
  0
VERTEX
  8
LAYER-1
 10
0.650947
 20
4.540310
 30
0.000000
  0
VERTEX
  8
LAYER-1
 10
0.650947
 20
2.841019
 30
0.000000
  0
SEQEND
  8
LAYER-1
  0
POLYLINE
  8
LAYER-1
 66
  1
 70
  0
 62
  7
 10
0.661747
 20
4.540310
 30
0.000000
  0
VERTEX
  8
LAYER-1
 10
0.661747
 20
4.540310
 30
0.000000
  0
VERTEX
  8
LAYER-1
 10
0.661747
 20
2.841019
 30
0.000000
  0
SEQEND
  8
LAYER-1
  0
POLYLINE
  8
LAYER-1
 66
  1
 70
  0
 62
  7
 10
0.794915
 20
4.540310
 30
0.000000
  0
VERTEX
  8
LAYER-1
 10
0.794915
 20
4.540310
 30
0.000000
  0
VERTEX
  8
LAYER-1
 10
0.794915
 20
2.841019
 30
0.000000
  0
SEQEND
  8
LAYER-1
  0
POLYLINE
  8
LAYER-1
 66
  1
 70
  0
 62
  7
 10
0.805715
 20
4.540310
 30
0.000000
  0
VERTEX
  8
LAYER-1
 10
0.805715
 20
4.540310
 30
0.000000
  0
VERTEX
  8
LAYER-1
 10
0.805715
 20
2.841019
 30
0.000000
  0
SEQEND
  8
LAYER-1
  0
POLYLINE
  8
LAYER-1
 66
  1
 70
  0
 62
  7
 10
0.866896
 20
4.540310
 30
0.000000
  0
VERTEX
  8
LAYER-1
 10
0.866896
 20
4.540310
 30
0.000000
  0
VERTEX
  8
LAYER-1
 10
0.866896
 20
2.841019
 30
0.000000
  0
SEQEND
  8
LAYER-1
  0
POLYLINE
  8
LAYER-1
 66
  1
 70
  0
 62
  7
 10
0.877697
 20
4.540310
 30
0.000000
  0
VERTEX
  8
LAYER-1
 10
0.877697
 20
4.540310
 30
0.000000
  0
VERTEX
  8
LAYER-1
 10
0.877697
 20
2.841019
 30
0.000000
  0
SEQEND
  8
LAYER-1
  0
POLYLINE
  8
LAYER-1
 66
  1
 70
  0
 62
  7
 10
0.938881
 20
4.540310
 30
0.000000
  0
VERTEX
  8
LAYER-1
 10
0.938881
 20
4.540310
 30
0.000000
  0
VERTEX
  8
LAYER-1
 10
0.938881
 20
2.841019
 30
0.000000
  0
SEQEND
  8
LAYER-1
  0
POLYLINE
  8
LAYER-1
 66
  1
 70
  0
 62
  7
 10
0.949681
 20
4.540310
 30
0.000000
  0
VERTEX
  8
LAYER-1
 10
0.949681
 20
4.540310
 30
0.000000
  0
VERTEX
  8
LAYER-1
 10
0.949681
 20
2.841019
 30
0.000000
  0
SEQEND
  8
LAYER-1
  0
POLYLINE
  8
LAYER-1
 66
  1
 70
  0
 62
  7
 10
0.291031
 20
4.540310
 30
0.000000
  0
VERTEX
  8
LAYER-1
 10
0.291031
 20
4.540310
 30
0.000000
  0
VERTEX
  8
LAYER-1
 10
0.291031
 20
2.840791
 30
0.000000
  0
SEQEND
  8
LAYER-1
  0
POLYLINE
  8
LAYER-1
 66
  1
 70
  0
 62
  7
 10
0.301833
 20
4.540310
 30
0.000000
  0
VERTEX
  8
LAYER-1
 10
0.301833
 20
4.540310
 30
0.000000
  0
VERTEX
  8
LAYER-1
 10
0.301833
 20
2.840791
 30
0.000000
  0
SEQEND
  8
LAYER-1
  0
POLYLINE
  8
LAYER-1
 66
  1
 70
  0
 62
  7
 10
0.722932
 20
4.540059
 30
0.000000
  0
VERTEX
  8
LAYER-1
 10
0.722932
 20
4.540059
 30
0.000000
  0
VERTEX
  8
LAYER-1
 10
0.722932
 20
2.840791
 30
0.000000
  0
SEQEND
  8
LAYER-1
  0
POLYLINE
  8
LAYER-1
 66
  1
 70
  0
 62
  7
 10
0.733732
 20
4.540059
 30
0.000000
  0
VERTEX
  8
LAYER-1
 10
0.733732
 20
4.540059
 30
0.000000
  0
VERTEX
  8
LAYER-1
 10
0.733732
 20
2.840791
 30
0.000000
  0
SEQEND
  8
LAYER-1
  0
POLYLINE
  8
LAYER-1
 66
  1
 70
  0
 62
  7
 10
1.010902
 20
4.540505
 30
0.000000
  0
VERTEX
  8
LAYER-1
 10
1.010902
 20
4.540505
 30
0.000000
  0
VERTEX
  8
LAYER-1
 10
1.010902
 20
4.444760
 30
0.000000
  0
SEQEND
  8
LAYER-1
  0
POLYLINE
  8
LAYER-1
 66
  1
 70
  0
 62
  7
 10
0.014030
 20
3.151836
 30
0.000000
  0
VERTEX
  8
LAYER-1
 10
0.014030
 20
3.151836
 30
0.000000
  0
VERTEX
  8
LAYER-1
 10
0.013889
 20
2.840701
 30
0.000000
  0
SEQEND
  8
LAYER-1
  0
POLYLINE
  8
LAYER-1
 66
  1
 70
  0
 62
  7
 10
1.011042
 20
2.936447
 30
0.000000
  0
VERTEX
  8
LAYER-1
 10
1.011042
 20
2.936447
 30
0.000000
  0
VERTEX
  8
LAYER-1
 10
1.010902
 20
2.840851
 30
0.000000
  0
SEQEND
  8
LAYER-1
  0
TEXT
  8
LAYER-1
 62
  0
 10
0.125334
 20
2.638666
 30
0.000000
 40
0.104167
  1
CONCEPT 99
 72
  5
 11
1.083667
 21
2.638666
 31
0.000000
  0
TEXT
  8
LAYER-1
 62
  0
 10
0.222556
 20
2.569221
 30
0.000000
 40
0.083333
  1
(Openstyle)
 72
  5
 11
0.847556
 21
2.569221
 31
0.000000
  0
POLYLINE
  8
LAYER-1
 66
  1
 70
  0
 62
  0
 10
3.643460
 20
1.231082
 30
0.000000
  0
VERTEX
  8
LAYER-1
 10
3.643460
 20
1.231082
 30
0.000000
  0
VERTEX
  8
LAYER-1
 10
1.768563
 20
1.231082
 30
0.000000
  0
SEQEND
  8
LAYER-1
  0
POLYLINE
  8
LAYER-1
 66
  1
 70
  0
 62
  0
 10
3.643460
 20
2.464102
 30
0.000000
  0
VERTEX
  8
LAYER-1
 10
3.643460
 20
2.464102
 30
0.000000
  0
VERTEX
  8
LAYER-1
 10
1.768563
 20
2.464102
 30
0.000000
  0
SEQEND
  8
LAYER-1
  0
POLYLINE
  8
LAYER-1
 66
  1
 70
  0
 62
  0
 10
3.643460
 20
3.697124
 30
0.000000
  0
VERTEX
  8
LAYER-1
 10
3.643460
 20
3.697124
 30
0.000000
  0
VERTEX
  8
LAYER-1
 10
1.768563
 20
3.697124
 30
0.000000
  0
SEQEND
  8
LAYER-1
  0
POLYLINE
  8
LAYER-1
 66
  1
 70
  0
 62
  0
 10
3.643460
 20
4.930144
 30
0.000000
  0
VERTEX
  8
LAYER-1
 10
3.643460
 20
4.930144
 30
0.000000
  0
VERTEX
  8
LAYER-1
 10
1.768563
 20
4.930144
 30
0.000000
  0
SEQEND
  8
LAYER-1
  0
POLYLINE
  8
LAYER-1
 66
  1
 70
  0
 62
  0
 10
3.643460
 20
6.163165
 30
0.000000
  0
VERTEX
  8
LAYER-1
 10
3.643460
 20
6.163165
 30
0.000000
  0
VERTEX
  8
LAYER-1
 10
1.768563
 20
6.163165
 30
0.000000
  0
SEQEND
  8
LAYER-1
  0
POLYLINE
  8
LAYER-1
 66
  1
 70
  0
 62
  0
 10
3.643563
 20
1.847727
 30
0.000000
  0
VERTEX
  8
LAYER-1
 10
3.643563
 20
1.847727
 30
0.000000
  0
VERTEX
  8
LAYER-1
 10
1.768563
 20
1.847727
 30
0.000000
  0
SEQEND
  8
LAYER-1
  0
POLYLINE
  8
LAYER-1
 66
  1
 70
  0
 62
  0
 10
3.643563
 20
3.080747
 30
0.000000
  0
VERTEX
  8
LAYER-1
 10
3.643563
 20
3.080747
 30
0.000000
  0
VERTEX
  8
LAYER-1
 10
1.768563
 20
3.080747
 30
0.000000
  0
SEQEND
  8
LAYER-1
  0
POLYLINE
  8
LAYER-1
 66
  1
 70
  0
 62
  0
 10
3.643563
 20
4.313769
 30
0.000000
  0
VERTEX
  8
LAYER-1
 10
3.643563
 20
4.313769
 30
0.000000
  0
VERTEX
  8
LAYER-1
 10
1.769431
 20
4.313769
 30
0.000000
  0
SEQEND
  8
LAYER-1
  0
POLYLINE
  8
LAYER-1
 66
  1
 70
  0
 62
  0
 10
3.643563
 20
5.546789
 30
0.000000
  0
VERTEX
  8
LAYER-1
 10
3.643563
 20
5.546789
 30
0.000000
  0
VERTEX
  8
LAYER-1
 10
1.768563
 20
5.546789
 30
0.000000
  0
SEQEND
  8
LAYER-1
  0
POLYLINE
  8
LAYER-1
 66
  1
 70
  0
 62
  0
 10
1.769431
 20
6.780158
 30
0.000000
  0
VERTEX
  8
LAYER-1
 10
1.769431
 20
6.780158
 30
0.000000
  0
VERTEX
  8
LAYER-1
 10
3.642694
 20
6.780158
 30
0.000000
  0
SEQEND
  8
LAYER-1
  0
POLYLINE
  8
LAYER-1
 66
  1
 70
  0
 62
  0
 10
5.690336
 20
1.230773
 30
0.000000
  0
VERTEX
  8
LAYER-1
 10
5.690336
 20
1.230773
 30
0.000000
  0
VERTEX
  8
LAYER-1
 10
3.815439
 20
1.230773
 30
0.000000
  0
SEQEND
  8
LAYER-1
  0
POLYLINE
  8
LAYER-1
 66
  1
 70
  0
 62
  0
 10
5.690336
 20
2.463793
 30
0.000000
  0
VERTEX
  8
LAYER-1
 10
5.690336
 20
2.463793
 30
0.000000
  0
VERTEX
  8
LAYER-1
 10
3.815439
 20
2.463793
 30
0.000000
  0
SEQEND
  8
LAYER-1
  0
POLYLINE
  8
LAYER-1
 66
  1
 70
  0
 62
  0
 10
5.690336
 20
3.696815
 30
0.000000
  0
VERTEX
  8
LAYER-1
 10
5.690336
 20
3.696815
 30
0.000000
  0
VERTEX
  8
LAYER-1
 10
3.815439
 20
3.696815
 30
0.000000
  0
SEQEND
  8
LAYER-1
  0
POLYLINE
  8
LAYER-1
 66
  1
 70
  0
 62
  0
 10
5.690336
 20
4.929836
 30
0.000000
  0
VERTEX
  8
LAYER-1
 10
5.690336
 20
4.929836
 30
0.000000
  0
VERTEX
  8
LAYER-1
 10
3.815439
 20
4.929836
 30
0.000000
  0
SEQEND
  8
LAYER-1
  0
POLYLINE
  8
LAYER-1
 66
  1
 70
  0
 62
  0
 10
5.690336
 20
6.162857
 30
0.000000
  0
VERTEX
  8
LAYER-1
 10
5.690336
 20
6.162857
 30
0.000000
  0
VERTEX
  8
LAYER-1
 10
3.815439
 20
6.162857
 30
0.000000
  0
SEQEND
  8
LAYER-1
  0
POLYLINE
  8
LAYER-1
 66
  1
 70
  0
 62
  0
 10
5.690439
 20
1.847419
 30
0.000000
  0
VERTEX
  8
LAYER-1
 10
5.690439
 20
1.847419
 30
0.000000
  0
VERTEX
  8
LAYER-1
 10
3.815439
 20
1.847419
 30
0.000000
  0
SEQEND
  8
LAYER-1
  0
POLYLINE
  8
LAYER-1
 66
  1
 70
  0
 62
  0
 10
5.690439
 20
3.080439
 30
0.000000
  0
VERTEX
  8
LAYER-1
 10
5.690439
 20
3.080439
 30
0.000000
  0
VERTEX
  8
LAYER-1
 10
3.815439
 20
3.080439
 30
0.000000
  0
SEQEND
  8
LAYER-1
  0
POLYLINE
  8
LAYER-1
 66
  1
 70
  0
 62
  0
 10
5.690439
 20
4.313461
 30
0.000000
  0
VERTEX
  8
LAYER-1
 10
5.690439
 20
4.313461
 30
0.000000
  0
VERTEX
  8
LAYER-1
 10
3.816306
 20
4.313461
 30
0.000000
  0
SEQEND
  8
LAYER-1
  0
POLYLINE
  8
LAYER-1
 66
  1
 70
  0
 62
  0
 10
5.690439
 20
5.546482
 30
0.000000
  0
VERTEX
  8
LAYER-1
 10
5.690439
 20
5.546482
 30
0.000000
  0
VERTEX
  8
LAYER-1
 10
3.815439
 20
5.546482
 30
0.000000
  0
SEQEND
  8
LAYER-1
  0
POLYLINE
  8
LAYER-1
 66
  1
 70
  0
 62
  0
 10
3.816306
 20
6.779850
 30
0.000000
  0
VERTEX
  8
LAYER-1
 10
3.816306
 20
6.779850
 30
0.000000
  0
VERTEX
  8
LAYER-1
 10
5.689570
 20
6.779850
 30
0.000000
  0
SEQEND
  8
LAYER-1
  0
POLYLINE
  8
LAYER-1
 66
  1
 70
  0
 62
  0
 10
0.736610
 20
0.037543
 30
0.000000
  0
VERTEX
  8
LAYER-1
 10
0.736610
 20
0.037543
 30
0.000000
  0
VERTEX
  8
LAYER-1
 10
0.763089
 20
0.034087
 30
0.000000
  0
VERTEX
  8
LAYER-1
 10
0.782422
 20
0.034087
 30
0.000000
  0
VERTEX
  8
LAYER-1
 10
0.801756
 20
0.037560
 30
0.000000
  0
VERTEX
  8
LAYER-1
 10
0.821090
 20
0.037560
 30
0.000000
  0
VERTEX
  8
LAYER-1
 10
0.867490
 20
0.044504
 30
0.000000
  0
VERTEX
  8
LAYER-1
 10
0.902291
 20
0.054921
 30
0.000000
  0
VERTEX
  8
LAYER-1
 10
0.924524
 20
0.059261
 30
0.000000
  0
VERTEX
  8
LAYER-1
 10
0.946274
 20
0.060998
 30
0.000000
  0
VERTEX
  8
LAYER-1
 10
0.975758
 20
0.058393
 30
0.000000
  0
VERTEX
  8
LAYER-1
 10
1.006692
 20
0.054921
 30
0.000000
  0
VERTEX
  8
LAYER-1
 10
1.033759
 20
0.047976
 30
0.000000
  0
VERTEX
  8
LAYER-1
 10
1.053092
 20
0.044504
 30
0.000000
  0
VERTEX
  8
LAYER-1
 10
1.084026
 20
0.041032
 30
0.000000
  0
VERTEX
  8
LAYER-1
 10
1.103360
 20
0.037560
 30
0.000000
  0
VERTEX
  8
LAYER-1
 10
1.126560
 20
0.034087
 30
0.000000
  0
VERTEX
  8
LAYER-1
 10
1.153627
 20
0.034087
 30
0.000000
  0
VERTEX
  8
LAYER-1
 10
1.180694
 20
0.034087
 30
0.000000
  0
VERTEX
  8
LAYER-1
 10
1.203894
 20
0.034087
 30
0.000000
  0
VERTEX
  8
LAYER-1
 10
1.227094
 20
0.030615
 30
0.000000
  0
VERTEX
  8
LAYER-1
 10
1.265761
 20
0.030615
 30
0.000000
  0
VERTEX
  8
LAYER-1
 10
1.296695
 20
0.030615
 30
0.000000
  0
VERTEX
  8
LAYER-1
 10
1.316028
 20
0.027143
 30
0.000000
  0
VERTEX
  8
LAYER-1
 10
1.346963
 20
0.023671
 30
0.000000
  0
VERTEX
  8
LAYER-1
 10
1.377896
 20
0.020198
 30
0.000000
  0
VERTEX
  8
LAYER-1
 10
1.416563
 20
0.020198
 30
0.000000
  0
VERTEX
  8
LAYER-1
 10
1.447497
 20
0.020198
 30
0.000000
  0
VERTEX
  8
LAYER-1
 10
1.486164
 20
0.020198
 30
0.000000
  0
VERTEX
  8
LAYER-1
 10
1.517098
 20
0.027143
 30
0.000000
  0
VERTEX
  8
LAYER-1
 10
1.540298
 20
0.027143
 30
0.000000
  0
VERTEX
  8
LAYER-1
 10
1.559631
 20
0.030615
 30
0.000000
  0
VERTEX
  8
LAYER-1
 10
1.582832
 20
0.030615
 30
0.000000
  0
VERTEX
  8
LAYER-1
 10
1.602165
 20
0.030615
 30
0.000000
  0
VERTEX
  8
LAYER-1
 10
1.644699
 20
0.030615
 30
0.000000
  0
VERTEX
  8
LAYER-1
 10
1.691100
 20
0.023671
 30
0.000000
  0
VERTEX
  8
LAYER-1
 10
1.733633
 20
0.020198
 30
0.000000
  0
VERTEX
  8
LAYER-1
 10
1.795501
 20
0.013254
 30
0.000000
  0
VERTEX
  8
LAYER-1
 10
1.853501
 20
0.006310
 30
0.000000
  0
VERTEX
  8
LAYER-1
 10
1.903768
 20
0.006310
 30
0.000000
  0
VERTEX
  8
LAYER-1
 10
1.930836
 20
0.006310
 30
0.000000
  0
VERTEX
  8
LAYER-1
 10
1.965636
 20
0.006310
 30
0.000000
  0
VERTEX
  8
LAYER-1
 10
1.985936
 20
0.007178
 30
0.000000
  0
VERTEX
  8
LAYER-1
 10
2.023153
 20
0.009348
 30
0.000000
  0
VERTEX
  8
LAYER-1
 10
2.070037
 20
0.020198
 30
0.000000
  0
VERTEX
  8
LAYER-1
 10
2.112570
 20
0.034087
 30
0.000000
  0
VERTEX
  8
LAYER-1
 10
2.147371
 20
0.044504
 30
0.000000
  0
VERTEX
  8
LAYER-1
 10
2.174438
 20
0.054921
 30
0.000000
  0
VERTEX
  8
LAYER-1
 10
2.197638
 20
0.061865
 30
0.000000
  0
VERTEX
  8
LAYER-1
 10
2.220838
 20
0.061865
 30
0.000000
  0
VERTEX
  8
LAYER-1
 10
2.244039
 20
0.061865
 30
0.000000
  0
VERTEX
  8
LAYER-1
 10
2.267239
 20
0.061865
 30
0.000000
  0
VERTEX
  8
LAYER-1
 10
2.302039
 20
0.054921
 30
0.000000
  0
VERTEX
  8
LAYER-1
 10
2.332973
 20
0.047976
 30
0.000000
  0
VERTEX
  8
LAYER-1
 10
2.356173
 20
0.041032
 30
0.000000
  0
VERTEX
  8
LAYER-1
 10
2.375507
 20
0.037560
 30
0.000000
  0
VERTEX
  8
LAYER-1
 10
2.398707
 20
0.030615
 30
0.000000
  0
VERTEX
  8
LAYER-1
 10
2.418041
 20
0.023671
 30
0.000000
  0
VERTEX
  8
LAYER-1
 10
2.441241
 20
0.020198
 30
0.000000
  0
VERTEX
  8
LAYER-1
 10
2.460574
 20
0.020198
 30
0.000000
  0
VERTEX
  8
LAYER-1
 10
2.491508
 20
0.016726
 30
0.000000
  0
VERTEX
  8
LAYER-1
 10
2.518575
 20
0.016726
 30
0.000000
  0
VERTEX
  8
LAYER-1
 10
2.553375
 20
0.016726
 30
0.000000
  0
VERTEX
  8
LAYER-1
 10
2.580442
 20
0.020198
 30
0.000000
  0
VERTEX
  8
LAYER-1
 10
2.615242
 20
0.030615
 30
0.000000
  0
VERTEX
  8
LAYER-1
 10
2.634576
 20
0.030615
 30
0.000000
  0
VERTEX
  8
LAYER-1
 10
2.657777
 20
0.030615
 30
0.000000
  0
VERTEX
  8
LAYER-1
 10
2.677110
 20
0.030615
 30
0.000000
  0
VERTEX
  8
LAYER-1
 10
2.700311
 20
0.034087
 30
0.000000
  0
VERTEX
  8
LAYER-1
 10
2.723511
 20
0.037560
 30
0.000000
  0
VERTEX
  8
LAYER-1
 10
2.754445
 20
0.037560
 30
0.000000
  0
VERTEX
  8
LAYER-1
 10
2.785378
 20
0.037560
 30
0.000000
  0
VERTEX
  8
LAYER-1
 10
2.808578
 20
0.037560
 30
0.000000
  0
VERTEX
  8
LAYER-1
 10
2.831779
 20
0.037560
 30
0.000000
  0
VERTEX
  8
LAYER-1
 10
2.851112
 20
0.034087
 30
0.000000
  0
VERTEX
  8
LAYER-1
 10
2.870446
 20
0.030615
 30
0.000000
  0
VERTEX
  8
LAYER-1
 10
2.889779
 20
0.027143
 30
0.000000
  0
VERTEX
  8
LAYER-1
 10
2.909113
 20
0.023671
 30
0.000000
  0
VERTEX
  8
LAYER-1
 10
2.940047
 20
0.016726
 30
0.000000
  0
VERTEX
  8
LAYER-1
 10
2.963247
 20
0.013254
 30
0.000000
  0
VERTEX
  8
LAYER-1
 10
2.986447
 20
0.013254
 30
0.000000
  0
VERTEX
  8
LAYER-1
 10
3.005780
 20
0.013254
 30
0.000000
  0
VERTEX
  8
LAYER-1
 10
3.032847
 20
0.013254
 30
0.000000
  0
VERTEX
  8
LAYER-1
 10
3.063781
 20
0.016726
 30
0.000000
  0
VERTEX
  8
LAYER-1
 10
3.117916
 20
0.027143
 30
0.000000
  0
VERTEX
  8
LAYER-1
 10
3.164316
 20
0.037560
 30
0.000000
  0
VERTEX
  8
LAYER-1
 10
3.206849
 20
0.044504
 30
0.000000
  0
VERTEX
  8
LAYER-1
 10
3.237783
 20
0.047976
 30
0.000000
  0
VERTEX
  8
LAYER-1
 10
3.276450
 20
0.051448
 30
0.000000
  0
VERTEX
  8
LAYER-1
 10
3.307384
 20
0.054921
 30
0.000000
  0
VERTEX
  8
LAYER-1
 10
3.333001
 20
0.055789
 30
0.000000
  0
VERTEX
  8
LAYER-1
 10
3.350400
 20
0.053619
 30
0.000000
  0
VERTEX
  8
LAYER-1
 10
3.371668
 20
0.048844
 30
0.000000
  0
VERTEX
  8
LAYER-1
 10
3.392452
 20
0.037560
 30
0.000000
  0
VERTEX
  8
LAYER-1
 10
3.415652
 20
0.034087
 30
0.000000
  0
VERTEX
  8
LAYER-1
 10
3.434986
 20
0.034087
 30
0.000000
  0
VERTEX
  8
LAYER-1
 10
3.454319
 20
0.034087
 30
0.000000
  0
VERTEX
  8
LAYER-1
 10
3.473653
 20
0.034087
 30
0.000000
  0
VERTEX
  8
LAYER-1
 10
3.504588
 20
0.034087
 30
0.000000
  0
VERTEX
  8
LAYER-1
 10
3.527788
 20
0.034087
 30
0.000000
  0
VERTEX
  8
LAYER-1
 10
3.550988
 20
0.034087
 30
0.000000
  0
VERTEX
  8
LAYER-1
 10
3.570322
 20
0.034087
 30
0.000000
  0
VERTEX
  8
LAYER-1
 10
3.593522
 20
0.034087
 30
0.000000
  0
VERTEX
  8
LAYER-1
 10
3.616722
 20
0.034087
 30
0.000000
  0
VERTEX
  8
LAYER-1
 10
3.636056
 20
0.034087
 30
0.000000
  0
VERTEX
  8
LAYER-1
 10
3.663122
 20
0.034087
 30
0.000000
  0
VERTEX
  8
LAYER-1
 10
3.686322
 20
0.030615
 30
0.000000
  0
VERTEX
  8
LAYER-1
 10
3.708556
 20
0.022803
 30
0.000000
  0
VERTEX
  8
LAYER-1
 10
3.749157
 20
0.020198
 30
0.000000
  0
VERTEX
  8
LAYER-1
 10
3.786857
 20
0.023671
 30
0.000000
  0
VERTEX
  8
LAYER-1
 10
3.806190
 20
0.030615
 30
0.000000
  0
VERTEX
  8
LAYER-1
 10
3.829391
 20
0.037560
 30
0.000000
  0
VERTEX
  8
LAYER-1
 10
3.849208
 20
0.041467
 30
0.000000
  0
VERTEX
  8
LAYER-1
 10
3.871925
 20
0.047976
 30
0.000000
  0
VERTEX
  8
LAYER-1
 10
3.895125
 20
0.047976
 30
0.000000
  0
VERTEX
  8
LAYER-1
 10
3.918325
 20
0.044504
 30
0.000000
  0
VERTEX
  8
LAYER-1
 10
3.941527
 20
0.044504
 30
0.000000
  0
VERTEX
  8
LAYER-1
 10
3.964726
 20
0.044504
 30
0.000000
  0
VERTEX
  8
LAYER-1
 10
3.984060
 20
0.041032
 30
0.000000
  0
VERTEX
  8
LAYER-1
 10
4.011127
 20
0.041032
 30
0.000000
  0
VERTEX
  8
LAYER-1
 10
4.042060
 20
0.041032
 30
0.000000
  0
VERTEX
  8
LAYER-1
 10
4.072994
 20
0.047976
 30
0.000000
  0
VERTEX
  8
LAYER-1
 10
4.092328
 20
0.051448
 30
0.000000
  0
VERTEX
  8
LAYER-1
 10
4.119395
 20
0.051448
 30
0.000000
  0
VERTEX
  8
LAYER-1
 10
4.142596
 20
0.054921
 30
0.000000
  0
VERTEX
  8
LAYER-1
 10
4.173528
 20
0.058393
 30
0.000000
  0
VERTEX
  8
LAYER-1
 10
4.196729
 20
0.058393
 30
0.000000
  0
VERTEX
  8
LAYER-1
 10
4.227663
 20
0.054921
 30
0.000000
  0
VERTEX
  8
LAYER-1
 10
4.270197
 20
0.044504
 30
0.000000
  0
VERTEX
  8
LAYER-1
 10
4.301130
 20
0.034087
 30
0.000000
  0
VERTEX
  8
LAYER-1
 10
4.335930
 20
0.023671
 30
0.000000
  0
VERTEX
  8
LAYER-1
 10
4.378948
 20
0.016725
 30
0.000000
  0
VERTEX
  8
LAYER-1
 10
4.426315
 20
0.017593
 30
0.000000
  0
VERTEX
  8
LAYER-1
 10
4.481415
 20
0.020198
 30
0.000000
  0
VERTEX
  8
LAYER-1
 10
4.548599
 20
0.020198
 30
0.000000
  0
VERTEX
  8
LAYER-1
 10
4.594034
 20
0.008913
 30
0.000000
  0
VERTEX
  8
LAYER-1
 10
4.624000
 20
0.002836
 30
0.000000
  0
VERTEX
  8
LAYER-1
 10
4.647201
 20
0.001968
 30
0.000000
  0
VERTEX
  8
LAYER-1
 10
4.682001
 20
0.001969
 30
0.000000
  0
VERTEX
  8
LAYER-1
 10
4.707135
 20
0.006310
 30
0.000000
  0
VERTEX
  8
LAYER-1
 10
4.734202
 20
0.016726
 30
0.000000
  0
VERTEX
  8
LAYER-1
 10
4.769002
 20
0.023671
 30
0.000000
  0
VERTEX
  8
LAYER-1
 10
4.796069
 20
0.030615
 30
0.000000
  0
VERTEX
  8
LAYER-1
 10
4.819270
 20
0.034087
 30
0.000000
  0
VERTEX
  8
LAYER-1
 10
4.842469
 20
0.037560
 30
0.000000
  0
VERTEX
  8
LAYER-1
 10
4.869536
 20
0.041032
 30
0.000000
  0
VERTEX
  8
LAYER-1
 10
4.896603
 20
0.047976
 30
0.000000
  0
VERTEX
  8
LAYER-1
 10
4.915937
 20
0.051448
 30
0.000000
  0
VERTEX
  8
LAYER-1
 10
4.946870
 20
0.054921
 30
0.000000
  0
VERTEX
  8
LAYER-1
 10
4.970071
 20
0.061865
 30
0.000000
  0
VERTEX
  8
LAYER-1
 10
4.993754
 20
0.072717
 30
0.000000
  0
VERTEX
  8
LAYER-1
 10
5.016471
 20
0.079226
 30
0.000000
  0
VERTEX
  8
LAYER-1
 10
5.039672
 20
0.079226
 30
0.000000
  0
VERTEX
  8
LAYER-1
 10
5.066739
 20
0.079226
 30
0.000000
  0
VERTEX
  8
LAYER-1
 10
5.093806
 20
0.079226
 30
0.000000
  0
VERTEX
  8
LAYER-1
 10
5.132473
 20
0.075754
 30
0.000000
  0
VERTEX
  8
LAYER-1
 10
5.186607
 20
0.072282
 30
0.000000
  0
VERTEX
  8
LAYER-1
 10
5.229141
 20
0.072282
 30
0.000000
  0
VERTEX
  8
LAYER-1
 10
5.260074
 20
0.072282
 30
0.000000
  0
VERTEX
  8
LAYER-1
 10
5.283274
 20
0.072282
 30
0.000000
  0
VERTEX
  8
LAYER-1
 10
5.306475
 20
0.072282
 30
0.000000
  0
VERTEX
  8
LAYER-1
 10
5.337408
 20
0.075754
 30
0.000000
  0
VERTEX
  8
LAYER-1
 10
5.376076
 20
0.075754
 30
0.000000
  0
VERTEX
  8
LAYER-1
 10
5.407009
 20
0.075754
 30
0.000000
  0
VERTEX
  8
LAYER-1
 10
5.430210
 20
0.079226
 30
0.000000
  0
VERTEX
  8
LAYER-1
 10
5.461143
 20
0.079226
 30
0.000000
  0
VERTEX
  8
LAYER-1
 10
5.480477
 20
0.079226
 30
0.000000
  0
VERTEX
  8
LAYER-1
 10
5.511410
 20
0.070546
 30
0.000000
  0
VERTEX
  8
LAYER-1
 10
5.538477
 20
0.058393
 30
0.000000
  0
VERTEX
  8
LAYER-1
 10
5.573277
 20
0.044504
 30
0.000000
  0
VERTEX
  8
LAYER-1
 10
5.600344
 20
0.037560
 30
0.000000
  0
VERTEX
  8
LAYER-1
 10
5.631279
 20
0.030615
 30
0.000000
  0
VERTEX
  8
LAYER-1
 10
5.658829
 20
0.028445
 30
0.000000
  0
VERTEX
  8
LAYER-1
 10
5.685412
 20
0.027143
 30
0.000000
  0
VERTEX
  8
LAYER-1
 10
5.708613
 20
0.030615
 30
0.000000
  0
VERTEX
  8
LAYER-1
 10
5.731812
 20
0.037560
 30
0.000000
  0
VERTEX
  8
LAYER-1
 10
5.758881
 20
0.041032
 30
0.000000
  0
VERTEX
  8
LAYER-1
 10
5.782079
 20
0.044504
 30
0.000000
  0
VERTEX
  8
LAYER-1
 10
5.805280
 20
0.047976
 30
0.000000
  0
VERTEX
  8
LAYER-1
 10
5.824613
 20
0.051448
 30
0.000000
  0
VERTEX
  8
LAYER-1
 10
5.847814
 20
0.051448
 30
0.000000
  0
VERTEX
  8
LAYER-1
 10
5.874881
 20
0.051448
 30
0.000000
  0
VERTEX
  8
LAYER-1
 10
5.894698
 20
0.054053
 30
0.000000
  0
VERTEX
  8
LAYER-1
 10
5.921282
 20
0.058393
 30
0.000000
  0
VERTEX
  8
LAYER-1
 10
5.944482
 20
0.065337
 30
0.000000
  0
VERTEX
  8
LAYER-1
 10
5.975415
 20
0.065337
 30
0.000000
  0
VERTEX
  8
LAYER-1
 10
6.006349
 20
0.065337
 30
0.000000
  0
VERTEX
  8
LAYER-1
 10
6.025683
 20
0.065337
 30
0.000000
  0
VERTEX
  8
LAYER-1
 10
6.079816
 20
0.058393
 30
0.000000
  0
VERTEX
  8
LAYER-1
 10
6.110750
 20
0.051448
 30
0.000000
  0
VERTEX
  8
LAYER-1
 10
6.130083
 20
0.047976
 30
0.000000
  0
VERTEX
  8
LAYER-1
 10
6.164884
 20
0.047976
 30
0.000000
  0
VERTEX
  8
LAYER-1
 10
6.188568
 20
0.055355
 30
0.000000
  0
VERTEX
  8
LAYER-1
 10
6.210318
 20
0.056223
 30
0.000000
  0
VERTEX
  8
LAYER-1
 10
6.262035
 20
0.063167
 30
0.000000
  0
VERTEX
  8
LAYER-1
 10
6.310369
 20
0.073150
 30
0.000000
  0
VERTEX
  8
LAYER-1
 10
6.346620
 20
0.076623
 30
0.000000
  0
VERTEX
  8
LAYER-1
 10
6.379487
 20
0.077056
 30
0.000000
  0
VERTEX
  8
LAYER-1
 10
6.396403
 20
0.072282
 30
0.000000
  0
VERTEX
  8
LAYER-1
 10
6.414769
 20
0.068810
 30
0.000000
  0
VERTEX
  8
LAYER-1
 10
6.445704
 20
0.063601
 30
0.000000
  0
VERTEX
  8
LAYER-1
 10
6.485821
 20
0.071848
 30
0.000000
  0
VERTEX
  8
LAYER-1
 10
6.501288
 20
0.079226
 30
0.000000
  0
VERTEX
  8
LAYER-1
 10
6.524488
 20
0.079226
 30
0.000000
  0
VERTEX
  8
LAYER-1
 10
6.547688
 20
0.079226
 30
0.000000
  0
VERTEX
  8
LAYER-1
 10
6.574755
 20
0.072282
 30
0.000000
  0
VERTEX
  8
LAYER-1
 10
6.597956
 20
0.058393
 30
0.000000
  0
VERTEX
  8
LAYER-1
 10
6.625022
 20
0.047976
 30
0.000000
  0
VERTEX
  8
LAYER-1
 10
6.652089
 20
0.037560
 30
0.000000
  0
VERTEX
  8
LAYER-1
 10
6.675290
 20
0.037560
 30
0.000000
  0
VERTEX
  8
LAYER-1
 10
6.705311
 20
0.037543
 30
0.000000
  0
VERTEX
  8
LAYER-1
 10
6.729424
 20
0.047976
 30
0.000000
  0
SEQEND
  8
LAYER-1
  0
TEXT
  8
LAYER-1
 62
  0
 10
5.819778
 20
0.555333
 30
0.000000
 40
0.125000
  1
Dustproof
 72
  5
 11
6.639222
 21
0.555333
 31
0.000000
  0
TEXT
  8
LAYER-1
 62
  0
 10
5.819778
 20
0.360888
 30
0.000000
 40
0.125000
  1
floor socket
 72
  5
 11
6.764222
 21
0.360888
 31
0.000000
  0
POLYLINE
  8
LAYER-1
 66
  1
 70
  0
 62
  0
 10
5.803193
 20
0.468114
 30
0.000000
  0
VERTEX
  8
LAYER-1
 10
5.803193
 20
0.468114
 30
0.000000
  0
VERTEX
  8
LAYER-1
 10
3.739326
 20
0.158535
 30
0.000000
  0
SEQEND
  8
LAYER-1
  0
POLYLINE
  8
LAYER-1
 66
  1
 70
  1
 62
  0
  0
VERTEX
  8
LAYER-1
 10
3.719859
 20
0.155614
 30
0.000000
  0
VERTEX
  8
LAYER-1
 10
3.782354
 20
0.207121
 30
0.000000
  0
VERTEX
  8
LAYER-1
 10
3.788535
 20
0.165916
 30
0.000000
  0
VERTEX
  8
LAYER-1
 10
3.794716
 20
0.124710
 30
0.000000
  0
VERTEX
  8
LAYER-1
 10
3.719859
 20
0.155614
 30
0.000000
  0
SEQEND
  8
LAYER-1
  0
TEXT
  8
LAYER-1
 62
  0
 10
6.153111
 20
5.930333
 30
0.000000
 40
0.125000
  1
9"
 72
  5
 11
6.375334
 21
5.930333
 31
0.000000
  0
TEXT
  8
LAYER-1
 62
  0
 10
5.930889
 20
5.735888
 30
0.000000
 40
0.125000
  1
229mm
 72
  5
 11
6.597556
 21
5.735888
 31
0.000000
  0
TEXT
  8
LAYER-1
 62
  0
 10
1.778111
 20
8.527555
 30
0.000000
 40
0.125000
  1
OPEN STYLE SIDE FOLDING GRILLE
 72
  5
 11
4.722556
 21
8.527555
 31
0.000000
  0
LINE
  8
LAYER-1
 62
  0
 10
5.836928
 20
7.465054
 30
0.000000
 11
5.836928
 21
7.197016
 31
0.000000
  0
LINE
  8
LAYER-1
 62
  0
 10
5.753806
 20
7.465054
 30
0.000000
 11
5.961928
 21
7.465054
 31
0.000000
  0
LINE
  8
LAYER-1
 62
  0
 10
5.759670
 20
7.197016
 30
0.000000
 11
5.961928
 21
7.197016
 31
0.000000
  0
LINE
  8
LAYER-1
 62
  0
 10
5.866391
 20
7.435591
 30
0.000000
 11
5.807465
 21
7.494517
 31
0.000000
  0
LINE
  8
LAYER-1
 62
  0
 10
5.866391
 20
7.167553
 30
0.000000
 11
5.807465
 21
7.226478
 31
0.000000
  0
TEXT
  8
LAYER-1
 62
  0
 10
5.714365
 20
7.322882
 30
0.000000
 40
0.125000
  1
 
 50
90.000000
  0
TEXT
  8
LAYER-1
 62
  0
 10
6.153111
 20
7.346999
 30
0.000000
 40
0.125000
  1
4"
 72
  5
 11
6.375334
 21
7.346999
 31
0.000000
  0
TEXT
  8
LAYER-1
 62
  0
 10
5.930889
 20
7.152555
 30
0.000000
 40
0.125000
  1
102mm
 72
  5
 11
6.597556
 21
7.152555
 31
0.000000
  0
LINE
  8
LAYER-1
 62
  0
 10
4.443698
 20
7.728265
 30
0.000000
 11
4.853420
 21
7.728265
 31
0.000000
  0
LINE
  8
LAYER-1
 62
  0
 10
4.443698
 20
7.358474
 30
0.000000
 11
4.443698
 21
7.853265
 31
0.000000
  0
LINE
  8
LAYER-1
 62
  0
 10
4.853420
 20
7.356738
 30
0.000000
 11
4.853420
 21
7.853265
 31
0.000000
  0
LINE
  8
LAYER-1
 62
  0
 10
4.473161
 20
7.757727
 30
0.000000
 11
4.414235
 21
7.698802
 31
0.000000
  0
LINE
  8
LAYER-1
 62
  0
 10
4.882883
 20
7.757727
 30
0.000000
 11
4.823958
 21
7.698802
 31
0.000000
  0
TEXT
  8
LAYER-1
 62
  0
 10
4.640207
 20
7.852467
 30
0.000000
 40
0.125000
  1
 
  0
TEXT
  8
LAYER-1
 62
  0
 10
4.514222
 20
8.096999
 30
0.000000
 40
0.125000
  1
6"
 72
  5
 11
4.736445
 21
8.096999
 31
0.000000
  0
TEXT
  8
LAYER-1
 62
  0
 10
4.292000
 20
7.902555
 30
0.000000
 40
0.125000
  1
152mm
 72
  5
 11
4.958667
 21
7.902555
 31
0.000000
  0
POLYLINE
  8
LAYER-1
 66
  1
 70
  0
 62
  0
 10
3.433659
 20
0.212504
 30
0.000000
  0
VERTEX
  8
LAYER-1
 10
3.433659
 20
0.212504
 30
0.000000
  0
VERTEX
  8
LAYER-1
 10
3.433659
 20
0.211314
 30
0.000000
  0
SEQEND
  8
LAYER-1
  0
POLYLINE
  8
LAYER-1
 66
  1
 70
  1
 62
  0
 10
1.261801
 20
0.117337
 30
0.000000
  0
VERTEX
  8
LAYER-1
 10
1.261801
 20
0.117337
 30
0.000000
  0
VERTEX
  8
LAYER-1
 10
1.268746
 20
0.091295
 30
0.000000
  0
VERTEX
  8
LAYER-1
 10
1.293920
 20
0.105183
 30
0.000000
  0
SEQEND
  8
LAYER-1
  0
POLYLINE
  8
LAYER-1
 66
  1
 70
  1
 62
  0
 10
1.451906
 20
0.222369
 30
0.000000
  0
VERTEX
  8
LAYER-1
 10
1.451906
 20
0.222369
 30
0.000000
  0
VERTEX
  8
LAYER-1
 10
1.438886
 20
0.199799
 30
0.000000
  0
VERTEX
  8
LAYER-1
 10
1.469268
 20
0.220632
 30
0.000000
  0
SEQEND
  8
LAYER-1
  0
POLYLINE
  8
LAYER-1
 66
  1
 70
  1
 62
  0
 10
1.097740
 20
0.158134
 30
0.000000
  0
VERTEX
  8
LAYER-1
 10
1.097740
 20
0.158134
 30
0.000000
  0
VERTEX
  8
LAYER-1
 10
1.081247
 20
0.132960
 30
0.000000
  0
VERTEX
  8
LAYER-1
 10
1.096003
 20
0.125148
 30
0.000000
  0
SEQEND
  8
LAYER-1
  0
POLYLINE
  8
LAYER-1
 66
  1
 70
  0
 62
  0
 10
1.264406
 20
0.159003
 30
0.000000
  0
VERTEX
  8
LAYER-1
 10
1.264406
 20
0.159003
 30
0.000000
  0
VERTEX
  8
LAYER-1
 10
1.260066
 20
0.159003
 30
0.000000
  0
VERTEX
  8
LAYER-1
 10
1.256594
 20
0.154663
 30
0.000000
  0
VERTEX
  8
LAYER-1
 10
1.255726
 20
0.149456
 30
0.000000
  0
VERTEX
  8
LAYER-1
 10
1.257462
 20
0.145114
 30
0.000000
  0
VERTEX
  8
LAYER-1
 10
1.261802
 20
0.143378
 30
0.000000
  0
VERTEX
  8
LAYER-1
 10
1.266142
 20
0.143378
 30
0.000000
  0
VERTEX
  8
LAYER-1
 10
1.270483
 20
0.146851
 30
0.000000
  0
VERTEX
  8
LAYER-1
 10
1.270483
 20
0.151191
 30
0.000000
  0
VERTEX
  8
LAYER-1
 10
1.269615
 20
0.155532
 30
0.000000
  0
VERTEX
  8
LAYER-1
 10
1.265274
 20
0.158135
 30
0.000000
  0
SEQEND
  8
LAYER-1
  0
POLYLINE
  8
LAYER-1
 66
  1
 70
  1
 62
  0
 10
0.902427
 20
0.197196
 30
0.000000
  0
VERTEX
  8
LAYER-1
 10
0.902427
 20
0.197196
 30
0.000000
  0
VERTEX
  8
LAYER-1
 10
0.889406
 20
0.174627
 30
0.000000
  0
VERTEX
  8
LAYER-1
 10
0.919788
 20
0.195459
 30
0.000000
  0
SEQEND
  8
LAYER-1
  0
POLYLINE
  8
LAYER-1
 66
  1
 70
  1
 62
  0
 10
1.034205
 20
0.196863
 30
0.000000
  0
VERTEX
  8
LAYER-1
 10
1.034205
 20
0.196863
 30
0.000000
  0
VERTEX
  8
LAYER-1
 10
1.021518
 20
0.177498
 30
0.000000
  0
VERTEX
  8
LAYER-1
 10
1.032870
 20
0.171488
 30
0.000000
  0
SEQEND
  8
LAYER-1
  0
POLYLINE
  8
LAYER-1
 66
  1
 70
  0
 62
  0
 10
1.392011
 20
0.178100
 30
0.000000
  0
VERTEX
  8
LAYER-1
 10
1.392011
 20
0.178100
 30
0.000000
  0
VERTEX
  8
LAYER-1
 10
1.387670
 20
0.178100
 30
0.000000
  0
VERTEX
  8
LAYER-1
 10
1.384199
 20
0.173759
 30
0.000000
  0
VERTEX
  8
LAYER-1
 10
1.383330
 20
0.168551
 30
0.000000
  0
VERTEX
  8
LAYER-1
 10
1.385066
 20
0.164210
 30
0.000000
  0
VERTEX
  8
LAYER-1
 10
1.389406
 20
0.162475
 30
0.000000
  0
VERTEX
  8
LAYER-1
 10
1.393747
 20
0.162475
 30
0.000000
  0
VERTEX
  8
LAYER-1
 10
1.398087
 20
0.165946
 30
0.000000
  0
VERTEX
  8
LAYER-1
 10
1.398087
 20
0.170287
 30
0.000000
  0
VERTEX
  8
LAYER-1
 10
1.397219
 20
0.174628
 30
0.000000
  0
VERTEX
  8
LAYER-1
 10
1.392879
 20
0.177232
 30
0.000000
  0
SEQEND
  8
LAYER-1
  0
POLYLINE
  8
LAYER-1
 66
  1
 70
  0
 62
  0
 10
1.149822
 20
0.152058
 30
0.000000
  0
VERTEX
  8
LAYER-1
 10
1.149822
 20
0.152058
 30
0.000000
  0
VERTEX
  8
LAYER-1
 10
1.145483
 20
0.152058
 30
0.000000
  0
VERTEX
  8
LAYER-1
 10
1.142010
 20
0.147718
 30
0.000000
  0
VERTEX
  8
LAYER-1
 10
1.141142
 20
0.142509
 30
0.000000
  0
VERTEX
  8
LAYER-1
 10
1.142878
 20
0.138169
 30
0.000000
  0
VERTEX
  8
LAYER-1
 10
1.147219
 20
0.136433
 30
0.000000
  0
VERTEX
  8
LAYER-1
 10
1.151559
 20
0.136433
 30
0.000000
  0
VERTEX
  8
LAYER-1
 10
1.155899
 20
0.139905
 30
0.000000
  0
VERTEX
  8
LAYER-1
 10
1.155899
 20
0.144246
 30
0.000000
  0
VERTEX
  8
LAYER-1
 10
1.155031
 20
0.148587
 30
0.000000
  0
VERTEX
  8
LAYER-1
 10
1.150690
 20
0.151190
 30
0.000000
  0
SEQEND
  8
LAYER-1
  0
POLYLINE
  8
LAYER-1
 66
  1
 70
  0
 62
  0
 10
0.985760
 20
0.144246
 30
0.000000
  0
VERTEX
  8
LAYER-1
 10
0.985760
 20
0.144246
 30
0.000000
  0
VERTEX
  8
LAYER-1
 10
0.981420
 20
0.144246
 30
0.000000
  0
VERTEX
  8
LAYER-1
 10
0.977947
 20
0.139905
 30
0.000000
  0
VERTEX
  8
LAYER-1
 10
0.977079
 20
0.134697
 30
0.000000
  0
VERTEX
  8
LAYER-1
 10
0.978815
 20
0.130357
 30
0.000000
  0
VERTEX
  8
LAYER-1
 10
0.983156
 20
0.128621
 30
0.000000
  0
VERTEX
  8
LAYER-1
 10
0.987496
 20
0.128621
 30
0.000000
  0
VERTEX
  8
LAYER-1
 10
0.991837
 20
0.132093
 30
0.000000
  0
VERTEX
  8
LAYER-1
 10
0.991837
 20
0.136433
 30
0.000000
  0
VERTEX
  8
LAYER-1
 10
0.990969
 20
0.140774
 30
0.000000
  0
VERTEX
  8
LAYER-1
 10
0.986628
 20
0.143378
 30
0.000000
  0
SEQEND
  8
LAYER-1
  0
POLYLINE
  8
LAYER-1
 66
  1
 70
  1
 62
  0
 10
1.613799
 20
0.168984
 30
0.000000
  0
VERTEX
  8
LAYER-1
 10
1.613799
 20
0.168984
 30
0.000000
  0
VERTEX
  8
LAYER-1
 10
1.587759
 20
0.162040
 30
0.000000
  0
VERTEX
  8
LAYER-1
 10
1.601646
 20
0.136866
 30
0.000000
  0
SEQEND
  8
LAYER-1
  0
POLYLINE
  8
LAYER-1
 66
  1
 70
  1
 62
  0
 10
1.675343
 20
0.109388
 30
0.000000
  0
VERTEX
  8
LAYER-1
 10
1.675343
 20
0.109388
 30
0.000000
  0
VERTEX
  8
LAYER-1
 10
1.697914
 20
0.096366
 30
0.000000
  0
VERTEX
  8
LAYER-1
 10
1.677081
 20
0.126748
 30
0.000000
  0
SEQEND
  8
LAYER-1
  0
POLYLINE
  8
LAYER-1
 66
  1
 70
  1
 62
  0
 10
1.206681
 20
0.176797
 30
0.000000
  0
VERTEX
  8
LAYER-1
 10
1.206681
 20
0.176797
 30
0.000000
  0
VERTEX
  8
LAYER-1
 10
1.181508
 20
0.193290
 30
0.000000
  0
VERTEX
  8
LAYER-1
 10
1.173695
 20
0.178533
 30
0.000000
  0
SEQEND
  8
LAYER-1
  0
POLYLINE
  8
LAYER-1
 66
  1
 70
  0
 62
  0
 10
1.625085
 20
0.205444
 30
0.000000
  0
VERTEX
  8
LAYER-1
 10
1.625085
 20
0.205444
 30
0.000000
  0
VERTEX
  8
LAYER-1
 10
1.625085
 20
0.209785
 30
0.000000
  0
VERTEX
  8
LAYER-1
 10
1.620744
 20
0.213257
 30
0.000000
  0
VERTEX
  8
LAYER-1
 10
1.615536
 20
0.214125
 30
0.000000
  0
VERTEX
  8
LAYER-1
 10
1.611196
 20
0.212389
 30
0.000000
  0
VERTEX
  8
LAYER-1
 10
1.609460
 20
0.208048
 30
0.000000
  0
VERTEX
  8
LAYER-1
 10
1.609460
 20
0.203708
 30
0.000000
  0
VERTEX
  8
LAYER-1
 10
1.612932
 20
0.199368
 30
0.000000
  0
VERTEX
  8
LAYER-1
 10
1.617272
 20
0.199368
 30
0.000000
  0
VERTEX
  8
LAYER-1
 10
1.621613
 20
0.200235
 30
0.000000
  0
VERTEX
  8
LAYER-1
 10
1.624218
 20
0.204576
 30
0.000000
  0
SEQEND
  8
LAYER-1
  0
POLYLINE
  8
LAYER-1
 66
  1
 70
  1
 62
  0
 10
1.577342
 20
0.181137
 30
0.000000
  0
VERTEX
  8
LAYER-1
 10
1.577342
 20
0.181137
 30
0.000000
  0
VERTEX
  8
LAYER-1
 10
1.554771
 20
0.194158
 30
0.000000
  0
VERTEX
  8
LAYER-1
 10
1.575604
 20
0.163776
 30
0.000000
  0
SEQEND
  8
LAYER-1
  0
POLYLINE
  8
LAYER-1
 66
  1
 70
  1
 62
  0
 10
1.225444
 20
0.193456
 30
0.000000
  0
VERTEX
  8
LAYER-1
 10
1.225444
 20
0.193456
 30
0.000000
  0
VERTEX
  8
LAYER-1
 10
1.206080
 20
0.206143
 30
0.000000
  0
VERTEX
  8
LAYER-1
 10
1.200068
 20
0.194792
 30
0.000000
  0
SEQEND
  8
LAYER-1
  0
POLYLINE
  8
LAYER-1
 66
  1
 70
  0
 62
  0
 10
1.691317
 20
0.069804
 30
0.000000
  0
VERTEX
  8
LAYER-1
 10
1.691317
 20
0.069804
 30
0.000000
  0
VERTEX
  8
LAYER-1
 10
1.691317
 20
0.065464
 30
0.000000
  0
VERTEX
  8
LAYER-1
 10
1.695658
 20
0.061991
 30
0.000000
  0
VERTEX
  8
LAYER-1
 10
1.700865
 20
0.061123
 30
0.000000
  0
VERTEX
  8
LAYER-1
 10
1.705206
 20
0.062859
 30
0.000000
  0
VERTEX
  8
LAYER-1
 10
1.706942
 20
0.067200
 30
0.000000
  0
VERTEX
  8
LAYER-1
 10
1.706942
 20
0.071541
 30
0.000000
  0
VERTEX
  8
LAYER-1
 10
1.703470
 20
0.075880
 30
0.000000
  0
VERTEX
  8
LAYER-1
 10
1.699130
 20
0.075880
 30
0.000000
  0
VERTEX
  8
LAYER-1
 10
1.694789
 20
0.075012
 30
0.000000
  0
VERTEX
  8
LAYER-1
 10
1.692184
 20
0.070672
 30
0.000000
  0
SEQEND
  8
LAYER-1
  0
POLYLINE
  8
LAYER-1
 66
  1
 70
  0
 62
  0
 10
1.200605
 20
0.124713
 30
0.000000
  0
VERTEX
  8
LAYER-1
 10
1.200605
 20
0.124713
 30
0.000000
  0
VERTEX
  8
LAYER-1
 10
1.200605
 20
0.129054
 30
0.000000
  0
VERTEX
  8
LAYER-1
 10
1.196264
 20
0.132526
 30
0.000000
  0
VERTEX
  8
LAYER-1
 10
1.191056
 20
0.133394
 30
0.000000
  0
VERTEX
  8
LAYER-1
 10
1.186716
 20
0.131658
 30
0.000000
  0
VERTEX
  8
LAYER-1
 10
1.184980
 20
0.127318
 30
0.000000
  0
VERTEX
  8
LAYER-1
 10
1.184980
 20
0.122977
 30
0.000000
  0
VERTEX
  8
LAYER-1
 10
1.188451
 20
0.118637
 30
0.000000
  0
VERTEX
  8
LAYER-1
 10
1.192792
 20
0.118637
 30
0.000000
  0
VERTEX
  8
LAYER-1
 10
1.197133
 20
0.119505
 30
0.000000
  0
VERTEX
  8
LAYER-1
 10
1.199738
 20
0.123845
 30
0.000000
  0
SEQEND
  8
LAYER-1
  0
POLYLINE
  8
LAYER-1
 66
  1
 70
  0
 62
  0
 10
1.502689
 20
0.159437
 30
0.000000
  0
VERTEX
  8
LAYER-1
 10
1.502689
 20
0.159437
 30
0.000000
  0
VERTEX
  8
LAYER-1
 10
1.502689
 20
0.163778
 30
0.000000
  0
VERTEX
  8
LAYER-1
 10
1.498348
 20
0.167250
 30
0.000000
  0
VERTEX
  8
LAYER-1
 10
1.493141
 20
0.168118
 30
0.000000
  0
VERTEX
  8
LAYER-1
 10
1.488800
 20
0.166382
 30
0.000000
  0
VERTEX
  8
LAYER-1
 10
1.487064
 20
0.162041
 30
0.000000
  0
VERTEX
  8
LAYER-1
 10
1.487064
 20
0.157701
 30
0.000000
  0
VERTEX
  8
LAYER-1
 10
1.490536
 20
0.153360
 30
0.000000
  0
VERTEX
  8
LAYER-1
 10
1.494876
 20
0.153360
 30
0.000000
  0
VERTEX
  8
LAYER-1
 10
1.499217
 20
0.154228
 30
0.000000
  0
VERTEX
  8
LAYER-1
 10
1.501822
 20
0.158569
 30
0.000000
  0
SEQEND
  8
LAYER-1
  0
POLYLINE
  8
LAYER-1
 66
  1
 70
  1
 62
  0
 10
1.721873
 20
0.151625
 30
0.000000
  0
VERTEX
  8
LAYER-1
 10
1.721873
 20
0.151625
 30
0.000000
  0
VERTEX
  8
LAYER-1
 10
1.728817
 20
0.125583
 30
0.000000
  0
VERTEX
  8
LAYER-1
 10
1.747914
 20
0.141207
 30
0.000000
  0
SEQEND
  8
LAYER-1
  0
POLYLINE
  8
LAYER-1
 66
  1
 70
  1
 62
  0
 10
1.905900
 20
0.173326
 30
0.000000
  0
VERTEX
  8
LAYER-1
 10
1.905900
 20
0.173326
 30
0.000000
  0
VERTEX
  8
LAYER-1
 10
1.892879
 20
0.150757
 30
0.000000
  0
VERTEX
  8
LAYER-1
 10
1.923261
 20
0.171589
 30
0.000000
  0
SEQEND
  8
LAYER-1
  0
POLYLINE
  8
LAYER-1
 66
  1
 70
  1
 62
  0
 10
1.955804
 20
0.071866
 30
0.000000
  0
VERTEX
  8
LAYER-1
 10
1.955804
 20
0.071866
 30
0.000000
  0
VERTEX
  8
LAYER-1
 10
1.939312
 20
0.046692
 30
0.000000
  0
VERTEX
  8
LAYER-1
 10
1.954069
 20
0.038879
 30
0.000000
  0
SEQEND
  8
LAYER-1
  0
POLYLINE
  8
LAYER-1
 66
  1
 70
  0
 62
  0
 10
1.694095
 20
0.175930
 30
0.000000
  0
VERTEX
  8
LAYER-1
 10
1.694095
 20
0.175930
 30
0.000000
  0
VERTEX
  8
LAYER-1
 10
1.689754
 20
0.175930
 30
0.000000
  0
VERTEX
  8
LAYER-1
 10
1.686282
 20
0.171589
 30
0.000000
  0
VERTEX
  8
LAYER-1
 10
1.685414
 20
0.166382
 30
0.000000
  0
VERTEX
  8
LAYER-1
 10
1.687150
 20
0.162041
 30
0.000000
  0
VERTEX
  8
LAYER-1
 10
1.691490
 20
0.160305
 30
0.000000
  0
VERTEX
  8
LAYER-1
 10
1.695831
 20
0.160305
 30
0.000000
  0
VERTEX
  8
LAYER-1
 10
1.700171
 20
0.163777
 30
0.000000
  0
VERTEX
  8
LAYER-1
 10
1.700171
 20
0.168118
 30
0.000000
  0
VERTEX
  8
LAYER-1
 10
1.699302
 20
0.172458
 30
0.000000
  0
VERTEX
  8
LAYER-1
 10
1.694963
 20
0.175062
 30
0.000000
  0
SEQEND
  8
LAYER-1
  0
POLYLINE
  8
LAYER-1
 66
  1
 70
  1
 62
  0
 10
1.731421
 20
0.108221
 30
0.000000
  0
VERTEX
  8
LAYER-1
 10
1.731421
 20
0.108221
 30
0.000000
  0
VERTEX
  8
LAYER-1
 10
1.718400
 20
0.085652
 30
0.000000
  0
VERTEX
  8
LAYER-1
 10
1.748782
 20
0.106484
 30
0.000000
  0
SEQEND
  8
LAYER-1
  0
POLYLINE
  8
LAYER-1
 66
  1
 70
  1
 62
  0
 10
1.987221
 20
0.053975
 30
0.000000
  0
VERTEX
  8
LAYER-1
 10
1.987221
 20
0.053975
 30
0.000000
  0
VERTEX
  8
LAYER-1
 10
1.999909
 20
0.073338
 30
0.000000
  0
VERTEX
  8
LAYER-1
 10
1.988557
 20
0.079349
 30
0.000000
  0
SEQEND
  8
LAYER-1
  0
POLYLINE
  8
LAYER-1
 66
  1
 70
  0
 62
  0
 10
1.886447
 20
0.054421
 30
0.000000
  0
VERTEX
  8
LAYER-1
 10
1.886447
 20
0.054421
 30
0.000000
  0
VERTEX
  8
LAYER-1
 10
1.890788
 20
0.054421
 30
0.000000
  0
VERTEX
  8
LAYER-1
 10
1.894259
 20
0.058762
 30
0.000000
  0
VERTEX
  8
LAYER-1
 10
1.895127
 20
0.063969
 30
0.000000
  0
VERTEX
  8
LAYER-1
 10
1.893392
 20
0.068310
 30
0.000000
  0
VERTEX
  8
LAYER-1
 10
1.889051
 20
0.070046
 30
0.000000
  0
VERTEX
  8
LAYER-1
 10
1.884711
 20
0.070046
 30
0.000000
  0
VERTEX
  8
LAYER-1
 10
1.880370
 20
0.066574
 30
0.000000
  0
VERTEX
  8
LAYER-1
 10
1.880370
 20
0.062234
 30
0.000000
  0
VERTEX
  8
LAYER-1
 10
1.881238
 20
0.057893
 30
0.000000
  0
VERTEX
  8
LAYER-1
 10
1.885579
 20
0.055288
 30
0.000000
  0
SEQEND
  8
LAYER-1
  0
POLYLINE
  8
LAYER-1
 66
  1
 70
  0
 62
  0
 10
1.575951
 20
0.090289
 30
0.000000
  0
VERTEX
  8
LAYER-1
 10
1.575951
 20
0.090289
 30
0.000000
  0
VERTEX
  8
LAYER-1
 10
1.580292
 20
0.090289
 30
0.000000
  0
VERTEX
  8
LAYER-1
 10
1.583764
 20
0.094629
 30
0.000000
  0
VERTEX
  8
LAYER-1
 10
1.584632
 20
0.099837
 30
0.000000
  0
VERTEX
  8
LAYER-1
 10
1.582897
 20
0.104178
 30
0.000000
  0
VERTEX
  8
LAYER-1
 10
1.578556
 20
0.105914
 30
0.000000
  0
VERTEX
  8
LAYER-1
 10
1.574215
 20
0.105914
 30
0.000000
  0
VERTEX
  8
LAYER-1
 10
1.569874
 20
0.102442
 30
0.000000
  0
VERTEX
  8
LAYER-1
 10
1.569874
 20
0.098101
 30
0.000000
  0
VERTEX
  8
LAYER-1
 10
1.570743
 20
0.093760
 30
0.000000
  0
VERTEX
  8
LAYER-1
 10
1.575084
 20
0.091157
 30
0.000000
  0
SEQEND
  8
LAYER-1
  0
POLYLINE
  8
LAYER-1
 66
  1
 70
  1
 62
  0
 10
2.071265
 20
0.156399
 30
0.000000
  0
VERTEX
  8
LAYER-1
 10
2.071265
 20
0.156399
 30
0.000000
  0
VERTEX
  8
LAYER-1
 10
2.045225
 20
0.149454
 30
0.000000
  0
VERTEX
  8
LAYER-1
 10
2.059112
 20
0.124281
 30
0.000000
  0
SEQEND
  8
LAYER-1
  0
POLYLINE
  8
LAYER-1
 66
  1
 70
  1
 62
  0
 10
1.810148
 20
0.116803
 30
0.000000
  0
VERTEX
  8
LAYER-1
 10
1.810148
 20
0.116803
 30
0.000000
  0
VERTEX
  8
LAYER-1
 10
1.787578
 20
0.129825
 30
0.000000
  0
VERTEX
  8
LAYER-1
 10
1.808410
 20
0.099443
 30
0.000000
  0
SEQEND
  8
LAYER-1
  0
POLYLINE
  8
LAYER-1
 66
  1
 70
  1
 62
  0
 10
1.840005
 20
0.039230
 30
0.000000
  0
VERTEX
  8
LAYER-1
 10
1.840005
 20
0.039230
 30
0.000000
  0
VERTEX
  8
LAYER-1
 10
1.865179
 20
0.022736
 30
0.000000
  0
VERTEX
  8
LAYER-1
 10
1.872991
 20
0.037495
 30
0.000000
  0
SEQEND
  8
LAYER-1
  0
POLYLINE
  8
LAYER-1
 66
  1
 70
  0
 62
  0
 10
2.102515
 20
0.205877
 30
0.000000
  0
VERTEX
  8
LAYER-1
 10
2.102515
 20
0.205877
 30
0.000000
  0
VERTEX
  8
LAYER-1
 10
2.102515
 20
0.210218
 30
0.000000
  0
VERTEX
  8
LAYER-1
 10
2.098175
 20
0.213689
 30
0.000000
  0
VERTEX
  8
LAYER-1
 10
2.092967
 20
0.214557
 30
0.000000
  0
VERTEX
  8
LAYER-1
 10
2.088626
 20
0.212821
 30
0.000000
  0
VERTEX
  8
LAYER-1
 10
2.086890
 20
0.208481
 30
0.000000
  0
VERTEX
  8
LAYER-1
 10
2.086890
 20
0.204141
 30
0.000000
  0
VERTEX
  8
LAYER-1
 10
2.090362
 20
0.199800
 30
0.000000
  0
VERTEX
  8
LAYER-1
 10
2.094703
 20
0.199800
 30
0.000000
  0
VERTEX
  8
LAYER-1
 10
2.099044
 20
0.200668
 30
0.000000
  0
VERTEX
  8
LAYER-1
 10
2.101648
 20
0.205009
 30
0.000000
  0
SEQEND
  8
LAYER-1
  0
POLYLINE
  8
LAYER-1
 66
  1
 70
  1
 62
  0
 10
2.034808
 20
0.168551
 30
0.000000
  0
VERTEX
  8
LAYER-1
 10
2.034808
 20
0.168551
 30
0.000000
  0
VERTEX
  8
LAYER-1
 10
2.012237
 20
0.181572
 30
0.000000
  0
VERTEX
  8
LAYER-1
 10
2.033070
 20
0.151190
 30
0.000000
  0
SEQEND
  8
LAYER-1
  0
POLYLINE
  8
LAYER-1
 66
  1
 70
  1
 62
  0
 10
0.803570
 20
0.205175
 30
0.000000
  0
VERTEX
  8
LAYER-1
 10
0.803570
 20
0.205175
 30
0.000000
  0
VERTEX
  8
LAYER-1
 10
0.784206
 20
0.217862
 30
0.000000
  0
VERTEX
  8
LAYER-1
 10
0.778194
 20
0.206511
 30
0.000000
  0
SEQEND
  8
LAYER-1
  0
POLYLINE
  8
LAYER-1
 66
  1
 70
  0
 62
  0
 10
1.814487
 20
0.176700
 30
0.000000
  0
VERTEX
  8
LAYER-1
 10
1.814487
 20
0.176700
 30
0.000000
  0
VERTEX
  8
LAYER-1
 10
1.814487
 20
0.181040
 30
0.000000
  0
VERTEX
  8
LAYER-1
 10
1.810146
 20
0.184513
 30
0.000000
  0
VERTEX
  8
LAYER-1
 10
1.804939
 20
0.185381
 30
0.000000
  0
VERTEX
  8
LAYER-1
 10
1.800598
 20
0.183645
 30
0.000000
  0
VERTEX
  8
LAYER-1
 10
1.798862
 20
0.179303
 30
0.000000
  0
VERTEX
  8
LAYER-1
 10
1.798862
 20
0.174963
 30
0.000000
  0
VERTEX
  8
LAYER-1
 10
1.802334
 20
0.170624
 30
0.000000
  0
VERTEX
  8
LAYER-1
 10
1.806675
 20
0.170624
 30
0.000000
  0
VERTEX
  8
LAYER-1
 10
1.811015
 20
0.171491
 30
0.000000
  0
VERTEX
  8
LAYER-1
 10
1.813620
 20
0.175832
 30
0.000000
  0
SEQEND
  8
LAYER-1
  0
POLYLINE
  8
LAYER-1
 66
  1
 70
  0
 62
  0
 10
0.780467
 20
0.138168
 30
0.000000
  0
VERTEX
  8
LAYER-1
 10
0.780467
 20
0.138168
 30
0.000000
  0
VERTEX
  8
LAYER-1
 10
0.780467
 20
0.142509
 30
0.000000
  0
VERTEX
  8
LAYER-1
 10
0.776126
 20
0.145981
 30
0.000000
  0
VERTEX
  8
LAYER-1
 10
0.770918
 20
0.146849
 30
0.000000
  0
VERTEX
  8
LAYER-1
 10
0.766577
 20
0.145113
 30
0.000000
  0
VERTEX
  8
LAYER-1
 10
0.764842
 20
0.140772
 30
0.000000
  0
VERTEX
  8
LAYER-1
 10
0.764842
 20
0.136432
 30
0.000000
  0
VERTEX
  8
LAYER-1
 10
0.768313
 20
0.132091
 30
0.000000
  0
VERTEX
  8
LAYER-1
 10
0.772654
 20
0.132091
 30
0.000000
  0
VERTEX
  8
LAYER-1
 10
0.776995
 20
0.132959
 30
0.000000
  0
VERTEX
  8
LAYER-1
 10
0.779600
 20
0.137300
 30
0.000000
  0
SEQEND
  8
LAYER-1
  0
POLYLINE
  8
LAYER-1
 66
  1
 70
  0
 62
  0
 10
1.902862
 20
0.205874
 30
0.000000
  0
VERTEX
  8
LAYER-1
 10
1.902862
 20
0.205874
 30
0.000000
  0
VERTEX
  8
LAYER-1
 10
1.902862
 20
0.210214
 30
0.000000
  0
VERTEX
  8
LAYER-1
 10
1.898521
 20
0.213687
 30
0.000000
  0
VERTEX
  8
LAYER-1
 10
1.893314
 20
0.214555
 30
0.000000
  0
VERTEX
  8
LAYER-1
 10
1.888973
 20
0.212819
 30
0.000000
  0
VERTEX
  8
LAYER-1
 10
1.887237
 20
0.208477
 30
0.000000
  0
VERTEX
  8
LAYER-1
 10
1.887237
 20
0.204138
 30
0.000000
  0
VERTEX
  8
LAYER-1
 10
1.890709
 20
0.199797
 30
0.000000
  0
VERTEX
  8
LAYER-1
 10
1.895049
 20
0.199797
 30
0.000000
  0
VERTEX
  8
LAYER-1
 10
1.899390
 20
0.200665
 30
0.000000
  0
VERTEX
  8
LAYER-1
 10
1.901995
 20
0.205006
 30
0.000000
  0
SEQEND
  8
LAYER-1
  0
POLYLINE
  8
LAYER-1
 66
  1
 70
  1
 62
  0
 10
1.462150
 20
0.070408
 30
0.000000
  0
VERTEX
  8
LAYER-1
 10
1.462150
 20
0.070408
 30
0.000000
  0
VERTEX
  8
LAYER-1
 10
1.436109
 20
0.063464
 30
0.000000
  0
VERTEX
  8
LAYER-1
 10
1.449997
 20
0.038290
 30
0.000000
  0
SEQEND
  8
LAYER-1
  0
POLYLINE
  8
LAYER-1
 66
  1
 70
  1
 62
  0
 10
2.308678
 20
0.133829
 30
0.000000
  0
VERTEX
  8
LAYER-1
 10
2.308678
 20
0.133829
 30
0.000000
  0
VERTEX
  8
LAYER-1
 10
2.331247
 20
0.120808
 30
0.000000
  0
VERTEX
  8
LAYER-1
 10
2.310414
 20
0.151190
 30
0.000000
  0
SEQEND
  8
LAYER-1
  0
POLYLINE
  8
LAYER-1
 66
  1
 70
  1
 62
  0
 10
0.918052
 20
0.150756
 30
0.000000
  0
VERTEX
  8
LAYER-1
 10
0.918052
 20
0.150756
 30
0.000000
  0
VERTEX
  8
LAYER-1
 10
0.943227
 20
0.134263
 30
0.000000
  0
VERTEX
  8
LAYER-1
 10
0.951039
 20
0.149020
 30
0.000000
  0
SEQEND
  8
LAYER-1
  0
POLYLINE
  8
LAYER-1
 66
  1
 70
  0
 62
  0
 10
2.236629
 20
0.180701
 30
0.000000
  0
VERTEX
  8
LAYER-1
 10
2.236629
 20
0.180701
 30
0.000000
  0
VERTEX
  8
LAYER-1
 10
2.236629
 20
0.176361
 30
0.000000
  0
VERTEX
  8
LAYER-1
 10
2.240970
 20
0.172889
 30
0.000000
  0
VERTEX
  8
LAYER-1
 10
2.246178
 20
0.172021
 30
0.000000
  0
VERTEX
  8
LAYER-1
 10
2.250518
 20
0.173757
 30
0.000000
  0
VERTEX
  8
LAYER-1
 10
2.252254
 20
0.178097
 30
0.000000
  0
VERTEX
  8
LAYER-1
 10
2.252254
 20
0.182437
 30
0.000000
  0
VERTEX
  8
LAYER-1
 10
2.248782
 20
0.186778
 30
0.000000
  0
VERTEX
  8
LAYER-1
 10
2.244442
 20
0.186778
 30
0.000000
  0
VERTEX
  8
LAYER-1
 10
2.240101
 20
0.185910
 30
0.000000
  0
VERTEX
  8
LAYER-1
 10
2.237497
 20
0.181569
 30
0.000000
  0
SEQEND
  8
LAYER-1
  0
POLYLINE
  8
LAYER-1
 66
  1
 70
  1
 62
  0
 10
2.186281
 20
0.191988
 30
0.000000
  0
VERTEX
  8
LAYER-1
 10
2.186281
 20
0.191988
 30
0.000000
  0
VERTEX
  8
LAYER-1
 10
2.208851
 20
0.178966
 30
0.000000
  0
VERTEX
  8
LAYER-1
 10
2.188018
 20
0.209349
 30
0.000000
  0
SEQEND
  8
LAYER-1
  0
POLYLINE
  8
LAYER-1
 66
  1
 70
  1
 62
  0
 10
0.916651
 20
0.098506
 30
0.000000
  0
VERTEX
  8
LAYER-1
 10
0.916651
 20
0.098506
 30
0.000000
  0
VERTEX
  8
LAYER-1
 10
0.936016
 20
0.085819
 30
0.000000
  0
VERTEX
  8
LAYER-1
 10
0.942026
 20
0.097170
 30
0.000000
  0
SEQEND
  8
LAYER-1
  0
POLYLINE
  8
LAYER-1
 66
  1
 70
  0
 62
  0
 10
1.642792
 20
0.050791
 30
0.000000
  0
VERTEX
  8
LAYER-1
 10
1.642792
 20
0.050791
 30
0.000000
  0
VERTEX
  8
LAYER-1
 10
1.642792
 20
0.055131
 30
0.000000
  0
VERTEX
  8
LAYER-1
 10
1.638451
 20
0.058603
 30
0.000000
  0
VERTEX
  8
LAYER-1
 10
1.633243
 20
0.059471
 30
0.000000
  0
VERTEX
  8
LAYER-1
 10
1.628903
 20
0.057735
 30
0.000000
  0
VERTEX
  8
LAYER-1
 10
1.627167
 20
0.053395
 30
0.000000
  0
VERTEX
  8
LAYER-1
 10
1.627167
 20
0.049054
 30
0.000000
  0
VERTEX
  8
LAYER-1
 10
1.630639
 20
0.044714
 30
0.000000
  0
VERTEX
  8
LAYER-1
 10
1.634979
 20
0.044714
 30
0.000000
  0
VERTEX
  8
LAYER-1
 10
1.639320
 20
0.045582
 30
0.000000
  0
VERTEX
  8
LAYER-1
 10
1.641924
 20
0.049923
 30
0.000000
  0
SEQEND
  8
LAYER-1
  0
POLYLINE
  8
LAYER-1
 66
  1
 70
  0
 62
  0
 10
2.448435
 20
0.133829
 30
0.000000
  0
VERTEX
  8
LAYER-1
 10
2.448435
 20
0.133829
 30
0.000000
  0
VERTEX
  8
LAYER-1
 10
2.448435
 20
0.129489
 30
0.000000
  0
VERTEX
  8
LAYER-1
 10
2.452775
 20
0.126016
 30
0.000000
  0
VERTEX
  8
LAYER-1
 10
2.457983
 20
0.125149
 30
0.000000
  0
VERTEX
  8
LAYER-1
 10
2.462324
 20
0.126884
 30
0.000000
  0
VERTEX
  8
LAYER-1
 10
2.464060
 20
0.131225
 30
0.000000
  0
VERTEX
  8
LAYER-1
 10
2.464060
 20
0.135565
 30
0.000000
  0
VERTEX
  8
LAYER-1
 10
2.460588
 20
0.139906
 30
0.000000
  0
VERTEX
  8
LAYER-1
 10
2.456247
 20
0.139906
 30
0.000000
  0
VERTEX
  8
LAYER-1
 10
2.451906
 20
0.139037
 30
0.000000
  0
VERTEX
  8
LAYER-1
 10
2.449303
 20
0.134697
 30
0.000000
  0
SEQEND
  8
LAYER-1
  0
POLYLINE
  8
LAYER-1
 66
  1
 70
  0
 62
  0
 10
2.282636
 20
0.188516
 30
0.000000
  0
VERTEX
  8
LAYER-1
 10
2.282636
 20
0.188516
 30
0.000000
  0
VERTEX
  8
LAYER-1
 10
2.282636
 20
0.184176
 30
0.000000
  0
VERTEX
  8
LAYER-1
 10
2.286977
 20
0.180704
 30
0.000000
  0
VERTEX
  8
LAYER-1
 10
2.292185
 20
0.179837
 30
0.000000
  0
VERTEX
  8
LAYER-1
 10
2.296525
 20
0.181572
 30
0.000000
  0
VERTEX
  8
LAYER-1
 10
2.298261
 20
0.185912
 30
0.000000
  0
VERTEX
  8
LAYER-1
 10
2.298261
 20
0.190253
 30
0.000000
  0
VERTEX
  8
LAYER-1
 10
2.294789
 20
0.194594
 30
0.000000
  0
VERTEX
  8
LAYER-1
 10
2.290449
 20
0.194594
 30
0.000000
  0
VERTEX
  8
LAYER-1
 10
2.286108
 20
0.193725
 30
0.000000
  0
VERTEX
  8
LAYER-1
 10
2.283503
 20
0.189384
 30
0.000000
  0
SEQEND
  8
LAYER-1
  0
POLYLINE
  8
LAYER-1
 66
  1
 70
  1
 62
  0
 10
2.044789
 20
0.105618
 30
0.000000
  0
VERTEX
  8
LAYER-1
 10
2.044789
 20
0.105618
 30
0.000000
  0
VERTEX
  8
LAYER-1
 10
2.051734
 20
0.079577
 30
0.000000
  0
VERTEX
  8
LAYER-1
 10
2.076907
 20
0.093464
 30
0.000000
  0
SEQEND
  8
LAYER-1
  0
POLYLINE
  8
LAYER-1
 66
  1
 70
  1
 62
  0
 10
2.149304
 20
0.092860
 30
0.000000
  0
VERTEX
  8
LAYER-1
 10
2.149304
 20
0.092860
 30
0.000000
  0
VERTEX
  8
LAYER-1
 10
2.136283
 20
0.070290
 30
0.000000
  0
VERTEX
  8
LAYER-1
 10
2.166665
 20
0.091122
 30
0.000000
  0
SEQEND
  8
LAYER-1
  0
POLYLINE
  8
LAYER-1
 66
  1
 70
  1
 62
  0
 10
1.865268
 20
0.123315
 30
0.000000
  0
VERTEX
  8
LAYER-1
 10
1.865268
 20
0.123315
 30
0.000000
  0
VERTEX
  8
LAYER-1
 10
1.848775
 20
0.098141
 30
0.000000
  0
VERTEX
  8
LAYER-1
 10
1.863532
 20
0.090329
 30
0.000000
  0
SEQEND
  8
LAYER-1
  0
POLYLINE
  8
LAYER-1
 66
  1
 70
  0
 62
  0
 10
1.995311
 20
0.136868
 30
0.000000
  0
VERTEX
  8
LAYER-1
 10
1.995311
 20
0.136868
 30
0.000000
  0
VERTEX
  8
LAYER-1
 10
1.990970
 20
0.136868
 30
0.000000
  0
VERTEX
  8
LAYER-1
 10
1.987498
 20
0.132527
 30
0.000000
  0
VERTEX
  8
LAYER-1
 10
1.986630
 20
0.127319
 30
0.000000
  0
VERTEX
  8
LAYER-1
 10
1.988366
 20
0.122978
 30
0.000000
  0
VERTEX
  8
LAYER-1
 10
1.992707
 20
0.121243
 30
0.000000
  0
VERTEX
  8
LAYER-1
 10
1.997047
 20
0.121243
 30
0.000000
  0
VERTEX
  8
LAYER-1
 10
2.001387
 20
0.124714
 30
0.000000
  0
VERTEX
  8
LAYER-1
 10
2.001387
 20
0.129055
 30
0.000000
  0
VERTEX
  8
LAYER-1
 10
2.000519
 20
0.133396
 30
0.000000
  0
VERTEX
  8
LAYER-1
 10
1.996179
 20
0.136001
 30
0.000000
  0
SEQEND
  8
LAYER-1
  0
POLYLINE
  8
LAYER-1
 66
  1
 70
  1
 62
  0
 10
0.852949
 20
0.213256
 30
0.000000
  0
VERTEX
  8
LAYER-1
 10
0.852949
 20
0.213256
 30
0.000000
  0
VERTEX
  8
LAYER-1
 10
0.839928
 20
0.190685
 30
0.000000
  0
VERTEX
  8
LAYER-1
 10
0.870310
 20
0.211518
 30
0.000000
  0
SEQEND
  8
LAYER-1
  0
POLYLINE
  8
LAYER-1
 66
  1
 70
  1
 62
  0
 10
1.850345
 20
0.155964
 30
0.000000
  0
VERTEX
  8
LAYER-1
 10
1.850345
 20
0.155964
 30
0.000000
  0
VERTEX
  8
LAYER-1
 10
1.837658
 20
0.136600
 30
0.000000
  0
VERTEX
  8
LAYER-1
 10
1.849009
 20
0.130589
 30
0.000000
  0
SEQEND
  8
LAYER-1
  0
POLYLINE
  8
LAYER-1
 66
  1
 70
  0
 62
  0
 10
2.147220
 20
0.138603
 30
0.000000
  0
VERTEX
  8
LAYER-1
 10
2.147220
 20
0.138603
 30
0.000000
  0
VERTEX
  8
LAYER-1
 10
2.142880
 20
0.138603
 30
0.000000
  0
VERTEX
  8
LAYER-1
 10
2.139407
 20
0.134263
 30
0.000000
  0
VERTEX
  8
LAYER-1
 10
2.138539
 20
0.129055
 30
0.000000
  0
VERTEX
  8
LAYER-1
 10
2.140275
 20
0.124714
 30
0.000000
  0
VERTEX
  8
LAYER-1
 10
2.144616
 20
0.122978
 30
0.000000
  0
VERTEX
  8
LAYER-1
 10
2.148957
 20
0.122978
 30
0.000000
  0
VERTEX
  8
LAYER-1
 10
2.153297
 20
0.126450
 30
0.000000
  0
VERTEX
  8
LAYER-1
 10
2.153297
 20
0.130791
 30
0.000000
  0
VERTEX
  8
LAYER-1
 10
2.152429
 20
0.135132
 30
0.000000
  0
VERTEX
  8
LAYER-1
 10
2.148088
 20
0.137737
 30
0.000000
  0
SEQEND
  8
LAYER-1
  0
POLYLINE
  8
LAYER-1
 66
  1
 70
  0
 62
  0
 10
2.207116
 20
0.143812
 30
0.000000
  0
VERTEX
  8
LAYER-1
 10
2.207116
 20
0.143812
 30
0.000000
  0
VERTEX
  8
LAYER-1
 10
2.202775
 20
0.143812
 30
0.000000
  0
VERTEX
  8
LAYER-1
 10
2.199304
 20
0.139470
 30
0.000000
  0
VERTEX
  8
LAYER-1
 10
2.198436
 20
0.134263
 30
0.000000
  0
VERTEX
  8
LAYER-1
 10
2.200172
 20
0.129922
 30
0.000000
  0
VERTEX
  8
LAYER-1
 10
2.204512
 20
0.128187
 30
0.000000
  0
VERTEX
  8
LAYER-1
 10
2.208852
 20
0.128187
 30
0.000000
  0
VERTEX
  8
LAYER-1
 10
2.213193
 20
0.131658
 30
0.000000
  0
VERTEX
  8
LAYER-1
 10
2.213193
 20
0.135999
 30
0.000000
  0
VERTEX
  8
LAYER-1
 10
2.212325
 20
0.140339
 30
0.000000
  0
VERTEX
  8
LAYER-1
 10
2.207984
 20
0.142944
 30
0.000000
  0
SEQEND
  8
LAYER-1
  0
POLYLINE
  8
LAYER-1
 66
  1
 70
  0
 62
  0
 10
0.863366
 20
0.130790
 30
0.000000
  0
VERTEX
  8
LAYER-1
 10
0.863366
 20
0.130790
 30
0.000000
  0
VERTEX
  8
LAYER-1
 10
0.859025
 20
0.130790
 30
0.000000
  0
VERTEX
  8
LAYER-1
 10
0.855553
 20
0.126450
 30
0.000000
  0
VERTEX
  8
LAYER-1
 10
0.854685
 20
0.121241
 30
0.000000
  0
VERTEX
  8
LAYER-1
 10
0.856421
 20
0.116901
 30
0.000000
  0
VERTEX
  8
LAYER-1
 10
0.860762
 20
0.115165
 30
0.000000
  0
VERTEX
  8
LAYER-1
 10
0.865102
 20
0.115165
 30
0.000000
  0
VERTEX
  8
LAYER-1
 10
0.869442
 20
0.118637
 30
0.000000
  0
VERTEX
  8
LAYER-1
 10
0.869442
 20
0.122977
 30
0.000000
  0
VERTEX
  8
LAYER-1
 10
0.868574
 20
0.127318
 30
0.000000
  0
VERTEX
  8
LAYER-1
 10
0.864234
 20
0.129923
 30
0.000000
  0
SEQEND
  8
LAYER-1
  0
POLYLINE
  8
LAYER-1
 66
  1
 70
  1
 62
  0
 10
2.514407
 20
0.170720
 30
0.000000
  0
VERTEX
  8
LAYER-1
 10
2.514407
 20
0.170720
 30
0.000000
  0
VERTEX
  8
LAYER-1
 10
2.521352
 20
0.144679
 30
0.000000
  0
VERTEX
  8
LAYER-1
 10
2.546525
 20
0.158568
 30
0.000000
  0
SEQEND
  8
LAYER-1
  0
POLYLINE
  8
LAYER-1
 66
  1
 70
  1
 62
  0
 10
2.676734
 20
0.199366
 30
0.000000
  0
VERTEX
  8
LAYER-1
 10
2.676734
 20
0.199366
 30
0.000000
  0
VERTEX
  8
LAYER-1
 10
2.663713
 20
0.176797
 30
0.000000
  0
VERTEX
  8
LAYER-1
 10
2.694095
 20
0.197630
 30
0.000000
  0
SEQEND
  8
LAYER-1
  0
POLYLINE
  8
LAYER-1
 66
  1
 70
  1
 62
  0
 10
1.352949
 20
0.150321
 30
0.000000
  0
VERTEX
  8
LAYER-1
 10
1.352949
 20
0.150321
 30
0.000000
  0
VERTEX
  8
LAYER-1
 10
1.336456
 20
0.125147
 30
0.000000
  0
VERTEX
  8
LAYER-1
 10
1.351213
 20
0.117334
 30
0.000000
  0
SEQEND
  8
LAYER-1
  0
POLYLINE
  8
LAYER-1
 66
  1
 70
  0
 62
  0
 10
2.464929
 20
0.201970
 30
0.000000
  0
VERTEX
  8
LAYER-1
 10
2.464929
 20
0.201970
 30
0.000000
  0
VERTEX
  8
LAYER-1
 10
2.460588
 20
0.201970
 30
0.000000
  0
VERTEX
  8
LAYER-1
 10
2.457116
 20
0.197630
 30
0.000000
  0
VERTEX
  8
LAYER-1
 10
2.456247
 20
0.192422
 30
0.000000
  0
VERTEX
  8
LAYER-1
 10
2.457984
 20
0.188082
 30
0.000000
  0
VERTEX
  8
LAYER-1
 10
2.462324
 20
0.186345
 30
0.000000
  0
VERTEX
  8
LAYER-1
 10
2.466664
 20
0.186345
 30
0.000000
  0
VERTEX
  8
LAYER-1
 10
2.471005
 20
0.189818
 30
0.000000
  0
VERTEX
  8
LAYER-1
 10
2.471005
 20
0.194158
 30
0.000000
  0
VERTEX
  8
LAYER-1
 10
2.470136
 20
0.198499
 30
0.000000
  0
VERTEX
  8
LAYER-1
 10
2.465797
 20
0.201102
 30
0.000000
  0
SEQEND
  8
LAYER-1
  0
POLYLINE
  8
LAYER-1
 66
  1
 70
  1
 62
  0
 10
2.502255
 20
0.134262
 30
0.000000
  0
VERTEX
  8
LAYER-1
 10
2.502255
 20
0.134262
 30
0.000000
  0
VERTEX
  8
LAYER-1
 10
2.489234
 20
0.111693
 30
0.000000
  0
VERTEX
  8
LAYER-1
 10
2.519616
 20
0.132525
 30
0.000000
  0
SEQEND
  8
LAYER-1
  0
POLYLINE
  8
LAYER-1
 66
  1
 70
  1
 62
  0
 10
1.061181
 20
0.224633
 30
0.000000
  0
VERTEX
  8
LAYER-1
 10
1.061181
 20
0.224633
 30
0.000000
  0
VERTEX
  8
LAYER-1
 10
1.080546
 20
0.211948
 30
0.000000
  0
VERTEX
  8
LAYER-1
 10
1.086556
 20
0.223297
 30
0.000000
  0
SEQEND
  8
LAYER-1
  0
POLYLINE
  8
LAYER-1
 66
  1
 70
  0
 62
  0
 10
2.616838
 20
0.203707
 30
0.000000
  0
VERTEX
  8
LAYER-1
 10
2.616838
 20
0.203707
 30
0.000000
  0
VERTEX
  8
LAYER-1
 10
2.612497
 20
0.203707
 30
0.000000
  0
VERTEX
  8
LAYER-1
 10
2.609025
 20
0.199365
 30
0.000000
  0
VERTEX
  8
LAYER-1
 10
2.608157
 20
0.194158
 30
0.000000
  0
VERTEX
  8
LAYER-1
 10
2.609893
 20
0.189818
 30
0.000000
  0
VERTEX
  8
LAYER-1
 10
2.614234
 20
0.188082
 30
0.000000
  0
VERTEX
  8
LAYER-1
 10
2.618574
 20
0.188082
 30
0.000000
  0
VERTEX
  8
LAYER-1
 10
2.622914
 20
0.191553
 30
0.000000
  0
VERTEX
  8
LAYER-1
 10
2.622914
 20
0.195894
 30
0.000000
  0
VERTEX
  8
LAYER-1
 10
2.622047
 20
0.200234
 30
0.000000
  0
VERTEX
  8
LAYER-1
 10
2.617706
 20
0.202838
 30
0.000000
  0
SEQEND
  8
LAYER-1
  0
POLYLINE
  8
LAYER-1
 66
  1
 70
  0
 62
  0
 10
1.405033
 20
0.144245
 30
0.000000
  0
VERTEX
  8
LAYER-1
 10
1.405033
 20
0.144245
 30
0.000000
  0
VERTEX
  8
LAYER-1
 10
1.400692
 20
0.144245
 30
0.000000
  0
VERTEX
  8
LAYER-1
 10
1.397220
 20
0.139904
 30
0.000000
  0
VERTEX
  8
LAYER-1
 10
1.396352
 20
0.134696
 30
0.000000
  0
VERTEX
  8
LAYER-1
 10
1.398088
 20
0.130356
 30
0.000000
  0
VERTEX
  8
LAYER-1
 10
1.402428
 20
0.128620
 30
0.000000
  0
VERTEX
  8
LAYER-1
 10
1.406768
 20
0.128620
 30
0.000000
  0
VERTEX
  8
LAYER-1
 10
1.411108
 20
0.132091
 30
0.000000
  0
VERTEX
  8
LAYER-1
 10
1.411108
 20
0.136432
 30
0.000000
  0
VERTEX
  8
LAYER-1
 10
1.410240
 20
0.140773
 30
0.000000
  0
VERTEX
  8
LAYER-1
 10
1.405901
 20
0.143377
 30
0.000000
  0
SEQEND
  8
LAYER-1
  0
POLYLINE
  8
LAYER-1
 66
  1
 70
  0
 62
  0
 10
0.988366
 20
0.120807
 30
0.000000
  0
VERTEX
  8
LAYER-1
 10
0.988366
 20
0.120807
 30
0.000000
  0
VERTEX
  8
LAYER-1
 10
0.984025
 20
0.120807
 30
0.000000
  0
VERTEX
  8
LAYER-1
 10
0.980553
 20
0.116466
 30
0.000000
  0
VERTEX
  8
LAYER-1
 10
0.979685
 20
0.111259
 30
0.000000
  0
VERTEX
  8
LAYER-1
 10
0.981421
 20
0.106918
 30
0.000000
  0
VERTEX
  8
LAYER-1
 10
0.985761
 20
0.105182
 30
0.000000
  0
VERTEX
  8
LAYER-1
 10
0.990102
 20
0.105182
 30
0.000000
  0
VERTEX
  8
LAYER-1
 10
0.994441
 20
0.108654
 30
0.000000
  0
VERTEX
  8
LAYER-1
 10
0.994441
 20
0.112995
 30
0.000000
  0
VERTEX
  8
LAYER-1
 10
0.993573
 20
0.117335
 30
0.000000
  0
VERTEX
  8
LAYER-1
 10
0.989234
 20
0.119939
 30
0.000000
  0
SEQEND
  8
LAYER-1
  0
POLYLINE
  8
LAYER-1
 66
  1
 70
  1
 62
  0
 10
2.956247
 20
0.195026
 30
0.000000
  0
VERTEX
  8
LAYER-1
 10
2.956247
 20
0.195026
 30
0.000000
  0
VERTEX
  8
LAYER-1
 10
2.963192
 20
0.168985
 30
0.000000
  0
VERTEX
  8
LAYER-1
 10
2.988365
 20
0.182872
 30
0.000000
  0
SEQEND
  8
LAYER-1
  0
POLYLINE
  8
LAYER-1
 66
  1
 70
  1
 62
  0
 10
3.118574
 20
0.223673
 30
0.000000
  0
VERTEX
  8
LAYER-1
 10
3.118574
 20
0.223673
 30
0.000000
  0
VERTEX
  8
LAYER-1
 10
3.105553
 20
0.201102
 30
0.000000
  0
VERTEX
  8
LAYER-1
 10
3.135935
 20
0.221935
 30
0.000000
  0
SEQEND
  8
LAYER-1
  0
POLYLINE
  8
LAYER-1
 66
  1
 70
  1
 62
  0
 10
2.346873
 20
0.159437
 30
0.000000
  0
VERTEX
  8
LAYER-1
 10
2.346873
 20
0.159437
 30
0.000000
  0
VERTEX
  8
LAYER-1
 10
2.372046
 20
0.142943
 30
0.000000
  0
VERTEX
  8
LAYER-1
 10
2.379858
 20
0.157700
 30
0.000000
  0
SEQEND
  8
LAYER-1
  0
POLYLINE
  8
LAYER-1
 66
  1
 70
  0
 62
  0
 10
2.917185
 20
0.215860
 30
0.000000
  0
VERTEX
  8
LAYER-1
 10
2.917185
 20
0.215860
 30
0.000000
  0
VERTEX
  8
LAYER-1
 10
2.912844
 20
0.215860
 30
0.000000
  0
VERTEX
  8
LAYER-1
 10
2.909372
 20
0.211520
 30
0.000000
  0
VERTEX
  8
LAYER-1
 10
2.908504
 20
0.206312
 30
0.000000
  0
VERTEX
  8
LAYER-1
 10
2.910240
 20
0.201971
 30
0.000000
  0
VERTEX
  8
LAYER-1
 10
2.914581
 20
0.200235
 30
0.000000
  0
VERTEX
  8
LAYER-1
 10
2.918921
 20
0.200235
 30
0.000000
  0
VERTEX
  8
LAYER-1
 10
2.923261
 20
0.203707
 30
0.000000
  0
VERTEX
  8
LAYER-1
 10
2.923261
 20
0.208048
 30
0.000000
  0
VERTEX
  8
LAYER-1
 10
2.922393
 20
0.212389
 30
0.000000
  0
VERTEX
  8
LAYER-1
 10
2.918053
 20
0.214994
 30
0.000000
  0
SEQEND
  8
LAYER-1
  0
POLYLINE
  8
LAYER-1
 66
  1
 70
  1
 62
  0
 10
2.932811
 20
0.127318
 30
0.000000
  0
VERTEX
  8
LAYER-1
 10
2.932811
 20
0.127318
 30
0.000000
  0
VERTEX
  8
LAYER-1
 10
2.919789
 20
0.104747
 30
0.000000
  0
VERTEX
  8
LAYER-1
 10
2.950172
 20
0.125581
 30
0.000000
  0
SEQEND
  8
LAYER-1
  0
POLYLINE
  8
LAYER-1
 66
  1
 70
  1
 62
  0
 10
3.027261
 20
0.120906
 30
0.000000
  0
VERTEX
  8
LAYER-1
 10
3.027261
 20
0.120906
 30
0.000000
  0
VERTEX
  8
LAYER-1
 10
3.014574
 20
0.101541
 30
0.000000
  0
VERTEX
  8
LAYER-1
 10
3.025925
 20
0.095530
 30
0.000000
  0
SEQEND
  8
LAYER-1
  0
POLYLINE
  8
LAYER-1
 66
  1
 70
  0
 62
  0
 10
3.058678
 20
0.220200
 30
0.000000
  0
VERTEX
  8
LAYER-1
 10
3.058678
 20
0.220200
 30
0.000000
  0
VERTEX
  8
LAYER-1
 10
3.054338
 20
0.220200
 30
0.000000
  0
VERTEX
  8
LAYER-1
 10
3.050865
 20
0.215859
 30
0.000000
  0
VERTEX
  8
LAYER-1
 10
3.049997
 20
0.210652
 30
0.000000
  0
VERTEX
  8
LAYER-1
 10
3.051733
 20
0.206312
 30
0.000000
  0
VERTEX
  8
LAYER-1
 10
3.056074
 20
0.204575
 30
0.000000
  0
VERTEX
  8
LAYER-1
 10
3.060414
 20
0.204575
 30
0.000000
  0
VERTEX
  8
LAYER-1
 10
3.064754
 20
0.208047
 30
0.000000
  0
VERTEX
  8
LAYER-1
 10
3.064754
 20
0.212388
 30
0.000000
  0
VERTEX
  8
LAYER-1
 10
3.063886
 20
0.216728
 30
0.000000
  0
VERTEX
  8
LAYER-1
 10
3.059546
 20
0.219333
 30
0.000000
  0
SEQEND
  8
LAYER-1
  0
POLYLINE
  8
LAYER-1
 66
  1
 70
  0
 62
  0
 10
2.335588
 20
0.212388
 30
0.000000
  0
VERTEX
  8
LAYER-1
 10
2.335588
 20
0.212388
 30
0.000000
  0
VERTEX
  8
LAYER-1
 10
2.335588
 20
0.208047
 30
0.000000
  0
VERTEX
  8
LAYER-1
 10
2.339929
 20
0.204575
 30
0.000000
  0
VERTEX
  8
LAYER-1
 10
2.345137
 20
0.203707
 30
0.000000
  0
VERTEX
  8
LAYER-1
 10
2.349477
 20
0.205443
 30
0.000000
  0
VERTEX
  8
LAYER-1
 10
2.351213
 20
0.209783
 30
0.000000
  0
VERTEX
  8
LAYER-1
 10
2.351213
 20
0.214124
 30
0.000000
  0
VERTEX
  8
LAYER-1
 10
2.347741
 20
0.218464
 30
0.000000
  0
VERTEX
  8
LAYER-1
 10
2.343401
 20
0.218464
 30
0.000000
  0
VERTEX
  8
LAYER-1
 10
2.339060
 20
0.217595
 30
0.000000
  0
VERTEX
  8
LAYER-1
 10
2.336455
 20
0.213255
 30
0.000000
  0
SEQEND
  8
LAYER-1
  0
POLYLINE
  8
LAYER-1
 66
  1
 70
  0
 62
  0
 10
2.898955
 20
0.128184
 30
0.000000
  0
VERTEX
  8
LAYER-1
 10
2.898955
 20
0.128184
 30
0.000000
  0
VERTEX
  8
LAYER-1
 10
2.894614
 20
0.128184
 30
0.000000
  0
VERTEX
  8
LAYER-1
 10
2.891142
 20
0.123844
 30
0.000000
  0
VERTEX
  8
LAYER-1
 10
2.890274
 20
0.118636
 30
0.000000
  0
VERTEX
  8
LAYER-1
 10
2.892010
 20
0.114295
 30
0.000000
  0
VERTEX
  8
LAYER-1
 10
2.896351
 20
0.112559
 30
0.000000
  0
VERTEX
  8
LAYER-1
 10
2.900691
 20
0.112559
 30
0.000000
  0
VERTEX
  8
LAYER-1
 10
2.905031
 20
0.116031
 30
0.000000
  0
VERTEX
  8
LAYER-1
 10
2.905031
 20
0.120372
 30
0.000000
  0
VERTEX
  8
LAYER-1
 10
2.904164
 20
0.124713
 30
0.000000
  0
VERTEX
  8
LAYER-1
 10
2.899823
 20
0.127318
 30
0.000000
  0
SEQEND
  8
LAYER-1
  0
POLYLINE
  8
LAYER-1
 66
  1
 70
  1
 62
  0
 10
2.766144
 20
0.116468
 30
0.000000
  0
VERTEX
  8
LAYER-1
 10
2.766144
 20
0.116468
 30
0.000000
  0
VERTEX
  8
LAYER-1
 10
2.740102
 20
0.109523
 30
0.000000
  0
VERTEX
  8
LAYER-1
 10
2.753991
 20
0.084350
 30
0.000000
  0
SEQEND
  8
LAYER-1
  0
POLYLINE
  8
LAYER-1
 66
  1
 70
  1
 62
  0
 10
1.389409
 20
0.090859
 30
0.000000
  0
VERTEX
  8
LAYER-1
 10
1.389409
 20
0.090859
 30
0.000000
  0
VERTEX
  8
LAYER-1
 10
1.364233
 20
0.107352
 30
0.000000
  0
VERTEX
  8
LAYER-1
 10
1.356421
 20
0.092595
 30
0.000000
  0
SEQEND
  8
LAYER-1
  0
POLYLINE
  8
LAYER-1
 66
  1
 70
  0
 62
  0
 10
2.797394
 20
0.165946
 30
0.000000
  0
VERTEX
  8
LAYER-1
 10
2.797394
 20
0.165946
 30
0.000000
  0
VERTEX
  8
LAYER-1
 10
2.797394
 20
0.170287
 30
0.000000
  0
VERTEX
  8
LAYER-1
 10
2.793054
 20
0.173759
 30
0.000000
  0
VERTEX
  8
LAYER-1
 10
2.787846
 20
0.174627
 30
0.000000
  0
VERTEX
  8
LAYER-1
 10
2.783505
 20
0.172891
 30
0.000000
  0
VERTEX
  8
LAYER-1
 10
2.781769
 20
0.168550
 30
0.000000
  0
VERTEX
  8
LAYER-1
 10
2.781769
 20
0.164210
 30
0.000000
  0
VERTEX
  8
LAYER-1
 10
2.785241
 20
0.159871
 30
0.000000
  0
VERTEX
  8
LAYER-1
 10
2.789582
 20
0.159871
 30
0.000000
  0
VERTEX
  8
LAYER-1
 10
2.793922
 20
0.160738
 30
0.000000
  0
VERTEX
  8
LAYER-1
 10
2.796525
 20
0.165078
 30
0.000000
  0
SEQEND
  8
LAYER-1
  0
POLYLINE
  8
LAYER-1
 66
  1
 70
  1
 62
  0
 10
2.729685
 20
0.128621
 30
0.000000
  0
VERTEX
  8
LAYER-1
 10
2.729685
 20
0.128621
 30
0.000000
  0
VERTEX
  8
LAYER-1
 10
2.707116
 20
0.141641
 30
0.000000
  0
VERTEX
  8
LAYER-1
 10
2.727949
 20
0.111259
 30
0.000000
  0
SEQEND
  8
LAYER-1
  0
POLYLINE
  8
LAYER-1
 66
  1
 70
  1
 62
  0
 10
1.467200
 20
0.110123
 30
0.000000
  0
VERTEX
  8
LAYER-1
 10
1.467200
 20
0.110123
 30
0.000000
  0
VERTEX
  8
LAYER-1
 10
1.447834
 20
0.122810
 30
0.000000
  0
VERTEX
  8
LAYER-1
 10
1.441824
 20
0.111458
 30
0.000000
  0
SEQEND
  8
LAYER-1
  0
POLYLINE
  8
LAYER-1
 66
  1
 70
  0
 62
  0
 10
1.527429
 20
0.098672
 30
0.000000
  0
VERTEX
  8
LAYER-1
 10
1.527429
 20
0.098672
 30
0.000000
  0
VERTEX
  8
LAYER-1
 10
1.527429
 20
0.103012
 30
0.000000
  0
VERTEX
  8
LAYER-1
 10
1.523088
 20
0.106484
 30
0.000000
  0
VERTEX
  8
LAYER-1
 10
1.517881
 20
0.107352
 30
0.000000
  0
VERTEX
  8
LAYER-1
 10
1.513540
 20
0.105616
 30
0.000000
  0
VERTEX
  8
LAYER-1
 10
1.511804
 20
0.101276
 30
0.000000
  0
VERTEX
  8
LAYER-1
 10
1.511804
 20
0.096935
 30
0.000000
  0
VERTEX
  8
LAYER-1
 10
1.515276
 20
0.092595
 30
0.000000
  0
VERTEX
  8
LAYER-1
 10
1.519617
 20
0.092595
 30
0.000000
  0
VERTEX
  8
LAYER-1
 10
1.523957
 20
0.093463
 30
0.000000
  0
VERTEX
  8
LAYER-1
 10
1.526560
 20
0.097804
 30
0.000000
  0
SEQEND
  8
LAYER-1
  0
POLYLINE
  8
LAYER-1
 66
  1
 70
  0
 62
  0
 10
2.647221
 20
0.118203
 30
0.000000
  0
VERTEX
  8
LAYER-1
 10
2.647221
 20
0.118203
 30
0.000000
  0
VERTEX
  8
LAYER-1
 10
2.647221
 20
0.122544
 30
0.000000
  0
VERTEX
  8
LAYER-1
 10
2.642880
 20
0.126016
 30
0.000000
  0
VERTEX
  8
LAYER-1
 10
2.637672
 20
0.126884
 30
0.000000
  0
VERTEX
  8
LAYER-1
 10
2.633332
 20
0.125148
 30
0.000000
  0
VERTEX
  8
LAYER-1
 10
2.631596
 20
0.120808
 30
0.000000
  0
VERTEX
  8
LAYER-1
 10
2.631596
 20
0.116468
 30
0.000000
  0
VERTEX
  8
LAYER-1
 10
2.635068
 20
0.112127
 30
0.000000
  0
VERTEX
  8
LAYER-1
 10
2.639408
 20
0.112127
 30
0.000000
  0
VERTEX
  8
LAYER-1
 10
2.643749
 20
0.112996
 30
0.000000
  0
VERTEX
  8
LAYER-1
 10
2.646352
 20
0.117335
 30
0.000000
  0
SEQEND
  8
LAYER-1
  0
POLYLINE
  8
LAYER-1
 66
  1
 70
  1
 62
  0
 10
2.839928
 20
0.119507
 30
0.000000
  0
VERTEX
  8
LAYER-1
 10
2.839928
 20
0.119507
 30
0.000000
  0
VERTEX
  8
LAYER-1
 10
2.832983
 20
0.145547
 30
0.000000
  0
VERTEX
  8
LAYER-1
 10
2.807810
 20
0.131660
 30
0.000000
  0
SEQEND
  8
LAYER-1
  0
POLYLINE
  8
LAYER-1
 66
  1
 70
  1
 62
  0
 10
2.286977
 20
0.106484
 30
0.000000
  0
VERTEX
  8
LAYER-1
 10
2.286977
 20
0.106484
 30
0.000000
  0
VERTEX
  8
LAYER-1
 10
2.264406
 20
0.119507
 30
0.000000
  0
VERTEX
  8
LAYER-1
 10
2.285239
 20
0.089124
 30
0.000000
  0
SEQEND
  8
LAYER-1
  0
POLYLINE
  8
LAYER-1
 66
  1
 70
  1
 62
  0
 10
3.064755
 20
0.130791
 30
0.000000
  0
VERTEX
  8
LAYER-1
 10
3.064755
 20
0.130791
 30
0.000000
  0
VERTEX
  8
LAYER-1
 10
3.081248
 20
0.155964
 30
0.000000
  0
VERTEX
  8
LAYER-1
 10
3.066491
 20
0.163777
 30
0.000000
  0
SEQEND
  8
LAYER-1
  0
POLYLINE
  8
LAYER-1
 66
  1
 70
  0
 62
  0
 10
3.200171
 20
0.098670
 30
0.000000
  0
VERTEX
  8
LAYER-1
 10
3.200171
 20
0.098670
 30
0.000000
  0
VERTEX
  8
LAYER-1
 10
3.204512
 20
0.098670
 30
0.000000
  0
VERTEX
  8
LAYER-1
 10
3.207984
 20
0.103011
 30
0.000000
  0
VERTEX
  8
LAYER-1
 10
3.208852
 20
0.108219
 30
0.000000
  0
VERTEX
  8
LAYER-1
 10
3.207116
 20
0.112559
 30
0.000000
  0
VERTEX
  8
LAYER-1
 10
3.202775
 20
0.114295
 30
0.000000
  0
VERTEX
  8
LAYER-1
 10
3.198435
 20
0.114295
 30
0.000000
  0
VERTEX
  8
LAYER-1
 10
3.194094
 20
0.110824
 30
0.000000
  0
VERTEX
  8
LAYER-1
 10
3.194094
 20
0.106483
 30
0.000000
  0
VERTEX
  8
LAYER-1
 10
3.194962
 20
0.102142
 30
0.000000
  0
VERTEX
  8
LAYER-1
 10
3.199303
 20
0.099537
 30
0.000000
  0
SEQEND
  8
LAYER-1
  0
POLYLINE
  8
LAYER-1
 66
  1
 70
  1
 62
  0
 10
2.852080
 20
0.155964
 30
0.000000
  0
VERTEX
  8
LAYER-1
 10
2.852080
 20
0.155964
 30
0.000000
  0
VERTEX
  8
LAYER-1
 10
2.865101
 20
0.178535
 30
0.000000
  0
VERTEX
  8
LAYER-1
 10
2.834719
 20
0.157702
 30
0.000000
  0
SEQEND
  8
LAYER-1
  0
POLYLINE
  8
LAYER-1
 66
  1
 70
  1
 62
  0
 10
3.105720
 20
0.106820
 30
0.000000
  0
VERTEX
  8
LAYER-1
 10
3.105720
 20
0.106820
 30
0.000000
  0
VERTEX
  8
LAYER-1
 10
3.118407
 20
0.126184
 30
0.000000
  0
VERTEX
  8
LAYER-1
 10
3.107056
 20
0.132195
 30
0.000000
  0
SEQEND
  8
LAYER-1
  0
POLYLINE
  8
LAYER-1
 66
  1
 70
  0
 62
  0
 10
2.426733
 20
0.166382
 30
0.000000
  0
VERTEX
  8
LAYER-1
 10
2.426733
 20
0.166382
 30
0.000000
  0
VERTEX
  8
LAYER-1
 10
2.426733
 20
0.170720
 30
0.000000
  0
VERTEX
  8
LAYER-1
 10
2.422392
 20
0.174194
 30
0.000000
  0
VERTEX
  8
LAYER-1
 10
2.417184
 20
0.175062
 30
0.000000
  0
VERTEX
  8
LAYER-1
 10
2.412843
 20
0.173325
 30
0.000000
  0
VERTEX
  8
LAYER-1
 10
2.411108
 20
0.168984
 30
0.000000
  0
VERTEX
  8
LAYER-1
 10
2.411108
 20
0.164644
 30
0.000000
  0
VERTEX
  8
LAYER-1
 10
2.414579
 20
0.160305
 30
0.000000
  0
VERTEX
  8
LAYER-1
 10
2.418920
 20
0.160305
 30
0.000000
  0
VERTEX
  8
LAYER-1
 10
2.423261
 20
0.161172
 30
0.000000
  0
VERTEX
  8
LAYER-1
 10
2.425866
 20
0.165513
 30
0.000000
  0
SEQEND
  8
LAYER-1
  0
POLYLINE
  8
LAYER-1
 66
  1
 70
  0
 62
  0
 10
3.012672
 20
0.136868
 30
0.000000
  0
VERTEX
  8
LAYER-1
 10
3.012672
 20
0.136868
 30
0.000000
  0
VERTEX
  8
LAYER-1
 10
3.017012
 20
0.136868
 30
0.000000
  0
VERTEX
  8
LAYER-1
 10
3.020484
 20
0.141208
 30
0.000000
  0
VERTEX
  8
LAYER-1
 10
3.021352
 20
0.146416
 30
0.000000
  0
VERTEX
  8
LAYER-1
 10
3.019616
 20
0.150757
 30
0.000000
  0
VERTEX
  8
LAYER-1
 10
3.015275
 20
0.152493
 30
0.000000
  0
VERTEX
  8
LAYER-1
 10
3.010936
 20
0.152493
 30
0.000000
  0
VERTEX
  8
LAYER-1
 10
3.006595
 20
0.149021
 30
0.000000
  0
VERTEX
  8
LAYER-1
 10
3.006595
 20
0.144680
 30
0.000000
  0
VERTEX
  8
LAYER-1
 10
3.007463
 20
0.140339
 30
0.000000
  0
VERTEX
  8
LAYER-1
 10
3.011804
 20
0.137734
 30
0.000000
  0
SEQEND
  8
LAYER-1
  0
POLYLINE
  8
LAYER-1
 66
  1
 70
  0
 62
  0
 10
3.176734
 20
0.144680
 30
0.000000
  0
VERTEX
  8
LAYER-1
 10
3.176734
 20
0.144680
 30
0.000000
  0
VERTEX
  8
LAYER-1
 10
3.181075
 20
0.144680
 30
0.000000
  0
VERTEX
  8
LAYER-1
 10
3.184547
 20
0.149021
 30
0.000000
  0
VERTEX
  8
LAYER-1
 10
3.185415
 20
0.154228
 30
0.000000
  0
VERTEX
  8
LAYER-1
 10
3.183679
 20
0.158569
 30
0.000000
  0
VERTEX
  8
LAYER-1
 10
3.179338
 20
0.160305
 30
0.000000
  0
VERTEX
  8
LAYER-1
 10
3.174998
 20
0.160305
 30
0.000000
  0
VERTEX
  8
LAYER-1
 10
3.170657
 20
0.156833
 30
0.000000
  0
VERTEX
  8
LAYER-1
 10
3.170657
 20
0.152493
 30
0.000000
  0
VERTEX
  8
LAYER-1
 10
3.171525
 20
0.148152
 30
0.000000
  0
VERTEX
  8
LAYER-1
 10
3.175866
 20
0.145547
 30
0.000000
  0
SEQEND
  8
LAYER-1
  0
POLYLINE
  8
LAYER-1
 66
  1
 70
  1
 62
  0
 10
3.583853
 20
0.142944
 30
0.000000
  0
VERTEX
  8
LAYER-1
 10
3.583853
 20
0.142944
 30
0.000000
  0
VERTEX
  8
LAYER-1
 10
3.590797
 20
0.116903
 30
0.000000
  0
VERTEX
  8
LAYER-1
 10
3.615970
 20
0.130791
 30
0.000000
  0
SEQEND
  8
LAYER-1
  0
POLYLINE
  8
LAYER-1
 66
  1
 70
  1
 62
  0
 10
3.750085
 20
0.096937
 30
0.000000
  0
VERTEX
  8
LAYER-1
 10
3.750085
 20
0.096937
 30
0.000000
  0
VERTEX
  8
LAYER-1
 10
3.737064
 20
0.074368
 30
0.000000
  0
VERTEX
  8
LAYER-1
 10
3.767447
 20
0.095200
 30
0.000000
  0
SEQEND
  8
LAYER-1
  0
POLYLINE
  8
LAYER-1
 66
  1
 70
  1
 62
  0
 10
3.635067
 20
0.187212
 30
0.000000
  0
VERTEX
  8
LAYER-1
 10
3.635067
 20
0.187212
 30
0.000000
  0
VERTEX
  8
LAYER-1
 10
3.618575
 20
0.162037
 30
0.000000
  0
VERTEX
  8
LAYER-1
 10
3.633331
 20
0.154225
 30
0.000000
  0
SEQEND
  8
LAYER-1
  0
POLYLINE
  8
LAYER-1
 66
  1
 70
  0
 62
  0
 10
3.549998
 20
0.174194
 30
0.000000
  0
VERTEX
  8
LAYER-1
 10
3.549998
 20
0.174194
 30
0.000000
  0
VERTEX
  8
LAYER-1
 10
3.545657
 20
0.174194
 30
0.000000
  0
VERTEX
  8
LAYER-1
 10
3.542185
 20
0.169853
 30
0.000000
  0
VERTEX
  8
LAYER-1
 10
3.541316
 20
0.164646
 30
0.000000
  0
VERTEX
  8
LAYER-1
 10
3.543053
 20
0.160305
 30
0.000000
  0
VERTEX
  8
LAYER-1
 10
3.547393
 20
0.158569
 30
0.000000
  0
VERTEX
  8
LAYER-1
 10
3.551733
 20
0.158569
 30
0.000000
  0
VERTEX
  8
LAYER-1
 10
3.556074
 20
0.162041
 30
0.000000
  0
VERTEX
  8
LAYER-1
 10
3.556074
 20
0.166382
 30
0.000000
  0
VERTEX
  8
LAYER-1
 10
3.555206
 20
0.170722
 30
0.000000
  0
VERTEX
  8
LAYER-1
 10
3.550865
 20
0.173326
 30
0.000000
  0
SEQEND
  8
LAYER-1
  0
POLYLINE
  8
LAYER-1
 66
  1
 70
  1
 62
  0
 10
3.533504
 20
0.114296
 30
0.000000
  0
VERTEX
  8
LAYER-1
 10
3.533504
 20
0.114296
 30
0.000000
  0
VERTEX
  8
LAYER-1
 10
3.520484
 20
0.091727
 30
0.000000
  0
VERTEX
  8
LAYER-1
 10
3.550865
 20
0.112559
 30
0.000000
  0
SEQEND
  8
LAYER-1
  0
POLYLINE
  8
LAYER-1
 66
  1
 70
  1
 62
  0
 10
3.588960
 20
0.212650
 30
0.000000
  0
VERTEX
  8
LAYER-1
 10
3.588960
 20
0.212650
 30
0.000000
  0
VERTEX
  8
LAYER-1
 10
3.608325
 20
0.199962
 30
0.000000
  0
VERTEX
  8
LAYER-1
 10
3.614335
 20
0.211314
 30
0.000000
  0
SEQEND
  8
LAYER-1
  0
POLYLINE
  8
LAYER-1
 66
  1
 70
  0
 62
  0
 10
3.473607
 20
0.163899
 30
0.000000
  0
VERTEX
  8
LAYER-1
 10
3.473607
 20
0.163899
 30
0.000000
  0
VERTEX
  8
LAYER-1
 10
3.469268
 20
0.163899
 30
0.000000
  0
VERTEX
  8
LAYER-1
 10
3.465794
 20
0.159559
 30
0.000000
  0
VERTEX
  8
LAYER-1
 10
3.464928
 20
0.154350
 30
0.000000
  0
VERTEX
  8
LAYER-1
 10
3.466663
 20
0.150010
 30
0.000000
  0
VERTEX
  8
LAYER-1
 10
3.471003
 20
0.148274
 30
0.000000
  0
VERTEX
  8
LAYER-1
 10
3.475344
 20
0.148274
 30
0.000000
  0
VERTEX
  8
LAYER-1
 10
3.479684
 20
0.151746
 30
0.000000
  0
VERTEX
  8
LAYER-1
 10
3.479684
 20
0.156086
 30
0.000000
  0
VERTEX
  8
LAYER-1
 10
3.478816
 20
0.160428
 30
0.000000
  0
VERTEX
  8
LAYER-1
 10
3.474476
 20
0.163031
 30
0.000000
  0
SEQEND
  8
LAYER-1
  0
POLYLINE
  8
LAYER-1
 66
  1
 70
  0
 62
  0
 10
3.850347
 20
0.135995
 30
0.000000
  0
VERTEX
  8
LAYER-1
 10
3.850347
 20
0.135995
 30
0.000000
  0
VERTEX
  8
LAYER-1
 10
3.846007
 20
0.135995
 30
0.000000
  0
VERTEX
  8
LAYER-1
 10
3.842535
 20
0.131655
 30
0.000000
  0
VERTEX
  8
LAYER-1
 10
3.841667
 20
0.126446
 30
0.000000
  0
VERTEX
  8
LAYER-1
 10
3.843402
 20
0.122106
 30
0.000000
  0
VERTEX
  8
LAYER-1
 10
3.847743
 20
0.120370
 30
0.000000
  0
VERTEX
  8
LAYER-1
 10
3.852083
 20
0.120370
 30
0.000000
  0
VERTEX
  8
LAYER-1
 10
3.856424
 20
0.123842
 30
0.000000
  0
VERTEX
  8
LAYER-1
 10
3.856424
 20
0.128182
 30
0.000000
  0
VERTEX
  8
LAYER-1
 10
3.855556
 20
0.132523
 30
0.000000
  0
VERTEX
  8
LAYER-1
 10
3.851215
 20
0.135127
 30
0.000000
  0
SEQEND
  8
LAYER-1
  0
POLYLINE
  8
LAYER-1
 66
  1
 70
  0
 62
  0
 10
3.582116
 20
0.107352
 30
0.000000
  0
VERTEX
  8
LAYER-1
 10
3.582116
 20
0.107352
 30
0.000000
  0
VERTEX
  8
LAYER-1
 10
3.577777
 20
0.107352
 30
0.000000
  0
VERTEX
  8
LAYER-1
 10
3.574304
 20
0.103011
 30
0.000000
  0
VERTEX
  8
LAYER-1
 10
3.573436
 20
0.097803
 30
0.000000
  0
VERTEX
  8
LAYER-1
 10
3.575172
 20
0.093463
 30
0.000000
  0
VERTEX
  8
LAYER-1
 10
3.579513
 20
0.091727
 30
0.000000
  0
VERTEX
  8
LAYER-1
 10
3.583852
 20
0.091727
 30
0.000000
  0
VERTEX
  8
LAYER-1
 10
3.588193
 20
0.095199
 30
0.000000
  0
VERTEX
  8
LAYER-1
 10
3.588193
 20
0.099539
 30
0.000000
  0
VERTEX
  8
LAYER-1
 10
3.587325
 20
0.103880
 30
0.000000
  0
VERTEX
  8
LAYER-1
 10
3.582985
 20
0.106483
 30
0.000000
  0
SEQEND
  8
LAYER-1
  0
POLYLINE
  8
LAYER-1
 66
  1
 70
  1
 62
  0
 10
3.380293
 20
0.166815
 30
0.000000
  0
VERTEX
  8
LAYER-1
 10
3.380293
 20
0.166815
 30
0.000000
  0
VERTEX
  8
LAYER-1
 10
3.354252
 20
0.159871
 30
0.000000
  0
VERTEX
  8
LAYER-1
 10
3.368139
 20
0.134697
 30
0.000000
  0
SEQEND
  8
LAYER-1
  0
POLYLINE
  8
LAYER-1
 66
  1
 70
  1
 62
  0
 10
3.287412
 20
0.115600
 30
0.000000
  0
VERTEX
  8
LAYER-1
 10
3.287412
 20
0.115600
 30
0.000000
  0
VERTEX
  8
LAYER-1
 10
3.264841
 20
0.128621
 30
0.000000
  0
VERTEX
  8
LAYER-1
 10
3.285674
 20
0.098239
 30
0.000000
  0
SEQEND
  8
LAYER-1
  0
POLYLINE
  8
LAYER-1
 66
  1
 70
  1
 62
  0
 10
3.250952
 20
0.160736
 30
0.000000
  0
VERTEX
  8
LAYER-1
 10
3.250952
 20
0.160736
 30
0.000000
  0
VERTEX
  8
LAYER-1
 10
3.225779
 20
0.177228
 30
0.000000
  0
VERTEX
  8
LAYER-1
 10
3.217966
 20
0.162471
 30
0.000000
  0
SEQEND
  8
LAYER-1
  0
POLYLINE
  8
LAYER-1
 66
  1
 70
  0
 62
  0
 10
3.411543
 20
0.216294
 30
0.000000
  0
VERTEX
  8
LAYER-1
 10
3.411543
 20
0.216294
 30
0.000000
  0
VERTEX
  8
LAYER-1
 10
3.411543
 20
0.220634
 30
0.000000
  0
VERTEX
  8
LAYER-1
 10
3.407202
 20
0.224107
 30
0.000000
  0
VERTEX
  8
LAYER-1
 10
3.401994
 20
0.224975
 30
0.000000
  0
VERTEX
  8
LAYER-1
 10
3.397653
 20
0.223239
 30
0.000000
  0
VERTEX
  8
LAYER-1
 10
3.395918
 20
0.218898
 30
0.000000
  0
VERTEX
  8
LAYER-1
 10
3.395918
 20
0.214558
 30
0.000000
  0
VERTEX
  8
LAYER-1
 10
3.399389
 20
0.210218
 30
0.000000
  0
VERTEX
  8
LAYER-1
 10
3.403730
 20
0.210218
 30
0.000000
  0
VERTEX
  8
LAYER-1
 10
3.408071
 20
0.211085
 30
0.000000
  0
VERTEX
  8
LAYER-1
 10
3.410675
 20
0.215426
 30
0.000000
  0
SEQEND
  8
LAYER-1
  0
POLYLINE
  8
LAYER-1
 66
  1
 70
  1
 62
  0
 10
3.343835
 20
0.178968
 30
0.000000
  0
VERTEX
  8
LAYER-1
 10
3.343835
 20
0.178968
 30
0.000000
  0
VERTEX
  8
LAYER-1
 10
3.321264
 20
0.191989
 30
0.000000
  0
VERTEX
  8
LAYER-1
 10
3.342097
 20
0.161607
 30
0.000000
  0
SEQEND
  8
LAYER-1
  0
POLYLINE
  8
LAYER-1
 66
  1
 70
  1
 62
  0
 10
3.295489
 20
0.186009
 30
0.000000
  0
VERTEX
  8
LAYER-1
 10
3.295489
 20
0.186009
 30
0.000000
  0
VERTEX
  8
LAYER-1
 10
3.282802
 20
0.166645
 30
0.000000
  0
VERTEX
  8
LAYER-1
 10
3.294153
 20
0.160634
 30
0.000000
  0
SEQEND
  8
LAYER-1
  0
POLYLINE
  8
LAYER-1
 66
  1
 70
  0
 62
  0
 10
3.413278
 20
0.088689
 30
0.000000
  0
VERTEX
  8
LAYER-1
 10
3.413278
 20
0.088689
 30
0.000000
  0
VERTEX
  8
LAYER-1
 10
3.413278
 20
0.093029
 30
0.000000
  0
VERTEX
  8
LAYER-1
 10
3.408938
 20
0.096502
 30
0.000000
  0
VERTEX
  8
LAYER-1
 10
3.403730
 20
0.097370
 30
0.000000
  0
VERTEX
  8
LAYER-1
 10
3.399389
 20
0.095634
 30
0.000000
  0
VERTEX
  8
LAYER-1
 10
3.397653
 20
0.091293
 30
0.000000
  0
VERTEX
  8
LAYER-1
 10
3.397653
 20
0.086952
 30
0.000000
  0
VERTEX
  8
LAYER-1
 10
3.401125
 20
0.082613
 30
0.000000
  0
VERTEX
  8
LAYER-1
 10
3.405466
 20
0.082613
 30
0.000000
  0
VERTEX
  8
LAYER-1
 10
3.409807
 20
0.083481
 30
0.000000
  0
VERTEX
  8
LAYER-1
 10
3.412412
 20
0.087821
 30
0.000000
  0
SEQEND
  8
LAYER-1
  0
POLYLINE
  8
LAYER-1
 66
  1
 70
  0
 62
  0
 10
3.331681
 20
0.089557
 30
0.000000
  0
VERTEX
  8
LAYER-1
 10
3.331681
 20
0.089557
 30
0.000000
  0
VERTEX
  8
LAYER-1
 10
3.331681
 20
0.093898
 30
0.000000
  0
VERTEX
  8
LAYER-1
 10
3.327340
 20
0.097370
 30
0.000000
  0
VERTEX
  8
LAYER-1
 10
3.322133
 20
0.098238
 30
0.000000
  0
VERTEX
  8
LAYER-1
 10
3.317792
 20
0.096502
 30
0.000000
  0
VERTEX
  8
LAYER-1
 10
3.316056
 20
0.092161
 30
0.000000
  0
VERTEX
  8
LAYER-1
 10
3.316056
 20
0.087821
 30
0.000000
  0
VERTEX
  8
LAYER-1
 10
3.319528
 20
0.083481
 30
0.000000
  0
VERTEX
  8
LAYER-1
 10
3.323869
 20
0.083481
 30
0.000000
  0
VERTEX
  8
LAYER-1
 10
3.328209
 20
0.084349
 30
0.000000
  0
VERTEX
  8
LAYER-1
 10
3.330814
 20
0.088689
 30
0.000000
  0
SEQEND
  8
LAYER-1
  0
POLYLINE
  8
LAYER-1
 66
  1
 70
  0
 62
  0
 10
3.261369
 20
0.199800
 30
0.000000
  0
VERTEX
  8
LAYER-1
 10
3.261369
 20
0.199800
 30
0.000000
  0
VERTEX
  8
LAYER-1
 10
3.261369
 20
0.204141
 30
0.000000
  0
VERTEX
  8
LAYER-1
 10
3.257028
 20
0.207613
 30
0.000000
  0
VERTEX
  8
LAYER-1
 10
3.251821
 20
0.208481
 30
0.000000
  0
VERTEX
  8
LAYER-1
 10
3.247480
 20
0.206745
 30
0.000000
  0
VERTEX
  8
LAYER-1
 10
3.245744
 20
0.202404
 30
0.000000
  0
VERTEX
  8
LAYER-1
 10
3.245744
 20
0.198064
 30
0.000000
  0
VERTEX
  8
LAYER-1
 10
3.249216
 20
0.193724
 30
0.000000
  0
VERTEX
  8
LAYER-1
 10
3.253557
 20
0.193724
 30
0.000000
  0
VERTEX
  8
LAYER-1
 10
3.257897
 20
0.194591
 30
0.000000
  0
VERTEX
  8
LAYER-1
 10
3.260502
 20
0.198932
 30
0.000000
  0
SEQEND
  8
LAYER-1
  0
POLYLINE
  8
LAYER-1
 66
  1
 70
  1
 62
  0
 10
4.043922
 20
0.189384
 30
0.000000
  0
VERTEX
  8
LAYER-1
 10
4.043922
 20
0.189384
 30
0.000000
  0
VERTEX
  8
LAYER-1
 10
4.050866
 20
0.163344
 30
0.000000
  0
VERTEX
  8
LAYER-1
 10
4.076040
 20
0.177232
 30
0.000000
  0
SEQEND
  8
LAYER-1
  0
POLYLINE
  8
LAYER-1
 66
  1
 70
  1
 62
  0
 10
4.206248
 20
0.218031
 30
0.000000
  0
VERTEX
  8
LAYER-1
 10
4.206248
 20
0.218031
 30
0.000000
  0
VERTEX
  8
LAYER-1
 10
4.193227
 20
0.195462
 30
0.000000
  0
VERTEX
  8
LAYER-1
 10
4.223610
 20
0.216294
 30
0.000000
  0
SEQEND
  8
LAYER-1
  0
POLYLINE
  8
LAYER-1
 66
  1
 70
  1
 62
  0
 10
4.185415
 20
0.132959
 30
0.000000
  0
VERTEX
  8
LAYER-1
 10
4.185415
 20
0.132959
 30
0.000000
  0
VERTEX
  8
LAYER-1
 10
4.168922
 20
0.107785
 30
0.000000
  0
VERTEX
  8
LAYER-1
 10
4.183679
 20
0.099972
 30
0.000000
  0
SEQEND
  8
LAYER-1
  0
POLYLINE
  8
LAYER-1
 66
  1
 70
  0
 62
  0
 10
3.994443
 20
0.220634
 30
0.000000
  0
VERTEX
  8
LAYER-1
 10
3.994443
 20
0.220634
 30
0.000000
  0
VERTEX
  8
LAYER-1
 10
3.990102
 20
0.220634
 30
0.000000
  0
VERTEX
  8
LAYER-1
 10
3.986630
 20
0.216294
 30
0.000000
  0
VERTEX
  8
LAYER-1
 10
3.985763
 20
0.211087
 30
0.000000
  0
VERTEX
  8
LAYER-1
 10
3.987498
 20
0.206746
 30
0.000000
  0
VERTEX
  8
LAYER-1
 10
3.991839
 20
0.205009
 30
0.000000
  0
VERTEX
  8
LAYER-1
 10
3.996179
 20
0.205009
 30
0.000000
  0
VERTEX
  8
LAYER-1
 10
4.000520
 20
0.208482
 30
0.000000
  0
VERTEX
  8
LAYER-1
 10
4.000520
 20
0.212822
 30
0.000000
  0
VERTEX
  8
LAYER-1
 10
3.999652
 20
0.217163
 30
0.000000
  0
VERTEX
  8
LAYER-1
 10
3.995311
 20
0.219766
 30
0.000000
  0
SEQEND
  8
LAYER-1
  0
POLYLINE
  8
LAYER-1
 66
  1
 70
  1
 62
  0
 10
4.015709
 20
0.152490
 30
0.000000
  0
VERTEX
  8
LAYER-1
 10
4.015709
 20
0.152490
 30
0.000000
  0
VERTEX
  8
LAYER-1
 10
4.038279
 20
0.139470
 30
0.000000
  0
VERTEX
  8
LAYER-1
 10
4.017446
 20
0.169852
 30
0.000000
  0
SEQEND
  8
LAYER-1
  0
POLYLINE
  8
LAYER-1
 66
  1
 70
  1
 62
  0
 10
4.132363
 20
0.144511
 30
0.000000
  0
VERTEX
  8
LAYER-1
 10
4.132363
 20
0.144511
 30
0.000000
  0
VERTEX
  8
LAYER-1
 10
4.151728
 20
0.131823
 30
0.000000
  0
VERTEX
  8
LAYER-1
 10
4.157739
 20
0.143175
 30
0.000000
  0
SEQEND
  8
LAYER-1
  0
POLYLINE
  8
LAYER-1
 66
  1
 70
  0
 62
  0
 10
4.146352
 20
0.222371
 30
0.000000
  0
VERTEX
  8
LAYER-1
 10
4.146352
 20
0.222371
 30
0.000000
  0
VERTEX
  8
LAYER-1
 10
4.142013
 20
0.222371
 30
0.000000
  0
VERTEX
  8
LAYER-1
 10
4.138540
 20
0.218030
 30
0.000000
  0
VERTEX
  8
LAYER-1
 10
4.137672
 20
0.212822
 30
0.000000
  0
VERTEX
  8
LAYER-1
 10
4.139408
 20
0.208482
 30
0.000000
  0
VERTEX
  8
LAYER-1
 10
4.143748
 20
0.206746
 30
0.000000
  0
VERTEX
  8
LAYER-1
 10
4.148089
 20
0.206746
 30
0.000000
  0
VERTEX
  8
LAYER-1
 10
4.152429
 20
0.210218
 30
0.000000
  0
VERTEX
  8
LAYER-1
 10
4.152429
 20
0.214558
 30
0.000000
  0
VERTEX
  8
LAYER-1
 10
4.151561
 20
0.218899
 30
0.000000
  0
VERTEX
  8
LAYER-1
 10
4.147220
 20
0.221503
 30
0.000000
  0
SEQEND
  8
LAYER-1
  0
POLYLINE
  8
LAYER-1
 66
  1
 70
  0
 62
  0
 10
4.230554
 20
0.095633
 30
0.000000
  0
VERTEX
  8
LAYER-1
 10
4.230554
 20
0.095633
 30
0.000000
  0
VERTEX
  8
LAYER-1
 10
4.226214
 20
0.095633
 30
0.000000
  0
VERTEX
  8
LAYER-1
 10
4.222742
 20
0.091292
 30
0.000000
  0
VERTEX
  8
LAYER-1
 10
4.221874
 20
0.086084
 30
0.000000
  0
VERTEX
  8
LAYER-1
 10
4.223610
 20
0.081744
 30
0.000000
  0
VERTEX
  8
LAYER-1
 10
4.227949
 20
0.080008
 30
0.000000
  0
VERTEX
  8
LAYER-1
 10
4.232290
 20
0.080008
 30
0.000000
  0
VERTEX
  8
LAYER-1
 10
4.236631
 20
0.083480
 30
0.000000
  0
VERTEX
  8
LAYER-1
 10
4.236631
 20
0.087820
 30
0.000000
  0
VERTEX
  8
LAYER-1
 10
4.235762
 20
0.092161
 30
0.000000
  0
VERTEX
  8
LAYER-1
 10
4.231422
 20
0.094765
 30
0.000000
  0
SEQEND
  8
LAYER-1
  0
POLYLINE
  8
LAYER-1
 66
  1
 70
  0
 62
  0
 10
4.076909
 20
0.150319
 30
0.000000
  0
VERTEX
  8
LAYER-1
 10
4.076909
 20
0.150319
 30
0.000000
  0
VERTEX
  8
LAYER-1
 10
4.072568
 20
0.150319
 30
0.000000
  0
VERTEX
  8
LAYER-1
 10
4.069096
 20
0.145977
 30
0.000000
  0
VERTEX
  8
LAYER-1
 10
4.068228
 20
0.140770
 30
0.000000
  0
VERTEX
  8
LAYER-1
 10
4.069964
 20
0.136430
 30
0.000000
  0
VERTEX
  8
LAYER-1
 10
4.074304
 20
0.134694
 30
0.000000
  0
VERTEX
  8
LAYER-1
 10
4.078645
 20
0.134694
 30
0.000000
  0
VERTEX
  8
LAYER-1
 10
4.082985
 20
0.138165
 30
0.000000
  0
VERTEX
  8
LAYER-1
 10
4.082985
 20
0.142506
 30
0.000000
  0
VERTEX
  8
LAYER-1
 10
4.082116
 20
0.146846
 30
0.000000
  0
VERTEX
  8
LAYER-1
 10
4.077777
 20
0.149451
 30
0.000000
  0
SEQEND
  8
LAYER-1
  0
POLYLINE
  8
LAYER-1
 66
  1
 70
  1
 62
  0
 10
3.911979
 20
0.159000
 30
0.000000
  0
VERTEX
  8
LAYER-1
 10
3.911979
 20
0.159000
 30
0.000000
  0
VERTEX
  8
LAYER-1
 10
3.905034
 20
0.185040
 30
0.000000
  0
VERTEX
  8
LAYER-1
 10
3.879860
 20
0.171153
 30
0.000000
  0
SEQEND
  8
LAYER-1
  0
POLYLINE
  8
LAYER-1
 66
  1
 70
  1
 62
  0
 10
3.500953
 20
0.190683
 30
0.000000
  0
VERTEX
  8
LAYER-1
 10
3.500953
 20
0.190683
 30
0.000000
  0
VERTEX
  8
LAYER-1
 10
3.513974
 20
0.213253
 30
0.000000
  0
VERTEX
  8
LAYER-1
 10
3.483593
 20
0.192421
 30
0.000000
  0
SEQEND
  8
LAYER-1
  0
POLYLINE
  8
LAYER-1
 66
  1
 70
  1
 62
  0
 10
3.798263
 20
0.184175
 30
0.000000
  0
VERTEX
  8
LAYER-1
 10
3.798263
 20
0.184175
 30
0.000000
  0
VERTEX
  8
LAYER-1
 10
3.814757
 20
0.209349
 30
0.000000
  0
VERTEX
  8
LAYER-1
 10
3.799998
 20
0.217161
 30
0.000000
  0
SEQEND
  8
LAYER-1
  0
POLYLINE
  8
LAYER-1
 66
  1
 70
  0
 62
  0
 10
3.961457
 20
0.127750
 30
0.000000
  0
VERTEX
  8
LAYER-1
 10
3.961457
 20
0.127750
 30
0.000000
  0
VERTEX
  8
LAYER-1
 10
3.965798
 20
0.127750
 30
0.000000
  0
VERTEX
  8
LAYER-1
 10
3.969270
 20
0.132090
 30
0.000000
  0
VERTEX
  8
LAYER-1
 10
3.970139
 20
0.137299
 30
0.000000
  0
VERTEX
  8
LAYER-1
 10
3.968402
 20
0.141639
 30
0.000000
  0
VERTEX
  8
LAYER-1
 10
3.964062
 20
0.143375
 30
0.000000
  0
VERTEX
  8
LAYER-1
 10
3.959721
 20
0.143375
 30
0.000000
  0
VERTEX
  8
LAYER-1
 10
3.955380
 20
0.139903
 30
0.000000
  0
VERTEX
  8
LAYER-1
 10
3.955380
 20
0.135562
 30
0.000000
  0
VERTEX
  8
LAYER-1
 10
3.956249
 20
0.131221
 30
0.000000
  0
VERTEX
  8
LAYER-1
 10
3.960590
 20
0.128617
 30
0.000000
  0
SEQEND
  8
LAYER-1
  0
POLYLINE
  8
LAYER-1
 66
  1
 70
  1
 62
  0
 10
3.915450
 20
0.124279
 30
0.000000
  0
VERTEX
  8
LAYER-1
 10
3.915450
 20
0.124279
 30
0.000000
  0
VERTEX
  8
LAYER-1
 10
3.928471
 20
0.146850
 30
0.000000
  0
VERTEX
  8
LAYER-1
 10
3.898089
 20
0.126016
 30
0.000000
  0
SEQEND
  8
LAYER-1
  0
POLYLINE
  8
LAYER-1
 66
  1
 70
  1
 62
  0
 10
3.860864
 20
0.165680
 30
0.000000
  0
VERTEX
  8
LAYER-1
 10
3.860864
 20
0.165680
 30
0.000000
  0
VERTEX
  8
LAYER-1
 10
3.841499
 20
0.178368
 30
0.000000
  0
VERTEX
  8
LAYER-1
 10
3.835488
 20
0.167016
 30
0.000000
  0
SEQEND
  8
LAYER-1
  0
POLYLINE
  8
LAYER-1
 66
  1
 70
  0
 62
  0
 10
3.837757
 20
0.062336
 30
0.000000
  0
VERTEX
  8
LAYER-1
 10
3.837757
 20
0.062336
 30
0.000000
  0
VERTEX
  8
LAYER-1
 10
3.842098
 20
0.062336
 30
0.000000
  0
VERTEX
  8
LAYER-1
 10
3.845570
 20
0.066676
 30
0.000000
  0
VERTEX
  8
LAYER-1
 10
3.846439
 20
0.071884
 30
0.000000
  0
VERTEX
  8
LAYER-1
 10
3.844702
 20
0.076224
 30
0.000000
  0
VERTEX
  8
LAYER-1
 10
3.840362
 20
0.077961
 30
0.000000
  0
VERTEX
  8
LAYER-1
 10
3.836021
 20
0.077961
 30
0.000000
  0
VERTEX
  8
LAYER-1
 10
3.831680
 20
0.074488
 30
0.000000
  0
VERTEX
  8
LAYER-1
 10
3.831680
 20
0.070148
 30
0.000000
  0
VERTEX
  8
LAYER-1
 10
3.832549
 20
0.065807
 30
0.000000
  0
VERTEX
  8
LAYER-1
 10
3.836890
 20
0.063203
 30
0.000000
  0
SEQEND
  8
LAYER-1
  0
POLYLINE
  8
LAYER-1
 66
  1
 70
  0
 62
  0
 10
3.747915
 20
0.205131
 30
0.000000
  0
VERTEX
  8
LAYER-1
 10
3.747915
 20
0.205131
 30
0.000000
  0
VERTEX
  8
LAYER-1
 10
3.752255
 20
0.205131
 30
0.000000
  0
VERTEX
  8
LAYER-1
 10
3.755727
 20
0.209472
 30
0.000000
  0
VERTEX
  8
LAYER-1
 10
3.756594
 20
0.214679
 30
0.000000
  0
VERTEX
  8
LAYER-1
 10
3.754858
 20
0.219020
 30
0.000000
  0
VERTEX
  8
LAYER-1
 10
3.750518
 20
0.220756
 30
0.000000
  0
VERTEX
  8
LAYER-1
 10
3.746179
 20
0.220756
 30
0.000000
  0
VERTEX
  8
LAYER-1
 10
3.741838
 20
0.217284
 30
0.000000
  0
VERTEX
  8
LAYER-1
 10
3.741838
 20
0.212943
 30
0.000000
  0
VERTEX
  8
LAYER-1
 10
3.742705
 20
0.208603
 30
0.000000
  0
VERTEX
  8
LAYER-1
 10
3.747046
 20
0.205998
 30
0.000000
  0
SEQEND
  8
LAYER-1
  0
POLYLINE
  8
LAYER-1
 66
  1
 70
  0
 62
  0
 10
3.910242
 20
0.198064
 30
0.000000
  0
VERTEX
  8
LAYER-1
 10
3.910242
 20
0.198064
 30
0.000000
  0
VERTEX
  8
LAYER-1
 10
3.914583
 20
0.198064
 30
0.000000
  0
VERTEX
  8
LAYER-1
 10
3.918055
 20
0.202405
 30
0.000000
  0
VERTEX
  8
LAYER-1
 10
3.918922
 20
0.207613
 30
0.000000
  0
VERTEX
  8
LAYER-1
 10
3.917186
 20
0.211953
 30
0.000000
  0
VERTEX
  8
LAYER-1
 10
3.912845
 20
0.213689
 30
0.000000
  0
VERTEX
  8
LAYER-1
 10
3.908507
 20
0.213689
 30
0.000000
  0
VERTEX
  8
LAYER-1
 10
3.904166
 20
0.210218
 30
0.000000
  0
VERTEX
  8
LAYER-1
 10
3.904166
 20
0.205877
 30
0.000000
  0
VERTEX
  8
LAYER-1
 10
3.905033
 20
0.201536
 30
0.000000
  0
VERTEX
  8
LAYER-1
 10
3.909373
 20
0.198931
 30
0.000000
  0
SEQEND
  8
LAYER-1
  0
POLYLINE
  8
LAYER-1
 66
  1
 70
  1
 62
  0
 10
4.666317
 20
0.167250
 30
0.000000
  0
VERTEX
  8
LAYER-1
 10
4.666317
 20
0.167250
 30
0.000000
  0
VERTEX
  8
LAYER-1
 10
4.673261
 20
0.141208
 30
0.000000
  0
VERTEX
  8
LAYER-1
 10
4.698435
 20
0.155096
 30
0.000000
  0
SEQEND
  8
LAYER-1
  0
POLYLINE
  8
LAYER-1
 66
  1
 70
  1
 62
  0
 10
4.793052
 20
0.202840
 30
0.000000
  0
VERTEX
  8
LAYER-1
 10
4.793052
 20
0.202840
 30
0.000000
  0
VERTEX
  8
LAYER-1
 10
4.780032
 20
0.180271
 30
0.000000
  0
VERTEX
  8
LAYER-1
 10
4.810413
 20
0.201103
 30
0.000000
  0
SEQEND
  8
LAYER-1
  0
POLYLINE
  8
LAYER-1
 66
  1
 70
  1
 62
  0
 10
4.468402
 20
0.191556
 30
0.000000
  0
VERTEX
  8
LAYER-1
 10
4.468402
 20
0.191556
 30
0.000000
  0
VERTEX
  8
LAYER-1
 10
4.451909
 20
0.166382
 30
0.000000
  0
VERTEX
  8
LAYER-1
 10
4.466666
 20
0.158569
 30
0.000000
  0
SEQEND
  8
LAYER-1
  0
POLYLINE
  8
LAYER-1
 66
  1
 70
  0
 62
  0
 10
4.578644
 20
0.183745
 30
0.000000
  0
VERTEX
  8
LAYER-1
 10
4.578644
 20
0.183745
 30
0.000000
  0
VERTEX
  8
LAYER-1
 10
4.574303
 20
0.183745
 30
0.000000
  0
VERTEX
  8
LAYER-1
 10
4.570831
 20
0.179404
 30
0.000000
  0
VERTEX
  8
LAYER-1
 10
4.569962
 20
0.174197
 30
0.000000
  0
VERTEX
  8
LAYER-1
 10
4.571698
 20
0.169857
 30
0.000000
  0
VERTEX
  8
LAYER-1
 10
4.576039
 20
0.168120
 30
0.000000
  0
VERTEX
  8
LAYER-1
 10
4.580379
 20
0.168120
 30
0.000000
  0
VERTEX
  8
LAYER-1
 10
4.584719
 20
0.171592
 30
0.000000
  0
VERTEX
  8
LAYER-1
 10
4.584719
 20
0.175933
 30
0.000000
  0
VERTEX
  8
LAYER-1
 10
4.583851
 20
0.180273
 30
0.000000
  0
VERTEX
  8
LAYER-1
 10
4.579511
 20
0.182877
 30
0.000000
  0
SEQEND
  8
LAYER-1
  0
POLYLINE
  8
LAYER-1
 66
  1
 70
  1
 62
  0
 10
4.608158
 20
0.137735
 30
0.000000
  0
VERTEX
  8
LAYER-1
 10
4.608158
 20
0.137735
 30
0.000000
  0
VERTEX
  8
LAYER-1
 10
4.595136
 20
0.115166
 30
0.000000
  0
VERTEX
  8
LAYER-1
 10
4.625519
 20
0.135999
 30
0.000000
  0
SEQEND
  8
LAYER-1
  0
POLYLINE
  8
LAYER-1
 66
  1
 70
  1
 62
  0
 10
4.815455
 20
0.138267
 30
0.000000
  0
VERTEX
  8
LAYER-1
 10
4.815455
 20
0.138267
 30
0.000000
  0
VERTEX
  8
LAYER-1
 10
4.802769
 20
0.118902
 30
0.000000
  0
VERTEX
  8
LAYER-1
 10
4.814120
 20
0.112892
 30
0.000000
  0
SEQEND
  8
LAYER-1
  0
POLYLINE
  8
LAYER-1
 66
  1
 70
  0
 62
  0
 10
4.722739
 20
0.207180
 30
0.000000
  0
VERTEX
  8
LAYER-1
 10
4.722739
 20
0.207180
 30
0.000000
  0
VERTEX
  8
LAYER-1
 10
4.718399
 20
0.207180
 30
0.000000
  0
VERTEX
  8
LAYER-1
 10
4.714927
 20
0.202839
 30
0.000000
  0
VERTEX
  8
LAYER-1
 10
4.714059
 20
0.197632
 30
0.000000
  0
VERTEX
  8
LAYER-1
 10
4.715795
 20
0.193291
 30
0.000000
  0
VERTEX
  8
LAYER-1
 10
4.720135
 20
0.191555
 30
0.000000
  0
VERTEX
  8
LAYER-1
 10
4.724475
 20
0.191555
 30
0.000000
  0
VERTEX
  8
LAYER-1
 10
4.728816
 20
0.195027
 30
0.000000
  0
VERTEX
  8
LAYER-1
 10
4.728816
 20
0.199368
 30
0.000000
  0
VERTEX
  8
LAYER-1
 10
4.727947
 20
0.203708
 30
0.000000
  0
VERTEX
  8
LAYER-1
 10
4.723607
 20
0.206312
 30
0.000000
  0
SEQEND
  8
LAYER-1
  0
POLYLINE
  8
LAYER-1
 66
  1
 70
  0
 62
  0
 10
4.510068
 20
0.197631
 30
0.000000
  0
VERTEX
  8
LAYER-1
 10
4.510068
 20
0.197631
 30
0.000000
  0
VERTEX
  8
LAYER-1
 10
4.505728
 20
0.197631
 30
0.000000
  0
VERTEX
  8
LAYER-1
 10
4.502255
 20
0.193290
 30
0.000000
  0
VERTEX
  8
LAYER-1
 10
4.501388
 20
0.188082
 30
0.000000
  0
VERTEX
  8
LAYER-1
 10
4.503124
 20
0.183741
 30
0.000000
  0
VERTEX
  8
LAYER-1
 10
4.507464
 20
0.182006
 30
0.000000
  0
VERTEX
  8
LAYER-1
 10
4.511805
 20
0.182006
 30
0.000000
  0
VERTEX
  8
LAYER-1
 10
4.516145
 20
0.185477
 30
0.000000
  0
VERTEX
  8
LAYER-1
 10
4.516145
 20
0.189818
 30
0.000000
  0
VERTEX
  8
LAYER-1
 10
4.515277
 20
0.194159
 30
0.000000
  0
VERTEX
  8
LAYER-1
 10
4.510937
 20
0.196763
 30
0.000000
  0
SEQEND
  8
LAYER-1
  0
POLYLINE
  8
LAYER-1
 66
  1
 70
  0
 62
  0
 10
4.757463
 20
0.169851
 30
0.000000
  0
VERTEX
  8
LAYER-1
 10
4.757463
 20
0.169851
 30
0.000000
  0
VERTEX
  8
LAYER-1
 10
4.753124
 20
0.169851
 30
0.000000
  0
VERTEX
  8
LAYER-1
 10
4.749651
 20
0.165510
 30
0.000000
  0
VERTEX
  8
LAYER-1
 10
4.748784
 20
0.160302
 30
0.000000
  0
VERTEX
  8
LAYER-1
 10
4.750520
 20
0.155962
 30
0.000000
  0
VERTEX
  8
LAYER-1
 10
4.754860
 20
0.154226
 30
0.000000
  0
VERTEX
  8
LAYER-1
 10
4.759201
 20
0.154226
 30
0.000000
  0
VERTEX
  8
LAYER-1
 10
4.763540
 20
0.157697
 30
0.000000
  0
VERTEX
  8
LAYER-1
 10
4.763540
 20
0.162038
 30
0.000000
  0
VERTEX
  8
LAYER-1
 10
4.762673
 20
0.166378
 30
0.000000
  0
VERTEX
  8
LAYER-1
 10
4.758332
 20
0.168983
 30
0.000000
  0
SEQEND
  8
LAYER-1
  0
POLYLINE
  8
LAYER-1
 66
  1
 70
  1
 62
  0
 10
4.372047
 20
0.116466
 30
0.000000
  0
VERTEX
  8
LAYER-1
 10
4.372047
 20
0.116466
 30
0.000000
  0
VERTEX
  8
LAYER-1
 10
4.365102
 20
0.142507
 30
0.000000
  0
VERTEX
  8
LAYER-1
 10
4.339929
 20
0.128620
 30
0.000000
  0
SEQEND
  8
LAYER-1
  0
POLYLINE
  8
LAYER-1
 66
  1
 70
  1
 62
  0
 10
4.220137
 20
0.157263
 30
0.000000
  0
VERTEX
  8
LAYER-1
 10
4.220137
 20
0.157263
 30
0.000000
  0
VERTEX
  8
LAYER-1
 10
4.233158
 20
0.179833
 30
0.000000
  0
VERTEX
  8
LAYER-1
 10
4.202776
 20
0.159001
 30
0.000000
  0
SEQEND
  8
LAYER-1
  0
POLYLINE
  8
LAYER-1
 66
  1
 70
  1
 62
  0
 10
4.303471
 20
0.117338
 30
0.000000
  0
VERTEX
  8
LAYER-1
 10
4.303471
 20
0.117338
 30
0.000000
  0
VERTEX
  8
LAYER-1
 10
4.319964
 20
0.142510
 30
0.000000
  0
VERTEX
  8
LAYER-1
 10
4.305207
 20
0.150323
 30
0.000000
  0
SEQEND
  8
LAYER-1
  0
POLYLINE
  8
LAYER-1
 66
  1
 70
  0
 62
  0
 10
4.477951
 20
0.119075
 30
0.000000
  0
VERTEX
  8
LAYER-1
 10
4.477951
 20
0.119075
 30
0.000000
  0
VERTEX
  8
LAYER-1
 10
4.482292
 20
0.119075
 30
0.000000
  0
VERTEX
  8
LAYER-1
 10
4.485764
 20
0.123415
 30
0.000000
  0
VERTEX
  8
LAYER-1
 10
4.486632
 20
0.128622
 30
0.000000
  0
VERTEX
  8
LAYER-1
 10
4.484895
 20
0.132963
 30
0.000000
  0
VERTEX
  8
LAYER-1
 10
4.480555
 20
0.134700
 30
0.000000
  0
VERTEX
  8
LAYER-1
 10
4.476215
 20
0.134700
 30
0.000000
  0
VERTEX
  8
LAYER-1
 10
4.471874
 20
0.131227
 30
0.000000
  0
VERTEX
  8
LAYER-1
 10
4.471874
 20
0.126887
 30
0.000000
  0
VERTEX
  8
LAYER-1
 10
4.472742
 20
0.122546
 30
0.000000
  0
VERTEX
  8
LAYER-1
 10
4.477083
 20
0.119941
 30
0.000000
  0
SEQEND
  8
LAYER-1
  0
POLYLINE
  8
LAYER-1
 66
  1
 70
  1
 62
  0
 10
4.429338
 20
0.133829
 30
0.000000
  0
VERTEX
  8
LAYER-1
 10
4.429338
 20
0.133829
 30
0.000000
  0
VERTEX
  8
LAYER-1
 10
4.442360
 20
0.156400
 30
0.000000
  0
VERTEX
  8
LAYER-1
 10
4.411977
 20
0.135567
 30
0.000000
  0
SEQEND
  8
LAYER-1
  0
POLYLINE
  8
LAYER-1
 66
  1
 70
  1
 62
  0
 10
4.318395
 20
0.169755
 30
0.000000
  0
VERTEX
  8
LAYER-1
 10
4.318395
 20
0.169755
 30
0.000000
  0
VERTEX
  8
LAYER-1
 10
4.331081
 20
0.189118
 30
0.000000
  0
VERTEX
  8
LAYER-1
 10
4.319731
 20
0.195129
 30
0.000000
  0
SEQEND
  8
LAYER-1
  0
POLYLINE
  8
LAYER-1
 66
  1
 70
  0
 62
  0
 10
4.274042
 20
0.201225
 30
0.000000
  0
VERTEX
  8
LAYER-1
 10
4.274042
 20
0.201225
 30
0.000000
  0
VERTEX
  8
LAYER-1
 10
4.278382
 20
0.201225
 30
0.000000
  0
VERTEX
  8
LAYER-1
 10
4.281855
 20
0.205566
 30
0.000000
  0
VERTEX
  8
LAYER-1
 10
4.282722
 20
0.210774
 30
0.000000
  0
VERTEX
  8
LAYER-1
 10
4.280987
 20
0.215115
 30
0.000000
  0
VERTEX
  8
LAYER-1
 10
4.276646
 20
0.216850
 30
0.000000
  0
VERTEX
  8
LAYER-1
 10
4.272305
 20
0.216850
 30
0.000000
  0
VERTEX
  8
LAYER-1
 10
4.267966
 20
0.213379
 30
0.000000
  0
VERTEX
  8
LAYER-1
 10
4.267966
 20
0.209038
 30
0.000000
  0
VERTEX
  8
LAYER-1
 10
4.268834
 20
0.204698
 30
0.000000
  0
VERTEX
  8
LAYER-1
 10
4.273174
 20
0.202092
 30
0.000000
  0
SEQEND
  8
LAYER-1
  0
POLYLINE
  8
LAYER-1
 66
  1
 70
  0
 62
  0
 10
4.251388
 20
0.123414
 30
0.000000
  0
VERTEX
  8
LAYER-1
 10
4.251388
 20
0.123414
 30
0.000000
  0
VERTEX
  8
LAYER-1
 10
4.255728
 20
0.123414
 30
0.000000
  0
VERTEX
  8
LAYER-1
 10
4.259200
 20
0.127754
 30
0.000000
  0
VERTEX
  8
LAYER-1
 10
4.260068
 20
0.132963
 30
0.000000
  0
VERTEX
  8
LAYER-1
 10
4.258332
 20
0.137303
 30
0.000000
  0
VERTEX
  8
LAYER-1
 10
4.253991
 20
0.139039
 30
0.000000
  0
VERTEX
  8
LAYER-1
 10
4.249652
 20
0.139039
 30
0.000000
  0
VERTEX
  8
LAYER-1
 10
4.245311
 20
0.135567
 30
0.000000
  0
VERTEX
  8
LAYER-1
 10
4.245311
 20
0.131226
 30
0.000000
  0
VERTEX
  8
LAYER-1
 10
4.246179
 20
0.126885
 30
0.000000
  0
VERTEX
  8
LAYER-1
 10
4.250520
 20
0.124281
 30
0.000000
  0
SEQEND
  8
LAYER-1
  0
POLYLINE
  8
LAYER-1
 66
  1
 70
  0
 62
  0
 10
4.415450
 20
0.200670
 30
0.000000
  0
VERTEX
  8
LAYER-1
 10
4.415450
 20
0.200670
 30
0.000000
  0
VERTEX
  8
LAYER-1
 10
4.419791
 20
0.200670
 30
0.000000
  0
VERTEX
  8
LAYER-1
 10
4.423263
 20
0.205010
 30
0.000000
  0
VERTEX
  8
LAYER-1
 10
4.424130
 20
0.210219
 30
0.000000
  0
VERTEX
  8
LAYER-1
 10
4.422395
 20
0.214559
 30
0.000000
  0
VERTEX
  8
LAYER-1
 10
4.418054
 20
0.216295
 30
0.000000
  0
VERTEX
  8
LAYER-1
 10
4.413714
 20
0.216295
 30
0.000000
  0
VERTEX
  8
LAYER-1
 10
4.409373
 20
0.212823
 30
0.000000
  0
VERTEX
  8
LAYER-1
 10
4.409373
 20
0.208483
 30
0.000000
  0
VERTEX
  8
LAYER-1
 10
4.410241
 20
0.204141
 30
0.000000
  0
VERTEX
  8
LAYER-1
 10
4.414582
 20
0.201537
 30
0.000000
  0
SEQEND
  8
LAYER-1
  0
POLYLINE
  8
LAYER-1
 66
  1
 70
  1
 62
  0
 10
4.867267
 20
0.157266
 30
0.000000
  0
VERTEX
  8
LAYER-1
 10
4.867267
 20
0.157266
 30
0.000000
  0
VERTEX
  8
LAYER-1
 10
4.893309
 20
0.164210
 30
0.000000
  0
VERTEX
  8
LAYER-1
 10
4.879420
 20
0.189384
 30
0.000000
  0
SEQEND
  8
LAYER-1
  0
POLYLINE
  8
LAYER-1
 66
  1
 70
  1
 62
  0
 10
4.549563
 20
0.210219
 30
0.000000
  0
VERTEX
  8
LAYER-1
 10
4.549563
 20
0.210219
 30
0.000000
  0
VERTEX
  8
LAYER-1
 10
4.572133
 20
0.197197
 30
0.000000
  0
VERTEX
  8
LAYER-1
 10
4.551300
 20
0.227579
 30
0.000000
  0
SEQEND
  8
LAYER-1
  0
POLYLINE
  8
LAYER-1
 66
  1
 70
  1
 62
  0
 10
5.486192
 20
0.115595
 30
0.000000
  0
VERTEX
  8
LAYER-1
 10
5.486192
 20
0.115595
 30
0.000000
  0
VERTEX
  8
LAYER-1
 10
5.511367
 20
0.099102
 30
0.000000
  0
VERTEX
  8
LAYER-1
 10
5.519179
 20
0.113859
 30
0.000000
  0
SEQEND
  8
LAYER-1
  0
POLYLINE
  8
LAYER-1
 66
  1
 70
  0
 62
  0
 10
5.307372
 20
0.124278
 30
0.000000
  0
VERTEX
  8
LAYER-1
 10
5.307372
 20
0.124278
 30
0.000000
  0
VERTEX
  8
LAYER-1
 10
5.307372
 20
0.119938
 30
0.000000
  0
VERTEX
  8
LAYER-1
 10
5.311712
 20
0.116465
 30
0.000000
  0
VERTEX
  8
LAYER-1
 10
5.316920
 20
0.115599
 30
0.000000
  0
VERTEX
  8
LAYER-1
 10
5.321261
 20
0.117334
 30
0.000000
  0
VERTEX
  8
LAYER-1
 10
5.322997
 20
0.121674
 30
0.000000
  0
VERTEX
  8
LAYER-1
 10
5.322997
 20
0.126015
 30
0.000000
  0
VERTEX
  8
LAYER-1
 10
5.319525
 20
0.130355
 30
0.000000
  0
VERTEX
  8
LAYER-1
 10
5.315184
 20
0.130355
 30
0.000000
  0
VERTEX
  8
LAYER-1
 10
5.310844
 20
0.129487
 30
0.000000
  0
VERTEX
  8
LAYER-1
 10
5.308241
 20
0.125147
 30
0.000000
  0
SEQEND
  8
LAYER-1
  0
POLYLINE
  8
LAYER-1
 66
  1
 70
  1
 62
  0
 10
4.937581
 20
0.144244
 30
0.000000
  0
VERTEX
  8
LAYER-1
 10
4.937581
 20
0.144244
 30
0.000000
  0
VERTEX
  8
LAYER-1
 10
4.960150
 20
0.131224
 30
0.000000
  0
VERTEX
  8
LAYER-1
 10
4.939317
 20
0.161605
 30
0.000000
  0
SEQEND
  8
LAYER-1
  0
POLYLINE
  8
LAYER-1
 66
  1
 70
  1
 62
  0
 10
4.900589
 20
0.215259
 30
0.000000
  0
VERTEX
  8
LAYER-1
 10
4.900589
 20
0.215259
 30
0.000000
  0
VERTEX
  8
LAYER-1
 10
4.919953
 20
0.202572
 30
0.000000
  0
VERTEX
  8
LAYER-1
 10
4.925964
 20
0.213924
 30
0.000000
  0
SEQEND
  8
LAYER-1
  0
POLYLINE
  8
LAYER-1
 66
  1
 70
  0
 62
  0
 10
4.545224
 20
0.150322
 30
0.000000
  0
VERTEX
  8
LAYER-1
 10
4.545224
 20
0.150322
 30
0.000000
  0
VERTEX
  8
LAYER-1
 10
4.545224
 20
0.145983
 30
0.000000
  0
VERTEX
  8
LAYER-1
 10
4.549564
 20
0.142509
 30
0.000000
  0
VERTEX
  8
LAYER-1
 10
4.554772
 20
0.141641
 30
0.000000
  0
VERTEX
  8
LAYER-1
 10
4.559113
 20
0.143378
 30
0.000000
  0
VERTEX
  8
LAYER-1
 10
4.560848
 20
0.147719
 30
0.000000
  0
VERTEX
  8
LAYER-1
 10
4.560848
 20
0.152058
 30
0.000000
  0
VERTEX
  8
LAYER-1
 10
4.557376
 20
0.156399
 30
0.000000
  0
VERTEX
  8
LAYER-1
 10
4.553036
 20
0.156399
 30
0.000000
  0
VERTEX
  8
LAYER-1
 10
4.548695
 20
0.155531
 30
0.000000
  0
VERTEX
  8
LAYER-1
 10
4.546091
 20
0.151190
 30
0.000000
  0
SEQEND
  8
LAYER-1
  0
POLYLINE
  8
LAYER-1
 66
  1
 70
  0
 62
  0
 10
4.951469
 20
0.112127
 30
0.000000
  0
VERTEX
  8
LAYER-1
 10
4.951469
 20
0.112127
 30
0.000000
  0
VERTEX
  8
LAYER-1
 10
4.951469
 20
0.107786
 30
0.000000
  0
VERTEX
  8
LAYER-1
 10
4.955809
 20
0.104314
 30
0.000000
  0
VERTEX
  8
LAYER-1
 10
4.961017
 20
0.103445
 30
0.000000
  0
VERTEX
  8
LAYER-1
 10
4.965357
 20
0.105182
 30
0.000000
  0
VERTEX
  8
LAYER-1
 10
4.967094
 20
0.109522
 30
0.000000
  0
VERTEX
  8
LAYER-1
 10
4.967094
 20
0.113863
 30
0.000000
  0
VERTEX
  8
LAYER-1
 10
4.963622
 20
0.118203
 30
0.000000
  0
VERTEX
  8
LAYER-1
 10
4.959281
 20
0.118203
 30
0.000000
  0
VERTEX
  8
LAYER-1
 10
4.954940
 20
0.117334
 30
0.000000
  0
VERTEX
  8
LAYER-1
 10
4.952337
 20
0.112995
 30
0.000000
  0
SEQEND
  8
LAYER-1
  0
POLYLINE
  8
LAYER-1
 66
  1
 70
  0
 62
  0
 10
5.020045
 20
0.147718
 30
0.000000
  0
VERTEX
  8
LAYER-1
 10
5.020045
 20
0.147718
 30
0.000000
  0
VERTEX
  8
LAYER-1
 10
5.020045
 20
0.143377
 30
0.000000
  0
VERTEX
  8
LAYER-1
 10
5.024386
 20
0.139905
 30
0.000000
  0
VERTEX
  8
LAYER-1
 10
5.029594
 20
0.139036
 30
0.000000
  0
VERTEX
  8
LAYER-1
 10
5.033934
 20
0.140773
 30
0.000000
  0
VERTEX
  8
LAYER-1
 10
5.035670
 20
0.145113
 30
0.000000
  0
VERTEX
  8
LAYER-1
 10
5.035670
 20
0.149453
 30
0.000000
  0
VERTEX
  8
LAYER-1
 10
5.032198
 20
0.153794
 30
0.000000
  0
VERTEX
  8
LAYER-1
 10
5.027857
 20
0.153794
 30
0.000000
  0
VERTEX
  8
LAYER-1
 10
5.023517
 20
0.152925
 30
0.000000
  0
VERTEX
  8
LAYER-1
 10
5.020914
 20
0.148585
 30
0.000000
  0
SEQEND
  8
LAYER-1
  0
POLYLINE
  8
LAYER-1
 66
  1
 70
  1
 62
  0
 10
5.059455
 20
0.168984
 30
0.000000
  0
VERTEX
  8
LAYER-1
 10
5.059455
 20
0.168984
 30
0.000000
  0
VERTEX
  8
LAYER-1
 10
5.066401
 20
0.142944
 30
0.000000
  0
VERTEX
  8
LAYER-1
 10
5.091574
 20
0.156832
 30
0.000000
  0
SEQEND
  8
LAYER-1
  0
POLYLINE
  8
LAYER-1
 66
  1
 70
  1
 62
  0
 10
5.221002
 20
0.197632
 30
0.000000
  0
VERTEX
  8
LAYER-1
 10
5.221002
 20
0.197632
 30
0.000000
  0
VERTEX
  8
LAYER-1
 10
5.207979
 20
0.175062
 30
0.000000
  0
VERTEX
  8
LAYER-1
 10
5.238363
 20
0.195894
 30
0.000000
  0
SEQEND
  8
LAYER-1
  0
POLYLINE
  8
LAYER-1
 66
  1
 70
  1
 62
  0
 10
5.613363
 20
0.168113
 30
0.000000
  0
VERTEX
  8
LAYER-1
 10
5.613363
 20
0.168113
 30
0.000000
  0
VERTEX
  8
LAYER-1
 10
5.596870
 20
0.142939
 30
0.000000
  0
VERTEX
  8
LAYER-1
 10
5.611627
 20
0.135127
 30
0.000000
  0
SEQEND
  8
LAYER-1
  0
POLYLINE
  8
LAYER-1
 66
  1
 70
  0
 62
  0
 10
5.009195
 20
0.200234
 30
0.000000
  0
VERTEX
  8
LAYER-1
 10
5.009195
 20
0.200234
 30
0.000000
  0
VERTEX
  8
LAYER-1
 10
5.004854
 20
0.200234
 30
0.000000
  0
VERTEX
  8
LAYER-1
 10
5.001383
 20
0.195894
 30
0.000000
  0
VERTEX
  8
LAYER-1
 10
5.000516
 20
0.190687
 30
0.000000
  0
VERTEX
  8
LAYER-1
 10
5.002252
 20
0.186345
 30
0.000000
  0
VERTEX
  8
LAYER-1
 10
5.006592
 20
0.184609
 30
0.000000
  0
VERTEX
  8
LAYER-1
 10
5.010931
 20
0.184609
 30
0.000000
  0
VERTEX
  8
LAYER-1
 10
5.015272
 20
0.188082
 30
0.000000
  0
VERTEX
  8
LAYER-1
 10
5.015272
 20
0.192422
 30
0.000000
  0
VERTEX
  8
LAYER-1
 10
5.014405
 20
0.196763
 30
0.000000
  0
VERTEX
  8
LAYER-1
 10
5.010064
 20
0.199368
 30
0.000000
  0
SEQEND
  8
LAYER-1
  0
POLYLINE
  8
LAYER-1
 66
  1
 70
  1
 62
  0
 10
5.072564
 20
0.123845
 30
0.000000
  0
VERTEX
  8
LAYER-1
 10
5.072564
 20
0.123845
 30
0.000000
  0
VERTEX
  8
LAYER-1
 10
5.059544
 20
0.101275
 30
0.000000
  0
VERTEX
  8
LAYER-1
 10
5.089925
 20
0.122108
 30
0.000000
  0
SEQEND
  8
LAYER-1
  0
POLYLINE
  8
LAYER-1
 66
  1
 70
  1
 62
  0
 10
5.141308
 20
0.101607
 30
0.000000
  0
VERTEX
  8
LAYER-1
 10
5.141308
 20
0.101607
 30
0.000000
  0
VERTEX
  8
LAYER-1
 10
5.153996
 20
0.120972
 30
0.000000
  0
VERTEX
  8
LAYER-1
 10
5.142644
 20
0.126983
 30
0.000000
  0
SEQEND
  8
LAYER-1
  0
POLYLINE
  8
LAYER-1
 66
  1
 70
  0
 62
  0
 10
5.161104
 20
0.201970
 30
0.000000
  0
VERTEX
  8
LAYER-1
 10
5.161104
 20
0.201970
 30
0.000000
  0
VERTEX
  8
LAYER-1
 10
5.156766
 20
0.201970
 30
0.000000
  0
VERTEX
  8
LAYER-1
 10
5.153292
 20
0.197630
 30
0.000000
  0
VERTEX
  8
LAYER-1
 10
5.152425
 20
0.192422
 30
0.000000
  0
VERTEX
  8
LAYER-1
 10
5.154161
 20
0.188082
 30
0.000000
  0
VERTEX
  8
LAYER-1
 10
5.158502
 20
0.186345
 30
0.000000
  0
VERTEX
  8
LAYER-1
 10
5.162842
 20
0.186345
 30
0.000000
  0
VERTEX
  8
LAYER-1
 10
5.167181
 20
0.189818
 30
0.000000
  0
VERTEX
  8
LAYER-1
 10
5.167181
 20
0.194158
 30
0.000000
  0
VERTEX
  8
LAYER-1
 10
5.166314
 20
0.198499
 30
0.000000
  0
VERTEX
  8
LAYER-1
 10
5.161973
 20
0.201103
 30
0.000000
  0
SEQEND
  8
LAYER-1
  0
POLYLINE
  8
LAYER-1
 66
  1
 70
  0
 62
  0
 10
5.665446
 20
0.162036
 30
0.000000
  0
VERTEX
  8
LAYER-1
 10
5.665446
 20
0.162036
 30
0.000000
  0
VERTEX
  8
LAYER-1
 10
5.661106
 20
0.162036
 30
0.000000
  0
VERTEX
  8
LAYER-1
 10
5.657634
 20
0.157695
 30
0.000000
  0
VERTEX
  8
LAYER-1
 10
5.656766
 20
0.152488
 30
0.000000
  0
VERTEX
  8
LAYER-1
 10
5.658502
 20
0.148147
 30
0.000000
  0
VERTEX
  8
LAYER-1
 10
5.662842
 20
0.146411
 30
0.000000
  0
VERTEX
  8
LAYER-1
 10
5.667182
 20
0.146411
 30
0.000000
  0
VERTEX
  8
LAYER-1
 10
5.671523
 20
0.149883
 30
0.000000
  0
VERTEX
  8
LAYER-1
 10
5.671523
 20
0.154224
 30
0.000000
  0
VERTEX
  8
LAYER-1
 10
5.670655
 20
0.158564
 30
0.000000
  0
VERTEX
  8
LAYER-1
 10
5.666314
 20
0.161169
 30
0.000000
  0
SEQEND
  8
LAYER-1
  0
POLYLINE
  8
LAYER-1
 66
  1
 70
  0
 62
  0
 10
5.574301
 20
0.129918
 30
0.000000
  0
VERTEX
  8
LAYER-1
 10
5.574301
 20
0.129918
 30
0.000000
  0
VERTEX
  8
LAYER-1
 10
5.569960
 20
0.129918
 30
0.000000
  0
VERTEX
  8
LAYER-1
 10
5.566488
 20
0.125577
 30
0.000000
  0
VERTEX
  8
LAYER-1
 10
5.565620
 20
0.120370
 30
0.000000
  0
VERTEX
  8
LAYER-1
 10
5.567357
 20
0.116030
 30
0.000000
  0
VERTEX
  8
LAYER-1
 10
5.571697
 20
0.114293
 30
0.000000
  0
VERTEX
  8
LAYER-1
 10
5.576037
 20
0.114293
 30
0.000000
  0
VERTEX
  8
LAYER-1
 10
5.580378
 20
0.117765
 30
0.000000
  0
VERTEX
  8
LAYER-1
 10
5.580378
 20
0.122106
 30
0.000000
  0
VERTEX
  8
LAYER-1
 10
5.579510
 20
0.126446
 30
0.000000
  0
VERTEX
  8
LAYER-1
 10
5.575169
 20
0.129051
 30
0.000000
  0
SEQEND
  8
LAYER-1
  0
POLYLINE
  8
LAYER-1
 66
  1
 70
  1
 62
  0
 10
5.259195
 20
0.184177
 30
0.000000
  0
VERTEX
  8
LAYER-1
 10
5.259195
 20
0.184177
 30
0.000000
  0
VERTEX
  8
LAYER-1
 10
5.285236
 20
0.191121
 30
0.000000
  0
VERTEX
  8
LAYER-1
 10
5.271348
 20
0.216295
 30
0.000000
  0
SEQEND
  8
LAYER-1
  0
POLYLINE
  8
LAYER-1
 66
  1
 70
  0
 62
  0
 10
5.227945
 20
0.134697
 30
0.000000
  0
VERTEX
  8
LAYER-1
 10
5.227945
 20
0.134697
 30
0.000000
  0
VERTEX
  8
LAYER-1
 10
5.227945
 20
0.130358
 30
0.000000
  0
VERTEX
  8
LAYER-1
 10
5.232286
 20
0.126884
 30
0.000000
  0
VERTEX
  8
LAYER-1
 10
5.237494
 20
0.126018
 30
0.000000
  0
VERTEX
  8
LAYER-1
 10
5.241834
 20
0.127753
 30
0.000000
  0
VERTEX
  8
LAYER-1
 10
5.243570
 20
0.132094
 30
0.000000
  0
VERTEX
  8
LAYER-1
 10
5.243570
 20
0.136434
 30
0.000000
  0
VERTEX
  8
LAYER-1
 10
5.240098
 20
0.140774
 30
0.000000
  0
VERTEX
  8
LAYER-1
 10
5.235758
 20
0.140774
 30
0.000000
  0
VERTEX
  8
LAYER-1
 10
5.231417
 20
0.139906
 30
0.000000
  0
VERTEX
  8
LAYER-1
 10
5.228812
 20
0.135566
 30
0.000000
  0
SEQEND
  8
LAYER-1
  0
POLYLINE
  8
LAYER-1
 66
  1
 70
  1
 62
  0
 10
5.322998
 20
0.148152
 30
0.000000
  0
VERTEX
  8
LAYER-1
 10
5.322998
 20
0.148152
 30
0.000000
  0
VERTEX
  8
LAYER-1
 10
5.336019
 20
0.170722
 30
0.000000
  0
VERTEX
  8
LAYER-1
 10
5.305638
 20
0.149890
 30
0.000000
  0
SEQEND
  8
LAYER-1
  0
POLYLINE
  8
LAYER-1
 66
  1
 70
  0
 62
  0
 10
5.378119
 20
0.182441
 30
0.000000
  0
VERTEX
  8
LAYER-1
 10
5.378119
 20
0.182441
 30
0.000000
  0
VERTEX
  8
LAYER-1
 10
5.378119
 20
0.178101
 30
0.000000
  0
VERTEX
  8
LAYER-1
 10
5.382459
 20
0.174628
 30
0.000000
  0
VERTEX
  8
LAYER-1
 10
5.387667
 20
0.173759
 30
0.000000
  0
VERTEX
  8
LAYER-1
 10
5.392008
 20
0.175496
 30
0.000000
  0
VERTEX
  8
LAYER-1
 10
5.393744
 20
0.179837
 30
0.000000
  0
VERTEX
  8
LAYER-1
 10
5.393744
 20
0.184177
 30
0.000000
  0
VERTEX
  8
LAYER-1
 10
5.390272
 20
0.188518
 30
0.000000
  0
VERTEX
  8
LAYER-1
 10
5.385931
 20
0.188518
 30
0.000000
  0
VERTEX
  8
LAYER-1
 10
5.381591
 20
0.187649
 30
0.000000
  0
VERTEX
  8
LAYER-1
 10
5.378986
 20
0.183309
 30
0.000000
  0
SEQEND
  8
LAYER-1
  0
POLYLINE
  8
LAYER-1
 66
  1
 70
  1
 62
  0
 10
6.124044
 20
0.198846
 30
0.000000
  0
VERTEX
  8
LAYER-1
 10
6.124044
 20
0.198846
 30
0.000000
  0
VERTEX
  8
LAYER-1
 10
6.117099
 20
0.224887
 30
0.000000
  0
VERTEX
  8
LAYER-1
 10
6.091925
 20
0.210999
 30
0.000000
  0
SEQEND
  8
LAYER-1
  0
POLYLINE
  8
LAYER-1
 66
  1
 70
  0
 62
  0
 10
6.164582
 20
0.072630
 30
0.000000
  0
VERTEX
  8
LAYER-1
 10
6.164582
 20
0.072630
 30
0.000000
  0
VERTEX
  8
LAYER-1
 10
6.168923
 20
0.072630
 30
0.000000
  0
VERTEX
  8
LAYER-1
 10
6.172395
 20
0.076970
 30
0.000000
  0
VERTEX
  8
LAYER-1
 10
6.173262
 20
0.082178
 30
0.000000
  0
VERTEX
  8
LAYER-1
 10
6.171526
 20
0.086519
 30
0.000000
  0
VERTEX
  8
LAYER-1
 10
6.167187
 20
0.088255
 30
0.000000
  0
VERTEX
  8
LAYER-1
 10
6.162846
 20
0.088255
 30
0.000000
  0
VERTEX
  8
LAYER-1
 10
6.158506
 20
0.084783
 30
0.000000
  0
VERTEX
  8
LAYER-1
 10
6.158506
 20
0.080443
 30
0.000000
  0
VERTEX
  8
LAYER-1
 10
6.159375
 20
0.076102
 30
0.000000
  0
VERTEX
  8
LAYER-1
 10
6.163713
 20
0.073497
 30
0.000000
  0
SEQEND
  8
LAYER-1
  0
POLYLINE
  8
LAYER-1
 66
  1
 70
  1
 62
  0
 10
5.461019
 20
0.105616
 30
0.000000
  0
VERTEX
  8
LAYER-1
 10
5.461019
 20
0.105616
 30
0.000000
  0
VERTEX
  8
LAYER-1
 10
5.474039
 20
0.128187
 30
0.000000
  0
VERTEX
  8
LAYER-1
 10
5.443658
 20
0.107353
 30
0.000000
  0
SEQEND
  8
LAYER-1
  0
POLYLINE
  8
LAYER-1
 66
  1
 70
  0
 62
  0
 10
5.504770
 20
0.183950
 30
0.000000
  0
VERTEX
  8
LAYER-1
 10
5.504770
 20
0.183950
 30
0.000000
  0
VERTEX
  8
LAYER-1
 10
5.509111
 20
0.183950
 30
0.000000
  0
VERTEX
  8
LAYER-1
 10
5.512583
 20
0.188291
 30
0.000000
  0
VERTEX
  8
LAYER-1
 10
5.513451
 20
0.193498
 30
0.000000
  0
VERTEX
  8
LAYER-1
 10
5.511715
 20
0.197840
 30
0.000000
  0
VERTEX
  8
LAYER-1
 10
5.507375
 20
0.199575
 30
0.000000
  0
VERTEX
  8
LAYER-1
 10
5.503034
 20
0.199575
 30
0.000000
  0
VERTEX
  8
LAYER-1
 10
5.498693
 20
0.196103
 30
0.000000
  0
VERTEX
  8
LAYER-1
 10
5.498693
 20
0.191762
 30
0.000000
  0
VERTEX
  8
LAYER-1
 10
5.499562
 20
0.187422
 30
0.000000
  0
VERTEX
  8
LAYER-1
 10
5.503903
 20
0.184818
 30
0.000000
  0
SEQEND
  8
LAYER-1
  0
POLYLINE
  8
LAYER-1
 66
  1
 70
  1
 62
  0
 10
6.044357
 20
0.114733
 30
0.000000
  0
VERTEX
  8
LAYER-1
 10
6.044357
 20
0.114733
 30
0.000000
  0
VERTEX
  8
LAYER-1
 10
6.018315
 20
0.107787
 30
0.000000
  0
VERTEX
  8
LAYER-1
 10
6.032204
 20
0.082614
 30
0.000000
  0
SEQEND
  8
LAYER-1
  0
POLYLINE
  8
LAYER-1
 66
  1
 70
  0
 62
  0
 10
5.409369
 20
0.129490
 30
0.000000
  0
VERTEX
  8
LAYER-1
 10
5.409369
 20
0.129490
 30
0.000000
  0
VERTEX
  8
LAYER-1
 10
5.409369
 20
0.133829
 30
0.000000
  0
VERTEX
  8
LAYER-1
 10
5.405028
 20
0.137303
 30
0.000000
  0
VERTEX
  8
LAYER-1
 10
5.399820
 20
0.138170
 30
0.000000
  0
VERTEX
  8
LAYER-1
 10
5.395479
 20
0.136434
 30
0.000000
  0
VERTEX
  8
LAYER-1
 10
5.393744
 20
0.132094
 30
0.000000
  0
VERTEX
  8
LAYER-1
 10
5.393744
 20
0.127753
 30
0.000000
  0
VERTEX
  8
LAYER-1
 10
5.397216
 20
0.123414
 30
0.000000
  0
VERTEX
  8
LAYER-1
 10
5.401556
 20
0.123414
 30
0.000000
  0
VERTEX
  8
LAYER-1
 10
5.405897
 20
0.124281
 30
0.000000
  0
VERTEX
  8
LAYER-1
 10
5.408502
 20
0.128621
 30
0.000000
  0
SEQEND
  8
LAYER-1
  0
POLYLINE
  8
LAYER-1
 66
  1
 70
  1
 62
  0
 10
5.993142
 20
0.104316
 30
0.000000
  0
VERTEX
  8
LAYER-1
 10
5.993142
 20
0.104316
 30
0.000000
  0
VERTEX
  8
LAYER-1
 10
5.965363
 20
0.120808
 30
0.000000
  0
VERTEX
  8
LAYER-1
 10
5.986196
 20
0.090427
 30
0.000000
  0
SEQEND
  8
LAYER-1
  0
POLYLINE
  8
LAYER-1
 66
  1
 70
  0
 62
  0
 10
5.703641
 20
0.185909
 30
0.000000
  0
VERTEX
  8
LAYER-1
 10
5.703641
 20
0.185909
 30
0.000000
  0
VERTEX
  8
LAYER-1
 10
5.703641
 20
0.190250
 30
0.000000
  0
VERTEX
  8
LAYER-1
 10
5.699300
 20
0.193721
 30
0.000000
  0
VERTEX
  8
LAYER-1
 10
5.694092
 20
0.194590
 30
0.000000
  0
VERTEX
  8
LAYER-1
 10
5.689752
 20
0.192852
 30
0.000000
  0
VERTEX
  8
LAYER-1
 10
5.688016
 20
0.188514
 30
0.000000
  0
VERTEX
  8
LAYER-1
 10
5.688016
 20
0.184174
 30
0.000000
  0
VERTEX
  8
LAYER-1
 10
5.691488
 20
0.179832
 30
0.000000
  0
VERTEX
  8
LAYER-1
 10
5.695828
 20
0.179832
 30
0.000000
  0
VERTEX
  8
LAYER-1
 10
5.700169
 20
0.180701
 30
0.000000
  0
VERTEX
  8
LAYER-1
 10
5.702773
 20
0.185040
 30
0.000000
  0
SEQEND
  8
LAYER-1
  0
POLYLINE
  8
LAYER-1
 66
  1
 70
  1
 62
  0
 10
6.274305
 20
0.092423
 30
0.000000
  0
VERTEX
  8
LAYER-1
 10
6.274305
 20
0.092423
 30
0.000000
  0
VERTEX
  8
LAYER-1
 10
6.267359
 20
0.118465
 30
0.000000
  0
VERTEX
  8
LAYER-1
 10
6.242186
 20
0.104577
 30
0.000000
  0
SEQEND
  8
LAYER-1
  0
POLYLINE
  8
LAYER-1
 66
  1
 70
  0
 62
  0
 10
6.364149
 20
0.192684
 30
0.000000
  0
VERTEX
  8
LAYER-1
 10
6.364149
 20
0.192684
 30
0.000000
  0
VERTEX
  8
LAYER-1
 10
6.368490
 20
0.192684
 30
0.000000
  0
VERTEX
  8
LAYER-1
 10
6.371961
 20
0.197024
 30
0.000000
  0
VERTEX
  8
LAYER-1
 10
6.372828
 20
0.202232
 30
0.000000
  0
VERTEX
  8
LAYER-1
 10
6.371092
 20
0.206573
 30
0.000000
  0
VERTEX
  8
LAYER-1
 10
6.366754
 20
0.208309
 30
0.000000
  0
VERTEX
  8
LAYER-1
 10
6.362413
 20
0.208309
 30
0.000000
  0
VERTEX
  8
LAYER-1
 10
6.358072
 20
0.204837
 30
0.000000
  0
VERTEX
  8
LAYER-1
 10
6.358072
 20
0.200496
 30
0.000000
  0
VERTEX
  8
LAYER-1
 10
6.358941
 20
0.196155
 30
0.000000
  0
VERTEX
  8
LAYER-1
 10
6.363280
 20
0.193552
 30
0.000000
  0
SEQEND
  8
LAYER-1
  0
POLYLINE
  8
LAYER-1
 66
  1
 70
  1
 62
  0
 10
6.349391
 20
0.227840
 30
0.000000
  0
VERTEX
  8
LAYER-1
 10
6.349391
 20
0.227840
 30
0.000000
  0
VERTEX
  8
LAYER-1
 10
6.323349
 20
0.220896
 30
0.000000
  0
VERTEX
  8
LAYER-1
 10
6.337237
 20
0.195722
 30
0.000000
  0
SEQEND
  8
LAYER-1
  0
POLYLINE
  8
LAYER-1
 66
  1
 70
  1
 62
  0
 10
5.598172
 20
0.086522
 30
0.000000
  0
VERTEX
  8
LAYER-1
 10
5.598172
 20
0.086522
 30
0.000000
  0
VERTEX
  8
LAYER-1
 10
5.611192
 20
0.109092
 30
0.000000
  0
VERTEX
  8
LAYER-1
 10
5.580811
 20
0.088259
 30
0.000000
  0
SEQEND
  8
LAYER-1
  0
POLYLINE
  8
LAYER-1
 66
  1
 70
  0
 62
  0
 10
5.594698
 20
0.193292
 30
0.000000
  0
VERTEX
  8
LAYER-1
 10
5.594698
 20
0.193292
 30
0.000000
  0
VERTEX
  8
LAYER-1
 10
5.599039
 20
0.193292
 30
0.000000
  0
VERTEX
  8
LAYER-1
 10
5.602511
 20
0.197633
 30
0.000000
  0
VERTEX
  8
LAYER-1
 10
5.603380
 20
0.202840
 30
0.000000
  0
VERTEX
  8
LAYER-1
 10
5.601644
 20
0.207181
 30
0.000000
  0
VERTEX
  8
LAYER-1
 10
5.597303
 20
0.208917
 30
0.000000
  0
VERTEX
  8
LAYER-1
 10
5.592962
 20
0.208917
 30
0.000000
  0
VERTEX
  8
LAYER-1
 10
5.588622
 20
0.205445
 30
0.000000
  0
VERTEX
  8
LAYER-1
 10
5.588622
 20
0.201104
 30
0.000000
  0
VERTEX
  8
LAYER-1
 10
5.589491
 20
0.196764
 30
0.000000
  0
VERTEX
  8
LAYER-1
 10
5.593831
 20
0.194160
 30
0.000000
  0
SEQEND
  8
LAYER-1
  0
POLYLINE
  8
LAYER-1
 66
  1
 70
  1
 62
  0
 10
5.547389
 20
0.172023
 30
0.000000
  0
VERTEX
  8
LAYER-1
 10
5.547389
 20
0.172023
 30
0.000000
  0
VERTEX
  8
LAYER-1
 10
5.572564
 20
0.155530
 30
0.000000
  0
VERTEX
  8
LAYER-1
 10
5.580377
 20
0.170287
 30
0.000000
  0
SEQEND
  8
LAYER-1
  0
POLYLINE
  8
LAYER-1
 66
  1
 70
  1
 62
  0
 10
5.534036
 20
0.144411
 30
0.000000
  0
VERTEX
  8
LAYER-1
 10
5.534036
 20
0.144411
 30
0.000000
  0
VERTEX
  8
LAYER-1
 10
5.514672
 20
0.157099
 30
0.000000
  0
VERTEX
  8
LAYER-1
 10
5.508661
 20
0.145747
 30
0.000000
  0
SEQEND
  8
LAYER-1
  0
POLYLINE
  8
LAYER-1
 66
  1
 70
  1
 62
  0
 10
1.311281
 20
0.203273
 30
0.000000
  0
VERTEX
  8
LAYER-1
 10
1.311281
 20
0.203273
 30
0.000000
  0
VERTEX
  8
LAYER-1
 10
1.298260
 20
0.180703
 30
0.000000
  0
VERTEX
  8
LAYER-1
 10
1.328642
 20
0.201536
 30
0.000000
  0
SEQEND
  8
LAYER-1
  0
POLYLINE
  8
LAYER-1
 66
  1
 70
  1
 62
  0
 10
5.860762
 20
0.130358
 30
0.000000
  0
VERTEX
  8
LAYER-1
 10
5.860762
 20
0.130358
 30
0.000000
  0
VERTEX
  8
LAYER-1
 10
5.883331
 20
0.117338
 30
0.000000
  0
VERTEX
  8
LAYER-1
 10
5.862498
 20
0.147719
 30
0.000000
  0
SEQEND
  8
LAYER-1
  0
POLYLINE
  8
LAYER-1
 66
  1
 70
  0
 62
  0
 10
5.788713
 20
0.177231
 30
0.000000
  0
VERTEX
  8
LAYER-1
 10
5.788713
 20
0.177231
 30
0.000000
  0
VERTEX
  8
LAYER-1
 10
5.788713
 20
0.172890
 30
0.000000
  0
VERTEX
  8
LAYER-1
 10
5.793054
 20
0.169418
 30
0.000000
  0
VERTEX
  8
LAYER-1
 10
5.798262
 20
0.168550
 30
0.000000
  0
VERTEX
  8
LAYER-1
 10
5.802603
 20
0.170286
 30
0.000000
  0
VERTEX
  8
LAYER-1
 10
5.804338
 20
0.174627
 30
0.000000
  0
VERTEX
  8
LAYER-1
 10
5.804338
 20
0.178966
 30
0.000000
  0
VERTEX
  8
LAYER-1
 10
5.800866
 20
0.183307
 30
0.000000
  0
VERTEX
  8
LAYER-1
 10
5.796526
 20
0.183307
 30
0.000000
  0
VERTEX
  8
LAYER-1
 10
5.792185
 20
0.182439
 30
0.000000
  0
VERTEX
  8
LAYER-1
 10
5.789581
 20
0.178099
 30
0.000000
  0
SEQEND
  8
LAYER-1
  0
POLYLINE
  8
LAYER-1
 66
  1
 70
  1
 62
  0
 10
5.738366
 20
0.188516
 30
0.000000
  0
VERTEX
  8
LAYER-1
 10
5.738366
 20
0.188516
 30
0.000000
  0
VERTEX
  8
LAYER-1
 10
5.760935
 20
0.175496
 30
0.000000
  0
VERTEX
  8
LAYER-1
 10
5.740103
 20
0.205878
 30
0.000000
  0
SEQEND
  8
LAYER-1
  0
POLYLINE
  8
LAYER-1
 66
  1
 70
  0
 62
  0
 10
6.000519
 20
0.130358
 30
0.000000
  0
VERTEX
  8
LAYER-1
 10
6.000519
 20
0.130358
 30
0.000000
  0
VERTEX
  8
LAYER-1
 10
6.000519
 20
0.126018
 30
0.000000
  0
VERTEX
  8
LAYER-1
 10
6.004860
 20
0.122546
 30
0.000000
  0
VERTEX
  8
LAYER-1
 10
6.010067
 20
0.121678
 30
0.000000
  0
VERTEX
  8
LAYER-1
 10
6.014408
 20
0.123414
 30
0.000000
  0
VERTEX
  8
LAYER-1
 10
6.016144
 20
0.127753
 30
0.000000
  0
VERTEX
  8
LAYER-1
 10
6.016144
 20
0.132094
 30
0.000000
  0
VERTEX
  8
LAYER-1
 10
6.012672
 20
0.136435
 30
0.000000
  0
VERTEX
  8
LAYER-1
 10
6.008331
 20
0.136435
 30
0.000000
  0
VERTEX
  8
LAYER-1
 10
6.003991
 20
0.135566
 30
0.000000
  0
VERTEX
  8
LAYER-1
 10
6.001387
 20
0.131226
 30
0.000000
  0
SEQEND
  8
LAYER-1
  0
POLYLINE
  8
LAYER-1
 66
  1
 70
  0
 62
  0
 10
5.834720
 20
0.185046
 30
0.000000
  0
VERTEX
  8
LAYER-1
 10
5.834720
 20
0.185046
 30
0.000000
  0
VERTEX
  8
LAYER-1
 10
5.834720
 20
0.180706
 30
0.000000
  0
VERTEX
  8
LAYER-1
 10
5.839061
 20
0.177233
 30
0.000000
  0
VERTEX
  8
LAYER-1
 10
5.844269
 20
0.176365
 30
0.000000
  0
VERTEX
  8
LAYER-1
 10
5.848610
 20
0.178101
 30
0.000000
  0
VERTEX
  8
LAYER-1
 10
5.850345
 20
0.182441
 30
0.000000
  0
VERTEX
  8
LAYER-1
 10
5.850345
 20
0.186782
 30
0.000000
  0
VERTEX
  8
LAYER-1
 10
5.846873
 20
0.191122
 30
0.000000
  0
VERTEX
  8
LAYER-1
 10
5.842533
 20
0.191122
 30
0.000000
  0
VERTEX
  8
LAYER-1
 10
5.838192
 20
0.190253
 30
0.000000
  0
VERTEX
  8
LAYER-1
 10
5.835587
 20
0.185914
 30
0.000000
  0
SEQEND
  8
LAYER-1
  0
POLYLINE
  8
LAYER-1
 66
  1
 70
  1
 62
  0
 10
5.759200
 20
0.120376
 30
0.000000
  0
VERTEX
  8
LAYER-1
 10
5.759200
 20
0.120376
 30
0.000000
  0
VERTEX
  8
LAYER-1
 10
5.746179
 20
0.097805
 30
0.000000
  0
VERTEX
  8
LAYER-1
 10
5.776561
 20
0.118638
 30
0.000000
  0
SEQEND
  8
LAYER-1
  0
POLYLINE
  8
LAYER-1
 66
  1
 70
  0
 62
  0
 10
5.685499
 20
0.112510
 30
0.000000
  0
VERTEX
  8
LAYER-1
 10
5.685499
 20
0.112510
 30
0.000000
  0
VERTEX
  8
LAYER-1
 10
5.681160
 20
0.112510
 30
0.000000
  0
VERTEX
  8
LAYER-1
 10
5.677687
 20
0.108170
 30
0.000000
  0
VERTEX
  8
LAYER-1
 10
5.676819
 20
0.102962
 30
0.000000
  0
VERTEX
  8
LAYER-1
 10
5.678555
 20
0.098621
 30
0.000000
  0
VERTEX
  8
LAYER-1
 10
5.682896
 20
0.096885
 30
0.000000
  0
VERTEX
  8
LAYER-1
 10
5.687236
 20
0.096885
 30
0.000000
  0
VERTEX
  8
LAYER-1
 10
5.691576
 20
0.100357
 30
0.000000
  0
VERTEX
  8
LAYER-1
 10
5.691576
 20
0.104697
 30
0.000000
  0
VERTEX
  8
LAYER-1
 10
5.690708
 20
0.109038
 30
0.000000
  0
VERTEX
  8
LAYER-1
 10
5.686367
 20
0.111643
 30
0.000000
  0
SEQEND
  8
LAYER-1
  0
POLYLINE
  8
LAYER-1
 66
  1
 70
  0
 62
  0
 10
5.759200
 20
0.150756
 30
0.000000
  0
VERTEX
  8
LAYER-1
 10
5.759200
 20
0.150756
 30
0.000000
  0
VERTEX
  8
LAYER-1
 10
5.754860
 20
0.150756
 30
0.000000
  0
VERTEX
  8
LAYER-1
 10
5.751388
 20
0.146415
 30
0.000000
  0
VERTEX
  8
LAYER-1
 10
5.750520
 20
0.141207
 30
0.000000
  0
VERTEX
  8
LAYER-1
 10
5.752256
 20
0.136866
 30
0.000000
  0
VERTEX
  8
LAYER-1
 10
5.756596
 20
0.135131
 30
0.000000
  0
VERTEX
  8
LAYER-1
 10
5.760936
 20
0.135131
 30
0.000000
  0
VERTEX
  8
LAYER-1
 10
5.765277
 20
0.138602
 30
0.000000
  0
VERTEX
  8
LAYER-1
 10
5.765277
 20
0.142943
 30
0.000000
  0
VERTEX
  8
LAYER-1
 10
5.764409
 20
0.147284
 30
0.000000
  0
VERTEX
  8
LAYER-1
 10
5.760068
 20
0.149889
 30
0.000000
  0
SEQEND
  8
LAYER-1
  0
POLYLINE
  8
LAYER-1
 66
  1
 70
  1
 62
  0
 10
6.066491
 20
0.167250
 30
0.000000
  0
VERTEX
  8
LAYER-1
 10
6.066491
 20
0.167250
 30
0.000000
  0
VERTEX
  8
LAYER-1
 10
6.073436
 20
0.141208
 30
0.000000
  0
VERTEX
  8
LAYER-1
 10
6.098610
 20
0.155096
 30
0.000000
  0
SEQEND
  8
LAYER-1
  0
POLYLINE
  8
LAYER-1
 66
  1
 70
  1
 62
  0
 10
6.228818
 20
0.195896
 30
0.000000
  0
VERTEX
  8
LAYER-1
 10
6.228818
 20
0.195896
 30
0.000000
  0
VERTEX
  8
LAYER-1
 10
6.215797
 20
0.173326
 30
0.000000
  0
VERTEX
  8
LAYER-1
 10
6.246179
 20
0.194159
 30
0.000000
  0
SEQEND
  8
LAYER-1
  0
POLYLINE
  8
LAYER-1
 66
  1
 70
  0
 62
  0
 10
6.017013
 20
0.198500
 30
0.000000
  0
VERTEX
  8
LAYER-1
 10
6.017013
 20
0.198500
 30
0.000000
  0
VERTEX
  8
LAYER-1
 10
6.012672
 20
0.198500
 30
0.000000
  0
VERTEX
  8
LAYER-1
 10
6.009200
 20
0.194159
 30
0.000000
  0
VERTEX
  8
LAYER-1
 10
6.008331
 20
0.188951
 30
0.000000
  0
VERTEX
  8
LAYER-1
 10
6.010068
 20
0.184610
 30
0.000000
  0
VERTEX
  8
LAYER-1
 10
6.014408
 20
0.182875
 30
0.000000
  0
VERTEX
  8
LAYER-1
 10
6.018748
 20
0.182875
 30
0.000000
  0
VERTEX
  8
LAYER-1
 10
6.023089
 20
0.186346
 30
0.000000
  0
VERTEX
  8
LAYER-1
 10
6.023089
 20
0.190687
 30
0.000000
  0
VERTEX
  8
LAYER-1
 10
6.022220
 20
0.195028
 30
0.000000
  0
VERTEX
  8
LAYER-1
 10
6.017881
 20
0.197632
 30
0.000000
  0
SEQEND
  8
LAYER-1
  0
POLYLINE
  8
LAYER-1
 66
  1
 70
  1
 62
  0
 10
6.127257
 20
0.130791
 30
0.000000
  0
VERTEX
  8
LAYER-1
 10
6.127257
 20
0.130791
 30
0.000000
  0
VERTEX
  8
LAYER-1
 10
6.114235
 20
0.108221
 30
0.000000
  0
VERTEX
  8
LAYER-1
 10
6.144619
 20
0.129054
 30
0.000000
  0
SEQEND
  8
LAYER-1
  0
POLYLINE
  8
LAYER-1
 66
  1
 70
  0
 62
  0
 10
6.168922
 20
0.200235
 30
0.000000
  0
VERTEX
  8
LAYER-1
 10
6.168922
 20
0.200235
 30
0.000000
  0
VERTEX
  8
LAYER-1
 10
6.164581
 20
0.200235
 30
0.000000
  0
VERTEX
  8
LAYER-1
 10
6.161110
 20
0.195895
 30
0.000000
  0
VERTEX
  8
LAYER-1
 10
6.160241
 20
0.190687
 30
0.000000
  0
VERTEX
  8
LAYER-1
 10
6.161978
 20
0.186346
 30
0.000000
  0
VERTEX
  8
LAYER-1
 10
6.166318
 20
0.184610
 30
0.000000
  0
VERTEX
  8
LAYER-1
 10
6.170658
 20
0.184610
 30
0.000000
  0
VERTEX
  8
LAYER-1
 10
6.174998
 20
0.188082
 30
0.000000
  0
VERTEX
  8
LAYER-1
 10
6.174998
 20
0.192423
 30
0.000000
  0
VERTEX
  8
LAYER-1
 10
6.174131
 20
0.196764
 30
0.000000
  0
VERTEX
  8
LAYER-1
 10
6.169790
 20
0.199368
 30
0.000000
  0
SEQEND
  8
LAYER-1
  0
POLYLINE
  8
LAYER-1
 66
  1
 70
  1
 62
  0
 10
6.508331
 20
0.191555
 30
0.000000
  0
VERTEX
  8
LAYER-1
 10
6.508331
 20
0.191555
 30
0.000000
  0
VERTEX
  8
LAYER-1
 10
6.515276
 20
0.165515
 30
0.000000
  0
VERTEX
  8
LAYER-1
 10
6.540449
 20
0.179402
 30
0.000000
  0
SEQEND
  8
LAYER-1
  0
POLYLINE
  8
LAYER-1
 66
  1
 70
  1
 62
  0
 10
6.670658
 20
0.220202
 30
0.000000
  0
VERTEX
  8
LAYER-1
 10
6.670658
 20
0.220202
 30
0.000000
  0
VERTEX
  8
LAYER-1
 10
6.657636
 20
0.197632
 30
0.000000
  0
VERTEX
  8
LAYER-1
 10
6.688018
 20
0.218464
 30
0.000000
  0
SEQEND
  8
LAYER-1
  0
POLYLINE
  8
LAYER-1
 66
  1
 70
  1
 62
  0
 10
5.898957
 20
0.155965
 30
0.000000
  0
VERTEX
  8
LAYER-1
 10
5.898957
 20
0.155965
 30
0.000000
  0
VERTEX
  8
LAYER-1
 10
5.924131
 20
0.139471
 30
0.000000
  0
VERTEX
  8
LAYER-1
 10
5.931943
 20
0.154229
 30
0.000000
  0
SEQEND
  8
LAYER-1
  0
POLYLINE
  8
LAYER-1
 66
  1
 70
  0
 62
  0
 10
6.469269
 20
0.212390
 30
0.000000
  0
VERTEX
  8
LAYER-1
 10
6.469269
 20
0.212390
 30
0.000000
  0
VERTEX
  8
LAYER-1
 10
6.464928
 20
0.212390
 30
0.000000
  0
VERTEX
  8
LAYER-1
 10
6.461456
 20
0.208049
 30
0.000000
  0
VERTEX
  8
LAYER-1
 10
6.460588
 20
0.202841
 30
0.000000
  0
VERTEX
  8
LAYER-1
 10
6.462324
 20
0.198501
 30
0.000000
  0
VERTEX
  8
LAYER-1
 10
6.466665
 20
0.196765
 30
0.000000
  0
VERTEX
  8
LAYER-1
 10
6.471004
 20
0.196765
 30
0.000000
  0
VERTEX
  8
LAYER-1
 10
6.475345
 20
0.200237
 30
0.000000
  0
VERTEX
  8
LAYER-1
 10
6.475345
 20
0.204577
 30
0.000000
  0
VERTEX
  8
LAYER-1
 10
6.474478
 20
0.208918
 30
0.000000
  0
VERTEX
  8
LAYER-1
 10
6.470137
 20
0.211522
 30
0.000000
  0
SEQEND
  8
LAYER-1
  0
POLYLINE
  8
LAYER-1
 66
  1
 70
  1
 62
  0
 10
6.484895
 20
0.123847
 30
0.000000
  0
VERTEX
  8
LAYER-1
 10
6.484895
 20
0.123847
 30
0.000000
  0
VERTEX
  8
LAYER-1
 10
6.471873
 20
0.101277
 30
0.000000
  0
VERTEX
  8
LAYER-1
 10
6.502256
 20
0.122109
 30
0.000000
  0
SEQEND
  8
LAYER-1
  0
POLYLINE
  8
LAYER-1
 66
  1
 70
  1
 62
  0
 10
6.579344
 20
0.138265
 30
0.000000
  0
VERTEX
  8
LAYER-1
 10
6.579344
 20
0.138265
 30
0.000000
  0
VERTEX
  8
LAYER-1
 10
6.566659
 20
0.118902
 30
0.000000
  0
VERTEX
  8
LAYER-1
 10
6.578008
 20
0.112890
 30
0.000000
  0
SEQEND
  8
LAYER-1
  0
POLYLINE
  8
LAYER-1
 66
  1
 70
  0
 62
  0
 10
6.610762
 20
0.216729
 30
0.000000
  0
VERTEX
  8
LAYER-1
 10
6.610762
 20
0.216729
 30
0.000000
  0
VERTEX
  8
LAYER-1
 10
6.606422
 20
0.216729
 30
0.000000
  0
VERTEX
  8
LAYER-1
 10
6.602949
 20
0.212389
 30
0.000000
  0
VERTEX
  8
LAYER-1
 10
6.602081
 20
0.207181
 30
0.000000
  0
VERTEX
  8
LAYER-1
 10
6.603817
 20
0.202840
 30
0.000000
  0
VERTEX
  8
LAYER-1
 10
6.608158
 20
0.201104
 30
0.000000
  0
VERTEX
  8
LAYER-1
 10
6.612498
 20
0.201104
 30
0.000000
  0
VERTEX
  8
LAYER-1
 10
6.616838
 20
0.204576
 30
0.000000
  0
VERTEX
  8
LAYER-1
 10
6.616838
 20
0.208917
 30
0.000000
  0
VERTEX
  8
LAYER-1
 10
6.615970
 20
0.213258
 30
0.000000
  0
VERTEX
  8
LAYER-1
 10
6.611629
 20
0.215863
 30
0.000000
  0
SEQEND
  8
LAYER-1
  0
POLYLINE
  8
LAYER-1
 66
  1
 70
  0
 62
  0
 10
5.887673
 20
0.208917
 30
0.000000
  0
VERTEX
  8
LAYER-1
 10
5.887673
 20
0.208917
 30
0.000000
  0
VERTEX
  8
LAYER-1
 10
5.887673
 20
0.204576
 30
0.000000
  0
VERTEX
  8
LAYER-1
 10
5.892014
 20
0.201104
 30
0.000000
  0
VERTEX
  8
LAYER-1
 10
5.897221
 20
0.200235
 30
0.000000
  0
VERTEX
  8
LAYER-1
 10
5.901562
 20
0.201971
 30
0.000000
  0
VERTEX
  8
LAYER-1
 10
5.903298
 20
0.206312
 30
0.000000
  0
VERTEX
  8
LAYER-1
 10
5.903298
 20
0.210653
 30
0.000000
  0
VERTEX
  8
LAYER-1
 10
5.899826
 20
0.214994
 30
0.000000
  0
VERTEX
  8
LAYER-1
 10
5.895485
 20
0.214994
 30
0.000000
  0
VERTEX
  8
LAYER-1
 10
5.891145
 20
0.214125
 30
0.000000
  0
VERTEX
  8
LAYER-1
 10
5.888540
 20
0.209784
 30
0.000000
  0
SEQEND
  8
LAYER-1
  0
POLYLINE
  8
LAYER-1
 66
  1
 70
  0
 62
  0
 10
6.451039
 20
0.124713
 30
0.000000
  0
VERTEX
  8
LAYER-1
 10
6.451039
 20
0.124713
 30
0.000000
  0
VERTEX
  8
LAYER-1
 10
6.446698
 20
0.124713
 30
0.000000
  0
VERTEX
  8
LAYER-1
 10
6.443226
 20
0.120372
 30
0.000000
  0
VERTEX
  8
LAYER-1
 10
6.442359
 20
0.115165
 30
0.000000
  0
VERTEX
  8
LAYER-1
 10
6.444094
 20
0.110825
 30
0.000000
  0
VERTEX
  8
LAYER-1
 10
6.448435
 20
0.109088
 30
0.000000
  0
VERTEX
  8
LAYER-1
 10
6.452775
 20
0.109088
 30
0.000000
  0
VERTEX
  8
LAYER-1
 10
6.457116
 20
0.112560
 30
0.000000
  0
VERTEX
  8
LAYER-1
 10
6.457116
 20
0.116901
 30
0.000000
  0
VERTEX
  8
LAYER-1
 10
6.456248
 20
0.121241
 30
0.000000
  0
VERTEX
  8
LAYER-1
 10
6.451907
 20
0.123846
 30
0.000000
  0
SEQEND
  8
LAYER-1
  0
POLYLINE
  8
LAYER-1
 66
  1
 70
  0
 62
  0
 10
6.349478
 20
0.162476
 30
0.000000
  0
VERTEX
  8
LAYER-1
 10
6.349478
 20
0.162476
 30
0.000000
  0
VERTEX
  8
LAYER-1
 10
6.349478
 20
0.166816
 30
0.000000
  0
VERTEX
  8
LAYER-1
 10
6.345138
 20
0.170288
 30
0.000000
  0
VERTEX
  8
LAYER-1
 10
6.339930
 20
0.171156
 30
0.000000
  0
VERTEX
  8
LAYER-1
 10
6.335589
 20
0.169420
 30
0.000000
  0
VERTEX
  8
LAYER-1
 10
6.333853
 20
0.165079
 30
0.000000
  0
VERTEX
  8
LAYER-1
 10
6.333853
 20
0.160739
 30
0.000000
  0
VERTEX
  8
LAYER-1
 10
6.337325
 20
0.156400
 30
0.000000
  0
VERTEX
  8
LAYER-1
 10
6.341666
 20
0.156400
 30
0.000000
  0
VERTEX
  8
LAYER-1
 10
6.346007
 20
0.157266
 30
0.000000
  0
VERTEX
  8
LAYER-1
 10
6.348610
 20
0.161608
 30
0.000000
  0
SEQEND
  8
LAYER-1
  0
POLYLINE
  8
LAYER-1
 66
  1
 70
  1
 62
  0
 10
6.281769
 20
0.149454
 30
0.000000
  0
VERTEX
  8
LAYER-1
 10
6.281769
 20
0.149454
 30
0.000000
  0
VERTEX
  8
LAYER-1
 10
6.259200
 20
0.162475
 30
0.000000
  0
VERTEX
  8
LAYER-1
 10
6.280033
 20
0.132093
 30
0.000000
  0
SEQEND
  8
LAYER-1
  0
POLYLINE
  8
LAYER-1
 66
  1
 70
  0
 62
  0
 10
6.199305
 20
0.114733
 30
0.000000
  0
VERTEX
  8
LAYER-1
 10
6.199305
 20
0.114733
 30
0.000000
  0
VERTEX
  8
LAYER-1
 10
6.199305
 20
0.119073
 30
0.000000
  0
VERTEX
  8
LAYER-1
 10
6.194964
 20
0.122545
 30
0.000000
  0
VERTEX
  8
LAYER-1
 10
6.189757
 20
0.123413
 30
0.000000
  0
VERTEX
  8
LAYER-1
 10
6.185416
 20
0.121677
 30
0.000000
  0
VERTEX
  8
LAYER-1
 10
6.183680
 20
0.117338
 30
0.000000
  0
VERTEX
  8
LAYER-1
 10
6.183680
 20
0.112996
 30
0.000000
  0
VERTEX
  8
LAYER-1
 10
6.187152
 20
0.108656
 30
0.000000
  0
VERTEX
  8
LAYER-1
 10
6.191492
 20
0.108656
 30
0.000000
  0
VERTEX
  8
LAYER-1
 10
6.195833
 20
0.109525
 30
0.000000
  0
VERTEX
  8
LAYER-1
 10
6.198436
 20
0.113864
 30
0.000000
  0
SEQEND
  8
LAYER-1
  0
POLYLINE
  8
LAYER-1
 66
  1
 70
  1
 62
  0
 10
6.389582
 20
0.105011
 30
0.000000
  0
VERTEX
  8
LAYER-1
 10
6.389582
 20
0.105011
 30
0.000000
  0
VERTEX
  8
LAYER-1
 10
6.382638
 20
0.131052
 30
0.000000
  0
VERTEX
  8
LAYER-1
 10
6.357465
 20
0.117165
 30
0.000000
  0
SEQEND
  8
LAYER-1
  0
POLYLINE
  8
LAYER-1
 66
  1
 70
  1
 62
  0
 10
6.411110
 20
0.159437
 30
0.000000
  0
VERTEX
  8
LAYER-1
 10
6.411110
 20
0.159437
 30
0.000000
  0
VERTEX
  8
LAYER-1
 10
6.424131
 20
0.182008
 30
0.000000
  0
VERTEX
  8
LAYER-1
 10
6.393748
 20
0.161175
 30
0.000000
  0
SEQEND
  8
LAYER-1
  0
POLYLINE
  8
LAYER-1
 66
  1
 70
  1
 62
  0
 10
5.839061
 20
0.103014
 30
0.000000
  0
VERTEX
  8
LAYER-1
 10
5.839061
 20
0.103014
 30
0.000000
  0
VERTEX
  8
LAYER-1
 10
5.816491
 20
0.116035
 30
0.000000
  0
VERTEX
  8
LAYER-1
 10
5.837323
 20
0.085653
 30
0.000000
  0
SEQEND
  8
LAYER-1
  0
POLYLINE
  8
LAYER-1
 66
  1
 70
  1
 62
  0
 10
6.616839
 20
0.127320
 30
0.000000
  0
VERTEX
  8
LAYER-1
 10
6.616839
 20
0.127320
 30
0.000000
  0
VERTEX
  8
LAYER-1
 10
6.633333
 20
0.152494
 30
0.000000
  0
VERTEX
  8
LAYER-1
 10
6.618575
 20
0.160306
 30
0.000000
  0
SEQEND
  8
LAYER-1
  0
POLYLINE
  8
LAYER-1
 66
  1
 70
  0
 62
  0
 10
6.647739
 20
0.053916
 30
0.000000
  0
VERTEX
  8
LAYER-1
 10
6.647739
 20
0.053916
 30
0.000000
  0
VERTEX
  8
LAYER-1
 10
6.652080
 20
0.053916
 30
0.000000
  0
VERTEX
  8
LAYER-1
 10
6.655552
 20
0.058257
 30
0.000000
  0
VERTEX
  8
LAYER-1
 10
6.656420
 20
0.063465
 30
0.000000
  0
VERTEX
  8
LAYER-1
 10
6.654684
 20
0.067806
 30
0.000000
  0
VERTEX
  8
LAYER-1
 10
6.650344
 20
0.069541
 30
0.000000
  0
VERTEX
  8
LAYER-1
 10
6.646003
 20
0.069541
 30
0.000000
  0
VERTEX
  8
LAYER-1
 10
6.641663
 20
0.066070
 30
0.000000
  0
VERTEX
  8
LAYER-1
 10
6.641663
 20
0.061729
 30
0.000000
  0
VERTEX
  8
LAYER-1
 10
6.642531
 20
0.057388
 30
0.000000
  0
VERTEX
  8
LAYER-1
 10
6.646871
 20
0.054783
 30
0.000000
  0
SEQEND
  8
LAYER-1
  0
POLYLINE
  8
LAYER-1
 66
  1
 70
  0
 62
  0
 10
6.624303
 20
0.079096
 30
0.000000
  0
VERTEX
  8
LAYER-1
 10
6.624303
 20
0.079096
 30
0.000000
  0
VERTEX
  8
LAYER-1
 10
6.628644
 20
0.079096
 30
0.000000
  0
VERTEX
  8
LAYER-1
 10
6.632115
 20
0.083437
 30
0.000000
  0
VERTEX
  8
LAYER-1
 10
6.632982
 20
0.088644
 30
0.000000
  0
VERTEX
  8
LAYER-1
 10
6.631246
 20
0.092985
 30
0.000000
  0
VERTEX
  8
LAYER-1
 10
6.626906
 20
0.094721
 30
0.000000
  0
VERTEX
  8
LAYER-1
 10
6.622567
 20
0.094721
 30
0.000000
  0
VERTEX
  8
LAYER-1
 10
6.618226
 20
0.091249
 30
0.000000
  0
VERTEX
  8
LAYER-1
 10
6.618226
 20
0.086908
 30
0.000000
  0
VERTEX
  8
LAYER-1
 10
6.619093
 20
0.082568
 30
0.000000
  0
VERTEX
  8
LAYER-1
 10
6.623434
 20
0.079963
 30
0.000000
  0
SEQEND
  8
LAYER-1
  0
POLYLINE
  8
LAYER-1
 66
  1
 70
  1
 62
  0
 10
6.698521
 20
0.095151
 30
0.000000
  0
VERTEX
  8
LAYER-1
 10
6.698521
 20
0.095151
 30
0.000000
  0
VERTEX
  8
LAYER-1
 10
6.673347
 20
0.111644
 30
0.000000
  0
VERTEX
  8
LAYER-1
 10
6.665535
 20
0.096887
 30
0.000000
  0
SEQEND
  8
LAYER-1
  0
POLYLINE
  8
LAYER-1
 66
  1
 70
  0
 62
  0
 10
6.708937
 20
0.134215
 30
0.000000
  0
VERTEX
  8
LAYER-1
 10
6.708937
 20
0.134215
 30
0.000000
  0
VERTEX
  8
LAYER-1
 10
6.708937
 20
0.138557
 30
0.000000
  0
VERTEX
  8
LAYER-1
 10
6.704596
 20
0.142028
 30
0.000000
  0
VERTEX
  8
LAYER-1
 10
6.699389
 20
0.142896
 30
0.000000
  0
VERTEX
  8
LAYER-1
 10
6.695048
 20
0.141160
 30
0.000000
  0
VERTEX
  8
LAYER-1
 10
6.693312
 20
0.136820
 30
0.000000
  0
VERTEX
  8
LAYER-1
 10
6.693312
 20
0.132480
 30
0.000000
  0
VERTEX
  8
LAYER-1
 10
6.696784
 20
0.128139
 30
0.000000
  0
VERTEX
  8
LAYER-1
 10
6.701125
 20
0.128139
 30
0.000000
  0
VERTEX
  8
LAYER-1
 10
6.705465
 20
0.129007
 30
0.000000
  0
VERTEX
  8
LAYER-1
 10
6.708070
 20
0.133347
 30
0.000000
  0
SEQEND
  8
LAYER-1
  0
POLYLINE
  8
LAYER-1
 66
  1
 70
  1
 62
  0
 10
6.655460
 20
0.140067
 30
0.000000
  0
VERTEX
  8
LAYER-1
 10
6.655460
 20
0.140067
 30
0.000000
  0
VERTEX
  8
LAYER-1
 10
6.668146
 20
0.159431
 30
0.000000
  0
VERTEX
  8
LAYER-1
 10
6.656796
 20
0.165443
 30
0.000000
  0
SEQEND
  8
LAYER-1
  0
POLYLINE
  8
LAYER-1
 66
  1
 70
  0
 62
  0
 10
5.978816
 20
0.169854
 30
0.000000
  0
VERTEX
  8
LAYER-1
 10
5.978816
 20
0.169854
 30
0.000000
  0
VERTEX
  8
LAYER-1
 10
5.978816
 20
0.174193
 30
0.000000
  0
VERTEX
  8
LAYER-1
 10
5.974475
 20
0.177667
 30
0.000000
  0
VERTEX
  8
LAYER-1
 10
5.969268
 20
0.178534
 30
0.000000
  0
VERTEX
  8
LAYER-1
 10
5.964927
 20
0.176798
 30
0.000000
  0
VERTEX
  8
LAYER-1
 10
5.963191
 20
0.172457
 30
0.000000
  0
VERTEX
  8
LAYER-1
 10
5.963191
 20
0.168116
 30
0.000000
  0
VERTEX
  8
LAYER-1
 10
5.966663
 20
0.163778
 30
0.000000
  0
VERTEX
  8
LAYER-1
 10
5.971004
 20
0.163778
 30
0.000000
  0
VERTEX
  8
LAYER-1
 10
5.975344
 20
0.164645
 30
0.000000
  0
VERTEX
  8
LAYER-1
 10
5.977949
 20
0.168985
 30
0.000000
  0
SEQEND
  8
LAYER-1
  0
POLYLINE
  8
LAYER-1
 66
  1
 70
  0
 62
  0
 10
6.564756
 20
0.133397
 30
0.000000
  0
VERTEX
  8
LAYER-1
 10
6.564756
 20
0.133397
 30
0.000000
  0
VERTEX
  8
LAYER-1
 10
6.569096
 20
0.133397
 30
0.000000
  0
VERTEX
  8
LAYER-1
 10
6.572568
 20
0.137738
 30
0.000000
  0
VERTEX
  8
LAYER-1
 10
6.573436
 20
0.142945
 30
0.000000
  0
VERTEX
  8
LAYER-1
 10
6.571700
 20
0.147285
 30
0.000000
  0
VERTEX
  8
LAYER-1
 10
6.567360
 20
0.149022
 30
0.000000
  0
VERTEX
  8
LAYER-1
 10
6.563020
 20
0.149022
 30
0.000000
  0
VERTEX
  8
LAYER-1
 10
6.558679
 20
0.145550
 30
0.000000
  0
VERTEX
  8
LAYER-1
 10
6.558679
 20
0.141209
 30
0.000000
  0
VERTEX
  8
LAYER-1
 10
6.559547
 20
0.136869
 30
0.000000
  0
VERTEX
  8
LAYER-1
 10
6.563888
 20
0.134264
 30
0.000000
  0
SEQEND
  8
LAYER-1
  0
POLYLINE
  8
LAYER-1
 66
  1
 70
  1
 62
  0
 10
0.822390
 20
0.137078
 30
0.000000
  0
VERTEX
  8
LAYER-1
 10
0.822390
 20
0.137078
 30
0.000000
  0
VERTEX
  8
LAYER-1
 10
0.799820
 20
0.150098
 30
0.000000
  0
VERTEX
  8
LAYER-1
 10
0.820653
 20
0.119717
 30
0.000000
  0
SEQEND
  8
LAYER-1
  0
POLYLINE
  8
LAYER-1
 66
  1
 70
  0
 62
  0
 10
0.811106
 20
0.070237
 30
0.000000
  0
VERTEX
  8
LAYER-1
 10
0.811106
 20
0.070237
 30
0.000000
  0
VERTEX
  8
LAYER-1
 10
0.811106
 20
0.074576
 30
0.000000
  0
VERTEX
  8
LAYER-1
 10
0.806765
 20
0.078050
 30
0.000000
  0
VERTEX
  8
LAYER-1
 10
0.801558
 20
0.078917
 30
0.000000
  0
VERTEX
  8
LAYER-1
 10
0.797217
 20
0.077181
 30
0.000000
  0
VERTEX
  8
LAYER-1
 10
0.795481
 20
0.072840
 30
0.000000
  0
VERTEX
  8
LAYER-1
 10
0.795481
 20
0.068499
 30
0.000000
  0
VERTEX
  8
LAYER-1
 10
0.798953
 20
0.064161
 30
0.000000
  0
VERTEX
  8
LAYER-1
 10
0.803294
 20
0.064161
 30
0.000000
  0
VERTEX
  8
LAYER-1
 10
0.807634
 20
0.065028
 30
0.000000
  0
VERTEX
  8
LAYER-1
 10
0.810239
 20
0.069368
 30
0.000000
  0
SEQEND
  8
LAYER-1
  0
POLYLINE
  8
LAYER-1
 66
  1
 70
  1
 62
  0
 10
1.089146
 20
0.059037
 30
0.000000
  0
VERTEX
  8
LAYER-1
 10
1.089146
 20
0.059037
 30
0.000000
  0
VERTEX
  8
LAYER-1
 10
1.105639
 20
0.084211
 30
0.000000
  0
VERTEX
  8
LAYER-1
 10
1.090882
 20
0.092023
 30
0.000000
  0
SEQEND
  8
LAYER-1
  0
POLYLINE
  8
LAYER-1
 66
  1
 70
  1
 62
  0
 10
1.137055
 20
0.074131
 30
0.000000
  0
VERTEX
  8
LAYER-1
 10
1.137055
 20
0.074131
 30
0.000000
  0
VERTEX
  8
LAYER-1
 10
1.149743
 20
0.093496
 30
0.000000
  0
VERTEX
  8
LAYER-1
 10
1.138391
 20
0.099507
 30
0.000000
  0
SEQEND
  8
LAYER-1
  0
POLYLINE
  8
LAYER-1
 66
  1
 70
  0
 62
  0
 10
1.201125
 20
0.050359
 30
0.000000
  0
VERTEX
  8
LAYER-1
 10
1.201125
 20
0.050359
 30
0.000000
  0
VERTEX
  8
LAYER-1
 10
1.205465
 20
0.050359
 30
0.000000
  0
VERTEX
  8
LAYER-1
 10
1.208937
 20
0.054700
 30
0.000000
  0
VERTEX
  8
LAYER-1
 10
1.209805
 20
0.059908
 30
0.000000
  0
VERTEX
  8
LAYER-1
 10
1.208069
 20
0.064248
 30
0.000000
  0
VERTEX
  8
LAYER-1
 10
1.203729
 20
0.065984
 30
0.000000
  0
VERTEX
  8
LAYER-1
 10
1.199389
 20
0.065984
 30
0.000000
  0
VERTEX
  8
LAYER-1
 10
1.195048
 20
0.062513
 30
0.000000
  0
VERTEX
  8
LAYER-1
 10
1.195048
 20
0.058172
 30
0.000000
  0
VERTEX
  8
LAYER-1
 10
1.195916
 20
0.053831
 30
0.000000
  0
VERTEX
  8
LAYER-1
 10
1.200257
 20
0.051227
 30
0.000000
  0
SEQEND
  8
LAYER-1
  0
POLYLINE
  8
LAYER-1
 66
  1
 70
  1
 62
  0
 10
1.234979
 20
0.113291
 30
0.000000
  0
VERTEX
  8
LAYER-1
 10
1.234979
 20
0.113291
 30
0.000000
  0
VERTEX
  8
LAYER-1
 10
1.208937
 20
0.106347
 30
0.000000
  0
VERTEX
  8
LAYER-1
 10
1.222825
 20
0.081173
 30
0.000000
  0
SEQEND
  8
LAYER-1
  0
POLYLINE
  8
LAYER-1
 66
  1
 70
  0
 62
  0
 10
2.602861
 20
0.080999
 30
0.000000
  0
VERTEX
  8
LAYER-1
 10
2.602861
 20
0.080999
 30
0.000000
  0
VERTEX
  8
LAYER-1
 10
2.602861
 20
0.085340
 30
0.000000
  0
VERTEX
  8
LAYER-1
 10
2.598520
 20
0.088811
 30
0.000000
  0
VERTEX
  8
LAYER-1
 10
2.593312
 20
0.089679
 30
0.000000
  0
VERTEX
  8
LAYER-1
 10
2.588972
 20
0.087943
 30
0.000000
  0
VERTEX
  8
LAYER-1
 10
2.587236
 20
0.083604
 30
0.000000
  0
VERTEX
  8
LAYER-1
 10
2.587236
 20
0.079263
 30
0.000000
  0
VERTEX
  8
LAYER-1
 10
2.590708
 20
0.074922
 30
0.000000
  0
VERTEX
  8
LAYER-1
 10
2.595048
 20
0.074922
 30
0.000000
  0
VERTEX
  8
LAYER-1
 10
2.599389
 20
0.075791
 30
0.000000
  0
VERTEX
  8
LAYER-1
 10
2.601993
 20
0.080131
 30
0.000000
  0
SEQEND
  8
LAYER-1
  0
POLYLINE
  8
LAYER-1
 66
  1
 70
  1
 62
  0
 10
2.536888
 20
0.044107
 30
0.000000
  0
VERTEX
  8
LAYER-1
 10
2.536888
 20
0.044107
 30
0.000000
  0
VERTEX
  8
LAYER-1
 10
2.529943
 20
0.070149
 30
0.000000
  0
VERTEX
  8
LAYER-1
 10
2.504770
 20
0.056261
 30
0.000000
  0
SEQEND
  8
LAYER-1
  0
POLYLINE
  8
LAYER-1
 66
  1
 70
  1
 62
  0
 10
2.549040
 20
0.080566
 30
0.000000
  0
VERTEX
  8
LAYER-1
 10
2.549040
 20
0.080566
 30
0.000000
  0
VERTEX
  8
LAYER-1
 10
2.562062
 20
0.103136
 30
0.000000
  0
VERTEX
  8
LAYER-1
 10
2.531679
 20
0.082303
 30
0.000000
  0
SEQEND
  8
LAYER-1
  0
POLYLINE
  8
LAYER-1
 66
  1
 70
  0
 62
  0
 10
2.385239
 20
0.091416
 30
0.000000
  0
VERTEX
  8
LAYER-1
 10
2.385239
 20
0.091416
 30
0.000000
  0
VERTEX
  8
LAYER-1
 10
2.380899
 20
0.091416
 30
0.000000
  0
VERTEX
  8
LAYER-1
 10
2.377427
 20
0.087075
 30
0.000000
  0
VERTEX
  8
LAYER-1
 10
2.376559
 20
0.081868
 30
0.000000
  0
VERTEX
  8
LAYER-1
 10
2.378295
 20
0.077527
 30
0.000000
  0
VERTEX
  8
LAYER-1
 10
2.382635
 20
0.075791
 30
0.000000
  0
VERTEX
  8
LAYER-1
 10
2.386975
 20
0.075791
 30
0.000000
  0
VERTEX
  8
LAYER-1
 10
2.391316
 20
0.079263
 30
0.000000
  0
VERTEX
  8
LAYER-1
 10
2.391316
 20
0.083604
 30
0.000000
  0
VERTEX
  8
LAYER-1
 10
2.390448
 20
0.087944
 30
0.000000
  0
VERTEX
  8
LAYER-1
 10
2.386107
 20
0.090549
 30
0.000000
  0
SEQEND
  8
LAYER-1
  0
POLYLINE
  8
LAYER-1
 66
  1
 70
  1
 62
  0
 10
2.465100
 20
0.054090
 30
0.000000
  0
VERTEX
  8
LAYER-1
 10
2.465100
 20
0.054090
 30
0.000000
  0
VERTEX
  8
LAYER-1
 10
2.442530
 20
0.067112
 30
0.000000
  0
VERTEX
  8
LAYER-1
 10
2.463362
 20
0.036729
 30
0.000000
  0
SEQEND
  8
LAYER-1
  0
POLYLINE
  8
LAYER-1
 66
  1
 70
  1
 62
  0
 10
3.060071
 20
0.054940
 30
0.000000
  0
VERTEX
  8
LAYER-1
 10
3.060071
 20
0.054940
 30
0.000000
  0
VERTEX
  8
LAYER-1
 10
3.073092
 20
0.077510
 30
0.000000
  0
VERTEX
  8
LAYER-1
 10
3.042710
 20
0.056678
 30
0.000000
  0
SEQEND
  8
LAYER-1
  0
POLYLINE
  8
LAYER-1
 66
  1
 70
  1
 62
  0
 10
2.965621
 20
0.061353
 30
0.000000
  0
VERTEX
  8
LAYER-1
 10
2.965621
 20
0.061353
 30
0.000000
  0
VERTEX
  8
LAYER-1
 10
2.978308
 20
0.080717
 30
0.000000
  0
VERTEX
  8
LAYER-1
 10
2.966957
 20
0.086728
 30
0.000000
  0
SEQEND
  8
LAYER-1
  0
POLYLINE
  8
LAYER-1
 66
  1
 70
  0
 62
  0
 10
3.093927
 20
0.054073
 30
0.000000
  0
VERTEX
  8
LAYER-1
 10
3.093927
 20
0.054073
 30
0.000000
  0
VERTEX
  8
LAYER-1
 10
3.098267
 20
0.054073
 30
0.000000
  0
VERTEX
  8
LAYER-1
 10
3.101739
 20
0.058414
 30
0.000000
  0
VERTEX
  8
LAYER-1
 10
3.102607
 20
0.063622
 30
0.000000
  0
VERTEX
  8
LAYER-1
 10
3.100871
 20
0.067963
 30
0.000000
  0
VERTEX
  8
LAYER-1
 10
3.096530
 20
0.069698
 30
0.000000
  0
VERTEX
  8
LAYER-1
 10
3.092191
 20
0.069698
 30
0.000000
  0
VERTEX
  8
LAYER-1
 10
3.087850
 20
0.066227
 30
0.000000
  0
VERTEX
  8
LAYER-1
 10
3.087850
 20
0.061885
 30
0.000000
  0
VERTEX
  8
LAYER-1
 10
3.088718
 20
0.057545
 30
0.000000
  0
VERTEX
  8
LAYER-1
 10
3.093059
 20
0.054940
 30
0.000000
  0
SEQEND
  8
LAYER-1
  0
POLYLINE
  8
LAYER-1
 66
  1
 70
  0
 62
  0
 10
2.980210
 20
0.045390
 30
0.000000
  0
VERTEX
  8
LAYER-1
 10
2.980210
 20
0.045390
 30
0.000000
  0
VERTEX
  8
LAYER-1
 10
2.975869
 20
0.045390
 30
0.000000
  0
VERTEX
  8
LAYER-1
 10
2.972397
 20
0.041050
 30
0.000000
  0
VERTEX
  8
LAYER-1
 10
2.971529
 20
0.035841
 30
0.000000
  0
VERTEX
  8
LAYER-1
 10
2.973265
 20
0.031501
 30
0.000000
  0
VERTEX
  8
LAYER-1
 10
2.977606
 20
0.029765
 30
0.000000
  0
VERTEX
  8
LAYER-1
 10
2.981946
 20
0.029765
 30
0.000000
  0
VERTEX
  8
LAYER-1
 10
2.986287
 20
0.033237
 30
0.000000
  0
VERTEX
  8
LAYER-1
 10
2.986287
 20
0.037577
 30
0.000000
  0
VERTEX
  8
LAYER-1
 10
2.985419
 20
0.041918
 30
0.000000
  0
VERTEX
  8
LAYER-1
 10
2.981078
 20
0.044523
 30
0.000000
  0
SEQEND
  8
LAYER-1
  0
POLYLINE
  8
LAYER-1
 66
  1
 70
  1
 62
  0
 10
2.821263
 20
0.058690
 30
0.000000
  0
VERTEX
  8
LAYER-1
 10
2.821263
 20
0.058690
 30
0.000000
  0
VERTEX
  8
LAYER-1
 10
2.834284
 20
0.081262
 30
0.000000
  0
VERTEX
  8
LAYER-1
 10
2.803903
 20
0.060428
 30
0.000000
  0
SEQEND
  8
LAYER-1
  0
POLYLINE
  8
LAYER-1
 66
  1
 70
  0
 62
  0
 10
2.855119
 20
0.057824
 30
0.000000
  0
VERTEX
  8
LAYER-1
 10
2.855119
 20
0.057824
 30
0.000000
  0
VERTEX
  8
LAYER-1
 10
2.859460
 20
0.057824
 30
0.000000
  0
VERTEX
  8
LAYER-1
 10
2.862932
 20
0.062164
 30
0.000000
  0
VERTEX
  8
LAYER-1
 10
2.863800
 20
0.067372
 30
0.000000
  0
VERTEX
  8
LAYER-1
 10
2.862064
 20
0.071713
 30
0.000000
  0
VERTEX
  8
LAYER-1
 10
2.857723
 20
0.073449
 30
0.000000
  0
VERTEX
  8
LAYER-1
 10
2.853383
 20
0.073449
 30
0.000000
  0
VERTEX
  8
LAYER-1
 10
2.849042
 20
0.069977
 30
0.000000
  0
VERTEX
  8
LAYER-1
 10
2.849042
 20
0.065637
 30
0.000000
  0
VERTEX
  8
LAYER-1
 10
2.849911
 20
0.061295
 30
0.000000
  0
VERTEX
  8
LAYER-1
 10
2.854251
 20
0.058690
 30
0.000000
  0
SEQEND
  8
LAYER-1
  0
POLYLINE
  8
LAYER-1
 66
  1
 70
  1
 62
  0
 10
3.453381
 20
0.093761
 30
0.000000
  0
VERTEX
  8
LAYER-1
 10
3.453381
 20
0.093761
 30
0.000000
  0
VERTEX
  8
LAYER-1
 10
3.475951
 20
0.080740
 30
0.000000
  0
VERTEX
  8
LAYER-1
 10
3.455119
 20
0.111122
 30
0.000000
  0
SEQEND
  8
LAYER-1
  0
POLYLINE
  8
LAYER-1
 66
  1
 70
  0
 62
  0
 10
3.452514
 20
0.059906
 30
0.000000
  0
VERTEX
  8
LAYER-1
 10
3.452514
 20
0.059906
 30
0.000000
  0
VERTEX
  8
LAYER-1
 10
3.452514
 20
0.055565
 30
0.000000
  0
VERTEX
  8
LAYER-1
 10
3.456855
 20
0.052094
 30
0.000000
  0
VERTEX
  8
LAYER-1
 10
3.462062
 20
0.051225
 30
0.000000
  0
VERTEX
  8
LAYER-1
 10
3.466403
 20
0.052961
 30
0.000000
  0
VERTEX
  8
LAYER-1
 10
3.468139
 20
0.057302
 30
0.000000
  0
VERTEX
  8
LAYER-1
 10
3.468139
 20
0.061641
 30
0.000000
  0
VERTEX
  8
LAYER-1
 10
3.464667
 20
0.065982
 30
0.000000
  0
VERTEX
  8
LAYER-1
 10
3.460326
 20
0.065982
 30
0.000000
  0
VERTEX
  8
LAYER-1
 10
3.455986
 20
0.065114
 30
0.000000
  0
VERTEX
  8
LAYER-1
 10
3.453381
 20
0.060773
 30
0.000000
  0
SEQEND
  8
LAYER-1
  0
POLYLINE
  8
LAYER-1
 66
  1
 70
  1
 62
  0
 10
4.002861
 20
0.125791
 30
0.000000
  0
VERTEX
  8
LAYER-1
 10
4.002861
 20
0.125791
 30
0.000000
  0
VERTEX
  8
LAYER-1
 10
4.009805
 20
0.099749
 30
0.000000
  0
VERTEX
  8
LAYER-1
 10
4.034979
 20
0.113637
 30
0.000000
  0
SEQEND
  8
LAYER-1
  0
POLYLINE
  8
LAYER-1
 66
  1
 70
  1
 62
  0
 10
3.974648
 20
0.088897
 30
0.000000
  0
VERTEX
  8
LAYER-1
 10
3.974648
 20
0.088897
 30
0.000000
  0
VERTEX
  8
LAYER-1
 10
3.997217
 20
0.075877
 30
0.000000
  0
VERTEX
  8
LAYER-1
 10
3.976385
 20
0.106258
 30
0.000000
  0
SEQEND
  8
LAYER-1
  0
POLYLINE
  8
LAYER-1
 66
  1
 70
  1
 62
  0
 10
4.091302
 20
0.080917
 30
0.000000
  0
VERTEX
  8
LAYER-1
 10
4.091302
 20
0.080917
 30
0.000000
  0
VERTEX
  8
LAYER-1
 10
4.110667
 20
0.068230
 30
0.000000
  0
VERTEX
  8
LAYER-1
 10
4.116677
 20
0.079581
 30
0.000000
  0
SEQEND
  8
LAYER-1
  0
POLYLINE
  8
LAYER-1
 66
  1
 70
  0
 62
  0
 10
4.035848
 20
0.086724
 30
0.000000
  0
VERTEX
  8
LAYER-1
 10
4.035848
 20
0.086724
 30
0.000000
  0
VERTEX
  8
LAYER-1
 10
4.031507
 20
0.086724
 30
0.000000
  0
VERTEX
  8
LAYER-1
 10
4.028035
 20
0.082384
 30
0.000000
  0
VERTEX
  8
LAYER-1
 10
4.027167
 20
0.077176
 30
0.000000
  0
VERTEX
  8
LAYER-1
 10
4.028903
 20
0.072835
 30
0.000000
  0
VERTEX
  8
LAYER-1
 10
4.033243
 20
0.071099
 30
0.000000
  0
VERTEX
  8
LAYER-1
 10
4.037583
 20
0.071099
 30
0.000000
  0
VERTEX
  8
LAYER-1
 10
4.041924
 20
0.074571
 30
0.000000
  0
VERTEX
  8
LAYER-1
 10
4.041924
 20
0.078912
 30
0.000000
  0
VERTEX
  8
LAYER-1
 10
4.041055
 20
0.083253
 30
0.000000
  0
VERTEX
  8
LAYER-1
 10
4.036715
 20
0.085857
 30
0.000000
  0
SEQEND
  8
LAYER-1
  0
POLYLINE
  8
LAYER-1
 66
  1
 70
  0
 62
  0
 10
3.920396
 20
0.064156
 30
0.000000
  0
VERTEX
  8
LAYER-1
 10
3.920396
 20
0.064156
 30
0.000000
  0
VERTEX
  8
LAYER-1
 10
3.924736
 20
0.064156
 30
0.000000
  0
VERTEX
  8
LAYER-1
 10
3.928208
 20
0.068497
 30
0.000000
  0
VERTEX
  8
LAYER-1
 10
3.929077
 20
0.073704
 30
0.000000
  0
VERTEX
  8
LAYER-1
 10
3.927341
 20
0.078045
 30
0.000000
  0
VERTEX
  8
LAYER-1
 10
3.923001
 20
0.079781
 30
0.000000
  0
VERTEX
  8
LAYER-1
 10
3.918660
 20
0.079781
 30
0.000000
  0
VERTEX
  8
LAYER-1
 10
3.914319
 20
0.076309
 30
0.000000
  0
VERTEX
  8
LAYER-1
 10
3.914319
 20
0.071968
 30
0.000000
  0
VERTEX
  8
LAYER-1
 10
3.915188
 20
0.067628
 30
0.000000
  0
VERTEX
  8
LAYER-1
 10
3.919529
 20
0.065023
 30
0.000000
  0
SEQEND
  8
LAYER-1
  0
POLYLINE
  8
LAYER-1
 66
  1
 70
  1
 62
  0
 10
4.407042
 20
0.034469
 30
0.000000
  0
VERTEX
  8
LAYER-1
 10
4.407042
 20
0.034469
 30
0.000000
  0
VERTEX
  8
LAYER-1
 10
4.400098
 20
0.060510
 30
0.000000
  0
VERTEX
  8
LAYER-1
 10
4.374924
 20
0.046622
 30
0.000000
  0
SEQEND
  8
LAYER-1
  0
POLYLINE
  8
LAYER-1
 66
  1
 70
  1
 62
  0
 10
4.435255
 20
0.071363
 30
0.000000
  0
VERTEX
  8
LAYER-1
 10
4.435255
 20
0.071363
 30
0.000000
  0
VERTEX
  8
LAYER-1
 10
4.412685
 20
0.084383
 30
0.000000
  0
VERTEX
  8
LAYER-1
 10
4.433518
 20
0.054002
 30
0.000000
  0
SEQEND
  8
LAYER-1
  0
POLYLINE
  8
LAYER-1
 66
  1
 70
  1
 62
  0
 10
4.318601
 20
0.079342
 30
0.000000
  0
VERTEX
  8
LAYER-1
 10
4.318601
 20
0.079342
 30
0.000000
  0
VERTEX
  8
LAYER-1
 10
4.299236
 20
0.092030
 30
0.000000
  0
VERTEX
  8
LAYER-1
 10
4.293226
 20
0.080678
 30
0.000000
  0
SEQEND
  8
LAYER-1
  0
POLYLINE
  8
LAYER-1
 66
  1
 70
  0
 62
  0
 10
4.374055
 20
0.073535
 30
0.000000
  0
VERTEX
  8
LAYER-1
 10
4.374055
 20
0.073535
 30
0.000000
  0
VERTEX
  8
LAYER-1
 10
4.378396
 20
0.073535
 30
0.000000
  0
VERTEX
  8
LAYER-1
 10
4.381868
 20
0.077876
 30
0.000000
  0
VERTEX
  8
LAYER-1
 10
4.382736
 20
0.083083
 30
0.000000
  0
VERTEX
  8
LAYER-1
 10
4.381000
 20
0.087424
 30
0.000000
  0
VERTEX
  8
LAYER-1
 10
4.376660
 20
0.089160
 30
0.000000
  0
VERTEX
  8
LAYER-1
 10
4.372319
 20
0.089160
 30
0.000000
  0
VERTEX
  8
LAYER-1
 10
4.367978
 20
0.085688
 30
0.000000
  0
VERTEX
  8
LAYER-1
 10
4.367978
 20
0.081348
 30
0.000000
  0
VERTEX
  8
LAYER-1
 10
4.368848
 20
0.077007
 30
0.000000
  0
VERTEX
  8
LAYER-1
 10
4.373187
 20
0.074404
 30
0.000000
  0
SEQEND
  8
LAYER-1
  0
POLYLINE
  8
LAYER-1
 66
  1
 70
  0
 62
  0
 10
4.489507
 20
0.096104
 30
0.000000
  0
VERTEX
  8
LAYER-1
 10
4.489507
 20
0.096104
 30
0.000000
  0
VERTEX
  8
LAYER-1
 10
4.485166
 20
0.096104
 30
0.000000
  0
VERTEX
  8
LAYER-1
 10
4.481695
 20
0.091763
 30
0.000000
  0
VERTEX
  8
LAYER-1
 10
4.480825
 20
0.086555
 30
0.000000
  0
VERTEX
  8
LAYER-1
 10
4.482561
 20
0.082214
 30
0.000000
  0
VERTEX
  8
LAYER-1
 10
4.486902
 20
0.080479
 30
0.000000
  0
VERTEX
  8
LAYER-1
 10
4.491243
 20
0.080479
 30
0.000000
  0
VERTEX
  8
LAYER-1
 10
4.495583
 20
0.083950
 30
0.000000
  0
VERTEX
  8
LAYER-1
 10
4.495583
 20
0.088292
 30
0.000000
  0
VERTEX
  8
LAYER-1
 10
4.494715
 20
0.092632
 30
0.000000
  0
VERTEX
  8
LAYER-1
 10
4.490374
 20
0.095237
 30
0.000000
  0
SEQEND
  8
LAYER-1
  0
POLYLINE
  8
LAYER-1
 66
  1
 70
  1
 62
  0
 10
4.659386
 20
0.018062
 30
0.000000
  0
VERTEX
  8
LAYER-1
 10
4.659386
 20
0.018062
 30
0.000000
  0
VERTEX
  8
LAYER-1
 10
4.652441
 20
0.044104
 30
0.000000
  0
VERTEX
  8
LAYER-1
 10
4.627268
 20
0.030216
 30
0.000000
  0
SEQEND
  8
LAYER-1
  0
POLYLINE
  8
LAYER-1
 66
  1
 70
  1
 62
  0
 10
4.687599
 20
0.054956
 30
0.000000
  0
VERTEX
  8
LAYER-1
 10
4.687599
 20
0.054956
 30
0.000000
  0
VERTEX
  8
LAYER-1
 10
4.665029
 20
0.067977
 30
0.000000
  0
VERTEX
  8
LAYER-1
 10
4.685862
 20
0.037596
 30
0.000000
  0
SEQEND
  8
LAYER-1
  0
POLYLINE
  8
LAYER-1
 66
  1
 70
  1
 62
  0
 10
4.570944
 20
0.062937
 30
0.000000
  0
VERTEX
  8
LAYER-1
 10
4.570944
 20
0.062937
 30
0.000000
  0
VERTEX
  8
LAYER-1
 10
4.551580
 20
0.075624
 30
0.000000
  0
VERTEX
  8
LAYER-1
 10
4.545569
 20
0.064273
 30
0.000000
  0
SEQEND
  8
LAYER-1
  0
POLYLINE
  8
LAYER-1
 66
  1
 70
  0
 62
  0
 10
4.626399
 20
0.057129
 30
0.000000
  0
VERTEX
  8
LAYER-1
 10
4.626399
 20
0.057129
 30
0.000000
  0
VERTEX
  8
LAYER-1
 10
4.630740
 20
0.057129
 30
0.000000
  0
VERTEX
  8
LAYER-1
 10
4.634212
 20
0.061469
 30
0.000000
  0
VERTEX
  8
LAYER-1
 10
4.635080
 20
0.066678
 30
0.000000
  0
VERTEX
  8
LAYER-1
 10
4.633344
 20
0.071018
 30
0.000000
  0
VERTEX
  8
LAYER-1
 10
4.629004
 20
0.072754
 30
0.000000
  0
VERTEX
  8
LAYER-1
 10
4.624663
 20
0.072754
 30
0.000000
  0
VERTEX
  8
LAYER-1
 10
4.620322
 20
0.069282
 30
0.000000
  0
VERTEX
  8
LAYER-1
 10
4.620322
 20
0.064941
 30
0.000000
  0
VERTEX
  8
LAYER-1
 10
4.621191
 20
0.060600
 30
0.000000
  0
VERTEX
  8
LAYER-1
 10
4.625531
 20
0.057997
 30
0.000000
  0
SEQEND
  8
LAYER-1
  0
POLYLINE
  8
LAYER-1
 66
  1
 70
  0
 62
  0
 10
4.741851
 20
0.079698
 30
0.000000
  0
VERTEX
  8
LAYER-1
 10
4.741851
 20
0.079698
 30
0.000000
  0
VERTEX
  8
LAYER-1
 10
4.737510
 20
0.079698
 30
0.000000
  0
VERTEX
  8
LAYER-1
 10
4.734038
 20
0.075356
 30
0.000000
  0
VERTEX
  8
LAYER-1
 10
4.733169
 20
0.070149
 30
0.000000
  0
VERTEX
  8
LAYER-1
 10
4.734905
 20
0.065809
 30
0.000000
  0
VERTEX
  8
LAYER-1
 10
4.739246
 20
0.064073
 30
0.000000
  0
VERTEX
  8
LAYER-1
 10
4.743587
 20
0.064073
 30
0.000000
  0
VERTEX
  8
LAYER-1
 10
4.747927
 20
0.067544
 30
0.000000
  0
VERTEX
  8
LAYER-1
 10
4.747927
 20
0.071885
 30
0.000000
  0
VERTEX
  8
LAYER-1
 10
4.747058
 20
0.076225
 30
0.000000
  0
VERTEX
  8
LAYER-1
 10
4.742718
 20
0.078830
 30
0.000000
  0
SEQEND
  8
LAYER-1
  0
POLYLINE
  8
LAYER-1
 66
  1
 70
  1
 62
  0
 10
4.879945
 20
0.117111
 30
0.000000
  0
VERTEX
  8
LAYER-1
 10
4.879945
 20
0.117111
 30
0.000000
  0
VERTEX
  8
LAYER-1
 10
4.886890
 20
0.091070
 30
0.000000
  0
VERTEX
  8
LAYER-1
 10
4.912063
 20
0.104958
 30
0.000000
  0
SEQEND
  8
LAYER-1
  0
POLYLINE
  8
LAYER-1
 66
  1
 70
  1
 62
  0
 10
4.851732
 20
0.080217
 30
0.000000
  0
VERTEX
  8
LAYER-1
 10
4.851732
 20
0.080217
 30
0.000000
  0
VERTEX
  8
LAYER-1
 10
4.874302
 20
0.067197
 30
0.000000
  0
VERTEX
  8
LAYER-1
 10
4.853469
 20
0.097578
 30
0.000000
  0
SEQEND
  8
LAYER-1
  0
POLYLINE
  8
LAYER-1
 66
  1
 70
  0
 62
  0
 10
4.797480
 20
0.055477
 30
0.000000
  0
VERTEX
  8
LAYER-1
 10
4.797480
 20
0.055477
 30
0.000000
  0
VERTEX
  8
LAYER-1
 10
4.801821
 20
0.055477
 30
0.000000
  0
VERTEX
  8
LAYER-1
 10
4.805293
 20
0.059817
 30
0.000000
  0
VERTEX
  8
LAYER-1
 10
4.806162
 20
0.065024
 30
0.000000
  0
VERTEX
  8
LAYER-1
 10
4.804426
 20
0.069366
 30
0.000000
  0
VERTEX
  8
LAYER-1
 10
4.800085
 20
0.071102
 30
0.000000
  0
VERTEX
  8
LAYER-1
 10
4.795744
 20
0.071102
 30
0.000000
  0
VERTEX
  8
LAYER-1
 10
4.791403
 20
0.067629
 30
0.000000
  0
VERTEX
  8
LAYER-1
 10
4.791403
 20
0.063289
 30
0.000000
  0
VERTEX
  8
LAYER-1
 10
4.792272
 20
0.058948
 30
0.000000
  0
VERTEX
  8
LAYER-1
 10
4.796613
 20
0.056343
 30
0.000000
  0
SEQEND
  8
LAYER-1
  0
POLYLINE
  8
LAYER-1
 66
  1
 70
  1
 62
  0
 10
5.433068
 20
0.229229
 30
0.000000
  0
VERTEX
  8
LAYER-1
 10
5.433068
 20
0.229229
 30
0.000000
  0
VERTEX
  8
LAYER-1
 10
5.440012
 20
0.203189
 30
0.000000
  0
VERTEX
  8
LAYER-1
 10
5.465185
 20
0.217076
 30
0.000000
  0
SEQEND
  8
LAYER-1
  0
POLYLINE
  8
LAYER-1
 66
  1
 70
  1
 62
  0
 10
5.446176
 20
0.184090
 30
0.000000
  0
VERTEX
  8
LAYER-1
 10
5.446176
 20
0.184090
 30
0.000000
  0
VERTEX
  8
LAYER-1
 10
5.433155
 20
0.161519
 30
0.000000
  0
VERTEX
  8
LAYER-1
 10
5.463537
 20
0.182352
 30
0.000000
  0
SEQEND
  8
LAYER-1
  0
POLYLINE
  8
LAYER-1
 66
  1
 70
  1
 62
  0
 10
5.137669
 20
0.152612
 30
0.000000
  0
VERTEX
  8
LAYER-1
 10
5.137669
 20
0.152612
 30
0.000000
  0
VERTEX
  8
LAYER-1
 10
5.130725
 20
0.178653
 30
0.000000
  0
VERTEX
  8
LAYER-1
 10
5.105552
 20
0.164766
 30
0.000000
  0
SEQEND
  8
LAYER-1
  0
POLYLINE
  8
LAYER-1
 66
  1
 70
  1
 62
  0
 10
5.124560
 20
0.197752
 30
0.000000
  0
VERTEX
  8
LAYER-1
 10
5.124560
 20
0.197752
 30
0.000000
  0
VERTEX
  8
LAYER-1
 10
5.137583
 20
0.220323
 30
0.000000
  0
VERTEX
  8
LAYER-1
 10
5.107199
 20
0.199490
 30
0.000000
  0
SEQEND
  8
LAYER-1
  0
POLYLINE
  8
LAYER-1
 66
  1
 70
  1
 62
  0
 10
5.642443
 20
0.054783
 30
0.000000
  0
VERTEX
  8
LAYER-1
 10
5.642443
 20
0.054783
 30
0.000000
  0
VERTEX
  8
LAYER-1
 10
5.668484
 20
0.061729
 30
0.000000
  0
VERTEX
  8
LAYER-1
 10
5.654597
 20
0.086902
 30
0.000000
  0
SEQEND
  8
LAYER-1
  0
POLYLINE
  8
LAYER-1
 66
  1
 70
  1
 62
  0
 10
5.687582
 20
0.067892
 30
0.000000
  0
VERTEX
  8
LAYER-1
 10
5.687582
 20
0.067892
 30
0.000000
  0
VERTEX
  8
LAYER-1
 10
5.710153
 20
0.054872
 30
0.000000
  0
VERTEX
  8
LAYER-1
 10
5.689320
 20
0.085253
 30
0.000000
  0
SEQEND
  8
LAYER-1
  0
ENDSEC
  0
EOF
