  0
SECTION
  2
HEADER
999
MacDraft 5.0\0
  9
$ACADVER
  1
AC1006
  9
$CLAYER
  8
LAYER-1
  9
$EXTMIN
 10
0.000000
 20
0.000000
  9
$EXTMAX
 10
6.789023
 20
9.975867
  9
$FASTZOOM
 70
0
  9
$FILLMODE
 70
1
  0
ENDSEC
  0
SECTION
  2
TABLES
  0
TABLE
  2
LTYPE
 70
16
  0
LTYPE
  2
CONTINUOUS
 70
64
  3
Solid Line
 72
65
 73
0
 40
0.000000
  0
LTYPE
  2
LTYPE01
 70
64
  3
CUSTOM
 72
65
 73
2
 40
0.111111
 49
0.083333
 49
-0.027778
  0
LTYPE
  2
LTYPE02
 70
64
  3
CUSTOM
 72
65
 73
2
 40
0.194444
 49
0.166667
 49
-0.027778
  0
LTYPE
  2
LTYPE03
 70
64
  3
CUSTOM
 72
65
 73
2
 40
0.375000
 49
0.333333
 49
-0.041667
  0
LTYPE
  2
LTYPE04
 70
64
  3
CUSTOM
 72
65
 73
2
 40
0.722222
 49
0.666667
 49
-0.055556
  0
LTYPE
  2
LTYPE05
 70
64
  3
CUSTOM
 72
65
 73
4
 40
0.152778
 49
0.083333
 49
-0.027778
 49
0.013889
 49
-0.027778
  0
LTYPE
  2
LTYPE06
 70
64
  3
CUSTOM
 72
65
 73
4
 40
0.236111
 49
0.166667
 49
-0.027778
 49
0.013889
 49
-0.027778
  0
LTYPE
  2
LTYPE07
 70
64
  3
CUSTOM
 72
65
 73
4
 40
0.444444
 49
0.333333
 49
-0.041667
 49
0.027778
 49
-0.041667
  0
LTYPE
  2
LTYPE08
 70
64
  3
CUSTOM
 72
65
 73
4
 40
0.805556
 49
0.666667
 49
-0.055556
 49
0.027778
 49
-0.055556
  0
LTYPE
  2
LTYPE09
 70
64
  3
CUSTOM
 72
65
 73
6
 40
0.194444
 49
0.083333
 49
-0.027778
 49
0.013889
 49
-0.027778
 49
0.013889
 49
-0.027778
  0
LTYPE
  2
LTYPE10
 70
64
  3
CUSTOM
 72
65
 73
6
 40
0.277778
 49
0.166667
 49
-0.027778
 49
0.013889
 49
-0.027778
 49
0.013889
 49
-0.027778
  0
LTYPE
  2
LTYPE11
 70
64
  3
CUSTOM
 72
65
 73
6
 40
0.500000
 49
0.333333
 49
-0.041667
 49
0.027778
 49
-0.027778
 49
0.027778
 49
-0.041667
  0
LTYPE
  2
LTYPE12
 70
64
  3
CUSTOM
 72
65
 73
6
 40
0.861111
 49
0.666667
 49
-0.055556
 49
0.027778
 49
-0.027778
 49
0.027778
 49
-0.055556
  0
LTYPE
  2
LTYPE13
 70
64
  3
CUSTOM
 72
65
 73
8
 40
0.319444
 49
0.166667
 49
-0.027778
 49
0.013889
 49
-0.027778
 49
0.013889
 49
-0.027778
 49
0.013889
 49
-0.027778
  0
LTYPE
  2
LTYPE14
 70
64
  3
CUSTOM
 72
65
 73
8
 40
0.555556
 49
0.333333
 49
-0.041667
 49
0.027778
 49
-0.027778
 49
0.027778
 49
-0.027778
 49
0.027778
 49
-0.041667
  0
LTYPE
  2
LTYPE15
 70
64
  3
CUSTOM
 72
65
 73
8
 40
0.944444
 49
0.666667
 49
-0.055556
 49
0.027778
 49
-0.041667
 49
0.027778
 49
-0.041667
 49
0.027778
 49
-0.055556
  0
ENDTAB
  0
TABLE
  2
LAYER
 70
1
  0
LAYER
  2
LAYER-1
 70
0
 62
7
  6
CONTINUOUS
  0
ENDTAB
  0
ENDSEC
  0
SECTION
  2
BLOCKS
  0
ENDSEC
  0
SECTION
  2
ENTITIES
  0
ARC
  8
LAYER-1
 62
  0
 10
5.473738
 20
8.912211
 30
0.000000
 40
0.254425
 50
270.000000
 51
90.000000
  0
POLYLINE
  8
LAYER-1
 66
  1
 70
  0
 62
  0
 10
5.473738
 20
9.166637
 30
0.000000
  0
VERTEX
  8
LAYER-1
 10
5.473738
 20
9.166637
 30
0.000000
  0
VERTEX
  8
LAYER-1
 10
1.808817
 20
9.166637
 30
0.000000
  0
SEQEND
  8
LAYER-1
  0
POLYLINE
  8
LAYER-1
 66
  1
 70
  0
 62
  0
 10
1.808817
 20
9.166637
 30
0.000000
  0
VERTEX
  8
LAYER-1
 10
1.808817
 20
9.166637
 30
0.000000
  0
VERTEX
  8
LAYER-1
 10
1.808817
 20
8.657787
 30
0.000000
  0
SEQEND
  8
LAYER-1
  0
POLYLINE
  8
LAYER-1
 66
  1
 70
  0
 62
  0
 10
5.473738
 20
8.657787
 30
0.000000
  0
VERTEX
  8
LAYER-1
 10
5.473738
 20
8.657787
 30
0.000000
  0
VERTEX
  8
LAYER-1
 10
1.808817
 20
8.657787
 30
0.000000
  0
SEQEND
  8
LAYER-1
  0
TEXT
  8
LAYER-1
 62
  0
 10
3.615411
 20
9.454225
 30
0.000000
 40
0.333333
  1
MobilFlex
 72
  5
 11
5.768189
 21
9.454225
 31
0.000000
  0
POLYLINE
  8
LAYER-1
 66
  1
 70
  1
 62
  0
  0
VERTEX
  8
LAYER-1
 10
1.810320
 20
9.974199
 30
0.000000
  0
VERTEX
  8
LAYER-1
 10
2.048167
 20
9.974199
 30
0.000000
  0
VERTEX
  8
LAYER-1
 10
2.048167
 20
9.457255
 30
0.000000
  0
VERTEX
  8
LAYER-1
 10
1.810320
 20
9.457255
 30
0.000000
  0
SEQEND
  8
LAYER-1
  0
POLYLINE
  8
LAYER-1
 66
  1
 70
  1
 62
  0
  0
VERTEX
  8
LAYER-1
 10
2.122820
 20
9.974199
 30
0.000000
  0
VERTEX
  8
LAYER-1
 10
2.360667
 20
9.974199
 30
0.000000
  0
VERTEX
  8
LAYER-1
 10
2.360667
 20
9.457255
 30
0.000000
  0
VERTEX
  8
LAYER-1
 10
2.122820
 20
9.457255
 30
0.000000
  0
SEQEND
  8
LAYER-1
  0
POLYLINE
  8
LAYER-1
 66
  1
 70
  1
 62
  0
  0
VERTEX
  8
LAYER-1
 10
2.423167
 20
9.974199
 30
0.000000
  0
VERTEX
  8
LAYER-1
 10
2.661015
 20
9.974199
 30
0.000000
  0
VERTEX
  8
LAYER-1
 10
2.661015
 20
9.457255
 30
0.000000
  0
VERTEX
  8
LAYER-1
 10
2.423167
 20
9.457255
 30
0.000000
  0
SEQEND
  8
LAYER-1
  0
POLYLINE
  8
LAYER-1
 66
  1
 70
  1
 62
  0
  0
VERTEX
  8
LAYER-1
 10
2.726987
 20
9.974199
 30
0.000000
  0
VERTEX
  8
LAYER-1
 10
2.964834
 20
9.974199
 30
0.000000
  0
VERTEX
  8
LAYER-1
 10
2.964834
 20
9.457255
 30
0.000000
  0
VERTEX
  8
LAYER-1
 10
2.726987
 20
9.457255
 30
0.000000
  0
SEQEND
  8
LAYER-1
  0
POLYLINE
  8
LAYER-1
 66
  1
 70
  1
 62
  0
  0
VERTEX
  8
LAYER-1
 10
3.043827
 20
9.970284
 30
0.000000
  0
VERTEX
  8
LAYER-1
 10
3.419261
 20
9.970284
 30
0.000000
  0
VERTEX
  8
LAYER-1
 10
3.419261
 20
9.832264
 30
0.000000
  0
VERTEX
  8
LAYER-1
 10
3.043827
 20
9.832264
 30
0.000000
  0
SEQEND
  8
LAYER-1
  0
POLYLINE
  8
LAYER-1
 66
  1
 70
  1
 62
  0
  0
VERTEX
  8
LAYER-1
 10
3.043393
 20
9.742854
 30
0.000000
  0
VERTEX
  8
LAYER-1
 10
3.351553
 20
9.742854
 30
0.000000
  0
VERTEX
  8
LAYER-1
 10
3.351553
 20
9.608739
 30
0.000000
  0
VERTEX
  8
LAYER-1
 10
3.043393
 20
9.608739
 30
0.000000
  0
SEQEND
  8
LAYER-1
  0
POLYLINE
  8
LAYER-1
 66
  1
 70
  1
 62
  0
  0
VERTEX
  8
LAYER-1
 10
1.810320
 20
9.372628
 30
0.000000
  0
VERTEX
  8
LAYER-1
 10
5.728722
 20
9.372628
 30
0.000000
  0
VERTEX
  8
LAYER-1
 10
5.728722
 20
9.329225
 30
0.000000
  0
VERTEX
  8
LAYER-1
 10
1.810320
 20
9.329225
 30
0.000000
  0
SEQEND
  8
LAYER-1
  0
POLYLINE
  8
LAYER-1
 66
  1
 70
  0
 62
  0
 10
5.777370
 20
7.416779
 30
0.000000
  0
VERTEX
  8
LAYER-1
 10
5.777370
 20
7.416779
 30
0.000000
  0
VERTEX
  8
LAYER-1
 10
1.758507
 20
7.416916
 30
0.000000
  0
VERTEX
  8
LAYER-1
 10
1.758507
 20
0.349703
 30
0.000000
  0
VERTEX
  8
LAYER-1
 10
5.777370
 20
0.349703
 30
0.000000
  0
VERTEX
  8
LAYER-1
 10
5.777370
 20
7.416916
 30
0.000000
  0
SEQEND
  8
LAYER-1
  0
POLYLINE
  8
LAYER-1
 66
  1
 70
  1
 62
  0
  0
VERTEX
  8
LAYER-1
 10
5.380004
 20
3.868457
 30
0.000000
  0
VERTEX
  8
LAYER-1
 10
5.704815
 20
3.868457
 30
0.000000
  0
VERTEX
  8
LAYER-1
 10
5.704815
 20
0.663676
 30
0.000000
  0
VERTEX
  8
LAYER-1
 10
5.380004
 20
0.663676
 30
0.000000
  0
SEQEND
  8
LAYER-1
  0
POLYLINE
  8
LAYER-1
 66
  1
 70
  1
 62
  0
  0
VERTEX
  8
LAYER-1
 10
4.970004
 20
3.868457
 30
0.000000
  0
VERTEX
  8
LAYER-1
 10
5.294815
 20
3.868457
 30
0.000000
  0
VERTEX
  8
LAYER-1
 10
5.294815
 20
0.663676
 30
0.000000
  0
VERTEX
  8
LAYER-1
 10
4.970004
 20
0.663676
 30
0.000000
  0
SEQEND
  8
LAYER-1
  0
POLYLINE
  8
LAYER-1
 66
  1
 70
  1
 62
  0
  0
VERTEX
  8
LAYER-1
 10
4.559570
 20
3.868457
 30
0.000000
  0
VERTEX
  8
LAYER-1
 10
4.884381
 20
3.868457
 30
0.000000
  0
VERTEX
  8
LAYER-1
 10
4.884381
 20
0.663676
 30
0.000000
  0
VERTEX
  8
LAYER-1
 10
4.559570
 20
0.663676
 30
0.000000
  0
SEQEND
  8
LAYER-1
  0
POLYLINE
  8
LAYER-1
 66
  1
 70
  1
 62
  0
  0
VERTEX
  8
LAYER-1
 10
4.149569
 20
3.868457
 30
0.000000
  0
VERTEX
  8
LAYER-1
 10
4.474380
 20
3.868457
 30
0.000000
  0
VERTEX
  8
LAYER-1
 10
4.474380
 20
0.663676
 30
0.000000
  0
VERTEX
  8
LAYER-1
 10
4.149569
 20
0.663676
 30
0.000000
  0
SEQEND
  8
LAYER-1
  0
POLYLINE
  8
LAYER-1
 66
  1
 70
  1
 62
  0
  0
VERTEX
  8
LAYER-1
 10
3.061183
 20
3.868457
 30
0.000000
  0
VERTEX
  8
LAYER-1
 10
3.385993
 20
3.868457
 30
0.000000
  0
VERTEX
  8
LAYER-1
 10
3.385993
 20
0.663676
 30
0.000000
  0
VERTEX
  8
LAYER-1
 10
3.061183
 20
0.663676
 30
0.000000
  0
SEQEND
  8
LAYER-1
  0
POLYLINE
  8
LAYER-1
 66
  1
 70
  1
 62
  0
  0
VERTEX
  8
LAYER-1
 10
2.651617
 20
3.868457
 30
0.000000
  0
VERTEX
  8
LAYER-1
 10
2.976427
 20
3.868457
 30
0.000000
  0
VERTEX
  8
LAYER-1
 10
2.976427
 20
0.663676
 30
0.000000
  0
VERTEX
  8
LAYER-1
 10
2.651617
 20
0.663676
 30
0.000000
  0
SEQEND
  8
LAYER-1
  0
POLYLINE
  8
LAYER-1
 66
  1
 70
  1
 62
  0
  0
VERTEX
  8
LAYER-1
 10
2.241183
 20
3.868457
 30
0.000000
  0
VERTEX
  8
LAYER-1
 10
2.565993
 20
3.868457
 30
0.000000
  0
VERTEX
  8
LAYER-1
 10
2.565993
 20
0.663676
 30
0.000000
  0
VERTEX
  8
LAYER-1
 10
2.241183
 20
0.663676
 30
0.000000
  0
SEQEND
  8
LAYER-1
  0
POLYLINE
  8
LAYER-1
 66
  1
 70
  1
 62
  0
  0
VERTEX
  8
LAYER-1
 10
1.831183
 20
3.868457
 30
0.000000
  0
VERTEX
  8
LAYER-1
 10
2.155993
 20
3.868457
 30
0.000000
  0
VERTEX
  8
LAYER-1
 10
2.155993
 20
0.663676
 30
0.000000
  0
VERTEX
  8
LAYER-1
 10
1.831183
 20
0.663676
 30
0.000000
  0
SEQEND
  8
LAYER-1
  0
POLYLINE
  8
LAYER-1
 66
  1
 70
  1
 62
  0
  0
VERTEX
  8
LAYER-1
 10
5.380004
 20
7.146494
 30
0.000000
  0
VERTEX
  8
LAYER-1
 10
5.704815
 20
7.146494
 30
0.000000
  0
VERTEX
  8
LAYER-1
 10
5.704815
 20
3.941722
 30
0.000000
  0
VERTEX
  8
LAYER-1
 10
5.380004
 20
3.941722
 30
0.000000
  0
SEQEND
  8
LAYER-1
  0
POLYLINE
  8
LAYER-1
 66
  1
 70
  1
 62
  0
  0
VERTEX
  8
LAYER-1
 10
4.970004
 20
7.146494
 30
0.000000
  0
VERTEX
  8
LAYER-1
 10
5.294815
 20
7.146494
 30
0.000000
  0
VERTEX
  8
LAYER-1
 10
5.294815
 20
3.941722
 30
0.000000
  0
VERTEX
  8
LAYER-1
 10
4.970004
 20
3.941722
 30
0.000000
  0
SEQEND
  8
LAYER-1
  0
POLYLINE
  8
LAYER-1
 66
  1
 70
  1
 62
  0
  0
VERTEX
  8
LAYER-1
 10
4.559570
 20
7.146494
 30
0.000000
  0
VERTEX
  8
LAYER-1
 10
4.884381
 20
7.146494
 30
0.000000
  0
VERTEX
  8
LAYER-1
 10
4.884381
 20
3.941722
 30
0.000000
  0
VERTEX
  8
LAYER-1
 10
4.559570
 20
3.941722
 30
0.000000
  0
SEQEND
  8
LAYER-1
  0
POLYLINE
  8
LAYER-1
 66
  1
 70
  1
 62
  0
  0
VERTEX
  8
LAYER-1
 10
4.149569
 20
7.146494
 30
0.000000
  0
VERTEX
  8
LAYER-1
 10
4.474380
 20
7.146494
 30
0.000000
  0
VERTEX
  8
LAYER-1
 10
4.474380
 20
3.941722
 30
0.000000
  0
VERTEX
  8
LAYER-1
 10
4.149569
 20
3.941722
 30
0.000000
  0
SEQEND
  8
LAYER-1
  0
POLYLINE
  8
LAYER-1
 66
  1
 70
  1
 62
  0
  0
VERTEX
  8
LAYER-1
 10
3.061183
 20
7.146494
 30
0.000000
  0
VERTEX
  8
LAYER-1
 10
3.385993
 20
7.146494
 30
0.000000
  0
VERTEX
  8
LAYER-1
 10
3.385993
 20
3.941722
 30
0.000000
  0
VERTEX
  8
LAYER-1
 10
3.061183
 20
3.941722
 30
0.000000
  0
SEQEND
  8
LAYER-1
  0
POLYLINE
  8
LAYER-1
 66
  1
 70
  1
 62
  0
  0
VERTEX
  8
LAYER-1
 10
2.651617
 20
7.146494
 30
0.000000
  0
VERTEX
  8
LAYER-1
 10
2.976427
 20
7.146494
 30
0.000000
  0
VERTEX
  8
LAYER-1
 10
2.976427
 20
3.941722
 30
0.000000
  0
VERTEX
  8
LAYER-1
 10
2.651617
 20
3.941722
 30
0.000000
  0
SEQEND
  8
LAYER-1
  0
POLYLINE
  8
LAYER-1
 66
  1
 70
  1
 62
  0
  0
VERTEX
  8
LAYER-1
 10
2.241183
 20
7.146494
 30
0.000000
  0
VERTEX
  8
LAYER-1
 10
2.565993
 20
7.146494
 30
0.000000
  0
VERTEX
  8
LAYER-1
 10
2.565993
 20
3.941722
 30
0.000000
  0
VERTEX
  8
LAYER-1
 10
2.241183
 20
3.941722
 30
0.000000
  0
SEQEND
  8
LAYER-1
  0
POLYLINE
  8
LAYER-1
 66
  1
 70
  1
 62
  0
  0
VERTEX
  8
LAYER-1
 10
1.831183
 20
7.146494
 30
0.000000
  0
VERTEX
  8
LAYER-1
 10
2.155993
 20
7.146494
 30
0.000000
  0
VERTEX
  8
LAYER-1
 10
2.155993
 20
3.941722
 30
0.000000
  0
VERTEX
  8
LAYER-1
 10
1.831183
 20
3.941722
 30
0.000000
  0
SEQEND
  8
LAYER-1
  0
POLYLINE
  8
LAYER-1
 66
  1
 70
  1
 62
  0
  0
VERTEX
  8
LAYER-1
 10
3.793519
 20
7.483339
 30
0.000000
  0
VERTEX
  8
LAYER-1
 10
3.818614
 20
7.483339
 30
0.000000
  0
VERTEX
  8
LAYER-1
 10
3.818614
 20
7.417021
 30
0.000000
  0
VERTEX
  8
LAYER-1
 10
3.793519
 20
7.417021
 30
0.000000
  0
SEQEND
  8
LAYER-1
  0
POLYLINE
  8
LAYER-1
 66
  1
 70
  1
 62
  0
  0
VERTEX
  8
LAYER-1
 10
1.831183
 20
0.663456
 30
0.000000
  0
VERTEX
  8
LAYER-1
 10
2.155815
 20
0.663456
 30
0.000000
  0
VERTEX
  8
LAYER-1
 10
2.155815
 20
0.350030
 30
0.000000
  0
VERTEX
  8
LAYER-1
 10
1.831183
 20
0.350030
 30
0.000000
  0
SEQEND
  8
LAYER-1
  0
POLYLINE
  8
LAYER-1
 66
  1
 70
  1
 62
  0
  0
VERTEX
  8
LAYER-1
 10
2.241245
 20
0.663456
 30
0.000000
  0
VERTEX
  8
LAYER-1
 10
2.565877
 20
0.663456
 30
0.000000
  0
VERTEX
  8
LAYER-1
 10
2.565877
 20
0.350030
 30
0.000000
  0
VERTEX
  8
LAYER-1
 10
2.241245
 20
0.350030
 30
0.000000
  0
SEQEND
  8
LAYER-1
  0
POLYLINE
  8
LAYER-1
 66
  1
 70
  1
 62
  0
  0
VERTEX
  8
LAYER-1
 10
2.651307
 20
0.663456
 30
0.000000
  0
VERTEX
  8
LAYER-1
 10
2.975936
 20
0.663456
 30
0.000000
  0
VERTEX
  8
LAYER-1
 10
2.975936
 20
0.350030
 30
0.000000
  0
VERTEX
  8
LAYER-1
 10
2.651307
 20
0.350030
 30
0.000000
  0
SEQEND
  8
LAYER-1
  0
POLYLINE
  8
LAYER-1
 66
  1
 70
  1
 62
  0
  0
VERTEX
  8
LAYER-1
 10
3.061367
 20
0.663456
 30
0.000000
  0
VERTEX
  8
LAYER-1
 10
3.385998
 20
0.663456
 30
0.000000
  0
VERTEX
  8
LAYER-1
 10
3.385998
 20
0.350030
 30
0.000000
  0
VERTEX
  8
LAYER-1
 10
3.061367
 20
0.350030
 30
0.000000
  0
SEQEND
  8
LAYER-1
  0
POLYLINE
  8
LAYER-1
 66
  1
 70
  1
 62
  0
  0
VERTEX
  8
LAYER-1
 10
5.380062
 20
0.663456
 30
0.000000
  0
VERTEX
  8
LAYER-1
 10
5.704693
 20
0.663456
 30
0.000000
  0
VERTEX
  8
LAYER-1
 10
5.704693
 20
0.350030
 30
0.000000
  0
VERTEX
  8
LAYER-1
 10
5.380062
 20
0.350030
 30
0.000000
  0
SEQEND
  8
LAYER-1
  0
POLYLINE
  8
LAYER-1
 66
  1
 70
  1
 62
  0
  0
VERTEX
  8
LAYER-1
 10
4.969999
 20
0.663456
 30
0.000000
  0
VERTEX
  8
LAYER-1
 10
5.294631
 20
0.663456
 30
0.000000
  0
VERTEX
  8
LAYER-1
 10
5.294631
 20
0.350030
 30
0.000000
  0
VERTEX
  8
LAYER-1
 10
4.969999
 20
0.350030
 30
0.000000
  0
SEQEND
  8
LAYER-1
  0
POLYLINE
  8
LAYER-1
 66
  1
 70
  1
 62
  0
  0
VERTEX
  8
LAYER-1
 10
4.559937
 20
0.663456
 30
0.000000
  0
VERTEX
  8
LAYER-1
 10
4.884569
 20
0.663456
 30
0.000000
  0
VERTEX
  8
LAYER-1
 10
4.884569
 20
0.350030
 30
0.000000
  0
VERTEX
  8
LAYER-1
 10
4.559937
 20
0.350030
 30
0.000000
  0
SEQEND
  8
LAYER-1
  0
POLYLINE
  8
LAYER-1
 66
  1
 70
  1
 62
  0
  0
VERTEX
  8
LAYER-1
 10
4.149875
 20
0.663456
 30
0.000000
  0
VERTEX
  8
LAYER-1
 10
4.474506
 20
0.663456
 30
0.000000
  0
VERTEX
  8
LAYER-1
 10
4.474506
 20
0.350030
 30
0.000000
  0
VERTEX
  8
LAYER-1
 10
4.149875
 20
0.350030
 30
0.000000
  0
SEQEND
  8
LAYER-1
  0
POLYLINE
  8
LAYER-1
 66
  1
 70
  1
 62
  0
  0
VERTEX
  8
LAYER-1
 10
1.831183
 20
7.416927
 30
0.000000
  0
VERTEX
  8
LAYER-1
 10
2.155815
 20
7.416927
 30
0.000000
  0
VERTEX
  8
LAYER-1
 10
2.155815
 20
7.146928
 30
0.000000
  0
VERTEX
  8
LAYER-1
 10
1.831183
 20
7.146928
 30
0.000000
  0
SEQEND
  8
LAYER-1
  0
POLYLINE
  8
LAYER-1
 66
  1
 70
  1
 62
  0
  0
VERTEX
  8
LAYER-1
 10
2.241245
 20
7.416927
 30
0.000000
  0
VERTEX
  8
LAYER-1
 10
2.565877
 20
7.416927
 30
0.000000
  0
VERTEX
  8
LAYER-1
 10
2.565877
 20
7.146928
 30
0.000000
  0
VERTEX
  8
LAYER-1
 10
2.241245
 20
7.146928
 30
0.000000
  0
SEQEND
  8
LAYER-1
  0
POLYLINE
  8
LAYER-1
 66
  1
 70
  1
 62
  0
  0
VERTEX
  8
LAYER-1
 10
2.651307
 20
7.416927
 30
0.000000
  0
VERTEX
  8
LAYER-1
 10
2.975936
 20
7.416927
 30
0.000000
  0
VERTEX
  8
LAYER-1
 10
2.975936
 20
7.146928
 30
0.000000
  0
VERTEX
  8
LAYER-1
 10
2.651307
 20
7.146928
 30
0.000000
  0
SEQEND
  8
LAYER-1
  0
POLYLINE
  8
LAYER-1
 66
  1
 70
  1
 62
  0
  0
VERTEX
  8
LAYER-1
 10
3.061367
 20
7.416927
 30
0.000000
  0
VERTEX
  8
LAYER-1
 10
3.385998
 20
7.416927
 30
0.000000
  0
VERTEX
  8
LAYER-1
 10
3.385998
 20
7.146928
 30
0.000000
  0
VERTEX
  8
LAYER-1
 10
3.061367
 20
7.146928
 30
0.000000
  0
SEQEND
  8
LAYER-1
  0
POLYLINE
  8
LAYER-1
 66
  1
 70
  0
 62
  0
 10
2.798198
 20
7.417002
 30
0.000000
  0
VERTEX
  8
LAYER-1
 10
2.798198
 20
7.417002
 30
0.000000
  0
VERTEX
  8
LAYER-1
 10
2.798198
 20
7.147471
 30
0.000000
  0
SEQEND
  8
LAYER-1
  0
POLYLINE
  8
LAYER-1
 66
  1
 70
  0
 62
  0
 10
2.835278
 20
7.417002
 30
0.000000
  0
VERTEX
  8
LAYER-1
 10
2.835278
 20
7.417002
 30
0.000000
  0
VERTEX
  8
LAYER-1
 10
2.835278
 20
7.147471
 30
0.000000
  0
SEQEND
  8
LAYER-1
  0
POLYLINE
  8
LAYER-1
 66
  1
 70
  0
 62
  0
 10
1.976532
 20
7.417002
 30
0.000000
  0
VERTEX
  8
LAYER-1
 10
1.976532
 20
7.417002
 30
0.000000
  0
VERTEX
  8
LAYER-1
 10
1.976532
 20
7.147471
 30
0.000000
  0
SEQEND
  8
LAYER-1
  0
POLYLINE
  8
LAYER-1
 66
  1
 70
  0
 62
  0
 10
2.015094
 20
7.417002
 30
0.000000
  0
VERTEX
  8
LAYER-1
 10
2.015094
 20
7.417002
 30
0.000000
  0
VERTEX
  8
LAYER-1
 10
2.015094
 20
7.147471
 30
0.000000
  0
SEQEND
  8
LAYER-1
  0
POLYLINE
  8
LAYER-1
 66
  1
 70
  1
 62
  0
  0
VERTEX
  8
LAYER-1
 10
2.172309
 20
7.422862
 30
0.000000
  0
VERTEX
  8
LAYER-1
 10
2.227185
 20
7.422862
 30
0.000000
  0
VERTEX
  8
LAYER-1
 10
2.227185
 20
7.417002
 30
0.000000
  0
VERTEX
  8
LAYER-1
 10
2.172309
 20
7.417002
 30
0.000000
  0
SEQEND
  8
LAYER-1
  0
POLYLINE
  8
LAYER-1
 66
  1
 70
  0
 62
  0
 10
2.181207
 20
7.349619
 30
0.000000
  0
VERTEX
  8
LAYER-1
 10
2.181207
 20
7.349619
 30
0.000000
  0
VERTEX
  8
LAYER-1
 10
2.216803
 20
7.349619
 30
0.000000
  0
SEQEND
  8
LAYER-1
  0
POLYLINE
  8
LAYER-1
 66
  1
 70
  0
 62
  0
 10
2.181207
 20
7.220713
 30
0.000000
  0
VERTEX
  8
LAYER-1
 10
2.181207
 20
7.220713
 30
0.000000
  0
VERTEX
  8
LAYER-1
 10
2.216803
 20
7.220713
 30
0.000000
  0
SEQEND
  8
LAYER-1
  0
POLYLINE
  8
LAYER-1
 66
  1
 70
  1
 62
  0
  0
VERTEX
  8
LAYER-1
 10
2.989523
 20
7.422862
 30
0.000000
  0
VERTEX
  8
LAYER-1
 10
3.044398
 20
7.422862
 30
0.000000
  0
VERTEX
  8
LAYER-1
 10
3.044398
 20
7.417002
 30
0.000000
  0
VERTEX
  8
LAYER-1
 10
2.989523
 20
7.417002
 30
0.000000
  0
SEQEND
  8
LAYER-1
  0
POLYLINE
  8
LAYER-1
 66
  1
 70
  0
 62
  0
 10
2.999906
 20
7.349619
 30
0.000000
  0
VERTEX
  8
LAYER-1
 10
2.999906
 20
7.349619
 30
0.000000
  0
VERTEX
  8
LAYER-1
 10
3.035500
 20
7.349619
 30
0.000000
  0
SEQEND
  8
LAYER-1
  0
POLYLINE
  8
LAYER-1
 66
  1
 70
  0
 62
  0
 10
2.999906
 20
7.220712
 30
0.000000
  0
VERTEX
  8
LAYER-1
 10
2.999906
 20
7.220712
 30
0.000000
  0
VERTEX
  8
LAYER-1
 10
3.035500
 20
7.220712
 30
0.000000
  0
SEQEND
  8
LAYER-1
  0
POLYLINE
  8
LAYER-1
 66
  1
 70
  0
 62
  0
 10
1.831183
 20
7.416927
 30
0.000000
  0
VERTEX
  8
LAYER-1
 10
1.831183
 20
7.416927
 30
0.000000
  0
VERTEX
  8
LAYER-1
 10
1.831183
 20
0.350136
 30
0.000000
  0
SEQEND
  8
LAYER-1
  0
POLYLINE
  8
LAYER-1
 66
  1
 70
  0
 62
  0
 10
2.155815
 20
7.416927
 30
0.000000
  0
VERTEX
  8
LAYER-1
 10
2.155815
 20
7.416927
 30
0.000000
  0
VERTEX
  8
LAYER-1
 10
2.155815
 20
0.350136
 30
0.000000
  0
SEQEND
  8
LAYER-1
  0
POLYLINE
  8
LAYER-1
 66
  1
 70
  0
 62
  0
 10
2.241245
 20
7.416927
 30
0.000000
  0
VERTEX
  8
LAYER-1
 10
2.241245
 20
7.416927
 30
0.000000
  0
VERTEX
  8
LAYER-1
 10
2.241245
 20
0.350136
 30
0.000000
  0
SEQEND
  8
LAYER-1
  0
POLYLINE
  8
LAYER-1
 66
  1
 70
  0
 62
  0
 10
2.181207
 20
7.416927
 30
0.000000
  0
VERTEX
  8
LAYER-1
 10
2.181207
 20
7.416927
 30
0.000000
  0
VERTEX
  8
LAYER-1
 10
2.181207
 20
0.350136
 30
0.000000
  0
SEQEND
  8
LAYER-1
  0
POLYLINE
  8
LAYER-1
 66
  1
 70
  0
 62
  0
 10
2.216803
 20
7.416927
 30
0.000000
  0
VERTEX
  8
LAYER-1
 10
2.216803
 20
7.416927
 30
0.000000
  0
VERTEX
  8
LAYER-1
 10
2.216803
 20
0.350136
 30
0.000000
  0
SEQEND
  8
LAYER-1
  0
POLYLINE
  8
LAYER-1
 66
  1
 70
  1
 62
  0
  0
VERTEX
  8
LAYER-1
 10
2.170824
 20
0.350211
 30
0.000000
  0
VERTEX
  8
LAYER-1
 10
2.225700
 20
0.350211
 30
0.000000
  0
VERTEX
  8
LAYER-1
 10
2.225700
 20
0.344352
 30
0.000000
  0
VERTEX
  8
LAYER-1
 10
2.170824
 20
0.344352
 30
0.000000
  0
SEQEND
  8
LAYER-1
  0
POLYLINE
  8
LAYER-1
 66
  1
 70
  0
 62
  0
 10
2.216803
 20
0.423453
 30
0.000000
  0
VERTEX
  8
LAYER-1
 10
2.216803
 20
0.423453
 30
0.000000
  0
VERTEX
  8
LAYER-1
 10
2.181207
 20
0.423453
 30
0.000000
  0
SEQEND
  8
LAYER-1
  0
POLYLINE
  8
LAYER-1
 66
  1
 70
  0
 62
  0
 10
2.216803
 20
0.552360
 30
0.000000
  0
VERTEX
  8
LAYER-1
 10
2.216803
 20
0.552360
 30
0.000000
  0
VERTEX
  8
LAYER-1
 10
2.181207
 20
0.552360
 30
0.000000
  0
SEQEND
  8
LAYER-1
  0
POLYLINE
  8
LAYER-1
 66
  1
 70
  0
 62
  0
 10
2.181207
 20
0.627344
 30
0.000000
  0
VERTEX
  8
LAYER-1
 10
2.181207
 20
0.627344
 30
0.000000
  0
VERTEX
  8
LAYER-1
 10
2.216803
 20
0.627344
 30
0.000000
  0
SEQEND
  8
LAYER-1
  0
POLYLINE
  8
LAYER-1
 66
  1
 70
  0
 62
  0
 10
2.181207
 20
1.474024
 30
0.000000
  0
VERTEX
  8
LAYER-1
 10
2.181207
 20
1.474024
 30
0.000000
  0
VERTEX
  8
LAYER-1
 10
2.216803
 20
1.474024
 30
0.000000
  0
SEQEND
  8
LAYER-1
  0
POLYLINE
  8
LAYER-1
 66
  1
 70
  0
 62
  0
 10
2.181207
 20
2.311913
 30
0.000000
  0
VERTEX
  8
LAYER-1
 10
2.181207
 20
2.311913
 30
0.000000
  0
VERTEX
  8
LAYER-1
 10
2.216803
 20
2.311913
 30
0.000000
  0
SEQEND
  8
LAYER-1
  0
POLYLINE
  8
LAYER-1
 66
  1
 70
  0
 62
  0
 10
2.181207
 20
3.161515
 30
0.000000
  0
VERTEX
  8
LAYER-1
 10
2.181207
 20
3.161515
 30
0.000000
  0
VERTEX
  8
LAYER-1
 10
2.216803
 20
3.161515
 30
0.000000
  0
SEQEND
  8
LAYER-1
  0
POLYLINE
  8
LAYER-1
 66
  1
 70
  0
 62
  0
 10
2.216803
 20
4.003801
 30
0.000000
  0
VERTEX
  8
LAYER-1
 10
2.216803
 20
4.003801
 30
0.000000
  0
VERTEX
  8
LAYER-1
 10
2.181207
 20
4.003801
 30
0.000000
  0
SEQEND
  8
LAYER-1
  0
POLYLINE
  8
LAYER-1
 66
  1
 70
  1
 62
  0
  0
VERTEX
  8
LAYER-1
 10
1.831183
 20
3.942155
 30
0.000000
  0
VERTEX
  8
LAYER-1
 10
2.155993
 20
3.942155
 30
0.000000
  0
VERTEX
  8
LAYER-1
 10
2.155993
 20
3.865985
 30
0.000000
  0
VERTEX
  8
LAYER-1
 10
1.831183
 20
3.865985
 30
0.000000
  0
SEQEND
  8
LAYER-1
  0
POLYLINE
  8
LAYER-1
 66
  1
 70
  1
 62
  0
  0
VERTEX
  8
LAYER-1
 10
2.241245
 20
3.942155
 30
0.000000
  0
VERTEX
  8
LAYER-1
 10
2.566055
 20
3.942155
 30
0.000000
  0
VERTEX
  8
LAYER-1
 10
2.566055
 20
3.865985
 30
0.000000
  0
VERTEX
  8
LAYER-1
 10
2.241245
 20
3.865985
 30
0.000000
  0
SEQEND
  8
LAYER-1
  0
POLYLINE
  8
LAYER-1
 66
  1
 70
  1
 62
  0
  0
VERTEX
  8
LAYER-1
 10
2.651307
 20
3.942155
 30
0.000000
  0
VERTEX
  8
LAYER-1
 10
2.976113
 20
3.942155
 30
0.000000
  0
VERTEX
  8
LAYER-1
 10
2.976113
 20
3.865985
 30
0.000000
  0
VERTEX
  8
LAYER-1
 10
2.651307
 20
3.865985
 30
0.000000
  0
SEQEND
  8
LAYER-1
  0
POLYLINE
  8
LAYER-1
 66
  1
 70
  1
 62
  0
  0
VERTEX
  8
LAYER-1
 10
3.061367
 20
3.942155
 30
0.000000
  0
VERTEX
  8
LAYER-1
 10
3.386175
 20
3.942155
 30
0.000000
  0
VERTEX
  8
LAYER-1
 10
3.386175
 20
3.865985
 30
0.000000
  0
VERTEX
  8
LAYER-1
 10
3.061367
 20
3.865985
 30
0.000000
  0
SEQEND
  8
LAYER-1
  0
POLYLINE
  8
LAYER-1
 66
  1
 70
  1
 62
  0
  0
VERTEX
  8
LAYER-1
 10
5.379884
 20
3.942155
 30
0.000000
  0
VERTEX
  8
LAYER-1
 10
5.704693
 20
3.942155
 30
0.000000
  0
VERTEX
  8
LAYER-1
 10
5.704693
 20
3.865985
 30
0.000000
  0
VERTEX
  8
LAYER-1
 10
5.379884
 20
3.865985
 30
0.000000
  0
SEQEND
  8
LAYER-1
  0
POLYLINE
  8
LAYER-1
 66
  1
 70
  1
 62
  0
  0
VERTEX
  8
LAYER-1
 10
4.969822
 20
3.942155
 30
0.000000
  0
VERTEX
  8
LAYER-1
 10
5.294631
 20
3.942155
 30
0.000000
  0
VERTEX
  8
LAYER-1
 10
5.294631
 20
3.865985
 30
0.000000
  0
VERTEX
  8
LAYER-1
 10
4.969822
 20
3.865985
 30
0.000000
  0
SEQEND
  8
LAYER-1
  0
POLYLINE
  8
LAYER-1
 66
  1
 70
  1
 62
  0
  0
VERTEX
  8
LAYER-1
 10
4.559760
 20
3.942155
 30
0.000000
  0
VERTEX
  8
LAYER-1
 10
4.884569
 20
3.942155
 30
0.000000
  0
VERTEX
  8
LAYER-1
 10
4.884569
 20
3.865985
 30
0.000000
  0
VERTEX
  8
LAYER-1
 10
4.559760
 20
3.865985
 30
0.000000
  0
SEQEND
  8
LAYER-1
  0
POLYLINE
  8
LAYER-1
 66
  1
 70
  1
 62
  0
  0
VERTEX
  8
LAYER-1
 10
4.149698
 20
3.942155
 30
0.000000
  0
VERTEX
  8
LAYER-1
 10
4.474506
 20
3.942155
 30
0.000000
  0
VERTEX
  8
LAYER-1
 10
4.474506
 20
3.865985
 30
0.000000
  0
VERTEX
  8
LAYER-1
 10
4.149698
 20
3.865985
 30
0.000000
  0
SEQEND
  8
LAYER-1
  0
POLYLINE
  8
LAYER-1
 66
  1
 70
  1
 62
  0
  0
VERTEX
  8
LAYER-1
 10
1.848981
 20
3.847927
 30
0.000000
  0
VERTEX
  8
LAYER-1
 10
2.136712
 20
3.847927
 30
0.000000
  0
VERTEX
  8
LAYER-1
 10
2.136712
 20
0.678856
 30
0.000000
  0
VERTEX
  8
LAYER-1
 10
1.848981
 20
0.678856
 30
0.000000
  0
SEQEND
  8
LAYER-1
  0
POLYLINE
  8
LAYER-1
 66
  1
 70
  1
 62
  0
  0
VERTEX
  8
LAYER-1
 10
2.259044
 20
3.847927
 30
0.000000
  0
VERTEX
  8
LAYER-1
 10
2.546774
 20
3.847927
 30
0.000000
  0
VERTEX
  8
LAYER-1
 10
2.546774
 20
0.678856
 30
0.000000
  0
VERTEX
  8
LAYER-1
 10
2.259044
 20
0.678856
 30
0.000000
  0
SEQEND
  8
LAYER-1
  0
POLYLINE
  8
LAYER-1
 66
  1
 70
  1
 62
  0
  0
VERTEX
  8
LAYER-1
 10
2.669106
 20
3.847927
 30
0.000000
  0
VERTEX
  8
LAYER-1
 10
2.956833
 20
3.847927
 30
0.000000
  0
VERTEX
  8
LAYER-1
 10
2.956833
 20
0.678856
 30
0.000000
  0
VERTEX
  8
LAYER-1
 10
2.669106
 20
0.678856
 30
0.000000
  0
SEQEND
  8
LAYER-1
  0
POLYLINE
  8
LAYER-1
 66
  1
 70
  1
 62
  0
  0
VERTEX
  8
LAYER-1
 10
3.079166
 20
3.847927
 30
0.000000
  0
VERTEX
  8
LAYER-1
 10
3.366895
 20
3.847927
 30
0.000000
  0
VERTEX
  8
LAYER-1
 10
3.366895
 20
0.678856
 30
0.000000
  0
VERTEX
  8
LAYER-1
 10
3.079166
 20
0.678856
 30
0.000000
  0
SEQEND
  8
LAYER-1
  0
LINE
  8
LAYER-1
 62
  0
 10
1.902235
 20
3.270665
 30
0.000000
 11
2.038326
 21
3.508402
 31
0.000000
  0
LINE
  8
LAYER-1
 62
  0
 10
1.958871
 20
3.238245
 30
0.000000
 11
2.094961
 21
3.475981
 31
0.000000
  0
LINE
  8
LAYER-1
 62
  0
 10
2.312298
 20
3.270665
 30
0.000000
 11
2.448387
 21
3.508402
 31
0.000000
  0
LINE
  8
LAYER-1
 62
  0
 10
2.368933
 20
3.238245
 30
0.000000
 11
2.505023
 21
3.475981
 31
0.000000
  0
LINE
  8
LAYER-1
 62
  0
 10
2.722360
 20
3.270665
 30
0.000000
 11
2.858447
 21
3.508402
 31
0.000000
  0
LINE
  8
LAYER-1
 62
  0
 10
2.778996
 20
3.238246
 30
0.000000
 11
2.915083
 21
3.475982
 31
0.000000
  0
LINE
  8
LAYER-1
 62
  0
 10
3.132419
 20
3.270665
 30
0.000000
 11
3.268508
 21
3.508402
 31
0.000000
  0
LINE
  8
LAYER-1
 62
  0
 10
3.189055
 20
3.238245
 30
0.000000
 11
3.325144
 21
3.475981
 31
0.000000
  0
LINE
  8
LAYER-1
 62
  0
 10
1.901876
 20
1.046817
 30
0.000000
 11
2.037964
 21
1.284552
 31
0.000000
  0
LINE
  8
LAYER-1
 62
  0
 10
1.958511
 20
1.014397
 30
0.000000
 11
2.094599
 21
1.252131
 31
0.000000
  0
LINE
  8
LAYER-1
 62
  0
 10
2.311938
 20
1.046817
 30
0.000000
 11
2.448026
 21
1.284552
 31
0.000000
  0
LINE
  8
LAYER-1
 62
  0
 10
2.368573
 20
1.014397
 30
0.000000
 11
2.504662
 21
1.252131
 31
0.000000
  0
LINE
  8
LAYER-1
 62
  0
 10
2.722000
 20
1.046817
 30
0.000000
 11
2.858087
 21
1.284552
 31
0.000000
  0
LINE
  8
LAYER-1
 62
  0
 10
2.778636
 20
1.014397
 30
0.000000
 11
2.914723
 21
1.252131
 31
0.000000
  0
LINE
  8
LAYER-1
 62
  0
 10
3.132060
 20
1.046817
 30
0.000000
 11
3.268149
 21
1.284552
 31
0.000000
  0
LINE
  8
LAYER-1
 62
  0
 10
3.188695
 20
1.014397
 30
0.000000
 11
3.324784
 21
1.252131
 31
0.000000
  0
POLYLINE
  8
LAYER-1
 66
  1
 70
  0
 62
  0
 10
2.565877
 20
7.416927
 30
0.000000
  0
VERTEX
  8
LAYER-1
 10
2.565877
 20
7.416927
 30
0.000000
  0
VERTEX
  8
LAYER-1
 10
2.565877
 20
0.350136
 30
0.000000
  0
SEQEND
  8
LAYER-1
  0
POLYLINE
  8
LAYER-1
 66
  1
 70
  0
 62
  0
 10
2.651307
 20
7.416927
 30
0.000000
  0
VERTEX
  8
LAYER-1
 10
2.651307
 20
7.416927
 30
0.000000
  0
VERTEX
  8
LAYER-1
 10
2.651307
 20
0.350136
 30
0.000000
  0
SEQEND
  8
LAYER-1
  0
POLYLINE
  8
LAYER-1
 66
  1
 70
  0
 62
  0
 10
2.975936
 20
7.416927
 30
0.000000
  0
VERTEX
  8
LAYER-1
 10
2.975936
 20
7.416927
 30
0.000000
  0
VERTEX
  8
LAYER-1
 10
2.975936
 20
0.350136
 30
0.000000
  0
SEQEND
  8
LAYER-1
  0
POLYLINE
  8
LAYER-1
 66
  1
 70
  0
 62
  0
 10
3.061367
 20
7.416927
 30
0.000000
  0
VERTEX
  8
LAYER-1
 10
3.061367
 20
7.416927
 30
0.000000
  0
VERTEX
  8
LAYER-1
 10
3.061367
 20
0.350136
 30
0.000000
  0
SEQEND
  8
LAYER-1
  0
POLYLINE
  8
LAYER-1
 66
  1
 70
  0
 62
  0
 10
3.385998
 20
7.416927
 30
0.000000
  0
VERTEX
  8
LAYER-1
 10
3.385998
 20
7.416927
 30
0.000000
  0
VERTEX
  8
LAYER-1
 10
3.385998
 20
0.350136
 30
0.000000
  0
SEQEND
  8
LAYER-1
  0
POLYLINE
  8
LAYER-1
 66
  1
 70
  0
 62
  0
 10
3.468579
 20
7.416927
 30
0.000000
  0
VERTEX
  8
LAYER-1
 10
3.468579
 20
7.416927
 30
0.000000
  0
VERTEX
  8
LAYER-1
 10
3.468579
 20
0.350136
 30
0.000000
  0
SEQEND
  8
LAYER-1
  0
POLYLINE
  8
LAYER-1
 66
  1
 70
  0
 62
  0
 10
1.795588
 20
7.416927
 30
0.000000
  0
VERTEX
  8
LAYER-1
 10
1.795588
 20
7.416927
 30
0.000000
  0
VERTEX
  8
LAYER-1
 10
1.795588
 20
0.350136
 30
0.000000
  0
SEQEND
  8
LAYER-1
  0
POLYLINE
  8
LAYER-1
 66
  1
 70
  0
 62
  0
 10
2.608355
 20
7.416927
 30
0.000000
  0
VERTEX
  8
LAYER-1
 10
2.608355
 20
7.416927
 30
0.000000
  0
VERTEX
  8
LAYER-1
 10
2.608355
 20
0.350136
 30
0.000000
  0
SEQEND
  8
LAYER-1
  0
POLYLINE
  8
LAYER-1
 66
  1
 70
  0
 62
  0
 10
2.999906
 20
7.416927
 30
0.000000
  0
VERTEX
  8
LAYER-1
 10
2.999906
 20
7.416927
 30
0.000000
  0
VERTEX
  8
LAYER-1
 10
2.999906
 20
0.350136
 30
0.000000
  0
SEQEND
  8
LAYER-1
  0
POLYLINE
  8
LAYER-1
 66
  1
 70
  0
 62
  0
 10
3.035500
 20
7.416927
 30
0.000000
  0
VERTEX
  8
LAYER-1
 10
3.035500
 20
7.416927
 30
0.000000
  0
VERTEX
  8
LAYER-1
 10
3.035500
 20
0.350136
 30
0.000000
  0
SEQEND
  8
LAYER-1
  0
POLYLINE
  8
LAYER-1
 66
  1
 70
  0
 62
  0
 10
3.427052
 20
7.416927
 30
0.000000
  0
VERTEX
  8
LAYER-1
 10
3.427052
 20
7.416927
 30
0.000000
  0
VERTEX
  8
LAYER-1
 10
3.427052
 20
0.350136
 30
0.000000
  0
SEQEND
  8
LAYER-1
  0
POLYLINE
  8
LAYER-1
 66
  1
 70
  1
 62
  0
  0
VERTEX
  8
LAYER-1
 10
2.988038
 20
0.350211
 30
0.000000
  0
VERTEX
  8
LAYER-1
 10
3.042915
 20
0.350211
 30
0.000000
  0
VERTEX
  8
LAYER-1
 10
3.042915
 20
0.344352
 30
0.000000
  0
VERTEX
  8
LAYER-1
 10
2.988038
 20
0.344352
 30
0.000000
  0
SEQEND
  8
LAYER-1
  0
POLYLINE
  8
LAYER-1
 66
  1
 70
  0
 62
  0
 10
3.035500
 20
0.423453
 30
0.000000
  0
VERTEX
  8
LAYER-1
 10
3.035500
 20
0.423453
 30
0.000000
  0
VERTEX
  8
LAYER-1
 10
2.999906
 20
0.423453
 30
0.000000
  0
SEQEND
  8
LAYER-1
  0
POLYLINE
  8
LAYER-1
 66
  1
 70
  0
 62
  0
 10
3.035500
 20
0.552360
 30
0.000000
  0
VERTEX
  8
LAYER-1
 10
3.035500
 20
0.552360
 30
0.000000
  0
VERTEX
  8
LAYER-1
 10
2.999906
 20
0.552360
 30
0.000000
  0
SEQEND
  8
LAYER-1
  0
POLYLINE
  8
LAYER-1
 66
  1
 70
  0
 62
  0
 10
2.999906
 20
0.627344
 30
0.000000
  0
VERTEX
  8
LAYER-1
 10
2.999906
 20
0.627344
 30
0.000000
  0
VERTEX
  8
LAYER-1
 10
3.035500
 20
0.627344
 30
0.000000
  0
SEQEND
  8
LAYER-1
  0
POLYLINE
  8
LAYER-1
 66
  1
 70
  0
 62
  0
 10
2.999906
 20
1.474024
 30
0.000000
  0
VERTEX
  8
LAYER-1
 10
2.999906
 20
1.474024
 30
0.000000
  0
VERTEX
  8
LAYER-1
 10
3.035500
 20
1.474024
 30
0.000000
  0
SEQEND
  8
LAYER-1
  0
POLYLINE
  8
LAYER-1
 66
  1
 70
  0
 62
  0
 10
2.999906
 20
2.311913
 30
0.000000
  0
VERTEX
  8
LAYER-1
 10
2.999906
 20
2.311913
 30
0.000000
  0
VERTEX
  8
LAYER-1
 10
3.035500
 20
2.311913
 30
0.000000
  0
SEQEND
  8
LAYER-1
  0
POLYLINE
  8
LAYER-1
 66
  1
 70
  0
 62
  0
 10
2.999906
 20
3.161515
 30
0.000000
  0
VERTEX
  8
LAYER-1
 10
2.999906
 20
3.161515
 30
0.000000
  0
VERTEX
  8
LAYER-1
 10
3.035500
 20
3.161515
 30
0.000000
  0
SEQEND
  8
LAYER-1
  0
POLYLINE
  8
LAYER-1
 66
  1
 70
  0
 62
  0
 10
3.035500
 20
4.003801
 30
0.000000
  0
VERTEX
  8
LAYER-1
 10
3.035500
 20
4.003801
 30
0.000000
  0
VERTEX
  8
LAYER-1
 10
2.999906
 20
4.003801
 30
0.000000
  0
SEQEND
  8
LAYER-1
  0
POLYLINE
  8
LAYER-1
 66
  1
 70
  0
 62
  0
 10
2.181858
 20
4.854802
 30
0.000000
  0
VERTEX
  8
LAYER-1
 10
2.181858
 20
4.854802
 30
0.000000
  0
VERTEX
  8
LAYER-1
 10
2.217455
 20
4.854802
 30
0.000000
  0
SEQEND
  8
LAYER-1
  0
POLYLINE
  8
LAYER-1
 66
  1
 70
  0
 62
  0
 10
2.181858
 20
5.698551
 30
0.000000
  0
VERTEX
  8
LAYER-1
 10
2.181858
 20
5.698551
 30
0.000000
  0
VERTEX
  8
LAYER-1
 10
2.217455
 20
5.698551
 30
0.000000
  0
SEQEND
  8
LAYER-1
  0
POLYLINE
  8
LAYER-1
 66
  1
 70
  0
 62
  0
 10
2.181858
 20
6.543770
 30
0.000000
  0
VERTEX
  8
LAYER-1
 10
2.181858
 20
6.543770
 30
0.000000
  0
VERTEX
  8
LAYER-1
 10
2.217455
 20
6.543770
 30
0.000000
  0
SEQEND
  8
LAYER-1
  0
POLYLINE
  8
LAYER-1
 66
  1
 70
  0
 62
  0
 10
2.999729
 20
6.543770
 30
0.000000
  0
VERTEX
  8
LAYER-1
 10
2.999729
 20
6.543770
 30
0.000000
  0
VERTEX
  8
LAYER-1
 10
3.035323
 20
6.543770
 30
0.000000
  0
SEQEND
  8
LAYER-1
  0
POLYLINE
  8
LAYER-1
 66
  1
 70
  0
 62
  0
 10
3.647862
 20
6.543694
 30
0.000000
  0
VERTEX
  8
LAYER-1
 10
3.647862
 20
6.543694
 30
0.000000
  0
VERTEX
  8
LAYER-1
 10
3.683457
 20
6.543694
 30
0.000000
  0
SEQEND
  8
LAYER-1
  0
POLYLINE
  8
LAYER-1
 66
  1
 70
  0
 62
  0
 10
5.354019
 20
6.543769
 30
0.000000
  0
VERTEX
  8
LAYER-1
 10
5.354019
 20
6.543769
 30
0.000000
  0
VERTEX
  8
LAYER-1
 10
5.318424
 20
6.543769
 30
0.000000
  0
SEQEND
  8
LAYER-1
  0
POLYLINE
  8
LAYER-1
 66
  1
 70
  0
 62
  0
 10
4.536144
 20
6.543769
 30
0.000000
  0
VERTEX
  8
LAYER-1
 10
4.536144
 20
6.543769
 30
0.000000
  0
VERTEX
  8
LAYER-1
 10
4.500553
 20
6.543769
 30
0.000000
  0
SEQEND
  8
LAYER-1
  0
POLYLINE
  8
LAYER-1
 66
  1
 70
  0
 62
  0
 10
3.888006
 20
6.543694
 30
0.000000
  0
VERTEX
  8
LAYER-1
 10
3.888006
 20
6.543694
 30
0.000000
  0
VERTEX
  8
LAYER-1
 10
3.852414
 20
6.543694
 30
0.000000
  0
SEQEND
  8
LAYER-1
  0
POLYLINE
  8
LAYER-1
 66
  1
 70
  0
 62
  0
 10
2.999729
 20
4.854802
 30
0.000000
  0
VERTEX
  8
LAYER-1
 10
2.999729
 20
4.854802
 30
0.000000
  0
VERTEX
  8
LAYER-1
 10
3.035323
 20
4.854802
 30
0.000000
  0
SEQEND
  8
LAYER-1
  0
POLYLINE
  8
LAYER-1
 66
  1
 70
  0
 62
  0
 10
2.999729
 20
5.698551
 30
0.000000
  0
VERTEX
  8
LAYER-1
 10
2.999729
 20
5.698551
 30
0.000000
  0
VERTEX
  8
LAYER-1
 10
3.035323
 20
5.698551
 30
0.000000
  0
SEQEND
  8
LAYER-1
  0
POLYLINE
  8
LAYER-1
 66
  1
 70
  1
 62
  0
  0
VERTEX
  8
LAYER-1
 10
3.637657
 20
7.422785
 30
0.000000
  0
VERTEX
  8
LAYER-1
 10
3.692534
 20
7.422785
 30
0.000000
  0
VERTEX
  8
LAYER-1
 10
3.692534
 20
7.416925
 30
0.000000
  0
VERTEX
  8
LAYER-1
 10
3.637657
 20
7.416925
 30
0.000000
  0
SEQEND
  8
LAYER-1
  0
POLYLINE
  8
LAYER-1
 66
  1
 70
  0
 62
  0
 10
3.648040
 20
7.349542
 30
0.000000
  0
VERTEX
  8
LAYER-1
 10
3.648040
 20
7.349542
 30
0.000000
  0
VERTEX
  8
LAYER-1
 10
3.683634
 20
7.349542
 30
0.000000
  0
SEQEND
  8
LAYER-1
  0
POLYLINE
  8
LAYER-1
 66
  1
 70
  0
 62
  0
 10
3.648040
 20
7.220635
 30
0.000000
  0
VERTEX
  8
LAYER-1
 10
3.648040
 20
7.220635
 30
0.000000
  0
VERTEX
  8
LAYER-1
 10
3.683634
 20
7.220635
 30
0.000000
  0
SEQEND
  8
LAYER-1
  0
POLYLINE
  8
LAYER-1
 66
  1
 70
  0
 62
  0
 10
3.648040
 20
7.416851
 30
0.000000
  0
VERTEX
  8
LAYER-1
 10
3.648040
 20
7.416851
 30
0.000000
  0
VERTEX
  8
LAYER-1
 10
3.648040
 20
0.350136
 30
0.000000
  0
SEQEND
  8
LAYER-1
  0
POLYLINE
  8
LAYER-1
 66
  1
 70
  0
 62
  0
 10
3.683634
 20
0.423376
 30
0.000000
  0
VERTEX
  8
LAYER-1
 10
3.683634
 20
0.423376
 30
0.000000
  0
VERTEX
  8
LAYER-1
 10
3.648040
 20
0.423376
 30
0.000000
  0
SEQEND
  8
LAYER-1
  0
POLYLINE
  8
LAYER-1
 66
  1
 70
  0
 62
  0
 10
3.683634
 20
0.552283
 30
0.000000
  0
VERTEX
  8
LAYER-1
 10
3.683634
 20
0.552283
 30
0.000000
  0
VERTEX
  8
LAYER-1
 10
3.648040
 20
0.552283
 30
0.000000
  0
SEQEND
  8
LAYER-1
  0
POLYLINE
  8
LAYER-1
 66
  1
 70
  0
 62
  0
 10
3.648040
 20
0.627265
 30
0.000000
  0
VERTEX
  8
LAYER-1
 10
3.648040
 20
0.627265
 30
0.000000
  0
VERTEX
  8
LAYER-1
 10
3.683636
 20
0.627265
 30
0.000000
  0
SEQEND
  8
LAYER-1
  0
POLYLINE
  8
LAYER-1
 66
  1
 70
  0
 62
  0
 10
3.648040
 20
1.473947
 30
0.000000
  0
VERTEX
  8
LAYER-1
 10
3.648040
 20
1.473947
 30
0.000000
  0
VERTEX
  8
LAYER-1
 10
3.683636
 20
1.473947
 30
0.000000
  0
SEQEND
  8
LAYER-1
  0
POLYLINE
  8
LAYER-1
 66
  1
 70
  0
 62
  0
 10
3.648040
 20
2.311835
 30
0.000000
  0
VERTEX
  8
LAYER-1
 10
3.648040
 20
2.311835
 30
0.000000
  0
VERTEX
  8
LAYER-1
 10
3.683636
 20
2.311835
 30
0.000000
  0
SEQEND
  8
LAYER-1
  0
POLYLINE
  8
LAYER-1
 66
  1
 70
  0
 62
  0
 10
3.648040
 20
3.161440
 30
0.000000
  0
VERTEX
  8
LAYER-1
 10
3.648040
 20
3.161440
 30
0.000000
  0
VERTEX
  8
LAYER-1
 10
3.683636
 20
3.161440
 30
0.000000
  0
SEQEND
  8
LAYER-1
  0
POLYLINE
  8
LAYER-1
 66
  1
 70
  0
 62
  0
 10
3.683636
 20
4.003724
 30
0.000000
  0
VERTEX
  8
LAYER-1
 10
3.683636
 20
4.003724
 30
0.000000
  0
VERTEX
  8
LAYER-1
 10
3.648040
 20
4.003724
 30
0.000000
  0
SEQEND
  8
LAYER-1
  0
POLYLINE
  8
LAYER-1
 66
  1
 70
  0
 62
  0
 10
3.647862
 20
4.854725
 30
0.000000
  0
VERTEX
  8
LAYER-1
 10
3.647862
 20
4.854725
 30
0.000000
  0
VERTEX
  8
LAYER-1
 10
3.683457
 20
4.854725
 30
0.000000
  0
SEQEND
  8
LAYER-1
  0
POLYLINE
  8
LAYER-1
 66
  1
 70
  0
 62
  0
 10
3.647862
 20
5.698475
 30
0.000000
  0
VERTEX
  8
LAYER-1
 10
3.647862
 20
5.698475
 30
0.000000
  0
VERTEX
  8
LAYER-1
 10
3.683457
 20
5.698475
 30
0.000000
  0
SEQEND
  8
LAYER-1
  0
POLYLINE
  8
LAYER-1
 66
  1
 70
  1
 62
  0
  0
VERTEX
  8
LAYER-1
 10
3.636176
 20
0.350136
 30
0.000000
  0
VERTEX
  8
LAYER-1
 10
3.691051
 20
0.350136
 30
0.000000
  0
VERTEX
  8
LAYER-1
 10
3.691051
 20
0.344276
 30
0.000000
  0
VERTEX
  8
LAYER-1
 10
3.636176
 20
0.344276
 30
0.000000
  0
SEQEND
  8
LAYER-1
  0
POLYLINE
  8
LAYER-1
 66
  1
 70
  1
 62
  0
  0
VERTEX
  8
LAYER-1
 10
3.682567
 20
7.416927
 30
0.000000
  0
VERTEX
  8
LAYER-1
 10
3.852240
 20
7.416927
 30
0.000000
  0
VERTEX
  8
LAYER-1
 10
3.852240
 20
0.349943
 30
0.000000
  0
VERTEX
  8
LAYER-1
 10
3.682567
 20
0.349943
 30
0.000000
  0
SEQEND
  8
LAYER-1
  0
POLYLINE
  8
LAYER-1
 66
  1
 70
  1
 62
  0
  0
VERTEX
  8
LAYER-1
 10
5.380062
 20
7.416926
 30
0.000000
  0
VERTEX
  8
LAYER-1
 10
5.704693
 20
7.416926
 30
0.000000
  0
VERTEX
  8
LAYER-1
 10
5.704693
 20
7.146927
 30
0.000000
  0
VERTEX
  8
LAYER-1
 10
5.380062
 20
7.146927
 30
0.000000
  0
SEQEND
  8
LAYER-1
  0
POLYLINE
  8
LAYER-1
 66
  1
 70
  1
 62
  0
  0
VERTEX
  8
LAYER-1
 10
4.969999
 20
7.416926
 30
0.000000
  0
VERTEX
  8
LAYER-1
 10
5.294631
 20
7.416926
 30
0.000000
  0
VERTEX
  8
LAYER-1
 10
5.294631
 20
7.146927
 30
0.000000
  0
VERTEX
  8
LAYER-1
 10
4.969999
 20
7.146927
 30
0.000000
  0
SEQEND
  8
LAYER-1
  0
POLYLINE
  8
LAYER-1
 66
  1
 70
  1
 62
  0
  0
VERTEX
  8
LAYER-1
 10
4.559937
 20
7.416926
 30
0.000000
  0
VERTEX
  8
LAYER-1
 10
4.884569
 20
7.416926
 30
0.000000
  0
VERTEX
  8
LAYER-1
 10
4.884569
 20
7.146927
 30
0.000000
  0
VERTEX
  8
LAYER-1
 10
4.559937
 20
7.146927
 30
0.000000
  0
SEQEND
  8
LAYER-1
  0
POLYLINE
  8
LAYER-1
 66
  1
 70
  1
 62
  0
  0
VERTEX
  8
LAYER-1
 10
4.149875
 20
7.416926
 30
0.000000
  0
VERTEX
  8
LAYER-1
 10
4.474506
 20
7.416926
 30
0.000000
  0
VERTEX
  8
LAYER-1
 10
4.474506
 20
7.146927
 30
0.000000
  0
VERTEX
  8
LAYER-1
 10
4.149875
 20
7.146927
 30
0.000000
  0
SEQEND
  8
LAYER-1
  0
POLYLINE
  8
LAYER-1
 66
  1
 70
  0
 62
  0
 10
4.737678
 20
7.417001
 30
0.000000
  0
VERTEX
  8
LAYER-1
 10
4.737678
 20
7.417001
 30
0.000000
  0
VERTEX
  8
LAYER-1
 10
4.737678
 20
7.147470
 30
0.000000
  0
SEQEND
  8
LAYER-1
  0
POLYLINE
  8
LAYER-1
 66
  1
 70
  0
 62
  0
 10
4.700601
 20
7.417001
 30
0.000000
  0
VERTEX
  8
LAYER-1
 10
4.700601
 20
7.417001
 30
0.000000
  0
VERTEX
  8
LAYER-1
 10
4.700601
 20
7.147470
 30
0.000000
  0
SEQEND
  8
LAYER-1
  0
POLYLINE
  8
LAYER-1
 66
  1
 70
  0
 62
  0
 10
5.559345
 20
7.417001
 30
0.000000
  0
VERTEX
  8
LAYER-1
 10
5.559345
 20
7.417001
 30
0.000000
  0
VERTEX
  8
LAYER-1
 10
5.559345
 20
7.147470
 30
0.000000
  0
SEQEND
  8
LAYER-1
  0
POLYLINE
  8
LAYER-1
 66
  1
 70
  0
 62
  0
 10
5.520785
 20
7.417001
 30
0.000000
  0
VERTEX
  8
LAYER-1
 10
5.520785
 20
7.417001
 30
0.000000
  0
VERTEX
  8
LAYER-1
 10
5.520785
 20
7.147470
 30
0.000000
  0
SEQEND
  8
LAYER-1
  0
POLYLINE
  8
LAYER-1
 66
  1
 70
  1
 62
  0
  0
VERTEX
  8
LAYER-1
 10
5.308692
 20
7.422862
 30
0.000000
  0
VERTEX
  8
LAYER-1
 10
5.363567
 20
7.422862
 30
0.000000
  0
VERTEX
  8
LAYER-1
 10
5.363567
 20
7.417001
 30
0.000000
  0
VERTEX
  8
LAYER-1
 10
5.308692
 20
7.417001
 30
0.000000
  0
SEQEND
  8
LAYER-1
  0
POLYLINE
  8
LAYER-1
 66
  1
 70
  0
 62
  0
 10
5.354672
 20
7.349619
 30
0.000000
  0
VERTEX
  8
LAYER-1
 10
5.354672
 20
7.349619
 30
0.000000
  0
VERTEX
  8
LAYER-1
 10
5.319074
 20
7.349619
 30
0.000000
  0
SEQEND
  8
LAYER-1
  0
POLYLINE
  8
LAYER-1
 66
  1
 70
  0
 62
  0
 10
5.354672
 20
7.220713
 30
0.000000
  0
VERTEX
  8
LAYER-1
 10
5.354672
 20
7.220713
 30
0.000000
  0
VERTEX
  8
LAYER-1
 10
5.319074
 20
7.220713
 30
0.000000
  0
SEQEND
  8
LAYER-1
  0
POLYLINE
  8
LAYER-1
 66
  1
 70
  1
 62
  0
  0
VERTEX
  8
LAYER-1
 10
4.491474
 20
7.422862
 30
0.000000
  0
VERTEX
  8
LAYER-1
 10
4.546352
 20
7.422862
 30
0.000000
  0
VERTEX
  8
LAYER-1
 10
4.546352
 20
7.417001
 30
0.000000
  0
VERTEX
  8
LAYER-1
 10
4.491474
 20
7.417001
 30
0.000000
  0
SEQEND
  8
LAYER-1
  0
POLYLINE
  8
LAYER-1
 66
  1
 70
  0
 62
  0
 10
4.535967
 20
7.349619
 30
0.000000
  0
VERTEX
  8
LAYER-1
 10
4.535967
 20
7.349619
 30
0.000000
  0
VERTEX
  8
LAYER-1
 10
4.500376
 20
7.349619
 30
0.000000
  0
SEQEND
  8
LAYER-1
  0
POLYLINE
  8
LAYER-1
 66
  1
 70
  0
 62
  0
 10
4.535967
 20
7.220712
 30
0.000000
  0
VERTEX
  8
LAYER-1
 10
4.535967
 20
7.220712
 30
0.000000
  0
VERTEX
  8
LAYER-1
 10
4.500376
 20
7.220712
 30
0.000000
  0
SEQEND
  8
LAYER-1
  0
POLYLINE
  8
LAYER-1
 66
  1
 70
  0
 62
  0
 10
5.704693
 20
7.416926
 30
0.000000
  0
VERTEX
  8
LAYER-1
 10
5.704693
 20
7.416926
 30
0.000000
  0
VERTEX
  8
LAYER-1
 10
5.704693
 20
0.350136
 30
0.000000
  0
SEQEND
  8
LAYER-1
  0
POLYLINE
  8
LAYER-1
 66
  1
 70
  0
 62
  0
 10
5.380062
 20
7.416926
 30
0.000000
  0
VERTEX
  8
LAYER-1
 10
5.380062
 20
7.416926
 30
0.000000
  0
VERTEX
  8
LAYER-1
 10
5.380062
 20
0.350136
 30
0.000000
  0
SEQEND
  8
LAYER-1
  0
POLYLINE
  8
LAYER-1
 66
  1
 70
  0
 62
  0
 10
5.294631
 20
7.416926
 30
0.000000
  0
VERTEX
  8
LAYER-1
 10
5.294631
 20
7.416926
 30
0.000000
  0
VERTEX
  8
LAYER-1
 10
5.294631
 20
0.350136
 30
0.000000
  0
SEQEND
  8
LAYER-1
  0
POLYLINE
  8
LAYER-1
 66
  1
 70
  0
 62
  0
 10
5.354672
 20
7.416926
 30
0.000000
  0
VERTEX
  8
LAYER-1
 10
5.354672
 20
7.416926
 30
0.000000
  0
VERTEX
  8
LAYER-1
 10
5.354672
 20
0.350136
 30
0.000000
  0
SEQEND
  8
LAYER-1
  0
POLYLINE
  8
LAYER-1
 66
  1
 70
  0
 62
  0
 10
5.319074
 20
7.416926
 30
0.000000
  0
VERTEX
  8
LAYER-1
 10
5.319074
 20
7.416926
 30
0.000000
  0
VERTEX
  8
LAYER-1
 10
5.319074
 20
0.350136
 30
0.000000
  0
SEQEND
  8
LAYER-1
  0
POLYLINE
  8
LAYER-1
 66
  1
 70
  1
 62
  0
  0
VERTEX
  8
LAYER-1
 10
5.310176
 20
0.350211
 30
0.000000
  0
VERTEX
  8
LAYER-1
 10
5.365052
 20
0.350211
 30
0.000000
  0
VERTEX
  8
LAYER-1
 10
5.365052
 20
0.344352
 30
0.000000
  0
VERTEX
  8
LAYER-1
 10
5.310176
 20
0.344352
 30
0.000000
  0
SEQEND
  8
LAYER-1
  0
POLYLINE
  8
LAYER-1
 66
  1
 70
  0
 62
  0
 10
5.319074
 20
0.423453
 30
0.000000
  0
VERTEX
  8
LAYER-1
 10
5.319074
 20
0.423453
 30
0.000000
  0
VERTEX
  8
LAYER-1
 10
5.354672
 20
0.423453
 30
0.000000
  0
SEQEND
  8
LAYER-1
  0
POLYLINE
  8
LAYER-1
 66
  1
 70
  0
 62
  0
 10
5.319074
 20
0.552360
 30
0.000000
  0
VERTEX
  8
LAYER-1
 10
5.319074
 20
0.552360
 30
0.000000
  0
VERTEX
  8
LAYER-1
 10
5.354672
 20
0.552360
 30
0.000000
  0
SEQEND
  8
LAYER-1
  0
POLYLINE
  8
LAYER-1
 66
  1
 70
  0
 62
  0
 10
5.354672
 20
0.627344
 30
0.000000
  0
VERTEX
  8
LAYER-1
 10
5.354672
 20
0.627344
 30
0.000000
  0
VERTEX
  8
LAYER-1
 10
5.319074
 20
0.627344
 30
0.000000
  0
SEQEND
  8
LAYER-1
  0
POLYLINE
  8
LAYER-1
 66
  1
 70
  0
 62
  0
 10
5.354672
 20
1.474024
 30
0.000000
  0
VERTEX
  8
LAYER-1
 10
5.354672
 20
1.474024
 30
0.000000
  0
VERTEX
  8
LAYER-1
 10
5.319074
 20
1.474024
 30
0.000000
  0
SEQEND
  8
LAYER-1
  0
POLYLINE
  8
LAYER-1
 66
  1
 70
  0
 62
  0
 10
5.354672
 20
2.311913
 30
0.000000
  0
VERTEX
  8
LAYER-1
 10
5.354672
 20
2.311913
 30
0.000000
  0
VERTEX
  8
LAYER-1
 10
5.319074
 20
2.311913
 30
0.000000
  0
SEQEND
  8
LAYER-1
  0
POLYLINE
  8
LAYER-1
 66
  1
 70
  0
 62
  0
 10
5.354672
 20
3.161515
 30
0.000000
  0
VERTEX
  8
LAYER-1
 10
5.354672
 20
3.161515
 30
0.000000
  0
VERTEX
  8
LAYER-1
 10
5.319074
 20
3.161515
 30
0.000000
  0
SEQEND
  8
LAYER-1
  0
POLYLINE
  8
LAYER-1
 66
  1
 70
  0
 62
  0
 10
5.319074
 20
4.003801
 30
0.000000
  0
VERTEX
  8
LAYER-1
 10
5.319074
 20
4.003801
 30
0.000000
  0
VERTEX
  8
LAYER-1
 10
5.354672
 20
4.003801
 30
0.000000
  0
SEQEND
  8
LAYER-1
  0
POLYLINE
  8
LAYER-1
 66
  1
 70
  1
 62
  0
  0
VERTEX
  8
LAYER-1
 10
5.399165
 20
3.847927
 30
0.000000
  0
VERTEX
  8
LAYER-1
 10
5.686898
 20
3.847927
 30
0.000000
  0
VERTEX
  8
LAYER-1
 10
5.686898
 20
0.678856
 30
0.000000
  0
VERTEX
  8
LAYER-1
 10
5.399165
 20
0.678856
 30
0.000000
  0
SEQEND
  8
LAYER-1
  0
POLYLINE
  8
LAYER-1
 66
  1
 70
  1
 62
  0
  0
VERTEX
  8
LAYER-1
 10
4.989102
 20
3.847927
 30
0.000000
  0
VERTEX
  8
LAYER-1
 10
5.276835
 20
3.847927
 30
0.000000
  0
VERTEX
  8
LAYER-1
 10
5.276835
 20
0.678856
 30
0.000000
  0
VERTEX
  8
LAYER-1
 10
4.989102
 20
0.678856
 30
0.000000
  0
SEQEND
  8
LAYER-1
  0
POLYLINE
  8
LAYER-1
 66
  1
 70
  1
 62
  0
  0
VERTEX
  8
LAYER-1
 10
4.579040
 20
3.847927
 30
0.000000
  0
VERTEX
  8
LAYER-1
 10
4.866773
 20
3.847927
 30
0.000000
  0
VERTEX
  8
LAYER-1
 10
4.866773
 20
0.678856
 30
0.000000
  0
VERTEX
  8
LAYER-1
 10
4.579040
 20
0.678856
 30
0.000000
  0
SEQEND
  8
LAYER-1
  0
POLYLINE
  8
LAYER-1
 66
  1
 70
  1
 62
  0
  0
VERTEX
  8
LAYER-1
 10
4.168978
 20
3.847927
 30
0.000000
  0
VERTEX
  8
LAYER-1
 10
4.456711
 20
3.847927
 30
0.000000
  0
VERTEX
  8
LAYER-1
 10
4.456711
 20
0.678856
 30
0.000000
  0
VERTEX
  8
LAYER-1
 10
4.168978
 20
0.678856
 30
0.000000
  0
SEQEND
  8
LAYER-1
  0
LINE
  8
LAYER-1
 62
  0
 10
4.620621
 20
3.270665
 30
0.000000
 11
4.756710
 21
3.508402
 31
0.000000
  0
LINE
  8
LAYER-1
 62
  0
 10
4.677257
 20
3.238246
 30
0.000000
 11
4.813345
 21
3.475982
 31
0.000000
  0
LINE
  8
LAYER-1
 62
  0
 10
5.030683
 20
3.270665
 30
0.000000
 11
5.166772
 21
3.508402
 31
0.000000
  0
LINE
  8
LAYER-1
 62
  0
 10
5.087319
 20
3.238246
 30
0.000000
 11
5.223407
 21
3.475982
 31
0.000000
  0
LINE
  8
LAYER-1
 62
  0
 10
5.440745
 20
3.270665
 30
0.000000
 11
5.576834
 21
3.508402
 31
0.000000
  0
LINE
  8
LAYER-1
 62
  0
 10
5.497381
 20
3.238245
 30
0.000000
 11
5.633470
 21
3.475981
 31
0.000000
  0
LINE
  8
LAYER-1
 62
  0
 10
4.215719
 20
3.270668
 30
0.000000
 11
4.351807
 21
3.508403
 31
0.000000
  0
LINE
  8
LAYER-1
 62
  0
 10
4.272354
 20
3.238247
 30
0.000000
 11
4.408443
 21
3.475982
 31
0.000000
  0
LINE
  8
LAYER-1
 62
  0
 10
4.620260
 20
1.046817
 30
0.000000
 11
4.756348
 21
1.284552
 31
0.000000
  0
LINE
  8
LAYER-1
 62
  0
 10
4.676896
 20
1.014397
 30
0.000000
 11
4.812984
 21
1.252131
 31
0.000000
  0
LINE
  8
LAYER-1
 62
  0
 10
5.030321
 20
1.046817
 30
0.000000
 11
5.166410
 21
1.284552
 31
0.000000
  0
LINE
  8
LAYER-1
 62
  0
 10
5.086957
 20
1.014397
 30
0.000000
 11
5.223046
 21
1.252131
 31
0.000000
  0
LINE
  8
LAYER-1
 62
  0
 10
5.440385
 20
1.046817
 30
0.000000
 11
5.576476
 21
1.284552
 31
0.000000
  0
LINE
  8
LAYER-1
 62
  0
 10
5.497020
 20
1.014397
 30
0.000000
 11
5.633111
 21
1.252131
 31
0.000000
  0
LINE
  8
LAYER-1
 62
  0
 10
4.215360
 20
1.046817
 30
0.000000
 11
4.351446
 21
1.284552
 31
0.000000
  0
LINE
  8
LAYER-1
 62
  0
 10
4.271996
 20
1.014397
 30
0.000000
 11
4.408081
 21
1.252131
 31
0.000000
  0
POLYLINE
  8
LAYER-1
 66
  1
 70
  0
 62
  0
 10
4.969999
 20
7.416926
 30
0.000000
  0
VERTEX
  8
LAYER-1
 10
4.969999
 20
7.416926
 30
0.000000
  0
VERTEX
  8
LAYER-1
 10
4.969999
 20
0.350136
 30
0.000000
  0
SEQEND
  8
LAYER-1
  0
POLYLINE
  8
LAYER-1
 66
  1
 70
  0
 62
  0
 10
4.884569
 20
7.416926
 30
0.000000
  0
VERTEX
  8
LAYER-1
 10
4.884569
 20
7.416926
 30
0.000000
  0
VERTEX
  8
LAYER-1
 10
4.884569
 20
0.350136
 30
0.000000
  0
SEQEND
  8
LAYER-1
  0
POLYLINE
  8
LAYER-1
 66
  1
 70
  0
 62
  0
 10
4.559937
 20
7.416926
 30
0.000000
  0
VERTEX
  8
LAYER-1
 10
4.559937
 20
7.416926
 30
0.000000
  0
VERTEX
  8
LAYER-1
 10
4.559937
 20
0.350136
 30
0.000000
  0
SEQEND
  8
LAYER-1
  0
POLYLINE
  8
LAYER-1
 66
  1
 70
  0
 62
  0
 10
4.474506
 20
7.416926
 30
0.000000
  0
VERTEX
  8
LAYER-1
 10
4.474506
 20
7.416926
 30
0.000000
  0
VERTEX
  8
LAYER-1
 10
4.474506
 20
0.350136
 30
0.000000
  0
SEQEND
  8
LAYER-1
  0
POLYLINE
  8
LAYER-1
 66
  1
 70
  0
 62
  0
 10
4.149875
 20
7.416926
 30
0.000000
  0
VERTEX
  8
LAYER-1
 10
4.149875
 20
7.416926
 30
0.000000
  0
VERTEX
  8
LAYER-1
 10
4.149875
 20
0.350136
 30
0.000000
  0
SEQEND
  8
LAYER-1
  0
POLYLINE
  8
LAYER-1
 66
  1
 70
  0
 62
  0
 10
4.067292
 20
7.416926
 30
0.000000
  0
VERTEX
  8
LAYER-1
 10
4.067292
 20
7.416926
 30
0.000000
  0
VERTEX
  8
LAYER-1
 10
4.067292
 20
0.350136
 30
0.000000
  0
SEQEND
  8
LAYER-1
  0
POLYLINE
  8
LAYER-1
 66
  1
 70
  0
 62
  0
 10
5.740291
 20
7.416926
 30
0.000000
  0
VERTEX
  8
LAYER-1
 10
5.740291
 20
7.416926
 30
0.000000
  0
VERTEX
  8
LAYER-1
 10
5.740291
 20
0.350136
 30
0.000000
  0
SEQEND
  8
LAYER-1
  0
POLYLINE
  8
LAYER-1
 66
  1
 70
  0
 62
  0
 10
4.927524
 20
7.416926
 30
0.000000
  0
VERTEX
  8
LAYER-1
 10
4.927524
 20
7.416926
 30
0.000000
  0
VERTEX
  8
LAYER-1
 10
4.927524
 20
0.350136
 30
0.000000
  0
SEQEND
  8
LAYER-1
  0
POLYLINE
  8
LAYER-1
 66
  1
 70
  0
 62
  0
 10
4.535967
 20
7.416926
 30
0.000000
  0
VERTEX
  8
LAYER-1
 10
4.535967
 20
7.416926
 30
0.000000
  0
VERTEX
  8
LAYER-1
 10
4.535967
 20
0.350136
 30
0.000000
  0
SEQEND
  8
LAYER-1
  0
POLYLINE
  8
LAYER-1
 66
  1
 70
  0
 62
  0
 10
4.500376
 20
7.416926
 30
0.000000
  0
VERTEX
  8
LAYER-1
 10
4.500376
 20
7.416926
 30
0.000000
  0
VERTEX
  8
LAYER-1
 10
4.500376
 20
0.350136
 30
0.000000
  0
SEQEND
  8
LAYER-1
  0
POLYLINE
  8
LAYER-1
 66
  1
 70
  0
 62
  0
 10
4.108818
 20
7.416926
 30
0.000000
  0
VERTEX
  8
LAYER-1
 10
4.108818
 20
7.416926
 30
0.000000
  0
VERTEX
  8
LAYER-1
 10
4.108818
 20
0.350136
 30
0.000000
  0
SEQEND
  8
LAYER-1
  0
POLYLINE
  8
LAYER-1
 66
  1
 70
  1
 62
  0
  0
VERTEX
  8
LAYER-1
 10
4.492959
 20
0.350211
 30
0.000000
  0
VERTEX
  8
LAYER-1
 10
4.547837
 20
0.350211
 30
0.000000
  0
VERTEX
  8
LAYER-1
 10
4.547837
 20
0.344352
 30
0.000000
  0
VERTEX
  8
LAYER-1
 10
4.492959
 20
0.344352
 30
0.000000
  0
SEQEND
  8
LAYER-1
  0
POLYLINE
  8
LAYER-1
 66
  1
 70
  0
 62
  0
 10
4.500376
 20
0.423453
 30
0.000000
  0
VERTEX
  8
LAYER-1
 10
4.500376
 20
0.423453
 30
0.000000
  0
VERTEX
  8
LAYER-1
 10
4.535967
 20
0.423453
 30
0.000000
  0
SEQEND
  8
LAYER-1
  0
POLYLINE
  8
LAYER-1
 66
  1
 70
  0
 62
  0
 10
4.500376
 20
0.552360
 30
0.000000
  0
VERTEX
  8
LAYER-1
 10
4.500376
 20
0.552360
 30
0.000000
  0
VERTEX
  8
LAYER-1
 10
4.535967
 20
0.552360
 30
0.000000
  0
SEQEND
  8
LAYER-1
  0
POLYLINE
  8
LAYER-1
 66
  1
 70
  0
 62
  0
 10
4.535967
 20
0.627344
 30
0.000000
  0
VERTEX
  8
LAYER-1
 10
4.535967
 20
0.627344
 30
0.000000
  0
VERTEX
  8
LAYER-1
 10
4.500376
 20
0.627344
 30
0.000000
  0
SEQEND
  8
LAYER-1
  0
POLYLINE
  8
LAYER-1
 66
  1
 70
  0
 62
  0
 10
4.535967
 20
1.474024
 30
0.000000
  0
VERTEX
  8
LAYER-1
 10
4.535967
 20
1.474024
 30
0.000000
  0
VERTEX
  8
LAYER-1
 10
4.500376
 20
1.474024
 30
0.000000
  0
SEQEND
  8
LAYER-1
  0
POLYLINE
  8
LAYER-1
 66
  1
 70
  0
 62
  0
 10
4.535967
 20
2.311913
 30
0.000000
  0
VERTEX
  8
LAYER-1
 10
4.535967
 20
2.311913
 30
0.000000
  0
VERTEX
  8
LAYER-1
 10
4.500376
 20
2.311913
 30
0.000000
  0
SEQEND
  8
LAYER-1
  0
POLYLINE
  8
LAYER-1
 66
  1
 70
  0
 62
  0
 10
4.535967
 20
3.161515
 30
0.000000
  0
VERTEX
  8
LAYER-1
 10
4.535967
 20
3.161515
 30
0.000000
  0
VERTEX
  8
LAYER-1
 10
4.500376
 20
3.161515
 30
0.000000
  0
SEQEND
  8
LAYER-1
  0
POLYLINE
  8
LAYER-1
 66
  1
 70
  0
 62
  0
 10
4.500376
 20
4.003801
 30
0.000000
  0
VERTEX
  8
LAYER-1
 10
4.500376
 20
4.003801
 30
0.000000
  0
VERTEX
  8
LAYER-1
 10
4.535967
 20
4.003801
 30
0.000000
  0
SEQEND
  8
LAYER-1
  0
POLYLINE
  8
LAYER-1
 66
  1
 70
  0
 62
  0
 10
5.354019
 20
4.854802
 30
0.000000
  0
VERTEX
  8
LAYER-1
 10
5.354019
 20
4.854802
 30
0.000000
  0
VERTEX
  8
LAYER-1
 10
5.318424
 20
4.854802
 30
0.000000
  0
SEQEND
  8
LAYER-1
  0
POLYLINE
  8
LAYER-1
 66
  1
 70
  0
 62
  0
 10
5.354019
 20
5.698551
 30
0.000000
  0
VERTEX
  8
LAYER-1
 10
5.354019
 20
5.698551
 30
0.000000
  0
VERTEX
  8
LAYER-1
 10
5.318424
 20
5.698551
 30
0.000000
  0
SEQEND
  8
LAYER-1
  0
POLYLINE
  8
LAYER-1
 66
  1
 70
  0
 62
  0
 10
4.536144
 20
4.854802
 30
0.000000
  0
VERTEX
  8
LAYER-1
 10
4.536144
 20
4.854802
 30
0.000000
  0
VERTEX
  8
LAYER-1
 10
4.500553
 20
4.854802
 30
0.000000
  0
SEQEND
  8
LAYER-1
  0
POLYLINE
  8
LAYER-1
 66
  1
 70
  0
 62
  0
 10
4.536144
 20
5.698551
 30
0.000000
  0
VERTEX
  8
LAYER-1
 10
4.536144
 20
5.698551
 30
0.000000
  0
VERTEX
  8
LAYER-1
 10
4.500553
 20
5.698551
 30
0.000000
  0
SEQEND
  8
LAYER-1
  0
POLYLINE
  8
LAYER-1
 66
  1
 70
  1
 62
  0
  0
VERTEX
  8
LAYER-1
 10
3.843335
 20
7.422785
 30
0.000000
  0
VERTEX
  8
LAYER-1
 10
3.898213
 20
7.422785
 30
0.000000
  0
VERTEX
  8
LAYER-1
 10
3.898213
 20
7.416924
 30
0.000000
  0
VERTEX
  8
LAYER-1
 10
3.843335
 20
7.416924
 30
0.000000
  0
SEQEND
  8
LAYER-1
  0
POLYLINE
  8
LAYER-1
 66
  1
 70
  0
 62
  0
 10
3.887828
 20
7.349542
 30
0.000000
  0
VERTEX
  8
LAYER-1
 10
3.887828
 20
7.349542
 30
0.000000
  0
VERTEX
  8
LAYER-1
 10
3.852236
 20
7.349542
 30
0.000000
  0
SEQEND
  8
LAYER-1
  0
POLYLINE
  8
LAYER-1
 66
  1
 70
  0
 62
  0
 10
3.887828
 20
7.220635
 30
0.000000
  0
VERTEX
  8
LAYER-1
 10
3.887828
 20
7.220635
 30
0.000000
  0
VERTEX
  8
LAYER-1
 10
3.852236
 20
7.220635
 30
0.000000
  0
SEQEND
  8
LAYER-1
  0
POLYLINE
  8
LAYER-1
 66
  1
 70
  0
 62
  0
 10
3.887828
 20
7.416850
 30
0.000000
  0
VERTEX
  8
LAYER-1
 10
3.887828
 20
7.416850
 30
0.000000
  0
VERTEX
  8
LAYER-1
 10
3.887828
 20
0.350136
 30
0.000000
  0
SEQEND
  8
LAYER-1
  0
POLYLINE
  8
LAYER-1
 66
  1
 70
  0
 62
  0
 10
3.852236
 20
0.423376
 30
0.000000
  0
VERTEX
  8
LAYER-1
 10
3.852236
 20
0.423376
 30
0.000000
  0
VERTEX
  8
LAYER-1
 10
3.887828
 20
0.423376
 30
0.000000
  0
SEQEND
  8
LAYER-1
  0
POLYLINE
  8
LAYER-1
 66
  1
 70
  0
 62
  0
 10
3.852236
 20
0.552283
 30
0.000000
  0
VERTEX
  8
LAYER-1
 10
3.852236
 20
0.552283
 30
0.000000
  0
VERTEX
  8
LAYER-1
 10
3.887828
 20
0.552283
 30
0.000000
  0
SEQEND
  8
LAYER-1
  0
POLYLINE
  8
LAYER-1
 66
  1
 70
  0
 62
  0
 10
3.887828
 20
0.627265
 30
0.000000
  0
VERTEX
  8
LAYER-1
 10
3.887828
 20
0.627265
 30
0.000000
  0
VERTEX
  8
LAYER-1
 10
3.852233
 20
0.627265
 30
0.000000
  0
SEQEND
  8
LAYER-1
  0
POLYLINE
  8
LAYER-1
 66
  1
 70
  0
 62
  0
 10
3.887828
 20
1.473947
 30
0.000000
  0
VERTEX
  8
LAYER-1
 10
3.887828
 20
1.473947
 30
0.000000
  0
VERTEX
  8
LAYER-1
 10
3.852233
 20
1.473947
 30
0.000000
  0
SEQEND
  8
LAYER-1
  0
POLYLINE
  8
LAYER-1
 66
  1
 70
  0
 62
  0
 10
3.887828
 20
2.311835
 30
0.000000
  0
VERTEX
  8
LAYER-1
 10
3.887828
 20
2.311835
 30
0.000000
  0
VERTEX
  8
LAYER-1
 10
3.852233
 20
2.311835
 30
0.000000
  0
SEQEND
  8
LAYER-1
  0
POLYLINE
  8
LAYER-1
 66
  1
 70
  0
 62
  0
 10
3.887828
 20
3.161440
 30
0.000000
  0
VERTEX
  8
LAYER-1
 10
3.887828
 20
3.161440
 30
0.000000
  0
VERTEX
  8
LAYER-1
 10
3.852233
 20
3.161440
 30
0.000000
  0
SEQEND
  8
LAYER-1
  0
POLYLINE
  8
LAYER-1
 66
  1
 70
  0
 62
  0
 10
3.852233
 20
4.003724
 30
0.000000
  0
VERTEX
  8
LAYER-1
 10
3.852233
 20
4.003724
 30
0.000000
  0
VERTEX
  8
LAYER-1
 10
3.887828
 20
4.003724
 30
0.000000
  0
SEQEND
  8
LAYER-1
  0
POLYLINE
  8
LAYER-1
 66
  1
 70
  0
 62
  0
 10
3.888006
 20
4.854725
 30
0.000000
  0
VERTEX
  8
LAYER-1
 10
3.888006
 20
4.854725
 30
0.000000
  0
VERTEX
  8
LAYER-1
 10
3.852414
 20
4.854725
 30
0.000000
  0
SEQEND
  8
LAYER-1
  0
POLYLINE
  8
LAYER-1
 66
  1
 70
  0
 62
  0
 10
3.888006
 20
5.698475
 30
0.000000
  0
VERTEX
  8
LAYER-1
 10
3.888006
 20
5.698475
 30
0.000000
  0
VERTEX
  8
LAYER-1
 10
3.852414
 20
5.698475
 30
0.000000
  0
SEQEND
  8
LAYER-1
  0
POLYLINE
  8
LAYER-1
 66
  1
 70
  1
 62
  0
  0
VERTEX
  8
LAYER-1
 10
3.844819
 20
0.350136
 30
0.000000
  0
VERTEX
  8
LAYER-1
 10
3.899691
 20
0.350136
 30
0.000000
  0
VERTEX
  8
LAYER-1
 10
3.899691
 20
0.344276
 30
0.000000
  0
VERTEX
  8
LAYER-1
 10
3.844819
 20
0.344276
 30
0.000000
  0
SEQEND
  8
LAYER-1
  0
TEXT
  8
LAYER-1
 62
  7
 10
1.976523
 20
8.787559
 30
0.000000
 40
0.187500
  1
Elevation model Royal
 72
  5
 11
4.712634
 21
8.787559
 31
0.000000
  0
LINE
  8
LAYER-1
 62
  0
 10
6.768189
 20
7.482559
 30
0.000000
 11
0.771661
 21
7.482559
 31
0.000000
  0
LINE
  8
LAYER-1
 62
  0
 10
6.768189
 20
7.592558
 30
0.000000
 11
0.771661
 21
7.592558
 31
0.000000
  0
LINE
  8
LAYER-1
 62
  0
 10
1.331559
 20
7.484065
 30
0.000000
 11
1.331559
 21
7.594043
 31
0.000000
  0
LINE
  8
LAYER-1
 62
  0
 10
1.272190
 20
7.484065
 30
0.000000
 11
1.456559
 21
7.484065
 31
0.000000
  0
LINE
  8
LAYER-1
 62
  0
 10
1.272530
 20
7.594043
 30
0.000000
 11
1.456559
 21
7.594043
 31
0.000000
  0
LINE
  8
LAYER-1
 62
  0
 10
1.331559
 20
7.594043
 30
0.000000
 11
1.331559
 21
7.228529
 31
0.000000
  0
LINE
  8
LAYER-1
 62
  0
 10
1.302096
 20
7.513528
 30
0.000000
 11
1.361021
 21
7.454602
 31
0.000000
  0
LINE
  8
LAYER-1
 62
  0
 10
1.302096
 20
7.623506
 30
0.000000
 11
1.361021
 21
7.564580
 31
0.000000
  0
TEXT
  8
LAYER-1
 62
  0
 10
1.319698
 20
7.100113
 30
0.000000
 40
0.125000
  1
 
  0
TEXT
  8
LAYER-1
 62
  0
 10
1.073745
 20
6.857003
 30
0.000000
 40
0.125000
  1
1-
 72
  5
 11
1.295967
 21
6.857003
 31
0.000000
  0
TEXT
  8
LAYER-1
 62
  0
 10
1.295967
 20
6.857003
 30
0.000000
 40
0.104167
  1
9/16
 72
  5
 11
1.657078
 21
6.857003
 31
0.000000
  0
TEXT
  8
LAYER-1
 62
  0
 10
1.657078
 20
6.857003
 30
0.000000
 40
0.125000
  1
"
 72
  5
 11
1.782078
 21
6.857003
 31
0.000000
  0
TEXT
  8
LAYER-1
 62
  0
 10
1.073745
 20
6.662559
 30
0.000000
 40
0.125000
  1
40mm
 72
  5
 11
1.643189
 21
6.662559
 31
0.000000
  0
TEXT
  8
LAYER-1
 62
  0
 10
2.823745
 20
7.870892
 30
0.000000
 40
0.125000
  1
Intermediate
 72
  5
 11
3.851523
 21
7.870892
 31
0.000000
  0
TEXT
  8
LAYER-1
 62
  0
 10
2.823745
 20
7.676448
 30
0.000000
 40
0.125000
  1
post #4
 72
  5
 11
3.462634
 21
7.676448
 31
0.000000
  0
POLYLINE
  8
LAYER-1
 66
  1
 70
  0
 62
  0
 10
3.519057
 20
7.749363
 30
0.000000
  0
VERTEX
  8
LAYER-1
 10
3.519057
 20
7.749363
 30
0.000000
  0
VERTEX
  8
LAYER-1
 10
3.760133
 20
7.434268
 30
0.000000
  0
SEQEND
  8
LAYER-1
  0
POLYLINE
  8
LAYER-1
 66
  1
 70
  1
 62
  0
  0
VERTEX
  8
LAYER-1
 10
3.772095
 20
7.418633
 30
0.000000
  0
VERTEX
  8
LAYER-1
 10
3.696805
 20
7.448469
 30
0.000000
  0
VERTEX
  8
LAYER-1
 10
3.729897
 20
7.473787
 30
0.000000
  0
VERTEX
  8
LAYER-1
 10
3.762989
 20
7.499106
 30
0.000000
  0
VERTEX
  8
LAYER-1
 10
3.772095
 20
7.418633
 30
0.000000
  0
SEQEND
  8
LAYER-1
  0
POLYLINE
  8
LAYER-1
 66
  1
 70
  0
 62
  0
 40
0.027778
 41
0.027778
 10
3.684575
 20
0.244166
 30
0.000000
  0
VERTEX
  8
LAYER-1
 10
3.684575
 20
0.244166
 30
0.000000
  0
VERTEX
  8
LAYER-1
 10
0.768189
 20
0.244166
 30
0.000000
  0
SEQEND
  8
LAYER-1
  0
POLYLINE
  8
LAYER-1
 66
  1
 70
  0
 62
  0
 40
0.027778
 41
0.027778
 10
3.778192
 20
0.244166
 30
0.000000
  0
VERTEX
  8
LAYER-1
 10
3.778192
 20
0.244166
 30
0.000000
  0
VERTEX
  8
LAYER-1
 10
6.761245
 20
0.244166
 30
0.000000
  0
SEQEND
  8
LAYER-1
  0
POLYLINE
  8
LAYER-1
 66
  1
 70
  1
 62
  0
  0
VERTEX
  8
LAYER-1
 10
0.031375
 20
2.891411
 30
0.000000
  0
VERTEX
  8
LAYER-1
 10
0.145716
 20
2.891411
 30
0.000000
  0
VERTEX
  8
LAYER-1
 10
0.145716
 20
2.787757
 30
0.000000
  0
VERTEX
  8
LAYER-1
 10
0.031375
 20
2.787757
 30
0.000000
  0
SEQEND
  8
LAYER-1
  0
POLYLINE
  8
LAYER-1
 66
  1
 70
  1
 62
  0
  0
VERTEX
  8
LAYER-1
 10
0.179704
 20
2.891411
 30
0.000000
  0
VERTEX
  8
LAYER-1
 10
0.294334
 20
2.891411
 30
0.000000
  0
VERTEX
  8
LAYER-1
 10
0.294334
 20
2.787757
 30
0.000000
  0
VERTEX
  8
LAYER-1
 10
0.179704
 20
2.787757
 30
0.000000
  0
SEQEND
  8
LAYER-1
  0
POLYLINE
  8
LAYER-1
 66
  1
 70
  1
 62
  0
  0
VERTEX
  8
LAYER-1
 10
0.328176
 20
2.891411
 30
0.000000
  0
VERTEX
  8
LAYER-1
 10
0.442515
 20
2.891411
 30
0.000000
  0
VERTEX
  8
LAYER-1
 10
0.442515
 20
2.787757
 30
0.000000
  0
VERTEX
  8
LAYER-1
 10
0.328176
 20
2.787757
 30
0.000000
  0
SEQEND
  8
LAYER-1
  0
POLYLINE
  8
LAYER-1
 66
  1
 70
  1
 62
  0
  0
VERTEX
  8
LAYER-1
 10
0.476503
 20
2.891411
 30
0.000000
  0
VERTEX
  8
LAYER-1
 10
0.590987
 20
2.891411
 30
0.000000
  0
VERTEX
  8
LAYER-1
 10
0.590987
 20
2.787757
 30
0.000000
  0
VERTEX
  8
LAYER-1
 10
0.476503
 20
2.787757
 30
0.000000
  0
SEQEND
  8
LAYER-1
  0
POLYLINE
  8
LAYER-1
 66
  1
 70
  1
 62
  0
  0
VERTEX
  8
LAYER-1
 10
0.624975
 20
2.891411
 30
0.000000
  0
VERTEX
  8
LAYER-1
 10
0.739314
 20
2.891411
 30
0.000000
  0
VERTEX
  8
LAYER-1
 10
0.739314
 20
2.787757
 30
0.000000
  0
VERTEX
  8
LAYER-1
 10
0.624975
 20
2.787757
 30
0.000000
  0
SEQEND
  8
LAYER-1
  0
POLYLINE
  8
LAYER-1
 66
  1
 70
  1
 62
  0
  0
VERTEX
  8
LAYER-1
 10
0.773447
 20
2.891411
 30
0.000000
  0
VERTEX
  8
LAYER-1
 10
0.887788
 20
2.891411
 30
0.000000
  0
VERTEX
  8
LAYER-1
 10
0.887788
 20
2.787757
 30
0.000000
  0
VERTEX
  8
LAYER-1
 10
0.773447
 20
2.787757
 30
0.000000
  0
SEQEND
  8
LAYER-1
  0
POLYLINE
  8
LAYER-1
 66
  1
 70
  1
 62
  0
  0
VERTEX
  8
LAYER-1
 10
0.921774
 20
2.891411
 30
0.000000
  0
VERTEX
  8
LAYER-1
 10
1.036261
 20
2.891411
 30
0.000000
  0
VERTEX
  8
LAYER-1
 10
1.036261
 20
2.787757
 30
0.000000
  0
VERTEX
  8
LAYER-1
 10
0.921774
 20
2.787757
 30
0.000000
  0
SEQEND
  8
LAYER-1
  0
POLYLINE
  8
LAYER-1
 66
  1
 70
  1
 62
  0
  0
VERTEX
  8
LAYER-1
 10
0.031297
 20
4.486593
 30
0.000000
  0
VERTEX
  8
LAYER-1
 10
0.145784
 20
4.486593
 30
0.000000
  0
VERTEX
  8
LAYER-1
 10
0.145784
 20
4.382939
 30
0.000000
  0
VERTEX
  8
LAYER-1
 10
0.031297
 20
4.382939
 30
0.000000
  0
SEQEND
  8
LAYER-1
  0
POLYLINE
  8
LAYER-1
 66
  1
 70
  1
 62
  0
  0
VERTEX
  8
LAYER-1
 10
0.179623
 20
4.486593
 30
0.000000
  0
VERTEX
  8
LAYER-1
 10
0.294257
 20
4.486593
 30
0.000000
  0
VERTEX
  8
LAYER-1
 10
0.294257
 20
4.382939
 30
0.000000
  0
VERTEX
  8
LAYER-1
 10
0.179623
 20
4.382939
 30
0.000000
  0
SEQEND
  8
LAYER-1
  0
POLYLINE
  8
LAYER-1
 66
  1
 70
  1
 62
  0
  0
VERTEX
  8
LAYER-1
 10
0.328096
 20
4.486593
 30
0.000000
  0
VERTEX
  8
LAYER-1
 10
0.442583
 20
4.486593
 30
0.000000
  0
VERTEX
  8
LAYER-1
 10
0.442583
 20
4.382939
 30
0.000000
  0
VERTEX
  8
LAYER-1
 10
0.328096
 20
4.382939
 30
0.000000
  0
SEQEND
  8
LAYER-1
  0
POLYLINE
  8
LAYER-1
 66
  1
 70
  1
 62
  0
  0
VERTEX
  8
LAYER-1
 10
0.476422
 20
4.486593
 30
0.000000
  0
VERTEX
  8
LAYER-1
 10
0.590910
 20
4.486593
 30
0.000000
  0
VERTEX
  8
LAYER-1
 10
0.590910
 20
4.382939
 30
0.000000
  0
VERTEX
  8
LAYER-1
 10
0.476422
 20
4.382939
 30
0.000000
  0
SEQEND
  8
LAYER-1
  0
POLYLINE
  8
LAYER-1
 66
  1
 70
  1
 62
  0
  0
VERTEX
  8
LAYER-1
 10
0.623452
 20
4.486593
 30
0.000000
  0
VERTEX
  8
LAYER-1
 10
0.739382
 20
4.486593
 30
0.000000
  0
VERTEX
  8
LAYER-1
 10
0.739382
 20
4.382939
 30
0.000000
  0
VERTEX
  8
LAYER-1
 10
0.623452
 20
4.382939
 30
0.000000
  0
SEQEND
  8
LAYER-1
  0
POLYLINE
  8
LAYER-1
 66
  1
 70
  1
 62
  0
  0
VERTEX
  8
LAYER-1
 10
0.773369
 20
4.486593
 30
0.000000
  0
VERTEX
  8
LAYER-1
 10
0.887854
 20
4.486593
 30
0.000000
  0
VERTEX
  8
LAYER-1
 10
0.887854
 20
4.382939
 30
0.000000
  0
VERTEX
  8
LAYER-1
 10
0.773369
 20
4.382939
 30
0.000000
  0
SEQEND
  8
LAYER-1
  0
POLYLINE
  8
LAYER-1
 66
  1
 70
  1
 62
  0
  0
VERTEX
  8
LAYER-1
 10
0.921047
 20
4.486593
 30
0.000000
  0
VERTEX
  8
LAYER-1
 10
1.036183
 20
4.486593
 30
0.000000
  0
VERTEX
  8
LAYER-1
 10
1.036183
 20
4.382939
 30
0.000000
  0
VERTEX
  8
LAYER-1
 10
0.921047
 20
4.382939
 30
0.000000
  0
SEQEND
  8
LAYER-1
  0
POLYLINE
  8
LAYER-1
 66
  1
 70
  1
 62
  0
  0
VERTEX
  8
LAYER-1
 10
0.294257
 20
4.486593
 30
0.000000
  0
VERTEX
  8
LAYER-1
 10
0.310707
 20
4.486593
 30
0.000000
  0
VERTEX
  8
LAYER-1
 10
0.310707
 20
2.787801
 30
0.000000
  0
VERTEX
  8
LAYER-1
 10
0.294257
 20
2.787801
 30
0.000000
  0
SEQEND
  8
LAYER-1
  0
POLYLINE
  8
LAYER-1
 66
  1
 70
  1
 62
  0
  0
VERTEX
  8
LAYER-1
 10
0.310707
 20
4.486593
 30
0.000000
  0
VERTEX
  8
LAYER-1
 10
0.328176
 20
4.486593
 30
0.000000
  0
VERTEX
  8
LAYER-1
 10
0.328176
 20
2.787757
 30
0.000000
  0
VERTEX
  8
LAYER-1
 10
0.310707
 20
2.787757
 30
0.000000
  0
SEQEND
  8
LAYER-1
  0
POLYLINE
  8
LAYER-1
 66
  1
 70
  1
 62
  0
  0
VERTEX
  8
LAYER-1
 10
0.442583
 20
4.486593
 30
0.000000
  0
VERTEX
  8
LAYER-1
 10
0.459116
 20
4.486593
 30
0.000000
  0
VERTEX
  8
LAYER-1
 10
0.459116
 20
2.787801
 30
0.000000
  0
VERTEX
  8
LAYER-1
 10
0.442583
 20
2.787801
 30
0.000000
  0
SEQEND
  8
LAYER-1
  0
POLYLINE
  8
LAYER-1
 66
  1
 70
  1
 62
  0
  0
VERTEX
  8
LAYER-1
 10
0.459116
 20
4.486593
 30
0.000000
  0
VERTEX
  8
LAYER-1
 10
0.476503
 20
4.486593
 30
0.000000
  0
VERTEX
  8
LAYER-1
 10
0.476503
 20
2.787757
 30
0.000000
  0
VERTEX
  8
LAYER-1
 10
0.459116
 20
2.787757
 30
0.000000
  0
SEQEND
  8
LAYER-1
  0
POLYLINE
  8
LAYER-1
 66
  1
 70
  1
 62
  0
  0
VERTEX
  8
LAYER-1
 10
0.590910
 20
4.486593
 30
0.000000
  0
VERTEX
  8
LAYER-1
 10
0.607526
 20
4.486593
 30
0.000000
  0
VERTEX
  8
LAYER-1
 10
0.607526
 20
2.787801
 30
0.000000
  0
VERTEX
  8
LAYER-1
 10
0.590910
 20
2.787801
 30
0.000000
  0
SEQEND
  8
LAYER-1
  0
POLYLINE
  8
LAYER-1
 66
  1
 70
  1
 62
  0
  0
VERTEX
  8
LAYER-1
 10
0.607526
 20
4.486593
 30
0.000000
  0
VERTEX
  8
LAYER-1
 10
0.624975
 20
4.486593
 30
0.000000
  0
VERTEX
  8
LAYER-1
 10
0.624975
 20
2.787757
 30
0.000000
  0
VERTEX
  8
LAYER-1
 10
0.607526
 20
2.787757
 30
0.000000
  0
SEQEND
  8
LAYER-1
  0
POLYLINE
  8
LAYER-1
 66
  1
 70
  1
 62
  0
  0
VERTEX
  8
LAYER-1
 10
0.739382
 20
4.486593
 30
0.000000
  0
VERTEX
  8
LAYER-1
 10
0.755934
 20
4.486593
 30
0.000000
  0
VERTEX
  8
LAYER-1
 10
0.755934
 20
2.787801
 30
0.000000
  0
VERTEX
  8
LAYER-1
 10
0.739382
 20
2.787801
 30
0.000000
  0
SEQEND
  8
LAYER-1
  0
POLYLINE
  8
LAYER-1
 66
  1
 70
  1
 62
  0
  0
VERTEX
  8
LAYER-1
 10
0.755934
 20
4.486593
 30
0.000000
  0
VERTEX
  8
LAYER-1
 10
0.773447
 20
4.486593
 30
0.000000
  0
VERTEX
  8
LAYER-1
 10
0.773447
 20
2.787757
 30
0.000000
  0
VERTEX
  8
LAYER-1
 10
0.755934
 20
2.787757
 30
0.000000
  0
SEQEND
  8
LAYER-1
  0
POLYLINE
  8
LAYER-1
 66
  1
 70
  1
 62
  0
  0
VERTEX
  8
LAYER-1
 10
0.887854
 20
4.486593
 30
0.000000
  0
VERTEX
  8
LAYER-1
 10
0.904344
 20
4.486593
 30
0.000000
  0
VERTEX
  8
LAYER-1
 10
0.904344
 20
2.787801
 30
0.000000
  0
VERTEX
  8
LAYER-1
 10
0.887854
 20
2.787801
 30
0.000000
  0
SEQEND
  8
LAYER-1
  0
POLYLINE
  8
LAYER-1
 66
  1
 70
  1
 62
  0
  0
VERTEX
  8
LAYER-1
 10
0.904344
 20
4.486593
 30
0.000000
  0
VERTEX
  8
LAYER-1
 10
0.921774
 20
4.486593
 30
0.000000
  0
VERTEX
  8
LAYER-1
 10
0.921774
 20
2.787757
 30
0.000000
  0
VERTEX
  8
LAYER-1
 10
0.904344
 20
2.787757
 30
0.000000
  0
SEQEND
  8
LAYER-1
  0
POLYLINE
  8
LAYER-1
 66
  1
 70
  1
 62
  0
  0
VERTEX
  8
LAYER-1
 10
0.145784
 20
4.486593
 30
0.000000
  0
VERTEX
  8
LAYER-1
 10
0.162300
 20
4.486593
 30
0.000000
  0
VERTEX
  8
LAYER-1
 10
0.162300
 20
2.787801
 30
0.000000
  0
VERTEX
  8
LAYER-1
 10
0.145784
 20
2.787801
 30
0.000000
  0
SEQEND
  8
LAYER-1
  0
POLYLINE
  8
LAYER-1
 66
  1
 70
  1
 62
  0
  0
VERTEX
  8
LAYER-1
 10
0.162300
 20
4.486593
 30
0.000000
  0
VERTEX
  8
LAYER-1
 10
0.179704
 20
4.486593
 30
0.000000
  0
VERTEX
  8
LAYER-1
 10
0.179704
 20
2.787757
 30
0.000000
  0
VERTEX
  8
LAYER-1
 10
0.162300
 20
2.787757
 30
0.000000
  0
SEQEND
  8
LAYER-1
  0
LINE
  8
LAYER-1
 62
  0
 10
0.049162
 20
3.732271
 30
0.000000
 11
0.111328
 21
3.865020
 31
0.000000
  0
LINE
  8
LAYER-1
 62
  0
 10
0.070970
 20
3.722058
 30
0.000000
 11
0.133135
 21
3.854808
 31
0.000000
  0
LINE
  8
LAYER-1
 62
  0
 10
0.049162
 20
4.181618
 30
0.000000
 11
0.111328
 21
4.314365
 31
0.000000
  0
LINE
  8
LAYER-1
 62
  0
 10
0.070970
 20
4.171405
 30
0.000000
 11
0.133135
 21
4.304153
 31
0.000000
  0
LINE
  8
LAYER-1
 62
  0
 10
0.197572
 20
3.732271
 30
0.000000
 11
0.259738
 21
3.865020
 31
0.000000
  0
LINE
  8
LAYER-1
 62
  0
 10
0.219380
 20
3.722058
 30
0.000000
 11
0.281545
 21
3.854808
 31
0.000000
  0
LINE
  8
LAYER-1
 62
  0
 10
0.197572
 20
4.181618
 30
0.000000
 11
0.259738
 21
4.314365
 31
0.000000
  0
LINE
  8
LAYER-1
 62
  0
 10
0.219380
 20
4.171405
 30
0.000000
 11
0.281545
 21
4.304153
 31
0.000000
  0
LINE
  8
LAYER-1
 62
  0
 10
0.345979
 20
3.732271
 30
0.000000
 11
0.408145
 21
3.865020
 31
0.000000
  0
LINE
  8
LAYER-1
 62
  0
 10
0.367786
 20
3.722058
 30
0.000000
 11
0.429953
 21
3.854808
 31
0.000000
  0
LINE
  8
LAYER-1
 62
  0
 10
0.345979
 20
4.181618
 30
0.000000
 11
0.408145
 21
4.314365
 31
0.000000
  0
LINE
  8
LAYER-1
 62
  0
 10
0.367786
 20
4.171405
 30
0.000000
 11
0.429953
 21
4.304153
 31
0.000000
  0
LINE
  8
LAYER-1
 62
  0
 10
0.494388
 20
3.732271
 30
0.000000
 11
0.556554
 21
3.865020
 31
0.000000
  0
LINE
  8
LAYER-1
 62
  0
 10
0.516196
 20
3.722058
 30
0.000000
 11
0.578361
 21
3.854808
 31
0.000000
  0
LINE
  8
LAYER-1
 62
  0
 10
0.494388
 20
4.181618
 30
0.000000
 11
0.556554
 21
4.314365
 31
0.000000
  0
LINE
  8
LAYER-1
 62
  0
 10
0.516196
 20
4.171405
 30
0.000000
 11
0.578361
 21
4.304153
 31
0.000000
  0
LINE
  8
LAYER-1
 62
  0
 10
0.642797
 20
3.732271
 30
0.000000
 11
0.704964
 21
3.865020
 31
0.000000
  0
LINE
  8
LAYER-1
 62
  0
 10
0.664605
 20
3.722058
 30
0.000000
 11
0.726771
 21
3.854808
 31
0.000000
  0
LINE
  8
LAYER-1
 62
  0
 10
0.642797
 20
4.181618
 30
0.000000
 11
0.704964
 21
4.314365
 31
0.000000
  0
LINE
  8
LAYER-1
 62
  0
 10
0.664605
 20
4.171405
 30
0.000000
 11
0.726771
 21
4.304153
 31
0.000000
  0
LINE
  8
LAYER-1
 62
  0
 10
0.791207
 20
3.732271
 30
0.000000
 11
0.853372
 21
3.865020
 31
0.000000
  0
LINE
  8
LAYER-1
 62
  0
 10
0.813014
 20
3.722058
 30
0.000000
 11
0.875180
 21
3.854808
 31
0.000000
  0
LINE
  8
LAYER-1
 62
  0
 10
0.791207
 20
4.181618
 30
0.000000
 11
0.853372
 21
4.314365
 31
0.000000
  0
LINE
  8
LAYER-1
 62
  0
 10
0.813014
 20
4.171405
 30
0.000000
 11
0.875180
 21
4.304153
 31
0.000000
  0
LINE
  8
LAYER-1
 62
  0
 10
0.939615
 20
3.732271
 30
0.000000
 11
1.001780
 21
3.865020
 31
0.000000
  0
LINE
  8
LAYER-1
 62
  0
 10
0.961422
 20
3.722058
 30
0.000000
 11
1.023587
 21
3.854808
 31
0.000000
  0
LINE
  8
LAYER-1
 62
  0
 10
0.939615
 20
4.181618
 30
0.000000
 11
1.001780
 21
4.314365
 31
0.000000
  0
LINE
  8
LAYER-1
 62
  0
 10
0.961422
 20
4.171405
 30
0.000000
 11
1.023587
 21
4.304153
 31
0.000000
  0
LINE
  8
LAYER-1
 62
  0
 10
0.049162
 20
3.406390
 30
0.000000
 11
0.111328
 21
3.539138
 31
0.000000
  0
LINE
  8
LAYER-1
 62
  0
 10
0.070970
 20
3.396177
 30
0.000000
 11
0.133135
 21
3.528925
 31
0.000000
  0
LINE
  8
LAYER-1
 62
  0
 10
0.046770
 20
2.971352
 30
0.000000
 11
0.108938
 21
3.104102
 31
0.000000
  0
LINE
  8
LAYER-1
 62
  0
 10
0.068577
 20
2.961140
 30
0.000000
 11
0.130745
 21
3.093890
 31
0.000000
  0
LINE
  8
LAYER-1
 62
  0
 10
0.197572
 20
3.406390
 30
0.000000
 11
0.259738
 21
3.539138
 31
0.000000
  0
LINE
  8
LAYER-1
 62
  0
 10
0.219380
 20
3.396177
 30
0.000000
 11
0.281545
 21
3.528925
 31
0.000000
  0
LINE
  8
LAYER-1
 62
  0
 10
0.195181
 20
2.971352
 30
0.000000
 11
0.257345
 21
3.104102
 31
0.000000
  0
LINE
  8
LAYER-1
 62
  0
 10
0.216988
 20
2.961140
 30
0.000000
 11
0.279153
 21
3.093890
 31
0.000000
  0
LINE
  8
LAYER-1
 62
  0
 10
0.345979
 20
3.406390
 30
0.000000
 11
0.408145
 21
3.539138
 31
0.000000
  0
LINE
  8
LAYER-1
 62
  0
 10
0.367786
 20
3.396177
 30
0.000000
 11
0.429953
 21
3.528925
 31
0.000000
  0
LINE
  8
LAYER-1
 62
  0
 10
0.343588
 20
2.971352
 30
0.000000
 11
0.405756
 21
3.104102
 31
0.000000
  0
LINE
  8
LAYER-1
 62
  0
 10
0.365396
 20
2.961140
 30
0.000000
 11
0.427563
 21
3.093890
 31
0.000000
  0
LINE
  8
LAYER-1
 62
  0
 10
0.494388
 20
3.406390
 30
0.000000
 11
0.556554
 21
3.539138
 31
0.000000
  0
LINE
  8
LAYER-1
 62
  0
 10
0.516196
 20
3.396177
 30
0.000000
 11
0.578361
 21
3.528925
 31
0.000000
  0
LINE
  8
LAYER-1
 62
  0
 10
0.491998
 20
2.971352
 30
0.000000
 11
0.554164
 21
3.104102
 31
0.000000
  0
LINE
  8
LAYER-1
 62
  0
 10
0.513805
 20
2.961140
 30
0.000000
 11
0.575971
 21
3.093890
 31
0.000000
  0
LINE
  8
LAYER-1
 62
  0
 10
0.642797
 20
3.406390
 30
0.000000
 11
0.704964
 21
3.539138
 31
0.000000
  0
LINE
  8
LAYER-1
 62
  0
 10
0.664605
 20
3.396177
 30
0.000000
 11
0.726771
 21
3.528925
 31
0.000000
  0
LINE
  8
LAYER-1
 62
  0
 10
0.640407
 20
2.971352
 30
0.000000
 11
0.702572
 21
3.104102
 31
0.000000
  0
LINE
  8
LAYER-1
 62
  0
 10
0.662214
 20
2.961140
 30
0.000000
 11
0.724380
 21
3.093890
 31
0.000000
  0
LINE
  8
LAYER-1
 62
  0
 10
0.791207
 20
3.406390
 30
0.000000
 11
0.853372
 21
3.539138
 31
0.000000
  0
LINE
  8
LAYER-1
 62
  0
 10
0.813014
 20
3.396177
 30
0.000000
 11
0.875180
 21
3.528925
 31
0.000000
  0
LINE
  8
LAYER-1
 62
  0
 10
0.788814
 20
2.971352
 30
0.000000
 11
0.850980
 21
3.104102
 31
0.000000
  0
LINE
  8
LAYER-1
 62
  0
 10
0.810622
 20
2.961140
 30
0.000000
 11
0.872787
 21
3.093890
 31
0.000000
  0
LINE
  8
LAYER-1
 62
  0
 10
0.939615
 20
3.406390
 30
0.000000
 11
1.001780
 21
3.539138
 31
0.000000
  0
LINE
  8
LAYER-1
 62
  0
 10
0.961422
 20
3.396177
 30
0.000000
 11
1.023587
 21
3.528925
 31
0.000000
  0
LINE
  8
LAYER-1
 62
  0
 10
0.937225
 20
2.971352
 30
0.000000
 11
0.999390
 21
3.104102
 31
0.000000
  0
LINE
  8
LAYER-1
 62
  0
 10
0.959032
 20
2.961140
 30
0.000000
 11
1.021198
 21
3.093890
 31
0.000000
  0
TEXT
  8
LAYER-1
 62
  0
 10
0.240411
 20
2.579225
 30
0.000000
 40
0.104167
  1
ROYAL
 72
  5
 11
0.795967
 21
2.579225
 31
0.000000
  0
TEXT
  8
LAYER-1
 62
  0
 10
0.795967
 20
2.579225
 30
0.000000
 40
0.104167
  1
 
 72
  5
 11
0.907078
 21
2.579225
 31
0.000000
  0
TEXT
  8
LAYER-1
 62
  0
 10
0.087634
 20
2.495892
 30
0.000000
 40
0.083333
  1
(Tempered Glass)
 72
  5
 11
1.032078
 21
2.495892
 31
0.000000
  0
POLYLINE
  8
LAYER-1
 66
  1
 70
  1
 62
  0
  0
VERTEX
  8
LAYER-1
 10
0.013889
 20
4.486593
 30
0.000000
  0
VERTEX
  8
LAYER-1
 10
0.031375
 20
4.486593
 30
0.000000
  0
VERTEX
  8
LAYER-1
 10
0.031375
 20
2.787757
 30
0.000000
  0
VERTEX
  8
LAYER-1
 10
0.013889
 20
2.787757
 30
0.000000
  0
SEQEND
  8
LAYER-1
  0
POLYLINE
  8
LAYER-1
 66
  1
 70
  1
 62
  0
  0
VERTEX
  8
LAYER-1
 10
1.036183
 20
4.486593
 30
0.000000
  0
VERTEX
  8
LAYER-1
 10
1.053577
 20
4.486593
 30
0.000000
  0
VERTEX
  8
LAYER-1
 10
1.053577
 20
2.787801
 30
0.000000
  0
VERTEX
  8
LAYER-1
 10
1.036183
 20
2.787801
 30
0.000000
  0
SEQEND
  8
LAYER-1
  0
POLYLINE
  8
LAYER-1
 66
  1
 70
  1
 62
  0
  0
VERTEX
  8
LAYER-1
 10
0.031297
 20
3.648668
 30
0.000000
  0
VERTEX
  8
LAYER-1
 10
0.145564
 20
3.648668
 30
0.000000
  0
VERTEX
  8
LAYER-1
 10
0.145564
 20
3.623887
 30
0.000000
  0
VERTEX
  8
LAYER-1
 10
0.031297
 20
3.623887
 30
0.000000
  0
SEQEND
  8
LAYER-1
  0
POLYLINE
  8
LAYER-1
 66
  1
 70
  1
 62
  0
  0
VERTEX
  8
LAYER-1
 10
0.179705
 20
3.648668
 30
0.000000
  0
VERTEX
  8
LAYER-1
 10
0.294769
 20
3.648668
 30
0.000000
  0
VERTEX
  8
LAYER-1
 10
0.294769
 20
3.623887
 30
0.000000
  0
VERTEX
  8
LAYER-1
 10
0.179705
 20
3.623887
 30
0.000000
  0
SEQEND
  8
LAYER-1
  0
POLYLINE
  8
LAYER-1
 66
  1
 70
  1
 62
  0
  0
VERTEX
  8
LAYER-1
 10
0.328115
 20
3.648668
 30
0.000000
  0
VERTEX
  8
LAYER-1
 10
0.442383
 20
3.648668
 30
0.000000
  0
VERTEX
  8
LAYER-1
 10
0.442383
 20
3.623887
 30
0.000000
  0
VERTEX
  8
LAYER-1
 10
0.328115
 20
3.623887
 30
0.000000
  0
SEQEND
  8
LAYER-1
  0
POLYLINE
  8
LAYER-1
 66
  1
 70
  1
 62
  0
  0
VERTEX
  8
LAYER-1
 10
0.476523
 20
3.648668
 30
0.000000
  0
VERTEX
  8
LAYER-1
 10
0.590791
 20
3.648668
 30
0.000000
  0
VERTEX
  8
LAYER-1
 10
0.590791
 20
3.623887
 30
0.000000
  0
VERTEX
  8
LAYER-1
 10
0.476523
 20
3.623887
 30
0.000000
  0
SEQEND
  8
LAYER-1
  0
POLYLINE
  8
LAYER-1
 66
  1
 70
  1
 62
  0
  0
VERTEX
  8
LAYER-1
 10
0.624934
 20
3.648668
 30
0.000000
  0
VERTEX
  8
LAYER-1
 10
0.739201
 20
3.648668
 30
0.000000
  0
VERTEX
  8
LAYER-1
 10
0.739201
 20
3.623887
 30
0.000000
  0
VERTEX
  8
LAYER-1
 10
0.624934
 20
3.623887
 30
0.000000
  0
SEQEND
  8
LAYER-1
  0
POLYLINE
  8
LAYER-1
 66
  1
 70
  1
 62
  0
  0
VERTEX
  8
LAYER-1
 10
0.773341
 20
3.648668
 30
0.000000
  0
VERTEX
  8
LAYER-1
 10
0.888406
 20
3.648668
 30
0.000000
  0
VERTEX
  8
LAYER-1
 10
0.888406
 20
3.623887
 30
0.000000
  0
VERTEX
  8
LAYER-1
 10
0.773341
 20
3.623887
 30
0.000000
  0
SEQEND
  8
LAYER-1
  0
POLYLINE
  8
LAYER-1
 66
  1
 70
  1
 62
  0
  0
VERTEX
  8
LAYER-1
 10
0.921750
 20
3.648668
 30
0.000000
  0
VERTEX
  8
LAYER-1
 10
1.036017
 20
3.648668
 30
0.000000
  0
VERTEX
  8
LAYER-1
 10
1.036017
 20
3.623887
 30
0.000000
  0
VERTEX
  8
LAYER-1
 10
0.921750
 20
3.623887
 30
0.000000
  0
SEQEND
  8
LAYER-1
  0
POLYLINE
  8
LAYER-1
 66
  1
 70
  0
 62
  7
 10
0.031375
 20
4.486593
 30
0.000000
  0
VERTEX
  8
LAYER-1
 10
0.031375
 20
4.486593
 30
0.000000
  0
VERTEX
  8
LAYER-1
 10
0.031375
 20
4.382939
 30
0.000000
  0
SEQEND
  8
LAYER-1
  0
POLYLINE
  8
LAYER-1
 66
  1
 70
  0
 62
  7
 10
0.145784
 20
4.486593
 30
0.000000
  0
VERTEX
  8
LAYER-1
 10
0.145784
 20
4.486593
 30
0.000000
  0
VERTEX
  8
LAYER-1
 10
0.145784
 20
4.382939
 30
0.000000
  0
SEQEND
  8
LAYER-1
  0
POLYLINE
  8
LAYER-1
 66
  1
 70
  0
 62
  7
 10
0.179704
 20
4.486593
 30
0.000000
  0
VERTEX
  8
LAYER-1
 10
0.179704
 20
4.486593
 30
0.000000
  0
VERTEX
  8
LAYER-1
 10
0.179704
 20
4.382939
 30
0.000000
  0
SEQEND
  8
LAYER-1
  0
POLYLINE
  8
LAYER-1
 66
  1
 70
  0
 62
  7
 10
0.294257
 20
4.486593
 30
0.000000
  0
VERTEX
  8
LAYER-1
 10
0.294257
 20
4.486593
 30
0.000000
  0
VERTEX
  8
LAYER-1
 10
0.294257
 20
4.382939
 30
0.000000
  0
SEQEND
  8
LAYER-1
  0
POLYLINE
  8
LAYER-1
 66
  1
 70
  0
 62
  7
 10
0.328176
 20
4.486593
 30
0.000000
  0
VERTEX
  8
LAYER-1
 10
0.328176
 20
4.486593
 30
0.000000
  0
VERTEX
  8
LAYER-1
 10
0.328176
 20
4.382939
 30
0.000000
  0
SEQEND
  8
LAYER-1
  0
POLYLINE
  8
LAYER-1
 66
  1
 70
  0
 62
  7
 10
0.442583
 20
4.486593
 30
0.000000
  0
VERTEX
  8
LAYER-1
 10
0.442583
 20
4.486593
 30
0.000000
  0
VERTEX
  8
LAYER-1
 10
0.442583
 20
4.382939
 30
0.000000
  0
SEQEND
  8
LAYER-1
  0
POLYLINE
  8
LAYER-1
 66
  1
 70
  0
 62
  7
 10
0.476503
 20
4.486593
 30
0.000000
  0
VERTEX
  8
LAYER-1
 10
0.476503
 20
4.486593
 30
0.000000
  0
VERTEX
  8
LAYER-1
 10
0.476503
 20
4.382939
 30
0.000000
  0
SEQEND
  8
LAYER-1
  0
POLYLINE
  8
LAYER-1
 66
  1
 70
  0
 62
  7
 10
0.590910
 20
4.486593
 30
0.000000
  0
VERTEX
  8
LAYER-1
 10
0.590910
 20
4.486593
 30
0.000000
  0
VERTEX
  8
LAYER-1
 10
0.590910
 20
4.382939
 30
0.000000
  0
SEQEND
  8
LAYER-1
  0
POLYLINE
  8
LAYER-1
 66
  1
 70
  0
 62
  7
 10
0.624975
 20
4.486593
 30
0.000000
  0
VERTEX
  8
LAYER-1
 10
0.624975
 20
4.486593
 30
0.000000
  0
VERTEX
  8
LAYER-1
 10
0.624975
 20
4.382939
 30
0.000000
  0
SEQEND
  8
LAYER-1
  0
POLYLINE
  8
LAYER-1
 66
  1
 70
  0
 62
  7
 10
0.739382
 20
4.486593
 30
0.000000
  0
VERTEX
  8
LAYER-1
 10
0.739382
 20
4.486593
 30
0.000000
  0
VERTEX
  8
LAYER-1
 10
0.739382
 20
4.382939
 30
0.000000
  0
SEQEND
  8
LAYER-1
  0
POLYLINE
  8
LAYER-1
 66
  1
 70
  0
 62
  7
 10
0.773447
 20
4.486593
 30
0.000000
  0
VERTEX
  8
LAYER-1
 10
0.773447
 20
4.486593
 30
0.000000
  0
VERTEX
  8
LAYER-1
 10
0.773447
 20
4.382939
 30
0.000000
  0
SEQEND
  8
LAYER-1
  0
POLYLINE
  8
LAYER-1
 66
  1
 70
  0
 62
  7
 10
0.887854
 20
4.486593
 30
0.000000
  0
VERTEX
  8
LAYER-1
 10
0.887854
 20
4.486593
 30
0.000000
  0
VERTEX
  8
LAYER-1
 10
0.887854
 20
4.382939
 30
0.000000
  0
SEQEND
  8
LAYER-1
  0
POLYLINE
  8
LAYER-1
 66
  1
 70
  0
 62
  7
 10
0.921047
 20
4.486593
 30
0.000000
  0
VERTEX
  8
LAYER-1
 10
0.921047
 20
4.486593
 30
0.000000
  0
VERTEX
  8
LAYER-1
 10
0.921047
 20
4.382939
 30
0.000000
  0
SEQEND
  8
LAYER-1
  0
POLYLINE
  8
LAYER-1
 66
  1
 70
  0
 62
  7
 10
1.036183
 20
4.486593
 30
0.000000
  0
VERTEX
  8
LAYER-1
 10
1.036183
 20
4.486593
 30
0.000000
  0
VERTEX
  8
LAYER-1
 10
1.036183
 20
4.382939
 30
0.000000
  0
SEQEND
  8
LAYER-1
  0
POLYLINE
  8
LAYER-1
 66
  1
 70
  0
 62
  7
 10
0.031297
 20
3.648668
 30
0.000000
  0
VERTEX
  8
LAYER-1
 10
0.031297
 20
3.648668
 30
0.000000
  0
VERTEX
  8
LAYER-1
 10
0.031297
 20
3.623887
 30
0.000000
  0
SEQEND
  8
LAYER-1
  0
POLYLINE
  8
LAYER-1
 66
  1
 70
  0
 62
  7
 10
0.145564
 20
3.648668
 30
0.000000
  0
VERTEX
  8
LAYER-1
 10
0.145564
 20
3.648668
 30
0.000000
  0
VERTEX
  8
LAYER-1
 10
0.145564
 20
3.623887
 30
0.000000
  0
SEQEND
  8
LAYER-1
  0
POLYLINE
  8
LAYER-1
 66
  1
 70
  0
 62
  7
 10
0.179705
 20
3.648668
 30
0.000000
  0
VERTEX
  8
LAYER-1
 10
0.179705
 20
3.648668
 30
0.000000
  0
VERTEX
  8
LAYER-1
 10
0.179705
 20
3.623887
 30
0.000000
  0
SEQEND
  8
LAYER-1
  0
POLYLINE
  8
LAYER-1
 66
  1
 70
  0
 62
  7
 10
0.294769
 20
3.648668
 30
0.000000
  0
VERTEX
  8
LAYER-1
 10
0.294769
 20
3.648668
 30
0.000000
  0
VERTEX
  8
LAYER-1
 10
0.294769
 20
3.623887
 30
0.000000
  0
SEQEND
  8
LAYER-1
  0
POLYLINE
  8
LAYER-1
 66
  1
 70
  0
 62
  7
 10
0.328115
 20
3.648668
 30
0.000000
  0
VERTEX
  8
LAYER-1
 10
0.328115
 20
3.648668
 30
0.000000
  0
VERTEX
  8
LAYER-1
 10
0.328115
 20
3.623887
 30
0.000000
  0
SEQEND
  8
LAYER-1
  0
POLYLINE
  8
LAYER-1
 66
  1
 70
  0
 62
  7
 10
0.442383
 20
3.648668
 30
0.000000
  0
VERTEX
  8
LAYER-1
 10
0.442383
 20
3.648668
 30
0.000000
  0
VERTEX
  8
LAYER-1
 10
0.442383
 20
3.623887
 30
0.000000
  0
SEQEND
  8
LAYER-1
  0
POLYLINE
  8
LAYER-1
 66
  1
 70
  0
 62
  7
 10
0.476523
 20
3.648668
 30
0.000000
  0
VERTEX
  8
LAYER-1
 10
0.476523
 20
3.648668
 30
0.000000
  0
VERTEX
  8
LAYER-1
 10
0.476523
 20
3.623887
 30
0.000000
  0
SEQEND
  8
LAYER-1
  0
POLYLINE
  8
LAYER-1
 66
  1
 70
  0
 62
  7
 10
0.590791
 20
3.648668
 30
0.000000
  0
VERTEX
  8
LAYER-1
 10
0.590791
 20
3.648668
 30
0.000000
  0
VERTEX
  8
LAYER-1
 10
0.590791
 20
3.623887
 30
0.000000
  0
SEQEND
  8
LAYER-1
  0
POLYLINE
  8
LAYER-1
 66
  1
 70
  0
 62
  7
 10
0.624934
 20
3.648668
 30
0.000000
  0
VERTEX
  8
LAYER-1
 10
0.624934
 20
3.648668
 30
0.000000
  0
VERTEX
  8
LAYER-1
 10
0.624934
 20
3.623887
 30
0.000000
  0
SEQEND
  8
LAYER-1
  0
POLYLINE
  8
LAYER-1
 66
  1
 70
  0
 62
  7
 10
0.739201
 20
3.648668
 30
0.000000
  0
VERTEX
  8
LAYER-1
 10
0.739201
 20
3.648668
 30
0.000000
  0
VERTEX
  8
LAYER-1
 10
0.739201
 20
3.623887
 30
0.000000
  0
SEQEND
  8
LAYER-1
  0
POLYLINE
  8
LAYER-1
 66
  1
 70
  0
 62
  7
 10
0.773341
 20
3.648668
 30
0.000000
  0
VERTEX
  8
LAYER-1
 10
0.773341
 20
3.648668
 30
0.000000
  0
VERTEX
  8
LAYER-1
 10
0.773341
 20
3.623887
 30
0.000000
  0
SEQEND
  8
LAYER-1
  0
POLYLINE
  8
LAYER-1
 66
  1
 70
  0
 62
  7
 10
0.888406
 20
3.648668
 30
0.000000
  0
VERTEX
  8
LAYER-1
 10
0.888406
 20
3.648668
 30
0.000000
  0
VERTEX
  8
LAYER-1
 10
0.888406
 20
3.623887
 30
0.000000
  0
SEQEND
  8
LAYER-1
  0
POLYLINE
  8
LAYER-1
 66
  1
 70
  0
 62
  7
 10
0.921750
 20
3.648668
 30
0.000000
  0
VERTEX
  8
LAYER-1
 10
0.921750
 20
3.648668
 30
0.000000
  0
VERTEX
  8
LAYER-1
 10
0.921750
 20
3.623887
 30
0.000000
  0
SEQEND
  8
LAYER-1
  0
POLYLINE
  8
LAYER-1
 66
  1
 70
  0
 62
  7
 10
1.036017
 20
3.648668
 30
0.000000
  0
VERTEX
  8
LAYER-1
 10
1.036017
 20
3.648668
 30
0.000000
  0
VERTEX
  8
LAYER-1
 10
1.036017
 20
3.623887
 30
0.000000
  0
SEQEND
  8
LAYER-1
  0
POLYLINE
  8
LAYER-1
 66
  1
 70
  0
 62
  7
 10
0.031375
 20
2.891411
 30
0.000000
  0
VERTEX
  8
LAYER-1
 10
0.031375
 20
2.891411
 30
0.000000
  0
VERTEX
  8
LAYER-1
 10
0.031375
 20
2.787757
 30
0.000000
  0
SEQEND
  8
LAYER-1
  0
POLYLINE
  8
LAYER-1
 66
  1
 70
  0
 62
  7
 10
0.145716
 20
2.891411
 30
0.000000
  0
VERTEX
  8
LAYER-1
 10
0.145716
 20
2.891411
 30
0.000000
  0
VERTEX
  8
LAYER-1
 10
0.145716
 20
2.787801
 30
0.000000
  0
SEQEND
  8
LAYER-1
  0
POLYLINE
  8
LAYER-1
 66
  1
 70
  0
 62
  7
 10
0.179704
 20
2.891411
 30
0.000000
  0
VERTEX
  8
LAYER-1
 10
0.179704
 20
2.891411
 30
0.000000
  0
VERTEX
  8
LAYER-1
 10
0.179704
 20
2.787757
 30
0.000000
  0
SEQEND
  8
LAYER-1
  0
POLYLINE
  8
LAYER-1
 66
  1
 70
  0
 62
  7
 10
0.294334
 20
2.891411
 30
0.000000
  0
VERTEX
  8
LAYER-1
 10
0.294334
 20
2.891411
 30
0.000000
  0
VERTEX
  8
LAYER-1
 10
0.294334
 20
2.787801
 30
0.000000
  0
SEQEND
  8
LAYER-1
  0
POLYLINE
  8
LAYER-1
 66
  1
 70
  0
 62
  7
 10
0.328176
 20
2.891411
 30
0.000000
  0
VERTEX
  8
LAYER-1
 10
0.328176
 20
2.891411
 30
0.000000
  0
VERTEX
  8
LAYER-1
 10
0.328176
 20
2.788079
 30
0.000000
  0
SEQEND
  8
LAYER-1
  0
POLYLINE
  8
LAYER-1
 66
  1
 70
  0
 62
  7
 10
0.442515
 20
2.891411
 30
0.000000
  0
VERTEX
  8
LAYER-1
 10
0.442515
 20
2.891411
 30
0.000000
  0
VERTEX
  8
LAYER-1
 10
0.442515
 20
2.787801
 30
0.000000
  0
SEQEND
  8
LAYER-1
  0
POLYLINE
  8
LAYER-1
 66
  1
 70
  0
 62
  7
 10
0.476503
 20
2.891411
 30
0.000000
  0
VERTEX
  8
LAYER-1
 10
0.476503
 20
2.891411
 30
0.000000
  0
VERTEX
  8
LAYER-1
 10
0.476503
 20
2.787757
 30
0.000000
  0
SEQEND
  8
LAYER-1
  0
POLYLINE
  8
LAYER-1
 66
  1
 70
  0
 62
  7
 10
0.590987
 20
2.891411
 30
0.000000
  0
VERTEX
  8
LAYER-1
 10
0.590987
 20
2.891411
 30
0.000000
  0
VERTEX
  8
LAYER-1
 10
0.590987
 20
2.787801
 30
0.000000
  0
SEQEND
  8
LAYER-1
  0
POLYLINE
  8
LAYER-1
 66
  1
 70
  0
 62
  7
 10
0.624975
 20
2.891411
 30
0.000000
  0
VERTEX
  8
LAYER-1
 10
0.624975
 20
2.891411
 30
0.000000
  0
VERTEX
  8
LAYER-1
 10
0.624975
 20
2.787757
 30
0.000000
  0
SEQEND
  8
LAYER-1
  0
POLYLINE
  8
LAYER-1
 66
  1
 70
  0
 62
  7
 10
0.739314
 20
2.891411
 30
0.000000
  0
VERTEX
  8
LAYER-1
 10
0.739314
 20
2.891411
 30
0.000000
  0
VERTEX
  8
LAYER-1
 10
0.739314
 20
2.788079
 30
0.000000
  0
SEQEND
  8
LAYER-1
  0
POLYLINE
  8
LAYER-1
 66
  1
 70
  0
 62
  7
 10
0.773447
 20
2.891411
 30
0.000000
  0
VERTEX
  8
LAYER-1
 10
0.773447
 20
2.891411
 30
0.000000
  0
VERTEX
  8
LAYER-1
 10
0.773447
 20
2.787757
 30
0.000000
  0
SEQEND
  8
LAYER-1
  0
POLYLINE
  8
LAYER-1
 66
  1
 70
  0
 62
  7
 10
0.887788
 20
2.891411
 30
0.000000
  0
VERTEX
  8
LAYER-1
 10
0.887788
 20
2.891411
 30
0.000000
  0
VERTEX
  8
LAYER-1
 10
0.887788
 20
2.787801
 30
0.000000
  0
SEQEND
  8
LAYER-1
  0
POLYLINE
  8
LAYER-1
 66
  1
 70
  0
 62
  7
 10
0.921774
 20
2.891411
 30
0.000000
  0
VERTEX
  8
LAYER-1
 10
0.921774
 20
2.891411
 30
0.000000
  0
VERTEX
  8
LAYER-1
 10
0.921774
 20
2.787757
 30
0.000000
  0
SEQEND
  8
LAYER-1
  0
POLYLINE
  8
LAYER-1
 66
  1
 70
  0
 62
  7
 10
1.036261
 20
2.891411
 30
0.000000
  0
VERTEX
  8
LAYER-1
 10
1.036261
 20
2.891411
 30
0.000000
  0
VERTEX
  8
LAYER-1
 10
1.036261
 20
2.787801
 30
0.000000
  0
SEQEND
  8
LAYER-1
  0
POLYLINE
  8
LAYER-1
 66
  1
 70
  0
 62
  7
 10
0.162300
 20
4.486593
 30
0.000000
  0
VERTEX
  8
LAYER-1
 10
0.162300
 20
4.486593
 30
0.000000
  0
VERTEX
  8
LAYER-1
 10
0.162300
 20
2.787757
 30
0.000000
  0
SEQEND
  8
LAYER-1
  0
POLYLINE
  8
LAYER-1
 66
  1
 70
  0
 62
  7
 10
0.310707
 20
4.486593
 30
0.000000
  0
VERTEX
  8
LAYER-1
 10
0.310707
 20
4.486593
 30
0.000000
  0
VERTEX
  8
LAYER-1
 10
0.310707
 20
2.787757
 30
0.000000
  0
SEQEND
  8
LAYER-1
  0
POLYLINE
  8
LAYER-1
 66
  1
 70
  0
 62
  7
 10
0.459116
 20
4.486593
 30
0.000000
  0
VERTEX
  8
LAYER-1
 10
0.459116
 20
4.486593
 30
0.000000
  0
VERTEX
  8
LAYER-1
 10
0.459116
 20
2.787757
 30
0.000000
  0
SEQEND
  8
LAYER-1
  0
POLYLINE
  8
LAYER-1
 66
  1
 70
  0
 62
  7
 10
0.607526
 20
4.486593
 30
0.000000
  0
VERTEX
  8
LAYER-1
 10
0.607526
 20
4.486593
 30
0.000000
  0
VERTEX
  8
LAYER-1
 10
0.607526
 20
2.787757
 30
0.000000
  0
SEQEND
  8
LAYER-1
  0
POLYLINE
  8
LAYER-1
 66
  1
 70
  0
 62
  7
 10
0.755934
 20
4.486593
 30
0.000000
  0
VERTEX
  8
LAYER-1
 10
0.755934
 20
4.486593
 30
0.000000
  0
VERTEX
  8
LAYER-1
 10
0.755934
 20
2.787757
 30
0.000000
  0
SEQEND
  8
LAYER-1
  0
POLYLINE
  8
LAYER-1
 66
  1
 70
  0
 62
  7
 10
0.904344
 20
4.486593
 30
0.000000
  0
VERTEX
  8
LAYER-1
 10
0.904344
 20
4.486593
 30
0.000000
  0
VERTEX
  8
LAYER-1
 10
0.904344
 20
2.787757
 30
0.000000
  0
SEQEND
  8
LAYER-1
  0
POLYLINE
  8
LAYER-1
 66
  1
 70
  0
 62
  0
 10
0.031375
 20
4.382939
 30
0.000000
  0
VERTEX
  8
LAYER-1
 10
0.031375
 20
4.382939
 30
0.000000
  0
VERTEX
  8
LAYER-1
 10
0.145784
 20
4.382939
 30
0.000000
  0
SEQEND
  8
LAYER-1
  0
POLYLINE
  8
LAYER-1
 66
  1
 70
  0
 62
  0
 10
0.179704
 20
4.382939
 30
0.000000
  0
VERTEX
  8
LAYER-1
 10
0.179704
 20
4.382939
 30
0.000000
  0
VERTEX
  8
LAYER-1
 10
0.294257
 20
4.382939
 30
0.000000
  0
SEQEND
  8
LAYER-1
  0
POLYLINE
  8
LAYER-1
 66
  1
 70
  0
 62
  0
 10
0.328176
 20
4.382939
 30
0.000000
  0
VERTEX
  8
LAYER-1
 10
0.328176
 20
4.382939
 30
0.000000
  0
VERTEX
  8
LAYER-1
 10
0.442583
 20
4.382939
 30
0.000000
  0
SEQEND
  8
LAYER-1
  0
POLYLINE
  8
LAYER-1
 66
  1
 70
  0
 62
  0
 10
0.476503
 20
4.382939
 30
0.000000
  0
VERTEX
  8
LAYER-1
 10
0.476503
 20
4.382939
 30
0.000000
  0
VERTEX
  8
LAYER-1
 10
0.590910
 20
4.382939
 30
0.000000
  0
SEQEND
  8
LAYER-1
  0
POLYLINE
  8
LAYER-1
 66
  1
 70
  0
 62
  0
 10
0.624975
 20
4.382939
 30
0.000000
  0
VERTEX
  8
LAYER-1
 10
0.624975
 20
4.382939
 30
0.000000
  0
VERTEX
  8
LAYER-1
 10
0.739382
 20
4.382939
 30
0.000000
  0
SEQEND
  8
LAYER-1
  0
POLYLINE
  8
LAYER-1
 66
  1
 70
  0
 62
  0
 10
0.773447
 20
4.382939
 30
0.000000
  0
VERTEX
  8
LAYER-1
 10
0.773447
 20
4.382939
 30
0.000000
  0
VERTEX
  8
LAYER-1
 10
0.887854
 20
4.382939
 30
0.000000
  0
SEQEND
  8
LAYER-1
  0
POLYLINE
  8
LAYER-1
 66
  1
 70
  0
 62
  0
 10
0.921047
 20
4.382939
 30
0.000000
  0
VERTEX
  8
LAYER-1
 10
0.921047
 20
4.382939
 30
0.000000
  0
VERTEX
  8
LAYER-1
 10
1.036183
 20
4.382939
 30
0.000000
  0
SEQEND
  8
LAYER-1
  0
POLYLINE
  8
LAYER-1
 66
  1
 70
  0
 62
  0
 10
0.031375
 20
2.891411
 30
0.000000
  0
VERTEX
  8
LAYER-1
 10
0.031375
 20
2.891411
 30
0.000000
  0
VERTEX
  8
LAYER-1
 10
0.145716
 20
2.891411
 30
0.000000
  0
SEQEND
  8
LAYER-1
  0
POLYLINE
  8
LAYER-1
 66
  1
 70
  0
 62
  0
 10
0.179704
 20
2.891411
 30
0.000000
  0
VERTEX
  8
LAYER-1
 10
0.179704
 20
2.891411
 30
0.000000
  0
VERTEX
  8
LAYER-1
 10
0.294334
 20
2.891411
 30
0.000000
  0
SEQEND
  8
LAYER-1
  0
POLYLINE
  8
LAYER-1
 66
  1
 70
  0
 62
  0
 10
0.328176
 20
2.891411
 30
0.000000
  0
VERTEX
  8
LAYER-1
 10
0.328176
 20
2.891411
 30
0.000000
  0
VERTEX
  8
LAYER-1
 10
0.442515
 20
2.891411
 30
0.000000
  0
SEQEND
  8
LAYER-1
  0
POLYLINE
  8
LAYER-1
 66
  1
 70
  0
 62
  0
 10
0.476503
 20
2.891411
 30
0.000000
  0
VERTEX
  8
LAYER-1
 10
0.476503
 20
2.891411
 30
0.000000
  0
VERTEX
  8
LAYER-1
 10
0.590987
 20
2.891411
 30
0.000000
  0
SEQEND
  8
LAYER-1
  0
POLYLINE
  8
LAYER-1
 66
  1
 70
  0
 62
  0
 10
0.624975
 20
2.891411
 30
0.000000
  0
VERTEX
  8
LAYER-1
 10
0.624975
 20
2.891411
 30
0.000000
  0
VERTEX
  8
LAYER-1
 10
0.739314
 20
2.891411
 30
0.000000
  0
SEQEND
  8
LAYER-1
  0
POLYLINE
  8
LAYER-1
 66
  1
 70
  0
 62
  0
 10
0.773447
 20
2.891411
 30
0.000000
  0
VERTEX
  8
LAYER-1
 10
0.773447
 20
2.891411
 30
0.000000
  0
VERTEX
  8
LAYER-1
 10
0.887788
 20
2.891411
 30
0.000000
  0
SEQEND
  8
LAYER-1
  0
POLYLINE
  8
LAYER-1
 66
  1
 70
  0
 62
  0
 10
0.921774
 20
2.891411
 30
0.000000
  0
VERTEX
  8
LAYER-1
 10
0.921774
 20
2.891411
 30
0.000000
  0
VERTEX
  8
LAYER-1
 10
1.036261
 20
2.891411
 30
0.000000
  0
SEQEND
  8
LAYER-1
  0
POLYLINE
  8
LAYER-1
 66
  1
 70
  0
 62
  0
 10
0.013889
 20
2.787757
 30
0.000000
  0
VERTEX
  8
LAYER-1
 10
0.013889
 20
2.787757
 30
0.000000
  0
VERTEX
  8
LAYER-1
 10
1.053577
 20
2.787801
 30
0.000000
  0
SEQEND
  8
LAYER-1
  0
POLYLINE
  8
LAYER-1
 66
  1
 70
  0
 62
  0
 10
0.013889
 20
4.486593
 30
0.000000
  0
VERTEX
  8
LAYER-1
 10
0.013889
 20
4.486593
 30
0.000000
  0
VERTEX
  8
LAYER-1
 10
1.053577
 20
4.486593
 30
0.000000
  0
SEQEND
  8
LAYER-1
  0
POLYLINE
  8
LAYER-1
 66
  1
 70
  0
 62
  7
 10
0.230864
 20
4.484672
 30
0.000000
  0
VERTEX
  8
LAYER-1
 10
0.230864
 20
4.484672
 30
0.000000
  0
VERTEX
  8
LAYER-1
 10
0.230864
 20
4.381365
 30
0.000000
  0
SEQEND
  8
LAYER-1
  0
POLYLINE
  8
LAYER-1
 66
  1
 70
  0
 62
  7
 10
0.242783
 20
4.484672
 30
0.000000
  0
VERTEX
  8
LAYER-1
 10
0.242783
 20
4.484672
 30
0.000000
  0
VERTEX
  8
LAYER-1
 10
0.242783
 20
4.381365
 30
0.000000
  0
SEQEND
  8
LAYER-1
  0
POLYLINE
  8
LAYER-1
 66
  1
 70
  0
 62
  7
 10
0.528859
 20
4.486260
 30
0.000000
  0
VERTEX
  8
LAYER-1
 10
0.528859
 20
4.486260
 30
0.000000
  0
VERTEX
  8
LAYER-1
 10
0.528859
 20
4.382954
 30
0.000000
  0
SEQEND
  8
LAYER-1
  0
POLYLINE
  8
LAYER-1
 66
  1
 70
  0
 62
  7
 10
0.540778
 20
4.486260
 30
0.000000
  0
VERTEX
  8
LAYER-1
 10
0.540778
 20
4.486260
 30
0.000000
  0
VERTEX
  8
LAYER-1
 10
0.540778
 20
4.382954
 30
0.000000
  0
SEQEND
  8
LAYER-1
  0
POLYLINE
  8
LAYER-1
 66
  1
 70
  0
 62
  7
 10
0.826061
 20
4.483877
 30
0.000000
  0
VERTEX
  8
LAYER-1
 10
0.826061
 20
4.483877
 30
0.000000
  0
VERTEX
  8
LAYER-1
 10
0.826061
 20
4.380571
 30
0.000000
  0
SEQEND
  8
LAYER-1
  0
POLYLINE
  8
LAYER-1
 66
  1
 70
  0
 62
  7
 10
0.837980
 20
4.483877
 30
0.000000
  0
VERTEX
  8
LAYER-1
 10
0.837980
 20
4.483877
 30
0.000000
  0
VERTEX
  8
LAYER-1
 10
0.837980
 20
4.380571
 30
0.000000
  0
SEQEND
  8
LAYER-1
  0
POLYLINE
  8
LAYER-1
 66
  1
 70
  1
 62
  0
  0
VERTEX
  8
LAYER-1
 10
3.714956
 20
0.349943
 30
0.000000
  0
VERTEX
  8
LAYER-1
 10
3.748514
 20
0.349943
 30
0.000000
  0
VERTEX
  8
LAYER-1
 10
3.748514
 20
0.254439
 30
0.000000
  0
VERTEX
  8
LAYER-1
 10
3.714956
 20
0.254439
 30
0.000000
  0
SEQEND
  8
LAYER-1
  0
POLYLINE
  8
LAYER-1
 66
  1
 70
  0
 62
  0
 10
3.734997
 20
2.460899
 30
0.000000
  0
VERTEX
  8
LAYER-1
 10
3.734997
 20
2.460899
 30
0.000000
  0
VERTEX
  8
LAYER-1
 10
3.734998
 20
2.460899
 30
0.000000
  0
SEQEND
  8
LAYER-1
  0
POLYLINE
  8
LAYER-1
 66
  1
 70
  0
 62
  0
 10
3.742963
 20
2.452935
 30
0.000000
  0
VERTEX
  8
LAYER-1
 10
3.742963
 20
2.452935
 30
0.000000
  0
VERTEX
  8
LAYER-1
 10
3.742963
 20
2.203392
 30
0.000000
  0
SEQEND
  8
LAYER-1
  0
POLYLINE
  8
LAYER-1
 66
  1
 70
  0
 62
  0
 10
3.734998
 20
2.195428
 30
0.000000
  0
VERTEX
  8
LAYER-1
 10
3.734998
 20
2.195428
 30
0.000000
  0
VERTEX
  8
LAYER-1
 10
3.734997
 20
2.195428
 30
0.000000
  0
SEQEND
  8
LAYER-1
  0
POLYLINE
  8
LAYER-1
 66
  1
 70
  0
 62
  0
 10
3.727033
 20
2.203392
 30
0.000000
  0
VERTEX
  8
LAYER-1
 10
3.727033
 20
2.203392
 30
0.000000
  0
VERTEX
  8
LAYER-1
 10
3.727033
 20
2.452935
 30
0.000000
  0
SEQEND
  8
LAYER-1
  0
ARC
  8
LAYER-1
 62
  0
 10
3.734997
 20
2.452935
 30
0.000000
 40
0.007964
 50
270.000000
 51
0.000000
  0
ARC
  8
LAYER-1
 62
  0
 10
3.734997
 20
2.203392
 30
0.000000
 40
0.007964
 50
0.000000
 51
90.000000
  0
ARC
  8
LAYER-1
 62
  0
 10
3.734998
 20
2.203392
 30
0.000000
 40
0.007964
 50
90.000000
 51
180.000000
  0
ARC
  8
LAYER-1
 62
  0
 10
3.734998
 20
2.452935
 30
0.000000
 40
0.007964
 50
180.000000
 51
270.000000
  0
CIRCLE
  8
LAYER-1
 62
  0
 10
3.735330
 20
2.198080
 30
0.000000
 40
0.022565
  0
CIRCLE
  8
LAYER-1
 62
  0
 10
3.735330
 20
2.198080
 30
0.000000
 40
0.016522
  0
CIRCLE
  8
LAYER-1
 62
  0
 10
3.735330
 20
2.198080
 30
0.000000
 40
0.013746
  0
CIRCLE
  8
LAYER-1
 62
  0
 10
3.735330
 20
2.198080
 30
0.000000
 40
0.008860
  0
POLYLINE
  8
LAYER-1
 66
  1
 70
  0
 62
  0
 10
3.685053
 20
0.246778
 30
0.000000
  0
VERTEX
  8
LAYER-1
 10
3.685053
 20
0.246778
 30
0.000000
  0
VERTEX
  8
LAYER-1
 10
3.697831
 20
0.254343
 30
0.000000
  0
SEQEND
  8
LAYER-1
  0
POLYLINE
  8
LAYER-1
 66
  1
 70
  0
 62
  0
 10
3.685053
 20
0.246778
 30
0.000000
  0
VERTEX
  8
LAYER-1
 10
3.685053
 20
0.246778
 30
0.000000
  0
VERTEX
  8
LAYER-1
 10
3.685053
 20
0.245213
 30
0.000000
  0
SEQEND
  8
LAYER-1
  0
POLYLINE
  8
LAYER-1
 66
  1
 70
  1
 62
  0
  0
VERTEX
  8
LAYER-1
 10
3.703496
 20
0.245199
 30
0.000000
  0
VERTEX
  8
LAYER-1
 10
3.760083
 20
0.245199
 30
0.000000
  0
VERTEX
  8
LAYER-1
 10
3.760083
 20
0.057537
 30
0.000000
  0
VERTEX
  8
LAYER-1
 10
3.703496
 20
0.057537
 30
0.000000
  0
SEQEND
  8
LAYER-1
  0
POLYLINE
  8
LAYER-1
  6
LTYPE01
 66
  1
 70
  1
 62
  0
  0
VERTEX
  8
LAYER-1
  6
LTYPE01
 10
3.708190
 20
0.254325
 30
0.000000
  0
VERTEX
  8
LAYER-1
  6
LTYPE01
 10
3.755130
 20
0.254325
 30
0.000000
  0
VERTEX
  8
LAYER-1
  6
LTYPE01
 10
3.755130
 20
0.067096
 30
0.000000
  0
VERTEX
  8
LAYER-1
  6
LTYPE01
 10
3.708190
 20
0.067096
 30
0.000000
  0
SEQEND
  8
LAYER-1
  0
POLYLINE
  8
LAYER-1
 66
  1
 70
  0
 62
  0
 10
3.685053
 20
0.245213
 30
0.000000
  0
VERTEX
  8
LAYER-1
 10
3.685053
 20
0.245213
 30
0.000000
  0
VERTEX
  8
LAYER-1
 10
3.778670
 20
0.245213
 30
0.000000
  0
SEQEND
  8
LAYER-1
  0
POLYLINE
  8
LAYER-1
 66
  1
 70
  0
 62
  0
 10
3.778670
 20
0.245213
 30
0.000000
  0
VERTEX
  8
LAYER-1
 10
3.778670
 20
0.245213
 30
0.000000
  0
VERTEX
  8
LAYER-1
 10
3.778670
 20
0.246778
 30
0.000000
  0
SEQEND
  8
LAYER-1
  0
POLYLINE
  8
LAYER-1
 66
  1
 70
  0
 62
  0
 10
3.778670
 20
0.246778
 30
0.000000
  0
VERTEX
  8
LAYER-1
 10
3.778670
 20
0.246778
 30
0.000000
  0
VERTEX
  8
LAYER-1
 10
3.765631
 20
0.254343
 30
0.000000
  0
SEQEND
  8
LAYER-1
  0
POLYLINE
  8
LAYER-1
  6
LTYPE02
 66
  1
 70
  0
 62
  0
  6
LTYPE02
 10
3.709435
 20
0.153554
 30
0.000000
  0
VERTEX
  8
LAYER-1
  6
LTYPE02
 10
3.709435
 20
0.153554
 30
0.000000
  0
VERTEX
  8
LAYER-1
  6
LTYPE02
 10
3.709435
 20
0.119656
 30
0.000000
  0
SEQEND
  8
LAYER-1
  0
POLYLINE
  8
LAYER-1
  6
LTYPE02
 66
  1
 70
  0
 62
  0
  6
LTYPE02
 10
3.713343
 20
0.153554
 30
0.000000
  0
VERTEX
  8
LAYER-1
  6
LTYPE02
 10
3.713343
 20
0.153554
 30
0.000000
  0
VERTEX
  8
LAYER-1
  6
LTYPE02
 10
3.709435
 20
0.153554
 30
0.000000
  0
SEQEND
  8
LAYER-1
  0
POLYLINE
  8
LAYER-1
  6
LTYPE02
 66
  1
 70
  0
 62
  0
  6
LTYPE02
 10
3.713343
 20
0.153554
 30
0.000000
  0
VERTEX
  8
LAYER-1
  6
LTYPE02
 10
3.713343
 20
0.153554
 30
0.000000
  0
VERTEX
  8
LAYER-1
  6
LTYPE02
 10
3.713343
 20
0.157988
 30
0.000000
  0
SEQEND
  8
LAYER-1
  0
POLYLINE
  8
LAYER-1
  6
LTYPE02
 66
  1
 70
  0
 62
  0
  6
LTYPE02
 10
3.713343
 20
0.157988
 30
0.000000
  0
VERTEX
  8
LAYER-1
  6
LTYPE02
 10
3.713343
 20
0.157988
 30
0.000000
  0
VERTEX
  8
LAYER-1
  6
LTYPE02
 10
3.750603
 20
0.157988
 30
0.000000
  0
SEQEND
  8
LAYER-1
  0
POLYLINE
  8
LAYER-1
  6
LTYPE02
 66
  1
 70
  0
 62
  0
  6
LTYPE02
 10
3.709435
 20
0.119656
 30
0.000000
  0
VERTEX
  8
LAYER-1
  6
LTYPE02
 10
3.709435
 20
0.119656
 30
0.000000
  0
VERTEX
  8
LAYER-1
  6
LTYPE02
 10
3.753767
 20
0.119656
 30
0.000000
  0
SEQEND
  8
LAYER-1
  0
POLYLINE
  8
LAYER-1
  6
LTYPE02
 66
  1
 70
  0
 62
  0
  6
LTYPE02
 10
3.753767
 20
0.119656
 30
0.000000
  0
VERTEX
  8
LAYER-1
  6
LTYPE02
 10
3.753767
 20
0.119656
 30
0.000000
  0
VERTEX
  8
LAYER-1
  6
LTYPE02
 10
3.753767
 20
0.153554
 30
0.000000
  0
SEQEND
  8
LAYER-1
  0
POLYLINE
  8
LAYER-1
  6
LTYPE02
 66
  1
 70
  0
 62
  0
  6
LTYPE02
 10
3.750603
 20
0.153554
 30
0.000000
  0
VERTEX
  8
LAYER-1
  6
LTYPE02
 10
3.750603
 20
0.153554
 30
0.000000
  0
VERTEX
  8
LAYER-1
  6
LTYPE02
 10
3.753767
 20
0.153554
 30
0.000000
  0
SEQEND
  8
LAYER-1
  0
POLYLINE
  8
LAYER-1
  6
LTYPE02
 66
  1
 70
  0
 62
  0
  6
LTYPE02
 10
3.750603
 20
0.157988
 30
0.000000
  0
VERTEX
  8
LAYER-1
  6
LTYPE02
 10
3.750603
 20
0.157988
 30
0.000000
  0
VERTEX
  8
LAYER-1
  6
LTYPE02
 10
3.750603
 20
0.153554
 30
0.000000
  0
SEQEND
  8
LAYER-1
  0
POLYLINE
  8
LAYER-1
  6
LTYPE01
 66
  1
 70
  1
 62
  0
  0
VERTEX
  8
LAYER-1
  6
LTYPE01
 10
3.714572
 20
0.119509
 30
0.000000
  0
VERTEX
  8
LAYER-1
  6
LTYPE01
 10
3.748994
 20
0.119509
 30
0.000000
  0
VERTEX
  8
LAYER-1
  6
LTYPE01
 10
3.748994
 20
0.067356
 30
0.000000
  0
VERTEX
  8
LAYER-1
  6
LTYPE01
 10
3.714572
 20
0.067356
 30
0.000000
  0
SEQEND
  8
LAYER-1
  0
POLYLINE
  8
LAYER-1
  6
LTYPE02
 66
  1
 70
  0
 62
  0
  6
LTYPE02
 10
3.748994
 20
0.119509
 30
0.000000
  0
VERTEX
  8
LAYER-1
  6
LTYPE02
 10
3.748994
 20
0.119509
 30
0.000000
  0
VERTEX
  8
LAYER-1
  6
LTYPE02
 10
3.714572
 20
0.116642
 30
0.000000
  0
SEQEND
  8
LAYER-1
  0
POLYLINE
  8
LAYER-1
  6
LTYPE02
 66
  1
 70
  0
 62
  0
  6
LTYPE02
 10
3.748994
 20
0.117945
 30
0.000000
  0
VERTEX
  8
LAYER-1
  6
LTYPE02
 10
3.748994
 20
0.117945
 30
0.000000
  0
VERTEX
  8
LAYER-1
  6
LTYPE02
 10
3.714572
 20
0.114817
 30
0.000000
  0
SEQEND
  8
LAYER-1
  0
POLYLINE
  8
LAYER-1
  6
LTYPE02
 66
  1
 70
  0
 62
  0
  6
LTYPE02
 10
3.748994
 20
0.114555
 30
0.000000
  0
VERTEX
  8
LAYER-1
  6
LTYPE02
 10
3.748994
 20
0.114555
 30
0.000000
  0
VERTEX
  8
LAYER-1
  6
LTYPE02
 10
3.714572
 20
0.111686
 30
0.000000
  0
SEQEND
  8
LAYER-1
  0
POLYLINE
  8
LAYER-1
  6
LTYPE02
 66
  1
 70
  0
 62
  0
  6
LTYPE02
 10
3.748994
 20
0.112990
 30
0.000000
  0
VERTEX
  8
LAYER-1
  6
LTYPE02
 10
3.748994
 20
0.112990
 30
0.000000
  0
VERTEX
  8
LAYER-1
  6
LTYPE02
 10
3.714572
 20
0.109861
 30
0.000000
  0
SEQEND
  8
LAYER-1
  0
POLYLINE
  8
LAYER-1
  6
LTYPE02
 66
  1
 70
  0
 62
  0
  6
LTYPE02
 10
3.748994
 20
0.109407
 30
0.000000
  0
VERTEX
  8
LAYER-1
  6
LTYPE02
 10
3.748994
 20
0.109407
 30
0.000000
  0
VERTEX
  8
LAYER-1
  6
LTYPE02
 10
3.714572
 20
0.106538
 30
0.000000
  0
SEQEND
  8
LAYER-1
  0
POLYLINE
  8
LAYER-1
  6
LTYPE02
 66
  1
 70
  0
 62
  0
  6
LTYPE02
 10
3.748994
 20
0.107842
 30
0.000000
  0
VERTEX
  8
LAYER-1
  6
LTYPE02
 10
3.748994
 20
0.107842
 30
0.000000
  0
VERTEX
  8
LAYER-1
  6
LTYPE02
 10
3.714572
 20
0.104713
 30
0.000000
  0
SEQEND
  8
LAYER-1
  0
POLYLINE
  8
LAYER-1
  6
LTYPE02
 66
  1
 70
  0
 62
  0
  6
LTYPE02
 10
3.748930
 20
0.104908
 30
0.000000
  0
VERTEX
  8
LAYER-1
  6
LTYPE02
 10
3.748930
 20
0.104908
 30
0.000000
  0
VERTEX
  8
LAYER-1
  6
LTYPE02
 10
3.714507
 20
0.102039
 30
0.000000
  0
SEQEND
  8
LAYER-1
  0
POLYLINE
  8
LAYER-1
  6
LTYPE02
 66
  1
 70
  0
 62
  0
  6
LTYPE02
 10
3.748930
 20
0.103344
 30
0.000000
  0
VERTEX
  8
LAYER-1
  6
LTYPE02
 10
3.748930
 20
0.103344
 30
0.000000
  0
VERTEX
  8
LAYER-1
  6
LTYPE02
 10
3.714507
 20
0.100215
 30
0.000000
  0
SEQEND
  8
LAYER-1
  0
POLYLINE
  8
LAYER-1
  6
LTYPE02
 66
  1
 70
  0
 62
  0
  6
LTYPE02
 10
3.748930
 20
0.100084
 30
0.000000
  0
VERTEX
  8
LAYER-1
  6
LTYPE02
 10
3.748930
 20
0.100084
 30
0.000000
  0
VERTEX
  8
LAYER-1
  6
LTYPE02
 10
3.714507
 20
0.097215
 30
0.000000
  0
SEQEND
  8
LAYER-1
  0
POLYLINE
  8
LAYER-1
  6
LTYPE02
 66
  1
 70
  0
 62
  0
  6
LTYPE02
 10
3.748930
 20
0.098519
 30
0.000000
  0
VERTEX
  8
LAYER-1
  6
LTYPE02
 10
3.748930
 20
0.098519
 30
0.000000
  0
VERTEX
  8
LAYER-1
  6
LTYPE02
 10
3.714507
 20
0.095389
 30
0.000000
  0
SEQEND
  8
LAYER-1
  0
POLYLINE
  8
LAYER-1
  6
LTYPE02
 66
  1
 70
  0
 62
  0
  6
LTYPE02
 10
3.748930
 20
0.095128
 30
0.000000
  0
VERTEX
  8
LAYER-1
  6
LTYPE02
 10
3.748930
 20
0.095128
 30
0.000000
  0
VERTEX
  8
LAYER-1
  6
LTYPE02
 10
3.714507
 20
0.092260
 30
0.000000
  0
SEQEND
  8
LAYER-1
  0
POLYLINE
  8
LAYER-1
  6
LTYPE02
 66
  1
 70
  0
 62
  0
  6
LTYPE02
 10
3.748930
 20
0.093565
 30
0.000000
  0
VERTEX
  8
LAYER-1
  6
LTYPE02
 10
3.748930
 20
0.093565
 30
0.000000
  0
VERTEX
  8
LAYER-1
  6
LTYPE02
 10
3.714507
 20
0.090434
 30
0.000000
  0
SEQEND
  8
LAYER-1
  0
POLYLINE
  8
LAYER-1
  6
LTYPE02
 66
  1
 70
  0
 62
  0
  6
LTYPE02
 10
3.748930
 20
0.089979
 30
0.000000
  0
VERTEX
  8
LAYER-1
  6
LTYPE02
 10
3.748930
 20
0.089979
 30
0.000000
  0
VERTEX
  8
LAYER-1
  6
LTYPE02
 10
3.714507
 20
0.087110
 30
0.000000
  0
SEQEND
  8
LAYER-1
  0
POLYLINE
  8
LAYER-1
  6
LTYPE02
 66
  1
 70
  0
 62
  0
  6
LTYPE02
 10
3.748930
 20
0.088414
 30
0.000000
  0
VERTEX
  8
LAYER-1
  6
LTYPE02
 10
3.748930
 20
0.088414
 30
0.000000
  0
VERTEX
  8
LAYER-1
  6
LTYPE02
 10
3.714507
 20
0.085286
 30
0.000000
  0
SEQEND
  8
LAYER-1
  0
POLYLINE
  8
LAYER-1
  6
LTYPE02
 66
  1
 70
  0
 62
  0
  6
LTYPE02
 10
3.748864
 20
0.085480
 30
0.000000
  0
VERTEX
  8
LAYER-1
  6
LTYPE02
 10
3.748864
 20
0.085480
 30
0.000000
  0
VERTEX
  8
LAYER-1
  6
LTYPE02
 10
3.714443
 20
0.082612
 30
0.000000
  0
SEQEND
  8
LAYER-1
  0
POLYLINE
  8
LAYER-1
  6
LTYPE02
 66
  1
 70
  0
 62
  0
  6
LTYPE02
 10
3.748864
 20
0.083917
 30
0.000000
  0
VERTEX
  8
LAYER-1
  6
LTYPE02
 10
3.748864
 20
0.083917
 30
0.000000
  0
VERTEX
  8
LAYER-1
  6
LTYPE02
 10
3.714443
 20
0.080788
 30
0.000000
  0
SEQEND
  8
LAYER-1
  0
POLYLINE
  8
LAYER-1
  6
LTYPE02
 66
  1
 70
  0
 62
  0
  6
LTYPE02
 10
3.748994
 20
0.081112
 30
0.000000
  0
VERTEX
  8
LAYER-1
  6
LTYPE02
 10
3.748994
 20
0.081112
 30
0.000000
  0
VERTEX
  8
LAYER-1
  6
LTYPE02
 10
3.714572
 20
0.078244
 30
0.000000
  0
SEQEND
  8
LAYER-1
  0
POLYLINE
  8
LAYER-1
  6
LTYPE02
 66
  1
 70
  0
 62
  0
  6
LTYPE02
 10
3.748994
 20
0.079547
 30
0.000000
  0
VERTEX
  8
LAYER-1
  6
LTYPE02
 10
3.748994
 20
0.079547
 30
0.000000
  0
VERTEX
  8
LAYER-1
  6
LTYPE02
 10
3.714572
 20
0.076419
 30
0.000000
  0
SEQEND
  8
LAYER-1
  0
POLYLINE
  8
LAYER-1
  6
LTYPE02
 66
  1
 70
  0
 62
  0
  6
LTYPE02
 10
3.748994
 20
0.076158
 30
0.000000
  0
VERTEX
  8
LAYER-1
  6
LTYPE02
 10
3.748994
 20
0.076158
 30
0.000000
  0
VERTEX
  8
LAYER-1
  6
LTYPE02
 10
3.714572
 20
0.073290
 30
0.000000
  0
SEQEND
  8
LAYER-1
  0
POLYLINE
  8
LAYER-1
  6
LTYPE02
 66
  1
 70
  0
 62
  0
  6
LTYPE02
 10
3.748994
 20
0.074593
 30
0.000000
  0
VERTEX
  8
LAYER-1
  6
LTYPE02
 10
3.748994
 20
0.074593
 30
0.000000
  0
VERTEX
  8
LAYER-1
  6
LTYPE02
 10
3.714572
 20
0.071464
 30
0.000000
  0
SEQEND
  8
LAYER-1
  0
POLYLINE
  8
LAYER-1
  6
LTYPE02
 66
  1
 70
  0
 62
  0
  6
LTYPE02
 10
3.748994
 20
0.071008
 30
0.000000
  0
VERTEX
  8
LAYER-1
  6
LTYPE02
 10
3.748994
 20
0.071008
 30
0.000000
  0
VERTEX
  8
LAYER-1
  6
LTYPE02
 10
3.714572
 20
0.068138
 30
0.000000
  0
SEQEND
  8
LAYER-1
  0
POLYLINE
  8
LAYER-1
  6
LTYPE02
 66
  1
 70
  0
 62
  0
  6
LTYPE02
 10
3.748994
 20
0.069444
 30
0.000000
  0
VERTEX
  8
LAYER-1
  6
LTYPE02
 10
3.748994
 20
0.069444
 30
0.000000
  0
VERTEX
  8
LAYER-1
  6
LTYPE02
 10
3.725981
 20
0.067356
 30
0.000000
  0
SEQEND
  8
LAYER-1
  0
POLYLINE
  8
LAYER-1
  6
LTYPE02
 66
  1
 70
  0
 62
  0
  6
LTYPE02
 10
3.715564
 20
0.178720
 30
0.000000
  0
VERTEX
  8
LAYER-1
  6
LTYPE02
 10
3.715564
 20
0.178720
 30
0.000000
  0
VERTEX
  8
LAYER-1
  6
LTYPE02
 10
3.715564
 20
0.254343
 30
0.000000
  0
SEQEND
  8
LAYER-1
  0
POLYLINE
  8
LAYER-1
  6
LTYPE02
 66
  1
 70
  0
 62
  0
  6
LTYPE02
 10
3.747898
 20
0.178720
 30
0.000000
  0
VERTEX
  8
LAYER-1
  6
LTYPE02
 10
3.747898
 20
0.178720
 30
0.000000
  0
VERTEX
  8
LAYER-1
  6
LTYPE02
 10
3.747898
 20
0.254343
 30
0.000000
  0
SEQEND
  8
LAYER-1
  0
POLYLINE
  8
LAYER-1
  6
LTYPE01
 66
  1
 70
  0
 62
  0
  6
LTYPE01
 10
3.715563
 20
0.178720
 30
0.000000
  0
VERTEX
  8
LAYER-1
  6
LTYPE01
 10
3.715563
 20
0.178720
 30
0.000000
  0
VERTEX
  8
LAYER-1
  6
LTYPE01
 10
3.718330
 20
0.169256
 30
0.000000
  0
VERTEX
  8
LAYER-1
  6
LTYPE01
 10
3.729763
 20
0.164522
 30
0.000000
  0
VERTEX
  8
LAYER-1
  6
LTYPE01
 10
3.741195
 20
0.169256
 30
0.000000
  0
VERTEX
  8
LAYER-1
  6
LTYPE01
 10
3.747899
 20
0.178720
 30
0.000000
  0
SEQEND
  8
LAYER-1
  0
POLYLINE
  8
LAYER-1
 66
  1
 70
  0
 62
  0
 10
3.697831
 20
0.254343
 30
0.000000
  0
VERTEX
  8
LAYER-1
 10
3.697831
 20
0.254343
 30
0.000000
  0
VERTEX
  8
LAYER-1
 10
3.765631
 20
0.254343
 30
0.000000
  0
SEQEND
  8
LAYER-1
  0
POLYLINE
  8
LAYER-1
 66
  1
 70
  1
 62
  0
  0
VERTEX
  8
LAYER-1
 10
2.804647
 20
7.483305
 30
0.000000
  0
VERTEX
  8
LAYER-1
 10
2.829743
 20
7.483305
 30
0.000000
  0
VERTEX
  8
LAYER-1
 10
2.829743
 20
7.416987
 30
0.000000
  0
VERTEX
  8
LAYER-1
 10
2.804647
 20
7.416987
 30
0.000000
  0
SEQEND
  8
LAYER-1
  0
POLYLINE
  8
LAYER-1
 66
  1
 70
  1
 62
  0
  0
VERTEX
  8
LAYER-1
 10
1.983467
 20
7.483305
 30
0.000000
  0
VERTEX
  8
LAYER-1
 10
2.008562
 20
7.483305
 30
0.000000
  0
VERTEX
  8
LAYER-1
 10
2.008562
 20
7.416987
 30
0.000000
  0
VERTEX
  8
LAYER-1
 10
1.983467
 20
7.416987
 30
0.000000
  0
SEQEND
  8
LAYER-1
  0
POLYLINE
  8
LAYER-1
 66
  1
 70
  1
 62
  0
  0
VERTEX
  8
LAYER-1
 10
4.706557
 20
7.483305
 30
0.000000
  0
VERTEX
  8
LAYER-1
 10
4.731652
 20
7.483305
 30
0.000000
  0
VERTEX
  8
LAYER-1
 10
4.731652
 20
7.416987
 30
0.000000
  0
VERTEX
  8
LAYER-1
 10
4.706557
 20
7.416987
 30
0.000000
  0
SEQEND
  8
LAYER-1
  0
POLYLINE
  8
LAYER-1
 66
  1
 70
  1
 62
  0
  0
VERTEX
  8
LAYER-1
 10
5.527738
 20
7.483305
 30
0.000000
  0
VERTEX
  8
LAYER-1
 10
5.552833
 20
7.483305
 30
0.000000
  0
VERTEX
  8
LAYER-1
 10
5.552833
 20
7.416987
 30
0.000000
  0
VERTEX
  8
LAYER-1
 10
5.527738
 20
7.416987
 30
0.000000
  0
SEQEND
  8
LAYER-1
  0
POLYLINE
  8
LAYER-1
 66
  1
 70
  0
 62
  0
 10
2.181858
 20
7.146982
 30
0.000000
  0
VERTEX
  8
LAYER-1
 10
2.181858
 20
7.146982
 30
0.000000
  0
VERTEX
  8
LAYER-1
 10
2.217455
 20
7.146982
 30
0.000000
  0
SEQEND
  8
LAYER-1
  0
POLYLINE
  8
LAYER-1
 66
  1
 70
  0
 62
  0
 10
2.999729
 20
7.146982
 30
0.000000
  0
VERTEX
  8
LAYER-1
 10
2.999729
 20
7.146982
 30
0.000000
  0
VERTEX
  8
LAYER-1
 10
3.035323
 20
7.146982
 30
0.000000
  0
SEQEND
  8
LAYER-1
  0
POLYLINE
  8
LAYER-1
 66
  1
 70
  0
 62
  0
 10
3.647862
 20
7.146906
 30
0.000000
  0
VERTEX
  8
LAYER-1
 10
3.647862
 20
7.146906
 30
0.000000
  0
VERTEX
  8
LAYER-1
 10
3.683457
 20
7.146906
 30
0.000000
  0
SEQEND
  8
LAYER-1
  0
POLYLINE
  8
LAYER-1
 66
  1
 70
  0
 62
  0
 10
5.354019
 20
7.146981
 30
0.000000
  0
VERTEX
  8
LAYER-1
 10
5.354019
 20
7.146981
 30
0.000000
  0
VERTEX
  8
LAYER-1
 10
5.318424
 20
7.146981
 30
0.000000
  0
SEQEND
  8
LAYER-1
  0
POLYLINE
  8
LAYER-1
 66
  1
 70
  0
 62
  0
 10
4.536144
 20
7.146981
 30
0.000000
  0
VERTEX
  8
LAYER-1
 10
4.536144
 20
7.146981
 30
0.000000
  0
VERTEX
  8
LAYER-1
 10
4.500553
 20
7.146981
 30
0.000000
  0
SEQEND
  8
LAYER-1
  0
POLYLINE
  8
LAYER-1
 66
  1
 70
  0
 62
  0
 10
3.888006
 20
7.146905
 30
0.000000
  0
VERTEX
  8
LAYER-1
 10
3.888006
 20
7.146905
 30
0.000000
  0
VERTEX
  8
LAYER-1
 10
3.852414
 20
7.146905
 30
0.000000
  0
SEQEND
  8
LAYER-1
  0
TEXT
  8
LAYER-1
 62
  0
 10
1.087634
 20
7.079225
 30
0.000000
 40
0.125000
  1
Track
 72
  5
 11
1.573745
 21
7.079225
 31
0.000000
  0
TEXT
  8
LAYER-1
 62
  0
 10
5.893189
 20
5.676448
 30
0.000000
 40
0.104167
  1
1/8
 72
  5
 11
6.170967
 21
5.676448
 31
0.000000
  0
TEXT
  8
LAYER-1
 62
  0
 10
6.170967
 20
5.676448
 30
0.000000
 40
0.125000
  1
" (3mm)
 72
  5
 11
6.851523
 21
5.676448
 31
0.000000
  0
TEXT
  8
LAYER-1
 62
  0
 10
5.893189
 20
5.482003
 30
0.000000
 40
0.125000
  1
Tempered
 72
  5
 11
6.754300
 21
5.482003
 31
0.000000
  0
TEXT
  8
LAYER-1
 62
  0
 10
5.893189
 20
5.287559
 30
0.000000
 40
0.125000
  1
glass
 72
  5
 11
6.393189
 21
5.287559
 31
0.000000
  0
POLYLINE
  8
LAYER-1
 66
  1
 70
  1
 62
  0
  0
VERTEX
  8
LAYER-1
 10
1.848981
 20
7.129301
 30
0.000000
  0
VERTEX
  8
LAYER-1
 10
2.136712
 20
7.129301
 30
0.000000
  0
VERTEX
  8
LAYER-1
 10
2.136712
 20
3.960991
 30
0.000000
  0
VERTEX
  8
LAYER-1
 10
1.848981
 20
3.960991
 30
0.000000
  0
SEQEND
  8
LAYER-1
  0
POLYLINE
  8
LAYER-1
 66
  1
 70
  1
 62
  0
  0
VERTEX
  8
LAYER-1
 10
2.259044
 20
7.129301
 30
0.000000
  0
VERTEX
  8
LAYER-1
 10
2.546774
 20
7.129301
 30
0.000000
  0
VERTEX
  8
LAYER-1
 10
2.546774
 20
3.960991
 30
0.000000
  0
VERTEX
  8
LAYER-1
 10
2.259044
 20
3.960991
 30
0.000000
  0
SEQEND
  8
LAYER-1
  0
POLYLINE
  8
LAYER-1
 66
  1
 70
  1
 62
  0
  0
VERTEX
  8
LAYER-1
 10
2.669106
 20
7.129301
 30
0.000000
  0
VERTEX
  8
LAYER-1
 10
2.956833
 20
7.129301
 30
0.000000
  0
VERTEX
  8
LAYER-1
 10
2.956833
 20
3.960991
 30
0.000000
  0
VERTEX
  8
LAYER-1
 10
2.669106
 20
3.960991
 30
0.000000
  0
SEQEND
  8
LAYER-1
  0
POLYLINE
  8
LAYER-1
 66
  1
 70
  1
 62
  0
  0
VERTEX
  8
LAYER-1
 10
3.079166
 20
7.129301
 30
0.000000
  0
VERTEX
  8
LAYER-1
 10
3.366895
 20
7.129301
 30
0.000000
  0
VERTEX
  8
LAYER-1
 10
3.366895
 20
3.960991
 30
0.000000
  0
VERTEX
  8
LAYER-1
 10
3.079166
 20
3.960991
 30
0.000000
  0
SEQEND
  8
LAYER-1
  0
POLYLINE
  8
LAYER-1
 66
  1
 70
  1
 62
  0
  0
VERTEX
  8
LAYER-1
 10
5.399165
 20
7.129300
 30
0.000000
  0
VERTEX
  8
LAYER-1
 10
5.686898
 20
7.129300
 30
0.000000
  0
VERTEX
  8
LAYER-1
 10
5.686898
 20
3.960991
 30
0.000000
  0
VERTEX
  8
LAYER-1
 10
5.399165
 20
3.960991
 30
0.000000
  0
SEQEND
  8
LAYER-1
  0
POLYLINE
  8
LAYER-1
 66
  1
 70
  1
 62
  0
  0
VERTEX
  8
LAYER-1
 10
4.989102
 20
7.129300
 30
0.000000
  0
VERTEX
  8
LAYER-1
 10
5.276835
 20
7.129300
 30
0.000000
  0
VERTEX
  8
LAYER-1
 10
5.276835
 20
3.960991
 30
0.000000
  0
VERTEX
  8
LAYER-1
 10
4.989102
 20
3.960991
 30
0.000000
  0
SEQEND
  8
LAYER-1
  0
POLYLINE
  8
LAYER-1
 66
  1
 70
  1
 62
  0
  0
VERTEX
  8
LAYER-1
 10
4.579040
 20
7.129300
 30
0.000000
  0
VERTEX
  8
LAYER-1
 10
4.866773
 20
7.129300
 30
0.000000
  0
VERTEX
  8
LAYER-1
 10
4.866773
 20
3.960991
 30
0.000000
  0
VERTEX
  8
LAYER-1
 10
4.579040
 20
3.960991
 30
0.000000
  0
SEQEND
  8
LAYER-1
  0
POLYLINE
  8
LAYER-1
 66
  1
 70
  1
 62
  0
  0
VERTEX
  8
LAYER-1
 10
4.168978
 20
7.129300
 30
0.000000
  0
VERTEX
  8
LAYER-1
 10
4.456711
 20
7.129300
 30
0.000000
  0
VERTEX
  8
LAYER-1
 10
4.456711
 20
3.960991
 30
0.000000
  0
VERTEX
  8
LAYER-1
 10
4.168978
 20
3.960991
 30
0.000000
  0
SEQEND
  8
LAYER-1
  0
LINE
  8
LAYER-1
 62
  0
 10
1.903720
 20
6.687607
 30
0.000000
 11
2.039808
 21
6.925341
 31
0.000000
  0
LINE
  8
LAYER-1
 62
  0
 10
1.960356
 20
6.655187
 30
0.000000
 11
2.096444
 21
6.892921
 31
0.000000
  0
LINE
  8
LAYER-1
 62
  0
 10
2.313782
 20
6.687607
 30
0.000000
 11
2.449871
 21
6.925341
 31
0.000000
  0
LINE
  8
LAYER-1
 62
  0
 10
2.370418
 20
6.655187
 30
0.000000
 11
2.506506
 21
6.892921
 31
0.000000
  0
LINE
  8
LAYER-1
 62
  0
 10
2.723844
 20
6.687606
 30
0.000000
 11
2.859930
 21
6.925341
 31
0.000000
  0
LINE
  8
LAYER-1
 62
  0
 10
2.780480
 20
6.655187
 30
0.000000
 11
2.916566
 21
6.892921
 31
0.000000
  0
LINE
  8
LAYER-1
 62
  0
 10
3.133904
 20
6.687607
 30
0.000000
 11
3.269991
 21
6.925341
 31
0.000000
  0
LINE
  8
LAYER-1
 62
  0
 10
3.190539
 20
6.655187
 30
0.000000
 11
3.326626
 21
6.892921
 31
0.000000
  0
LINE
  8
LAYER-1
 62
  0
 10
4.622105
 20
6.687606
 30
0.000000
 11
4.758190
 21
6.925341
 31
0.000000
  0
LINE
  8
LAYER-1
 62
  0
 10
4.678741
 20
6.655187
 30
0.000000
 11
4.814826
 21
6.892921
 31
0.000000
  0
LINE
  8
LAYER-1
 62
  0
 10
5.032168
 20
6.687606
 30
0.000000
 11
5.168253
 21
6.925341
 31
0.000000
  0
LINE
  8
LAYER-1
 62
  0
 10
5.088804
 20
6.655187
 30
0.000000
 11
5.224889
 21
6.892921
 31
0.000000
  0
LINE
  8
LAYER-1
 62
  0
 10
5.442229
 20
6.687606
 30
0.000000
 11
5.578315
 21
6.925341
 31
0.000000
  0
LINE
  8
LAYER-1
 62
  0
 10
5.498865
 20
6.655187
 30
0.000000
 11
5.634951
 21
6.892921
 31
0.000000
  0
LINE
  8
LAYER-1
 62
  0
 10
4.217203
 20
6.687607
 30
0.000000
 11
4.353292
 21
6.925341
 31
0.000000
  0
LINE
  8
LAYER-1
 62
  0
 10
4.273839
 20
6.655187
 30
0.000000
 11
4.409928
 21
6.892921
 31
0.000000
  0
LINE
  8
LAYER-1
 62
  0
 10
1.904080
 20
4.300492
 30
0.000000
 11
2.040170
 21
4.538227
 31
0.000000
  0
LINE
  8
LAYER-1
 62
  0
 10
1.960715
 20
4.268071
 30
0.000000
 11
2.096805
 21
4.505806
 31
0.000000
  0
LINE
  8
LAYER-1
 62
  0
 10
2.314142
 20
4.300492
 30
0.000000
 11
2.450232
 21
4.538227
 31
0.000000
  0
LINE
  8
LAYER-1
 62
  0
 10
2.370777
 20
4.268071
 30
0.000000
 11
2.506868
 21
4.505806
 31
0.000000
  0
LINE
  8
LAYER-1
 62
  0
 10
2.724206
 20
4.300491
 30
0.000000
 11
2.860291
 21
4.538226
 31
0.000000
  0
LINE
  8
LAYER-1
 62
  0
 10
2.780841
 20
4.268071
 30
0.000000
 11
2.916927
 21
4.505806
 31
0.000000
  0
LINE
  8
LAYER-1
 62
  0
 10
3.134265
 20
4.300491
 30
0.000000
 11
3.270352
 21
4.538226
 31
0.000000
  0
LINE
  8
LAYER-1
 62
  0
 10
3.190901
 20
4.268071
 30
0.000000
 11
3.326988
 21
4.505806
 31
0.000000
  0
LINE
  8
LAYER-1
 62
  0
 10
4.622463
 20
4.300492
 30
0.000000
 11
4.758552
 21
4.538227
 31
0.000000
  0
LINE
  8
LAYER-1
 62
  0
 10
4.679099
 20
4.268071
 30
0.000000
 11
4.815188
 21
4.505806
 31
0.000000
  0
LINE
  8
LAYER-1
 62
  0
 10
5.032525
 20
4.300492
 30
0.000000
 11
5.168614
 21
4.538227
 31
0.000000
  0
LINE
  8
LAYER-1
 62
  0
 10
5.089161
 20
4.268071
 30
0.000000
 11
5.225250
 21
4.505806
 31
0.000000
  0
LINE
  8
LAYER-1
 62
  0
 10
5.442591
 20
4.300491
 30
0.000000
 11
5.578677
 21
4.538226
 31
0.000000
  0
LINE
  8
LAYER-1
 62
  0
 10
5.499227
 20
4.268071
 30
0.000000
 11
5.635312
 21
4.505806
 31
0.000000
  0
LINE
  8
LAYER-1
 62
  0
 10
4.217562
 20
4.300492
 30
0.000000
 11
4.353653
 21
4.538227
 31
0.000000
  0
LINE
  8
LAYER-1
 62
  0
 10
4.274196
 20
4.268071
 30
0.000000
 11
4.410288
 21
4.505806
 31
0.000000
  0
TEXT
  8
LAYER-1
 62
  0
 10
5.893189
 20
4.676448
 30
0.000000
 40
0.125000
  1
PVC
 72
  5
 11
6.295967
 21
4.676448
 31
0.000000
  0
TEXT
  8
LAYER-1
 62
  0
 10
5.893189
 20
4.482003
 30
0.000000
 40
0.125000
  1
protector
 72
  5
 11
6.629300
 21
4.482003
 31
0.000000
  0
POLYLINE
  8
LAYER-1
 66
  1
 70
  0
 62
  0
 10
5.830689
 20
5.502836
 30
0.000000
  0
VERTEX
  8
LAYER-1
 10
5.830689
 20
5.502836
 30
0.000000
  0
VERTEX
  8
LAYER-1
 10
5.586415
 20
5.793326
 30
0.000000
  0
SEQEND
  8
LAYER-1
  0
POLYLINE
  8
LAYER-1
 66
  1
 70
  1
 62
  0
  0
VERTEX
  8
LAYER-1
 10
5.573745
 20
5.808392
 30
0.000000
  0
VERTEX
  8
LAYER-1
 10
5.650330
 20
5.782059
 30
0.000000
  0
VERTEX
  8
LAYER-1
 10
5.618440
 20
5.755242
 30
0.000000
  0
VERTEX
  8
LAYER-1
 10
5.586550
 20
5.728425
 30
0.000000
  0
VERTEX
  8
LAYER-1
 10
5.573745
 20
5.808392
 30
0.000000
  0
SEQEND
  8
LAYER-1
  0
POLYLINE
  8
LAYER-1
 66
  1
 70
  0
 62
  0
 10
5.858467
 20
4.582698
 30
0.000000
  0
VERTEX
  8
LAYER-1
 10
5.858467
 20
4.582698
 30
0.000000
  0
VERTEX
  8
LAYER-1
 10
5.720255
 20
4.708345
 30
0.000000
  0
SEQEND
  8
LAYER-1
  0
POLYLINE
  8
LAYER-1
 66
  1
 70
  1
 62
  0
  0
VERTEX
  8
LAYER-1
 10
5.705689
 20
4.721586
 30
0.000000
  0
VERTEX
  8
LAYER-1
 10
5.785102
 20
4.705705
 30
0.000000
  0
VERTEX
  8
LAYER-1
 10
5.757075
 20
4.674873
 30
0.000000
  0
VERTEX
  8
LAYER-1
 10
5.729047
 20
4.644042
 30
0.000000
  0
VERTEX
  8
LAYER-1
 10
5.705689
 20
4.721586
 30
0.000000
  0
SEQEND
  8
LAYER-1
  0
POLYLINE
  8
LAYER-1
 66
  1
 70
  0
 62
  0
 10
0.768278
 20
0.037543
 30
0.000000
  0
VERTEX
  8
LAYER-1
 10
0.768278
 20
0.037543
 30
0.000000
  0
VERTEX
  8
LAYER-1
 10
0.794792
 20
0.034087
 30
0.000000
  0
VERTEX
  8
LAYER-1
 10
0.814150
 20
0.034087
 30
0.000000
  0
VERTEX
  8
LAYER-1
 10
0.833509
 20
0.037560
 30
0.000000
  0
VERTEX
  8
LAYER-1
 10
0.852867
 20
0.037560
 30
0.000000
  0
VERTEX
  8
LAYER-1
 10
0.899328
 20
0.044504
 30
0.000000
  0
VERTEX
  8
LAYER-1
 10
0.934173
 20
0.054921
 30
0.000000
  0
VERTEX
  8
LAYER-1
 10
0.956436
 20
0.059261
 30
0.000000
  0
VERTEX
  8
LAYER-1
 10
0.978214
 20
0.060998
 30
0.000000
  0
VERTEX
  8
LAYER-1
 10
1.007736
 20
0.058393
 30
0.000000
  0
VERTEX
  8
LAYER-1
 10
1.038709
 20
0.054921
 30
0.000000
  0
VERTEX
  8
LAYER-1
 10
1.065811
 20
0.047976
 30
0.000000
  0
VERTEX
  8
LAYER-1
 10
1.085170
 20
0.044504
 30
0.000000
  0
VERTEX
  8
LAYER-1
 10
1.116144
 20
0.041032
 30
0.000000
  0
VERTEX
  8
LAYER-1
 10
1.135502
 20
0.037560
 30
0.000000
  0
VERTEX
  8
LAYER-1
 10
1.158732
 20
0.034087
 30
0.000000
  0
VERTEX
  8
LAYER-1
 10
1.185834
 20
0.034087
 30
0.000000
  0
VERTEX
  8
LAYER-1
 10
1.212936
 20
0.034087
 30
0.000000
  0
VERTEX
  8
LAYER-1
 10
1.236167
 20
0.034087
 30
0.000000
  0
VERTEX
  8
LAYER-1
 10
1.259397
 20
0.030615
 30
0.000000
  0
VERTEX
  8
LAYER-1
 10
1.298114
 20
0.030615
 30
0.000000
  0
VERTEX
  8
LAYER-1
 10
1.329088
 20
0.030615
 30
0.000000
  0
VERTEX
  8
LAYER-1
 10
1.348446
 20
0.027143
 30
0.000000
  0
VERTEX
  8
LAYER-1
 10
1.379420
 20
0.023671
 30
0.000000
  0
VERTEX
  8
LAYER-1
 10
1.410394
 20
0.020198
 30
0.000000
  0
VERTEX
  8
LAYER-1
 10
1.449111
 20
0.020198
 30
0.000000
  0
VERTEX
  8
LAYER-1
 10
1.480085
 20
0.020198
 30
0.000000
  0
VERTEX
  8
LAYER-1
 10
1.518801
 20
0.020198
 30
0.000000
  0
VERTEX
  8
LAYER-1
 10
1.549775
 20
0.027143
 30
0.000000
  0
VERTEX
  8
LAYER-1
 10
1.573005
 20
0.027143
 30
0.000000
  0
VERTEX
  8
LAYER-1
 10
1.592364
 20
0.030615
 30
0.000000
  0
VERTEX
  8
LAYER-1
 10
1.615595
 20
0.030615
 30
0.000000
  0
VERTEX
  8
LAYER-1
 10
1.634953
 20
0.030615
 30
0.000000
  0
VERTEX
  8
LAYER-1
 10
1.677542
 20
0.030615
 30
0.000000
  0
VERTEX
  8
LAYER-1
 10
1.724002
 20
0.023671
 30
0.000000
  0
VERTEX
  8
LAYER-1
 10
1.766591
 20
0.020198
 30
0.000000
  0
VERTEX
  8
LAYER-1
 10
1.828539
 20
0.013254
 30
0.000000
  0
VERTEX
  8
LAYER-1
 10
1.886614
 20
0.006310
 30
0.000000
  0
VERTEX
  8
LAYER-1
 10
1.936946
 20
0.006310
 30
0.000000
  0
VERTEX
  8
LAYER-1
 10
1.964048
 20
0.006310
 30
0.000000
  0
VERTEX
  8
LAYER-1
 10
1.998894
 20
0.006310
 30
0.000000
  0
VERTEX
  8
LAYER-1
 10
2.019220
 20
0.007178
 30
0.000000
  0
VERTEX
  8
LAYER-1
 10
2.056485
 20
0.009348
 30
0.000000
  0
VERTEX
  8
LAYER-1
 10
2.103430
 20
0.020198
 30
0.000000
  0
VERTEX
  8
LAYER-1
 10
2.146019
 20
0.034087
 30
0.000000
  0
VERTEX
  8
LAYER-1
 10
2.180864
 20
0.044504
 30
0.000000
  0
VERTEX
  8
LAYER-1
 10
2.207966
 20
0.054921
 30
0.000000
  0
VERTEX
  8
LAYER-1
 10
2.231197
 20
0.061865
 30
0.000000
  0
VERTEX
  8
LAYER-1
 10
2.254427
 20
0.061865
 30
0.000000
  0
VERTEX
  8
LAYER-1
 10
2.277657
 20
0.061865
 30
0.000000
  0
VERTEX
  8
LAYER-1
 10
2.300887
 20
0.061865
 30
0.000000
  0
VERTEX
  8
LAYER-1
 10
2.335733
 20
0.054921
 30
0.000000
  0
VERTEX
  8
LAYER-1
 10
2.366706
 20
0.047976
 30
0.000000
  0
VERTEX
  8
LAYER-1
 10
2.389936
 20
0.041032
 30
0.000000
  0
VERTEX
  8
LAYER-1
 10
2.409295
 20
0.037560
 30
0.000000
  0
VERTEX
  8
LAYER-1
 10
2.432525
 20
0.030615
 30
0.000000
  0
VERTEX
  8
LAYER-1
 10
2.451884
 20
0.023671
 30
0.000000
  0
VERTEX
  8
LAYER-1
 10
2.475114
 20
0.020198
 30
0.000000
  0
VERTEX
  8
LAYER-1
 10
2.494473
 20
0.020198
 30
0.000000
  0
VERTEX
  8
LAYER-1
 10
2.525447
 20
0.016726
 30
0.000000
  0
VERTEX
  8
LAYER-1
 10
2.552548
 20
0.016726
 30
0.000000
  0
VERTEX
  8
LAYER-1
 10
2.587394
 20
0.016726
 30
0.000000
  0
VERTEX
  8
LAYER-1
 10
2.614496
 20
0.020198
 30
0.000000
  0
VERTEX
  8
LAYER-1
 10
2.649341
 20
0.030615
 30
0.000000
  0
VERTEX
  8
LAYER-1
 10
2.668700
 20
0.030615
 30
0.000000
  0
VERTEX
  8
LAYER-1
 10
2.691930
 20
0.030615
 30
0.000000
  0
VERTEX
  8
LAYER-1
 10
2.711289
 20
0.030615
 30
0.000000
  0
VERTEX
  8
LAYER-1
 10
2.734519
 20
0.034087
 30
0.000000
  0
VERTEX
  8
LAYER-1
 10
2.757749
 20
0.037560
 30
0.000000
  0
VERTEX
  8
LAYER-1
 10
2.788723
 20
0.037560
 30
0.000000
  0
VERTEX
  8
LAYER-1
 10
2.819696
 20
0.037560
 30
0.000000
  0
VERTEX
  8
LAYER-1
 10
2.842927
 20
0.037560
 30
0.000000
  0
VERTEX
  8
LAYER-1
 10
2.866157
 20
0.037560
 30
0.000000
  0
VERTEX
  8
LAYER-1
 10
2.885515
 20
0.034087
 30
0.000000
  0
VERTEX
  8
LAYER-1
 10
2.904874
 20
0.030615
 30
0.000000
  0
VERTEX
  8
LAYER-1
 10
2.924233
 20
0.027143
 30
0.000000
  0
VERTEX
  8
LAYER-1
 10
2.943591
 20
0.023671
 30
0.000000
  0
VERTEX
  8
LAYER-1
 10
2.974565
 20
0.016726
 30
0.000000
  0
VERTEX
  8
LAYER-1
 10
2.997795
 20
0.013254
 30
0.000000
  0
VERTEX
  8
LAYER-1
 10
3.021025
 20
0.013254
 30
0.000000
  0
VERTEX
  8
LAYER-1
 10
3.040384
 20
0.013254
 30
0.000000
  0
VERTEX
  8
LAYER-1
 10
3.067486
 20
0.013254
 30
0.000000
  0
VERTEX
  8
LAYER-1
 10
3.098460
 20
0.016726
 30
0.000000
  0
VERTEX
  8
LAYER-1
 10
3.152664
 20
0.027143
 30
0.000000
  0
VERTEX
  8
LAYER-1
 10
3.199124
 20
0.037560
 30
0.000000
  0
VERTEX
  8
LAYER-1
 10
3.241713
 20
0.044504
 30
0.000000
  0
VERTEX
  8
LAYER-1
 10
3.272687
 20
0.047976
 30
0.000000
  0
VERTEX
  8
LAYER-1
 10
3.311403
 20
0.051448
 30
0.000000
  0
VERTEX
  8
LAYER-1
 10
3.342377
 20
0.054921
 30
0.000000
  0
VERTEX
  8
LAYER-1
 10
3.368028
 20
0.055789
 30
0.000000
  0
VERTEX
  8
LAYER-1
 10
3.385450
 20
0.053619
 30
0.000000
  0
VERTEX
  8
LAYER-1
 10
3.406745
 20
0.048844
 30
0.000000
  0
VERTEX
  8
LAYER-1
 10
3.427555
 20
0.037560
 30
0.000000
  0
VERTEX
  8
LAYER-1
 10
3.450785
 20
0.034087
 30
0.000000
  0
VERTEX
  8
LAYER-1
 10
3.470144
 20
0.034087
 30
0.000000
  0
VERTEX
  8
LAYER-1
 10
3.489502
 20
0.034087
 30
0.000000
  0
VERTEX
  8
LAYER-1
 10
3.508861
 20
0.034087
 30
0.000000
  0
VERTEX
  8
LAYER-1
 10
3.539835
 20
0.034087
 30
0.000000
  0
VERTEX
  8
LAYER-1
 10
3.563065
 20
0.034087
 30
0.000000
  0
VERTEX
  8
LAYER-1
 10
3.586294
 20
0.034087
 30
0.000000
  0
VERTEX
  8
LAYER-1
 10
3.605654
 20
0.034087
 30
0.000000
  0
VERTEX
  8
LAYER-1
 10
3.628884
 20
0.034087
 30
0.000000
  0
VERTEX
  8
LAYER-1
 10
3.652114
 20
0.034087
 30
0.000000
  0
VERTEX
  8
LAYER-1
 10
3.671473
 20
0.034087
 30
0.000000
  0
VERTEX
  8
LAYER-1
 10
3.698574
 20
0.034087
 30
0.000000
  0
VERTEX
  8
LAYER-1
 10
3.721805
 20
0.030615
 30
0.000000
  0
VERTEX
  8
LAYER-1
 10
3.744067
 20
0.022803
 30
0.000000
  0
VERTEX
  8
LAYER-1
 10
3.784720
 20
0.020198
 30
0.000000
  0
VERTEX
  8
LAYER-1
 10
3.822469
 20
0.023671
 30
0.000000
  0
VERTEX
  8
LAYER-1
 10
3.841828
 20
0.030615
 30
0.000000
  0
VERTEX
  8
LAYER-1
 10
3.865058
 20
0.037560
 30
0.000000
  0
VERTEX
  8
LAYER-1
 10
3.884901
 20
0.041467
 30
0.000000
  0
VERTEX
  8
LAYER-1
 10
3.907647
 20
0.047976
 30
0.000000
  0
VERTEX
  8
LAYER-1
 10
3.930877
 20
0.047976
 30
0.000000
  0
VERTEX
  8
LAYER-1
 10
3.954108
 20
0.044504
 30
0.000000
  0
VERTEX
  8
LAYER-1
 10
3.977338
 20
0.044504
 30
0.000000
  0
VERTEX
  8
LAYER-1
 10
4.000568
 20
0.044504
 30
0.000000
  0
VERTEX
  8
LAYER-1
 10
4.019927
 20
0.041032
 30
0.000000
  0
VERTEX
  8
LAYER-1
 10
4.047029
 20
0.041032
 30
0.000000
  0
VERTEX
  8
LAYER-1
 10
4.078003
 20
0.041032
 30
0.000000
  0
VERTEX
  8
LAYER-1
 10
4.108976
 20
0.047976
 30
0.000000
  0
VERTEX
  8
LAYER-1
 10
4.128335
 20
0.051448
 30
0.000000
  0
VERTEX
  8
LAYER-1
 10
4.155437
 20
0.051448
 30
0.000000
  0
VERTEX
  8
LAYER-1
 10
4.178667
 20
0.054921
 30
0.000000
  0
VERTEX
  8
LAYER-1
 10
4.209641
 20
0.058393
 30
0.000000
  0
VERTEX
  8
LAYER-1
 10
4.232871
 20
0.058393
 30
0.000000
  0
VERTEX
  8
LAYER-1
 10
4.263845
 20
0.054921
 30
0.000000
  0
VERTEX
  8
LAYER-1
 10
4.306433
 20
0.044504
 30
0.000000
  0
VERTEX
  8
LAYER-1
 10
4.337407
 20
0.034087
 30
0.000000
  0
VERTEX
  8
LAYER-1
 10
4.372253
 20
0.023671
 30
0.000000
  0
VERTEX
  8
LAYER-1
 10
4.415326
 20
0.016725
 30
0.000000
  0
VERTEX
  8
LAYER-1
 10
4.462753
 20
0.017593
 30
0.000000
  0
VERTEX
  8
LAYER-1
 10
4.517925
 20
0.020198
 30
0.000000
  0
VERTEX
  8
LAYER-1
 10
4.585197
 20
0.020198
 30
0.000000
  0
VERTEX
  8
LAYER-1
 10
4.630689
 20
0.008913
 30
0.000000
  0
VERTEX
  8
LAYER-1
 10
4.660695
 20
0.002836
 30
0.000000
  0
VERTEX
  8
LAYER-1
 10
4.683925
 20
0.001968
 30
0.000000
  0
VERTEX
  8
LAYER-1
 10
4.718771
 20
0.001969
 30
0.000000
  0
VERTEX
  8
LAYER-1
 10
4.743937
 20
0.006310
 30
0.000000
  0
VERTEX
  8
LAYER-1
 10
4.771038
 20
0.016726
 30
0.000000
  0
VERTEX
  8
LAYER-1
 10
4.805884
 20
0.023671
 30
0.000000
  0
VERTEX
  8
LAYER-1
 10
4.832986
 20
0.030615
 30
0.000000
  0
VERTEX
  8
LAYER-1
 10
4.856216
 20
0.034087
 30
0.000000
  0
VERTEX
  8
LAYER-1
 10
4.879446
 20
0.037560
 30
0.000000
  0
VERTEX
  8
LAYER-1
 10
4.906548
 20
0.041032
 30
0.000000
  0
VERTEX
  8
LAYER-1
 10
4.933650
 20
0.047976
 30
0.000000
  0
VERTEX
  8
LAYER-1
 10
4.953009
 20
0.051448
 30
0.000000
  0
VERTEX
  8
LAYER-1
 10
4.983983
 20
0.054921
 30
0.000000
  0
VERTEX
  8
LAYER-1
 10
5.007212
 20
0.061865
 30
0.000000
  0
VERTEX
  8
LAYER-1
 10
5.030927
 20
0.072717
 30
0.000000
  0
VERTEX
  8
LAYER-1
 10
5.053673
 20
0.079226
 30
0.000000
  0
VERTEX
  8
LAYER-1
 10
5.076903
 20
0.079226
 30
0.000000
  0
VERTEX
  8
LAYER-1
 10
5.104006
 20
0.079226
 30
0.000000
  0
VERTEX
  8
LAYER-1
 10
5.131107
 20
0.079226
 30
0.000000
  0
VERTEX
  8
LAYER-1
 10
5.169825
 20
0.075754
 30
0.000000
  0
VERTEX
  8
LAYER-1
 10
5.224029
 20
0.072282
 30
0.000000
  0
VERTEX
  8
LAYER-1
 10
5.266617
 20
0.072282
 30
0.000000
  0
VERTEX
  8
LAYER-1
 10
5.297591
 20
0.072282
 30
0.000000
  0
VERTEX
  8
LAYER-1
 10
5.320822
 20
0.072282
 30
0.000000
  0
VERTEX
  8
LAYER-1
 10
5.344052
 20
0.072282
 30
0.000000
  0
VERTEX
  8
LAYER-1
 10
5.375025
 20
0.075754
 30
0.000000
  0
VERTEX
  8
LAYER-1
 10
5.413743
 20
0.075754
 30
0.000000
  0
VERTEX
  8
LAYER-1
 10
5.444716
 20
0.075754
 30
0.000000
  0
VERTEX
  8
LAYER-1
 10
5.467946
 20
0.079226
 30
0.000000
  0
VERTEX
  8
LAYER-1
 10
5.498920
 20
0.079226
 30
0.000000
  0
VERTEX
  8
LAYER-1
 10
5.518279
 20
0.079226
 30
0.000000
  0
VERTEX
  8
LAYER-1
 10
5.549252
 20
0.070546
 30
0.000000
  0
VERTEX
  8
LAYER-1
 10
5.576355
 20
0.058393
 30
0.000000
  0
VERTEX
  8
LAYER-1
 10
5.611199
 20
0.044504
 30
0.000000
  0
VERTEX
  8
LAYER-1
 10
5.638302
 20
0.037560
 30
0.000000
  0
VERTEX
  8
LAYER-1
 10
5.669275
 20
0.030615
 30
0.000000
  0
VERTEX
  8
LAYER-1
 10
5.696861
 20
0.028445
 30
0.000000
  0
VERTEX
  8
LAYER-1
 10
5.723479
 20
0.027143
 30
0.000000
  0
VERTEX
  8
LAYER-1
 10
5.746710
 20
0.030615
 30
0.000000
  0
VERTEX
  8
LAYER-1
 10
5.769939
 20
0.037560
 30
0.000000
  0
VERTEX
  8
LAYER-1
 10
5.797042
 20
0.041032
 30
0.000000
  0
VERTEX
  8
LAYER-1
 10
5.820272
 20
0.044504
 30
0.000000
  0
VERTEX
  8
LAYER-1
 10
5.843502
 20
0.047976
 30
0.000000
  0
VERTEX
  8
LAYER-1
 10
5.862861
 20
0.051448
 30
0.000000
  0
VERTEX
  8
LAYER-1
 10
5.886091
 20
0.051448
 30
0.000000
  0
VERTEX
  8
LAYER-1
 10
5.913193
 20
0.051448
 30
0.000000
  0
VERTEX
  8
LAYER-1
 10
5.933036
 20
0.054053
 30
0.000000
  0
VERTEX
  8
LAYER-1
 10
5.959654
 20
0.058393
 30
0.000000
  0
VERTEX
  8
LAYER-1
 10
5.982884
 20
0.065337
 30
0.000000
  0
VERTEX
  8
LAYER-1
 10
6.013858
 20
0.065337
 30
0.000000
  0
VERTEX
  8
LAYER-1
 10
6.044831
 20
0.065337
 30
0.000000
  0
VERTEX
  8
LAYER-1
 10
6.064190
 20
0.065337
 30
0.000000
  0
VERTEX
  8
LAYER-1
 10
6.118394
 20
0.058393
 30
0.000000
  0
VERTEX
  8
LAYER-1
 10
6.149367
 20
0.051448
 30
0.000000
  0
VERTEX
  8
LAYER-1
 10
6.168726
 20
0.047976
 30
0.000000
  0
VERTEX
  8
LAYER-1
 10
6.203571
 20
0.047976
 30
0.000000
  0
VERTEX
  8
LAYER-1
 10
6.227285
 20
0.055355
 30
0.000000
  0
VERTEX
  8
LAYER-1
 10
6.249064
 20
0.056223
 30
0.000000
  0
VERTEX
  8
LAYER-1
 10
6.300848
 20
0.063167
 30
0.000000
  0
VERTEX
  8
LAYER-1
 10
6.349244
 20
0.073150
 30
0.000000
  0
VERTEX
  8
LAYER-1
 10
6.385542
 20
0.076623
 30
0.000000
  0
VERTEX
  8
LAYER-1
 10
6.418451
 20
0.077056
 30
0.000000
  0
VERTEX
  8
LAYER-1
 10
6.435390
 20
0.072282
 30
0.000000
  0
VERTEX
  8
LAYER-1
 10
6.453781
 20
0.068810
 30
0.000000
  0
VERTEX
  8
LAYER-1
 10
6.484754
 20
0.063601
 30
0.000000
  0
VERTEX
  8
LAYER-1
 10
6.524924
 20
0.071848
 30
0.000000
  0
VERTEX
  8
LAYER-1
 10
6.540410
 20
0.079226
 30
0.000000
  0
VERTEX
  8
LAYER-1
 10
6.563641
 20
0.079226
 30
0.000000
  0
VERTEX
  8
LAYER-1
 10
6.586871
 20
0.079226
 30
0.000000
  0
VERTEX
  8
LAYER-1
 10
6.613973
 20
0.072282
 30
0.000000
  0
VERTEX
  8
LAYER-1
 10
6.637203
 20
0.058393
 30
0.000000
  0
VERTEX
  8
LAYER-1
 10
6.664305
 20
0.047976
 30
0.000000
  0
VERTEX
  8
LAYER-1
 10
6.691407
 20
0.037560
 30
0.000000
  0
VERTEX
  8
LAYER-1
 10
6.714637
 20
0.037560
 30
0.000000
  0
VERTEX
  8
LAYER-1
 10
6.744698
 20
0.037543
 30
0.000000
  0
VERTEX
  8
LAYER-1
 10
6.768841
 20
0.047976
 30
0.000000
  0
SEQEND
  8
LAYER-1
  0
TEXT
  8
LAYER-1
 62
  0
 10
1.809856
 20
8.454225
 30
0.000000
 40
0.125000
  1
TEMPERED GLASS SIDE FOLDING CLOSURE
 72
  5
 11
5.448745
 21
8.454225
 31
0.000000
  0
TEXT
  8
LAYER-1
 62
  0
 10
5.865411
 20
0.551448
 30
0.000000
 40
0.125000
  1
Dustproof
 72
  5
 11
6.684856
 21
0.551448
 31
0.000000
  0
TEXT
  8
LAYER-1
 62
  0
 10
5.865411
 20
0.357003
 30
0.000000
 40
0.125000
  1
floor socket
 72
  5
 11
6.809856
 21
0.357003
 31
0.000000
  0
POLYLINE
  8
LAYER-1
 66
  1
 70
  0
 62
  0
 10
5.851523
 20
0.468114
 30
0.000000
  0
VERTEX
  8
LAYER-1
 10
5.851523
 20
0.468114
 30
0.000000
  0
VERTEX
  8
LAYER-1
 10
3.787657
 20
0.158535
 30
0.000000
  0
SEQEND
  8
LAYER-1
  0
POLYLINE
  8
LAYER-1
 66
  1
 70
  1
 62
  0
  0
VERTEX
  8
LAYER-1
 10
3.768189
 20
0.155614
 30
0.000000
  0
VERTEX
  8
LAYER-1
 10
3.830684
 20
0.207121
 30
0.000000
  0
VERTEX
  8
LAYER-1
 10
3.836865
 20
0.165916
 30
0.000000
  0
VERTEX
  8
LAYER-1
 10
3.843046
 20
0.124710
 30
0.000000
  0
VERTEX
  8
LAYER-1
 10
3.768189
 20
0.155614
 30
0.000000
  0
SEQEND
  8
LAYER-1
  0
LINE
  8
LAYER-1
 62
  0
 10
5.910550
 20
7.416031
 30
0.000000
 11
5.910550
 21
7.147992
 31
0.000000
  0
LINE
  8
LAYER-1
 62
  0
 10
5.827429
 20
7.416031
 30
0.000000
 11
6.035550
 21
7.416031
 31
0.000000
  0
LINE
  8
LAYER-1
 62
  0
 10
5.833292
 20
7.147992
 30
0.000000
 11
6.035550
 21
7.147992
 31
0.000000
  0
LINE
  8
LAYER-1
 62
  0
 10
5.940013
 20
7.386568
 30
0.000000
 11
5.881088
 21
7.445494
 31
0.000000
  0
LINE
  8
LAYER-1
 62
  0
 10
5.940013
 20
7.118529
 30
0.000000
 11
5.881088
 21
7.177455
 31
0.000000
  0
TEXT
  8
LAYER-1
 62
  0
 10
5.786594
 20
7.273429
 30
0.000000
 40
0.125000
  1
 
 50
90.000000
  0
TEXT
  8
LAYER-1
 62
  0
 10
6.212634
 20
7.301448
 30
0.000000
 40
0.125000
  1
4"
 72
  5
 11
6.434856
 21
7.301448
 31
0.000000
  0
TEXT
  8
LAYER-1
 62
  0
 10
5.990411
 20
7.107003
 30
0.000000
 40
0.125000
  1
102mm
 72
  5
 11
6.657078
 21
7.107003
 31
0.000000
  0
LINE
  8
LAYER-1
 62
  0
 10
4.517320
 20
7.679242
 30
0.000000
 11
4.927043
 21
7.679242
 31
0.000000
  0
LINE
  8
LAYER-1
 62
  0
 10
4.517320
 20
7.309451
 30
0.000000
 11
4.517320
 21
7.804242
 31
0.000000
  0
LINE
  8
LAYER-1
 62
  0
 10
4.927043
 20
7.307715
 30
0.000000
 11
4.927043
 21
7.804242
 31
0.000000
  0
LINE
  8
LAYER-1
 62
  0
 10
4.546783
 20
7.708704
 30
0.000000
 11
4.487858
 21
7.649779
 31
0.000000
  0
LINE
  8
LAYER-1
 62
  0
 10
4.956506
 20
7.708704
 30
0.000000
 11
4.897580
 21
7.649779
 31
0.000000
  0
TEXT
  8
LAYER-1
 62
  0
 10
4.717336
 20
7.800901
 30
0.000000
 40
0.125000
  1
 
  0
TEXT
  8
LAYER-1
 62
  0
 10
4.601523
 20
8.023670
 30
0.000000
 40
0.125000
  1
6"
 72
  5
 11
4.823745
 21
8.023670
 31
0.000000
  0
TEXT
  8
LAYER-1
 62
  0
 10
4.379300
 20
7.829225
 30
0.000000
 40
0.125000
  1
152mm
 72
  5
 11
5.045967
 21
7.829225
 31
0.000000
  0
POLYLINE
  8
LAYER-1
 66
  1
 70
  0
 62
  0
 10
3.474116
 20
0.212369
 30
0.000000
  0
VERTEX
  8
LAYER-1
 10
3.474116
 20
0.212369
 30
0.000000
  0
VERTEX
  8
LAYER-1
 10
3.474116
 20
0.211180
 30
0.000000
  0
SEQEND
  8
LAYER-1
  0
POLYLINE
  8
LAYER-1
 66
  1
 70
  1
 62
  0
 10
1.302258
 20
0.117202
 30
0.000000
  0
VERTEX
  8
LAYER-1
 10
1.302258
 20
0.117202
 30
0.000000
  0
VERTEX
  8
LAYER-1
 10
1.309202
 20
0.091160
 30
0.000000
  0
VERTEX
  8
LAYER-1
 10
1.334377
 20
0.105048
 30
0.000000
  0
SEQEND
  8
LAYER-1
  0
POLYLINE
  8
LAYER-1
 66
  1
 70
  1
 62
  0
 10
1.492362
 20
0.222234
 30
0.000000
  0
VERTEX
  8
LAYER-1
 10
1.492362
 20
0.222234
 30
0.000000
  0
VERTEX
  8
LAYER-1
 10
1.479342
 20
0.199665
 30
0.000000
  0
VERTEX
  8
LAYER-1
 10
1.509724
 20
0.220497
 30
0.000000
  0
SEQEND
  8
LAYER-1
  0
POLYLINE
  8
LAYER-1
 66
  1
 70
  1
 62
  0
 10
1.138196
 20
0.158001
 30
0.000000
  0
VERTEX
  8
LAYER-1
 10
1.138196
 20
0.158001
 30
0.000000
  0
VERTEX
  8
LAYER-1
 10
1.121703
 20
0.132826
 30
0.000000
  0
VERTEX
  8
LAYER-1
 10
1.136459
 20
0.125014
 30
0.000000
  0
SEQEND
  8
LAYER-1
  0
POLYLINE
  8
LAYER-1
 66
  1
 70
  0
 62
  0
 10
1.304862
 20
0.158869
 30
0.000000
  0
VERTEX
  8
LAYER-1
 10
1.304862
 20
0.158869
 30
0.000000
  0
VERTEX
  8
LAYER-1
 10
1.300523
 20
0.158869
 30
0.000000
  0
VERTEX
  8
LAYER-1
 10
1.297050
 20
0.154528
 30
0.000000
  0
VERTEX
  8
LAYER-1
 10
1.296182
 20
0.149321
 30
0.000000
  0
VERTEX
  8
LAYER-1
 10
1.297918
 20
0.144980
 30
0.000000
  0
VERTEX
  8
LAYER-1
 10
1.302258
 20
0.143244
 30
0.000000
  0
VERTEX
  8
LAYER-1
 10
1.306598
 20
0.143244
 30
0.000000
  0
VERTEX
  8
LAYER-1
 10
1.310939
 20
0.146716
 30
0.000000
  0
VERTEX
  8
LAYER-1
 10
1.310939
 20
0.151057
 30
0.000000
  0
VERTEX
  8
LAYER-1
 10
1.310071
 20
0.155397
 30
0.000000
  0
VERTEX
  8
LAYER-1
 10
1.305730
 20
0.158001
 30
0.000000
  0
SEQEND
  8
LAYER-1
  0
POLYLINE
  8
LAYER-1
 66
  1
 70
  1
 62
  0
 10
0.942883
 20
0.197061
 30
0.000000
  0
VERTEX
  8
LAYER-1
 10
0.942883
 20
0.197061
 30
0.000000
  0
VERTEX
  8
LAYER-1
 10
0.929862
 20
0.174492
 30
0.000000
  0
VERTEX
  8
LAYER-1
 10
0.960244
 20
0.195325
 30
0.000000
  0
SEQEND
  8
LAYER-1
  0
POLYLINE
  8
LAYER-1
 66
  1
 70
  1
 62
  0
 10
1.074661
 20
0.196728
 30
0.000000
  0
VERTEX
  8
LAYER-1
 10
1.074661
 20
0.196728
 30
0.000000
  0
VERTEX
  8
LAYER-1
 10
1.061974
 20
0.177363
 30
0.000000
  0
VERTEX
  8
LAYER-1
 10
1.073326
 20
0.171353
 30
0.000000
  0
SEQEND
  8
LAYER-1
  0
POLYLINE
  8
LAYER-1
 66
  1
 70
  0
 62
  0
 10
1.432467
 20
0.177965
 30
0.000000
  0
VERTEX
  8
LAYER-1
 10
1.432467
 20
0.177965
 30
0.000000
  0
VERTEX
  8
LAYER-1
 10
1.428126
 20
0.177965
 30
0.000000
  0
VERTEX
  8
LAYER-1
 10
1.424655
 20
0.173624
 30
0.000000
  0
VERTEX
  8
LAYER-1
 10
1.423786
 20
0.168416
 30
0.000000
  0
VERTEX
  8
LAYER-1
 10
1.425522
 20
0.164076
 30
0.000000
  0
VERTEX
  8
LAYER-1
 10
1.429862
 20
0.162340
 30
0.000000
  0
VERTEX
  8
LAYER-1
 10
1.434203
 20
0.162340
 30
0.000000
  0
VERTEX
  8
LAYER-1
 10
1.438543
 20
0.165811
 30
0.000000
  0
VERTEX
  8
LAYER-1
 10
1.438543
 20
0.170152
 30
0.000000
  0
VERTEX
  8
LAYER-1
 10
1.437675
 20
0.174493
 30
0.000000
  0
VERTEX
  8
LAYER-1
 10
1.433335
 20
0.177097
 30
0.000000
  0
SEQEND
  8
LAYER-1
  0
POLYLINE
  8
LAYER-1
 66
  1
 70
  0
 62
  0
 10
1.190279
 20
0.151923
 30
0.000000
  0
VERTEX
  8
LAYER-1
 10
1.190279
 20
0.151923
 30
0.000000
  0
VERTEX
  8
LAYER-1
 10
1.185939
 20
0.151923
 30
0.000000
  0
VERTEX
  8
LAYER-1
 10
1.182466
 20
0.147583
 30
0.000000
  0
VERTEX
  8
LAYER-1
 10
1.181598
 20
0.142376
 30
0.000000
  0
VERTEX
  8
LAYER-1
 10
1.183334
 20
0.138034
 30
0.000000
  0
VERTEX
  8
LAYER-1
 10
1.187675
 20
0.136298
 30
0.000000
  0
VERTEX
  8
LAYER-1
 10
1.192016
 20
0.136298
 30
0.000000
  0
VERTEX
  8
LAYER-1
 10
1.196355
 20
0.139771
 30
0.000000
  0
VERTEX
  8
LAYER-1
 10
1.196355
 20
0.144111
 30
0.000000
  0
VERTEX
  8
LAYER-1
 10
1.195487
 20
0.148452
 30
0.000000
  0
VERTEX
  8
LAYER-1
 10
1.191147
 20
0.151055
 30
0.000000
  0
SEQEND
  8
LAYER-1
  0
POLYLINE
  8
LAYER-1
 66
  1
 70
  0
 62
  0
 10
1.026216
 20
0.144111
 30
0.000000
  0
VERTEX
  8
LAYER-1
 10
1.026216
 20
0.144111
 30
0.000000
  0
VERTEX
  8
LAYER-1
 10
1.021876
 20
0.144111
 30
0.000000
  0
VERTEX
  8
LAYER-1
 10
1.018404
 20
0.139771
 30
0.000000
  0
VERTEX
  8
LAYER-1
 10
1.017536
 20
0.134563
 30
0.000000
  0
VERTEX
  8
LAYER-1
 10
1.019272
 20
0.130222
 30
0.000000
  0
VERTEX
  8
LAYER-1
 10
1.023612
 20
0.128486
 30
0.000000
  0
VERTEX
  8
LAYER-1
 10
1.027952
 20
0.128486
 30
0.000000
  0
VERTEX
  8
LAYER-1
 10
1.032293
 20
0.131958
 30
0.000000
  0
VERTEX
  8
LAYER-1
 10
1.032293
 20
0.136298
 30
0.000000
  0
VERTEX
  8
LAYER-1
 10
1.031425
 20
0.140639
 30
0.000000
  0
VERTEX
  8
LAYER-1
 10
1.027084
 20
0.143243
 30
0.000000
  0
SEQEND
  8
LAYER-1
  0
POLYLINE
  8
LAYER-1
 66
  1
 70
  1
 62
  0
 10
1.654256
 20
0.168850
 30
0.000000
  0
VERTEX
  8
LAYER-1
 10
1.654256
 20
0.168850
 30
0.000000
  0
VERTEX
  8
LAYER-1
 10
1.628216
 20
0.161905
 30
0.000000
  0
VERTEX
  8
LAYER-1
 10
1.642103
 20
0.136732
 30
0.000000
  0
SEQEND
  8
LAYER-1
  0
POLYLINE
  8
LAYER-1
 66
  1
 70
  1
 62
  0
 10
1.715800
 20
0.109253
 30
0.000000
  0
VERTEX
  8
LAYER-1
 10
1.715800
 20
0.109253
 30
0.000000
  0
VERTEX
  8
LAYER-1
 10
1.738371
 20
0.096231
 30
0.000000
  0
VERTEX
  8
LAYER-1
 10
1.717538
 20
0.126614
 30
0.000000
  0
SEQEND
  8
LAYER-1
  0
POLYLINE
  8
LAYER-1
 66
  1
 70
  1
 62
  0
 10
1.247137
 20
0.176663
 30
0.000000
  0
VERTEX
  8
LAYER-1
 10
1.247137
 20
0.176663
 30
0.000000
  0
VERTEX
  8
LAYER-1
 10
1.221964
 20
0.193155
 30
0.000000
  0
VERTEX
  8
LAYER-1
 10
1.214152
 20
0.178398
 30
0.000000
  0
SEQEND
  8
LAYER-1
  0
POLYLINE
  8
LAYER-1
 66
  1
 70
  0
 62
  0
 10
1.665541
 20
0.205310
 30
0.000000
  0
VERTEX
  8
LAYER-1
 10
1.665541
 20
0.205310
 30
0.000000
  0
VERTEX
  8
LAYER-1
 10
1.665541
 20
0.209651
 30
0.000000
  0
VERTEX
  8
LAYER-1
 10
1.661201
 20
0.213122
 30
0.000000
  0
VERTEX
  8
LAYER-1
 10
1.655993
 20
0.213990
 30
0.000000
  0
VERTEX
  8
LAYER-1
 10
1.651652
 20
0.212254
 30
0.000000
  0
VERTEX
  8
LAYER-1
 10
1.649916
 20
0.207914
 30
0.000000
  0
VERTEX
  8
LAYER-1
 10
1.649916
 20
0.203573
 30
0.000000
  0
VERTEX
  8
LAYER-1
 10
1.653388
 20
0.199233
 30
0.000000
  0
VERTEX
  8
LAYER-1
 10
1.657729
 20
0.199233
 30
0.000000
  0
VERTEX
  8
LAYER-1
 10
1.662070
 20
0.200101
 30
0.000000
  0
VERTEX
  8
LAYER-1
 10
1.664674
 20
0.204441
 30
0.000000
  0
SEQEND
  8
LAYER-1
  0
POLYLINE
  8
LAYER-1
 66
  1
 70
  1
 62
  0
 10
1.617799
 20
0.181002
 30
0.000000
  0
VERTEX
  8
LAYER-1
 10
1.617799
 20
0.181002
 30
0.000000
  0
VERTEX
  8
LAYER-1
 10
1.595228
 20
0.194023
 30
0.000000
  0
VERTEX
  8
LAYER-1
 10
1.616061
 20
0.163641
 30
0.000000
  0
SEQEND
  8
LAYER-1
  0
POLYLINE
  8
LAYER-1
 66
  1
 70
  1
 62
  0
 10
1.265900
 20
0.193322
 30
0.000000
  0
VERTEX
  8
LAYER-1
 10
1.265900
 20
0.193322
 30
0.000000
  0
VERTEX
  8
LAYER-1
 10
1.246536
 20
0.206008
 30
0.000000
  0
VERTEX
  8
LAYER-1
 10
1.240525
 20
0.194658
 30
0.000000
  0
SEQEND
  8
LAYER-1
  0
POLYLINE
  8
LAYER-1
 66
  1
 70
  0
 62
  0
 10
1.731774
 20
0.069669
 30
0.000000
  0
VERTEX
  8
LAYER-1
 10
1.731774
 20
0.069669
 30
0.000000
  0
VERTEX
  8
LAYER-1
 10
1.731774
 20
0.065330
 30
0.000000
  0
VERTEX
  8
LAYER-1
 10
1.736114
 20
0.061857
 30
0.000000
  0
VERTEX
  8
LAYER-1
 10
1.741322
 20
0.060989
 30
0.000000
  0
VERTEX
  8
LAYER-1
 10
1.745663
 20
0.062725
 30
0.000000
  0
VERTEX
  8
LAYER-1
 10
1.747399
 20
0.067066
 30
0.000000
  0
VERTEX
  8
LAYER-1
 10
1.747399
 20
0.071406
 30
0.000000
  0
VERTEX
  8
LAYER-1
 10
1.743927
 20
0.075745
 30
0.000000
  0
VERTEX
  8
LAYER-1
 10
1.739586
 20
0.075745
 30
0.000000
  0
VERTEX
  8
LAYER-1
 10
1.735245
 20
0.074878
 30
0.000000
  0
VERTEX
  8
LAYER-1
 10
1.732641
 20
0.070537
 30
0.000000
  0
SEQEND
  8
LAYER-1
  0
POLYLINE
  8
LAYER-1
 66
  1
 70
  0
 62
  0
 10
1.241061
 20
0.124579
 30
0.000000
  0
VERTEX
  8
LAYER-1
 10
1.241061
 20
0.124579
 30
0.000000
  0
VERTEX
  8
LAYER-1
 10
1.241061
 20
0.128920
 30
0.000000
  0
VERTEX
  8
LAYER-1
 10
1.236720
 20
0.132391
 30
0.000000
  0
VERTEX
  8
LAYER-1
 10
1.231512
 20
0.133259
 30
0.000000
  0
VERTEX
  8
LAYER-1
 10
1.227172
 20
0.131523
 30
0.000000
  0
VERTEX
  8
LAYER-1
 10
1.225436
 20
0.127183
 30
0.000000
  0
VERTEX
  8
LAYER-1
 10
1.225436
 20
0.122843
 30
0.000000
  0
VERTEX
  8
LAYER-1
 10
1.228908
 20
0.118502
 30
0.000000
  0
VERTEX
  8
LAYER-1
 10
1.233248
 20
0.118502
 30
0.000000
  0
VERTEX
  8
LAYER-1
 10
1.237589
 20
0.119370
 30
0.000000
  0
VERTEX
  8
LAYER-1
 10
1.240194
 20
0.123711
 30
0.000000
  0
SEQEND
  8
LAYER-1
  0
POLYLINE
  8
LAYER-1
 66
  1
 70
  0
 62
  0
 10
1.543145
 20
0.159303
 30
0.000000
  0
VERTEX
  8
LAYER-1
 10
1.543145
 20
0.159303
 30
0.000000
  0
VERTEX
  8
LAYER-1
 10
1.543145
 20
0.163643
 30
0.000000
  0
VERTEX
  8
LAYER-1
 10
1.538804
 20
0.167115
 30
0.000000
  0
VERTEX
  8
LAYER-1
 10
1.533596
 20
0.167983
 30
0.000000
  0
VERTEX
  8
LAYER-1
 10
1.529256
 20
0.166247
 30
0.000000
  0
VERTEX
  8
LAYER-1
 10
1.527520
 20
0.161907
 30
0.000000
  0
VERTEX
  8
LAYER-1
 10
1.527520
 20
0.157566
 30
0.000000
  0
VERTEX
  8
LAYER-1
 10
1.530992
 20
0.153226
 30
0.000000
  0
VERTEX
  8
LAYER-1
 10
1.535332
 20
0.153226
 30
0.000000
  0
VERTEX
  8
LAYER-1
 10
1.539673
 20
0.154094
 30
0.000000
  0
VERTEX
  8
LAYER-1
 10
1.542278
 20
0.158435
 30
0.000000
  0
SEQEND
  8
LAYER-1
  0
POLYLINE
  8
LAYER-1
 66
  1
 70
  1
 62
  0
 10
1.762330
 20
0.151490
 30
0.000000
  0
VERTEX
  8
LAYER-1
 10
1.762330
 20
0.151490
 30
0.000000
  0
VERTEX
  8
LAYER-1
 10
1.769273
 20
0.125448
 30
0.000000
  0
VERTEX
  8
LAYER-1
 10
1.788371
 20
0.141073
 30
0.000000
  0
SEQEND
  8
LAYER-1
  0
POLYLINE
  8
LAYER-1
 66
  1
 70
  1
 62
  0
 10
1.946357
 20
0.173191
 30
0.000000
  0
VERTEX
  8
LAYER-1
 10
1.946357
 20
0.173191
 30
0.000000
  0
VERTEX
  8
LAYER-1
 10
1.933336
 20
0.150622
 30
0.000000
  0
VERTEX
  8
LAYER-1
 10
1.963718
 20
0.171455
 30
0.000000
  0
SEQEND
  8
LAYER-1
  0
POLYLINE
  8
LAYER-1
 66
  1
 70
  1
 62
  0
 10
1.996261
 20
0.071731
 30
0.000000
  0
VERTEX
  8
LAYER-1
 10
1.996261
 20
0.071731
 30
0.000000
  0
VERTEX
  8
LAYER-1
 10
1.979769
 20
0.046558
 30
0.000000
  0
VERTEX
  8
LAYER-1
 10
1.994525
 20
0.038745
 30
0.000000
  0
SEQEND
  8
LAYER-1
  0
POLYLINE
  8
LAYER-1
 66
  1
 70
  0
 62
  0
 10
1.734552
 20
0.175796
 30
0.000000
  0
VERTEX
  8
LAYER-1
 10
1.734552
 20
0.175796
 30
0.000000
  0
VERTEX
  8
LAYER-1
 10
1.730211
 20
0.175796
 30
0.000000
  0
VERTEX
  8
LAYER-1
 10
1.726739
 20
0.171455
 30
0.000000
  0
VERTEX
  8
LAYER-1
 10
1.725871
 20
0.166247
 30
0.000000
  0
VERTEX
  8
LAYER-1
 10
1.727607
 20
0.161907
 30
0.000000
  0
VERTEX
  8
LAYER-1
 10
1.731947
 20
0.160171
 30
0.000000
  0
VERTEX
  8
LAYER-1
 10
1.736288
 20
0.160171
 30
0.000000
  0
VERTEX
  8
LAYER-1
 10
1.740627
 20
0.163642
 30
0.000000
  0
VERTEX
  8
LAYER-1
 10
1.740627
 20
0.167983
 30
0.000000
  0
VERTEX
  8
LAYER-1
 10
1.739759
 20
0.172323
 30
0.000000
  0
VERTEX
  8
LAYER-1
 10
1.735419
 20
0.174928
 30
0.000000
  0
SEQEND
  8
LAYER-1
  0
POLYLINE
  8
LAYER-1
 66
  1
 70
  1
 62
  0
 10
1.771878
 20
0.108086
 30
0.000000
  0
VERTEX
  8
LAYER-1
 10
1.771878
 20
0.108086
 30
0.000000
  0
VERTEX
  8
LAYER-1
 10
1.758857
 20
0.085517
 30
0.000000
  0
VERTEX
  8
LAYER-1
 10
1.789239
 20
0.106350
 30
0.000000
  0
SEQEND
  8
LAYER-1
  0
POLYLINE
  8
LAYER-1
 66
  1
 70
  1
 62
  0
 10
2.027678
 20
0.053840
 30
0.000000
  0
VERTEX
  8
LAYER-1
 10
2.027678
 20
0.053840
 30
0.000000
  0
VERTEX
  8
LAYER-1
 10
2.040366
 20
0.073203
 30
0.000000
  0
VERTEX
  8
LAYER-1
 10
2.029014
 20
0.079215
 30
0.000000
  0
SEQEND
  8
LAYER-1
  0
POLYLINE
  8
LAYER-1
 66
  1
 70
  0
 62
  0
 10
1.926904
 20
0.054287
 30
0.000000
  0
VERTEX
  8
LAYER-1
 10
1.926904
 20
0.054287
 30
0.000000
  0
VERTEX
  8
LAYER-1
 10
1.931245
 20
0.054287
 30
0.000000
  0
VERTEX
  8
LAYER-1
 10
1.934717
 20
0.058627
 30
0.000000
  0
VERTEX
  8
LAYER-1
 10
1.935584
 20
0.063835
 30
0.000000
  0
VERTEX
  8
LAYER-1
 10
1.933848
 20
0.068175
 30
0.000000
  0
VERTEX
  8
LAYER-1
 10
1.929508
 20
0.069912
 30
0.000000
  0
VERTEX
  8
LAYER-1
 10
1.925168
 20
0.069912
 30
0.000000
  0
VERTEX
  8
LAYER-1
 10
1.920827
 20
0.066439
 30
0.000000
  0
VERTEX
  8
LAYER-1
 10
1.920827
 20
0.062099
 30
0.000000
  0
VERTEX
  8
LAYER-1
 10
1.921695
 20
0.057758
 30
0.000000
  0
VERTEX
  8
LAYER-1
 10
1.926036
 20
0.055154
 30
0.000000
  0
SEQEND
  8
LAYER-1
  0
POLYLINE
  8
LAYER-1
 66
  1
 70
  0
 62
  0
 10
1.616408
 20
0.090154
 30
0.000000
  0
VERTEX
  8
LAYER-1
 10
1.616408
 20
0.090154
 30
0.000000
  0
VERTEX
  8
LAYER-1
 10
1.620749
 20
0.090154
 30
0.000000
  0
VERTEX
  8
LAYER-1
 10
1.624220
 20
0.094495
 30
0.000000
  0
VERTEX
  8
LAYER-1
 10
1.625089
 20
0.099703
 30
0.000000
  0
VERTEX
  8
LAYER-1
 10
1.623353
 20
0.104043
 30
0.000000
  0
VERTEX
  8
LAYER-1
 10
1.619013
 20
0.105779
 30
0.000000
  0
VERTEX
  8
LAYER-1
 10
1.614672
 20
0.105779
 30
0.000000
  0
VERTEX
  8
LAYER-1
 10
1.610331
 20
0.102308
 30
0.000000
  0
VERTEX
  8
LAYER-1
 10
1.610331
 20
0.097967
 30
0.000000
  0
VERTEX
  8
LAYER-1
 10
1.611200
 20
0.093625
 30
0.000000
  0
VERTEX
  8
LAYER-1
 10
1.615541
 20
0.091022
 30
0.000000
  0
SEQEND
  8
LAYER-1
  0
POLYLINE
  8
LAYER-1
 66
  1
 70
  1
 62
  0
 10
2.111722
 20
0.156264
 30
0.000000
  0
VERTEX
  8
LAYER-1
 10
2.111722
 20
0.156264
 30
0.000000
  0
VERTEX
  8
LAYER-1
 10
2.085682
 20
0.149320
 30
0.000000
  0
VERTEX
  8
LAYER-1
 10
2.099569
 20
0.124146
 30
0.000000
  0
SEQEND
  8
LAYER-1
  0
POLYLINE
  8
LAYER-1
 66
  1
 70
  1
 62
  0
 10
1.850605
 20
0.116670
 30
0.000000
  0
VERTEX
  8
LAYER-1
 10
1.850605
 20
0.116670
 30
0.000000
  0
VERTEX
  8
LAYER-1
 10
1.828035
 20
0.129690
 30
0.000000
  0
VERTEX
  8
LAYER-1
 10
1.848867
 20
0.099308
 30
0.000000
  0
SEQEND
  8
LAYER-1
  0
POLYLINE
  8
LAYER-1
 66
  1
 70
  1
 62
  0
 10
1.880462
 20
0.039096
 30
0.000000
  0
VERTEX
  8
LAYER-1
 10
1.880462
 20
0.039096
 30
0.000000
  0
VERTEX
  8
LAYER-1
 10
1.905636
 20
0.022602
 30
0.000000
  0
VERTEX
  8
LAYER-1
 10
1.913448
 20
0.037360
 30
0.000000
  0
SEQEND
  8
LAYER-1
  0
POLYLINE
  8
LAYER-1
 66
  1
 70
  0
 62
  0
 10
2.142972
 20
0.205742
 30
0.000000
  0
VERTEX
  8
LAYER-1
 10
2.142972
 20
0.205742
 30
0.000000
  0
VERTEX
  8
LAYER-1
 10
2.142972
 20
0.210083
 30
0.000000
  0
VERTEX
  8
LAYER-1
 10
2.138631
 20
0.213554
 30
0.000000
  0
VERTEX
  8
LAYER-1
 10
2.133424
 20
0.214422
 30
0.000000
  0
VERTEX
  8
LAYER-1
 10
2.129083
 20
0.212686
 30
0.000000
  0
VERTEX
  8
LAYER-1
 10
2.127347
 20
0.208346
 30
0.000000
  0
VERTEX
  8
LAYER-1
 10
2.127347
 20
0.204007
 30
0.000000
  0
VERTEX
  8
LAYER-1
 10
2.130819
 20
0.199665
 30
0.000000
  0
VERTEX
  8
LAYER-1
 10
2.135160
 20
0.199665
 30
0.000000
  0
VERTEX
  8
LAYER-1
 10
2.139500
 20
0.200534
 30
0.000000
  0
VERTEX
  8
LAYER-1
 10
2.142105
 20
0.204874
 30
0.000000
  0
SEQEND
  8
LAYER-1
  0
POLYLINE
  8
LAYER-1
 66
  1
 70
  1
 62
  0
 10
2.075264
 20
0.168416
 30
0.000000
  0
VERTEX
  8
LAYER-1
 10
2.075264
 20
0.168416
 30
0.000000
  0
VERTEX
  8
LAYER-1
 10
2.052694
 20
0.181438
 30
0.000000
  0
VERTEX
  8
LAYER-1
 10
2.073527
 20
0.151055
 30
0.000000
  0
SEQEND
  8
LAYER-1
  0
POLYLINE
  8
LAYER-1
 66
  1
 70
  1
 62
  0
 10
0.844026
 20
0.205041
 30
0.000000
  0
VERTEX
  8
LAYER-1
 10
0.844026
 20
0.205041
 30
0.000000
  0
VERTEX
  8
LAYER-1
 10
0.824662
 20
0.217727
 30
0.000000
  0
VERTEX
  8
LAYER-1
 10
0.818650
 20
0.206377
 30
0.000000
  0
SEQEND
  8
LAYER-1
  0
POLYLINE
  8
LAYER-1
 66
  1
 70
  0
 62
  0
 10
1.854944
 20
0.176565
 30
0.000000
  0
VERTEX
  8
LAYER-1
 10
1.854944
 20
0.176565
 30
0.000000
  0
VERTEX
  8
LAYER-1
 10
1.854944
 20
0.180905
 30
0.000000
  0
VERTEX
  8
LAYER-1
 10
1.850603
 20
0.184378
 30
0.000000
  0
VERTEX
  8
LAYER-1
 10
1.845395
 20
0.185246
 30
0.000000
  0
VERTEX
  8
LAYER-1
 10
1.841055
 20
0.183510
 30
0.000000
  0
VERTEX
  8
LAYER-1
 10
1.839319
 20
0.179170
 30
0.000000
  0
VERTEX
  8
LAYER-1
 10
1.839319
 20
0.174828
 30
0.000000
  0
VERTEX
  8
LAYER-1
 10
1.842791
 20
0.170489
 30
0.000000
  0
VERTEX
  8
LAYER-1
 10
1.847131
 20
0.170489
 30
0.000000
  0
VERTEX
  8
LAYER-1
 10
1.851472
 20
0.171357
 30
0.000000
  0
VERTEX
  8
LAYER-1
 10
1.854077
 20
0.175697
 30
0.000000
  0
SEQEND
  8
LAYER-1
  0
POLYLINE
  8
LAYER-1
 66
  1
 70
  0
 62
  0
 10
0.820923
 20
0.138034
 30
0.000000
  0
VERTEX
  8
LAYER-1
 10
0.820923
 20
0.138034
 30
0.000000
  0
VERTEX
  8
LAYER-1
 10
0.820923
 20
0.142374
 30
0.000000
  0
VERTEX
  8
LAYER-1
 10
0.816582
 20
0.145846
 30
0.000000
  0
VERTEX
  8
LAYER-1
 10
0.811374
 20
0.146714
 30
0.000000
  0
VERTEX
  8
LAYER-1
 10
0.807034
 20
0.144978
 30
0.000000
  0
VERTEX
  8
LAYER-1
 10
0.805298
 20
0.140638
 30
0.000000
  0
VERTEX
  8
LAYER-1
 10
0.805298
 20
0.136297
 30
0.000000
  0
VERTEX
  8
LAYER-1
 10
0.808769
 20
0.131957
 30
0.000000
  0
VERTEX
  8
LAYER-1
 10
0.813110
 20
0.131957
 30
0.000000
  0
VERTEX
  8
LAYER-1
 10
0.817451
 20
0.132825
 30
0.000000
  0
VERTEX
  8
LAYER-1
 10
0.820056
 20
0.137165
 30
0.000000
  0
SEQEND
  8
LAYER-1
  0
POLYLINE
  8
LAYER-1
 66
  1
 70
  0
 62
  0
 10
1.943319
 20
0.205739
 30
0.000000
  0
VERTEX
  8
LAYER-1
 10
1.943319
 20
0.205739
 30
0.000000
  0
VERTEX
  8
LAYER-1
 10
1.943319
 20
0.210080
 30
0.000000
  0
VERTEX
  8
LAYER-1
 10
1.938978
 20
0.213552
 30
0.000000
  0
VERTEX
  8
LAYER-1
 10
1.933770
 20
0.214420
 30
0.000000
  0
VERTEX
  8
LAYER-1
 10
1.929430
 20
0.212684
 30
0.000000
  0
VERTEX
  8
LAYER-1
 10
1.927694
 20
0.208343
 30
0.000000
  0
VERTEX
  8
LAYER-1
 10
1.927694
 20
0.204003
 30
0.000000
  0
VERTEX
  8
LAYER-1
 10
1.931166
 20
0.199663
 30
0.000000
  0
VERTEX
  8
LAYER-1
 10
1.935506
 20
0.199663
 30
0.000000
  0
VERTEX
  8
LAYER-1
 10
1.939847
 20
0.200530
 30
0.000000
  0
VERTEX
  8
LAYER-1
 10
1.942452
 20
0.204871
 30
0.000000
  0
SEQEND
  8
LAYER-1
  0
POLYLINE
  8
LAYER-1
 66
  1
 70
  1
 62
  0
 10
1.502606
 20
0.070274
 30
0.000000
  0
VERTEX
  8
LAYER-1
 10
1.502606
 20
0.070274
 30
0.000000
  0
VERTEX
  8
LAYER-1
 10
1.476565
 20
0.063329
 30
0.000000
  0
VERTEX
  8
LAYER-1
 10
1.490453
 20
0.038156
 30
0.000000
  0
SEQEND
  8
LAYER-1
  0
POLYLINE
  8
LAYER-1
 66
  1
 70
  1
 62
  0
 10
2.349134
 20
0.133695
 30
0.000000
  0
VERTEX
  8
LAYER-1
 10
2.349134
 20
0.133695
 30
0.000000
  0
VERTEX
  8
LAYER-1
 10
2.371704
 20
0.120673
 30
0.000000
  0
VERTEX
  8
LAYER-1
 10
2.350871
 20
0.151055
 30
0.000000
  0
SEQEND
  8
LAYER-1
  0
POLYLINE
  8
LAYER-1
 66
  1
 70
  1
 62
  0
 10
0.958508
 20
0.150621
 30
0.000000
  0
VERTEX
  8
LAYER-1
 10
0.958508
 20
0.150621
 30
0.000000
  0
VERTEX
  8
LAYER-1
 10
0.983683
 20
0.134128
 30
0.000000
  0
VERTEX
  8
LAYER-1
 10
0.991495
 20
0.148885
 30
0.000000
  0
SEQEND
  8
LAYER-1
  0
POLYLINE
  8
LAYER-1
 66
  1
 70
  0
 62
  0
 10
2.277086
 20
0.180567
 30
0.000000
  0
VERTEX
  8
LAYER-1
 10
2.277086
 20
0.180567
 30
0.000000
  0
VERTEX
  8
LAYER-1
 10
2.277086
 20
0.176226
 30
0.000000
  0
VERTEX
  8
LAYER-1
 10
2.281427
 20
0.172754
 30
0.000000
  0
VERTEX
  8
LAYER-1
 10
2.286634
 20
0.171886
 30
0.000000
  0
VERTEX
  8
LAYER-1
 10
2.290975
 20
0.173622
 30
0.000000
  0
VERTEX
  8
LAYER-1
 10
2.292711
 20
0.177963
 30
0.000000
  0
VERTEX
  8
LAYER-1
 10
2.292711
 20
0.182303
 30
0.000000
  0
VERTEX
  8
LAYER-1
 10
2.289239
 20
0.186644
 30
0.000000
  0
VERTEX
  8
LAYER-1
 10
2.284899
 20
0.186644
 30
0.000000
  0
VERTEX
  8
LAYER-1
 10
2.280558
 20
0.185776
 30
0.000000
  0
VERTEX
  8
LAYER-1
 10
2.277954
 20
0.181435
 30
0.000000
  0
SEQEND
  8
LAYER-1
  0
POLYLINE
  8
LAYER-1
 66
  1
 70
  1
 62
  0
 10
2.226738
 20
0.191853
 30
0.000000
  0
VERTEX
  8
LAYER-1
 10
2.226738
 20
0.191853
 30
0.000000
  0
VERTEX
  8
LAYER-1
 10
2.249308
 20
0.178832
 30
0.000000
  0
VERTEX
  8
LAYER-1
 10
2.228475
 20
0.209214
 30
0.000000
  0
SEQEND
  8
LAYER-1
  0
POLYLINE
  8
LAYER-1
 66
  1
 70
  1
 62
  0
 10
0.957107
 20
0.098371
 30
0.000000
  0
VERTEX
  8
LAYER-1
 10
0.957107
 20
0.098371
 30
0.000000
  0
VERTEX
  8
LAYER-1
 10
0.976472
 20
0.085685
 30
0.000000
  0
VERTEX
  8
LAYER-1
 10
0.982482
 20
0.097035
 30
0.000000
  0
SEQEND
  8
LAYER-1
  0
POLYLINE
  8
LAYER-1
 66
  1
 70
  0
 62
  0
 10
1.683249
 20
0.050656
 30
0.000000
  0
VERTEX
  8
LAYER-1
 10
1.683249
 20
0.050656
 30
0.000000
  0
VERTEX
  8
LAYER-1
 10
1.683249
 20
0.054996
 30
0.000000
  0
VERTEX
  8
LAYER-1
 10
1.678908
 20
0.058468
 30
0.000000
  0
VERTEX
  8
LAYER-1
 10
1.673700
 20
0.059336
 30
0.000000
  0
VERTEX
  8
LAYER-1
 10
1.669360
 20
0.057600
 30
0.000000
  0
VERTEX
  8
LAYER-1
 10
1.667624
 20
0.053260
 30
0.000000
  0
VERTEX
  8
LAYER-1
 10
1.667624
 20
0.048919
 30
0.000000
  0
VERTEX
  8
LAYER-1
 10
1.671095
 20
0.044579
 30
0.000000
  0
VERTEX
  8
LAYER-1
 10
1.675436
 20
0.044579
 30
0.000000
  0
VERTEX
  8
LAYER-1
 10
1.679777
 20
0.045447
 30
0.000000
  0
VERTEX
  8
LAYER-1
 10
1.682381
 20
0.049788
 30
0.000000
  0
SEQEND
  8
LAYER-1
  0
POLYLINE
  8
LAYER-1
 66
  1
 70
  0
 62
  0
 10
2.488891
 20
0.133695
 30
0.000000
  0
VERTEX
  8
LAYER-1
 10
2.488891
 20
0.133695
 30
0.000000
  0
VERTEX
  8
LAYER-1
 10
2.488891
 20
0.129354
 30
0.000000
  0
VERTEX
  8
LAYER-1
 10
2.493232
 20
0.125882
 30
0.000000
  0
VERTEX
  8
LAYER-1
 10
2.498440
 20
0.125014
 30
0.000000
  0
VERTEX
  8
LAYER-1
 10
2.502781
 20
0.126751
 30
0.000000
  0
VERTEX
  8
LAYER-1
 10
2.504517
 20
0.131090
 30
0.000000
  0
VERTEX
  8
LAYER-1
 10
2.504517
 20
0.135430
 30
0.000000
  0
VERTEX
  8
LAYER-1
 10
2.501045
 20
0.139771
 30
0.000000
  0
VERTEX
  8
LAYER-1
 10
2.496704
 20
0.139771
 30
0.000000
  0
VERTEX
  8
LAYER-1
 10
2.492363
 20
0.138902
 30
0.000000
  0
VERTEX
  8
LAYER-1
 10
2.489759
 20
0.134563
 30
0.000000
  0
SEQEND
  8
LAYER-1
  0
POLYLINE
  8
LAYER-1
 66
  1
 70
  0
 62
  0
 10
2.323093
 20
0.188382
 30
0.000000
  0
VERTEX
  8
LAYER-1
 10
2.323093
 20
0.188382
 30
0.000000
  0
VERTEX
  8
LAYER-1
 10
2.323093
 20
0.184041
 30
0.000000
  0
VERTEX
  8
LAYER-1
 10
2.327434
 20
0.180570
 30
0.000000
  0
VERTEX
  8
LAYER-1
 10
2.332641
 20
0.179702
 30
0.000000
  0
VERTEX
  8
LAYER-1
 10
2.336982
 20
0.181438
 30
0.000000
  0
VERTEX
  8
LAYER-1
 10
2.338718
 20
0.185777
 30
0.000000
  0
VERTEX
  8
LAYER-1
 10
2.338718
 20
0.190118
 30
0.000000
  0
VERTEX
  8
LAYER-1
 10
2.335246
 20
0.194459
 30
0.000000
  0
VERTEX
  8
LAYER-1
 10
2.330905
 20
0.194459
 30
0.000000
  0
VERTEX
  8
LAYER-1
 10
2.326565
 20
0.193590
 30
0.000000
  0
VERTEX
  8
LAYER-1
 10
2.323960
 20
0.189251
 30
0.000000
  0
SEQEND
  8
LAYER-1
  0
POLYLINE
  8
LAYER-1
 66
  1
 70
  1
 62
  0
 10
2.085246
 20
0.105483
 30
0.000000
  0
VERTEX
  8
LAYER-1
 10
2.085246
 20
0.105483
 30
0.000000
  0
VERTEX
  8
LAYER-1
 10
2.092191
 20
0.079442
 30
0.000000
  0
VERTEX
  8
LAYER-1
 10
2.117364
 20
0.093330
 30
0.000000
  0
SEQEND
  8
LAYER-1
  0
POLYLINE
  8
LAYER-1
 66
  1
 70
  1
 62
  0
 10
2.189761
 20
0.092725
 30
0.000000
  0
VERTEX
  8
LAYER-1
 10
2.189761
 20
0.092725
 30
0.000000
  0
VERTEX
  8
LAYER-1
 10
2.176739
 20
0.070155
 30
0.000000
  0
VERTEX
  8
LAYER-1
 10
2.207122
 20
0.090987
 30
0.000000
  0
SEQEND
  8
LAYER-1
  0
POLYLINE
  8
LAYER-1
 66
  1
 70
  1
 62
  0
 10
1.905725
 20
0.123180
 30
0.000000
  0
VERTEX
  8
LAYER-1
 10
1.905725
 20
0.123180
 30
0.000000
  0
VERTEX
  8
LAYER-1
 10
1.889232
 20
0.098007
 30
0.000000
  0
VERTEX
  8
LAYER-1
 10
1.903989
 20
0.090195
 30
0.000000
  0
SEQEND
  8
LAYER-1
  0
POLYLINE
  8
LAYER-1
 66
  1
 70
  0
 62
  0
 10
2.035767
 20
0.136733
 30
0.000000
  0
VERTEX
  8
LAYER-1
 10
2.035767
 20
0.136733
 30
0.000000
  0
VERTEX
  8
LAYER-1
 10
2.031427
 20
0.136733
 30
0.000000
  0
VERTEX
  8
LAYER-1
 10
2.027955
 20
0.132392
 30
0.000000
  0
VERTEX
  8
LAYER-1
 10
2.027087
 20
0.127185
 30
0.000000
  0
VERTEX
  8
LAYER-1
 10
2.028823
 20
0.122844
 30
0.000000
  0
VERTEX
  8
LAYER-1
 10
2.033163
 20
0.121108
 30
0.000000
  0
VERTEX
  8
LAYER-1
 10
2.037503
 20
0.121108
 30
0.000000
  0
VERTEX
  8
LAYER-1
 10
2.041844
 20
0.124580
 30
0.000000
  0
VERTEX
  8
LAYER-1
 10
2.041844
 20
0.128921
 30
0.000000
  0
VERTEX
  8
LAYER-1
 10
2.040976
 20
0.133261
 30
0.000000
  0
VERTEX
  8
LAYER-1
 10
2.036635
 20
0.135866
 30
0.000000
  0
SEQEND
  8
LAYER-1
  0
POLYLINE
  8
LAYER-1
 66
  1
 70
  1
 62
  0
 10
0.893405
 20
0.213121
 30
0.000000
  0
VERTEX
  8
LAYER-1
 10
0.893405
 20
0.213121
 30
0.000000
  0
VERTEX
  8
LAYER-1
 10
0.880384
 20
0.190551
 30
0.000000
  0
VERTEX
  8
LAYER-1
 10
0.910766
 20
0.211383
 30
0.000000
  0
SEQEND
  8
LAYER-1
  0
POLYLINE
  8
LAYER-1
 66
  1
 70
  1
 62
  0
 10
1.890802
 20
0.155830
 30
0.000000
  0
VERTEX
  8
LAYER-1
 10
1.890802
 20
0.155830
 30
0.000000
  0
VERTEX
  8
LAYER-1
 10
1.878115
 20
0.136466
 30
0.000000
  0
VERTEX
  8
LAYER-1
 10
1.889466
 20
0.130454
 30
0.000000
  0
SEQEND
  8
LAYER-1
  0
POLYLINE
  8
LAYER-1
 66
  1
 70
  0
 62
  0
 10
2.187677
 20
0.138469
 30
0.000000
  0
VERTEX
  8
LAYER-1
 10
2.187677
 20
0.138469
 30
0.000000
  0
VERTEX
  8
LAYER-1
 10
2.183337
 20
0.138469
 30
0.000000
  0
VERTEX
  8
LAYER-1
 10
2.179864
 20
0.134128
 30
0.000000
  0
VERTEX
  8
LAYER-1
 10
2.178996
 20
0.128921
 30
0.000000
  0
VERTEX
  8
LAYER-1
 10
2.180732
 20
0.124580
 30
0.000000
  0
VERTEX
  8
LAYER-1
 10
2.185073
 20
0.122844
 30
0.000000
  0
VERTEX
  8
LAYER-1
 10
2.189413
 20
0.122844
 30
0.000000
  0
VERTEX
  8
LAYER-1
 10
2.193753
 20
0.126316
 30
0.000000
  0
VERTEX
  8
LAYER-1
 10
2.193753
 20
0.130657
 30
0.000000
  0
VERTEX
  8
LAYER-1
 10
2.192885
 20
0.134997
 30
0.000000
  0
VERTEX
  8
LAYER-1
 10
2.188545
 20
0.137602
 30
0.000000
  0
SEQEND
  8
LAYER-1
  0
POLYLINE
  8
LAYER-1
 66
  1
 70
  0
 62
  0
 10
2.247573
 20
0.143677
 30
0.000000
  0
VERTEX
  8
LAYER-1
 10
2.247573
 20
0.143677
 30
0.000000
  0
VERTEX
  8
LAYER-1
 10
2.243232
 20
0.143677
 30
0.000000
  0
VERTEX
  8
LAYER-1
 10
2.239760
 20
0.139336
 30
0.000000
  0
VERTEX
  8
LAYER-1
 10
2.238892
 20
0.134128
 30
0.000000
  0
VERTEX
  8
LAYER-1
 10
2.240628
 20
0.129788
 30
0.000000
  0
VERTEX
  8
LAYER-1
 10
2.244969
 20
0.128052
 30
0.000000
  0
VERTEX
  8
LAYER-1
 10
2.249309
 20
0.128052
 30
0.000000
  0
VERTEX
  8
LAYER-1
 10
2.253649
 20
0.131523
 30
0.000000
  0
VERTEX
  8
LAYER-1
 10
2.253649
 20
0.135864
 30
0.000000
  0
VERTEX
  8
LAYER-1
 10
2.252782
 20
0.140205
 30
0.000000
  0
VERTEX
  8
LAYER-1
 10
2.248441
 20
0.142810
 30
0.000000
  0
SEQEND
  8
LAYER-1
  0
POLYLINE
  8
LAYER-1
 66
  1
 70
  0
 62
  0
 10
0.903822
 20
0.130655
 30
0.000000
  0
VERTEX
  8
LAYER-1
 10
0.903822
 20
0.130655
 30
0.000000
  0
VERTEX
  8
LAYER-1
 10
0.899481
 20
0.130655
 30
0.000000
  0
VERTEX
  8
LAYER-1
 10
0.896009
 20
0.126315
 30
0.000000
  0
VERTEX
  8
LAYER-1
 10
0.895141
 20
0.121107
 30
0.000000
  0
VERTEX
  8
LAYER-1
 10
0.896877
 20
0.116766
 30
0.000000
  0
VERTEX
  8
LAYER-1
 10
0.901218
 20
0.115030
 30
0.000000
  0
VERTEX
  8
LAYER-1
 10
0.905558
 20
0.115030
 30
0.000000
  0
VERTEX
  8
LAYER-1
 10
0.909898
 20
0.118502
 30
0.000000
  0
VERTEX
  8
LAYER-1
 10
0.909898
 20
0.122843
 30
0.000000
  0
VERTEX
  8
LAYER-1
 10
0.909030
 20
0.127184
 30
0.000000
  0
VERTEX
  8
LAYER-1
 10
0.904690
 20
0.129789
 30
0.000000
  0
SEQEND
  8
LAYER-1
  0
POLYLINE
  8
LAYER-1
 66
  1
 70
  1
 62
  0
 10
2.554864
 20
0.170586
 30
0.000000
  0
VERTEX
  8
LAYER-1
 10
2.554864
 20
0.170586
 30
0.000000
  0
VERTEX
  8
LAYER-1
 10
2.561809
 20
0.144545
 30
0.000000
  0
VERTEX
  8
LAYER-1
 10
2.586983
 20
0.158433
 30
0.000000
  0
SEQEND
  8
LAYER-1
  0
POLYLINE
  8
LAYER-1
 66
  1
 70
  1
 62
  0
 10
2.717191
 20
0.199232
 30
0.000000
  0
VERTEX
  8
LAYER-1
 10
2.717191
 20
0.199232
 30
0.000000
  0
VERTEX
  8
LAYER-1
 10
2.704170
 20
0.176663
 30
0.000000
  0
VERTEX
  8
LAYER-1
 10
2.734552
 20
0.197495
 30
0.000000
  0
SEQEND
  8
LAYER-1
  0
POLYLINE
  8
LAYER-1
 66
  1
 70
  1
 62
  0
 10
1.393405
 20
0.150186
 30
0.000000
  0
VERTEX
  8
LAYER-1
 10
1.393405
 20
0.150186
 30
0.000000
  0
VERTEX
  8
LAYER-1
 10
1.376912
 20
0.125013
 30
0.000000
  0
VERTEX
  8
LAYER-1
 10
1.391669
 20
0.117200
 30
0.000000
  0
SEQEND
  8
LAYER-1
  0
POLYLINE
  8
LAYER-1
 66
  1
 70
  0
 62
  0
 10
2.505386
 20
0.201836
 30
0.000000
  0
VERTEX
  8
LAYER-1
 10
2.505386
 20
0.201836
 30
0.000000
  0
VERTEX
  8
LAYER-1
 10
2.501045
 20
0.201836
 30
0.000000
  0
VERTEX
  8
LAYER-1
 10
2.497573
 20
0.197495
 30
0.000000
  0
VERTEX
  8
LAYER-1
 10
2.496704
 20
0.192288
 30
0.000000
  0
VERTEX
  8
LAYER-1
 10
2.498441
 20
0.187947
 30
0.000000
  0
VERTEX
  8
LAYER-1
 10
2.502781
 20
0.186211
 30
0.000000
  0
VERTEX
  8
LAYER-1
 10
2.507122
 20
0.186211
 30
0.000000
  0
VERTEX
  8
LAYER-1
 10
2.511462
 20
0.189683
 30
0.000000
  0
VERTEX
  8
LAYER-1
 10
2.511462
 20
0.194023
 30
0.000000
  0
VERTEX
  8
LAYER-1
 10
2.510593
 20
0.198364
 30
0.000000
  0
VERTEX
  8
LAYER-1
 10
2.506254
 20
0.200968
 30
0.000000
  0
SEQEND
  8
LAYER-1
  0
POLYLINE
  8
LAYER-1
 66
  1
 70
  1
 62
  0
 10
2.542712
 20
0.134127
 30
0.000000
  0
VERTEX
  8
LAYER-1
 10
2.542712
 20
0.134127
 30
0.000000
  0
VERTEX
  8
LAYER-1
 10
2.529691
 20
0.111558
 30
0.000000
  0
VERTEX
  8
LAYER-1
 10
2.560073
 20
0.132390
 30
0.000000
  0
SEQEND
  8
LAYER-1
  0
POLYLINE
  8
LAYER-1
 66
  1
 70
  1
 62
  0
 10
1.101638
 20
0.224498
 30
0.000000
  0
VERTEX
  8
LAYER-1
 10
1.101638
 20
0.224498
 30
0.000000
  0
VERTEX
  8
LAYER-1
 10
1.121003
 20
0.211813
 30
0.000000
  0
VERTEX
  8
LAYER-1
 10
1.127013
 20
0.223162
 30
0.000000
  0
SEQEND
  8
LAYER-1
  0
POLYLINE
  8
LAYER-1
 66
  1
 70
  0
 62
  0
 10
2.657295
 20
0.203572
 30
0.000000
  0
VERTEX
  8
LAYER-1
 10
2.657295
 20
0.203572
 30
0.000000
  0
VERTEX
  8
LAYER-1
 10
2.652954
 20
0.203572
 30
0.000000
  0
VERTEX
  8
LAYER-1
 10
2.649483
 20
0.199231
 30
0.000000
  0
VERTEX
  8
LAYER-1
 10
2.648614
 20
0.194023
 30
0.000000
  0
VERTEX
  8
LAYER-1
 10
2.650350
 20
0.189683
 30
0.000000
  0
VERTEX
  8
LAYER-1
 10
2.654691
 20
0.187947
 30
0.000000
  0
VERTEX
  8
LAYER-1
 10
2.659031
 20
0.187947
 30
0.000000
  0
VERTEX
  8
LAYER-1
 10
2.663372
 20
0.191419
 30
0.000000
  0
VERTEX
  8
LAYER-1
 10
2.663372
 20
0.195759
 30
0.000000
  0
VERTEX
  8
LAYER-1
 10
2.662504
 20
0.200100
 30
0.000000
  0
VERTEX
  8
LAYER-1
 10
2.658163
 20
0.202704
 30
0.000000
  0
SEQEND
  8
LAYER-1
  0
POLYLINE
  8
LAYER-1
 66
  1
 70
  0
 62
  0
 10
1.445489
 20
0.144110
 30
0.000000
  0
VERTEX
  8
LAYER-1
 10
1.445489
 20
0.144110
 30
0.000000
  0
VERTEX
  8
LAYER-1
 10
1.441148
 20
0.144110
 30
0.000000
  0
VERTEX
  8
LAYER-1
 10
1.437676
 20
0.139770
 30
0.000000
  0
VERTEX
  8
LAYER-1
 10
1.436808
 20
0.134561
 30
0.000000
  0
VERTEX
  8
LAYER-1
 10
1.438544
 20
0.130221
 30
0.000000
  0
VERTEX
  8
LAYER-1
 10
1.442884
 20
0.128485
 30
0.000000
  0
VERTEX
  8
LAYER-1
 10
1.447225
 20
0.128485
 30
0.000000
  0
VERTEX
  8
LAYER-1
 10
1.451564
 20
0.131957
 30
0.000000
  0
VERTEX
  8
LAYER-1
 10
1.451564
 20
0.136297
 30
0.000000
  0
VERTEX
  8
LAYER-1
 10
1.450697
 20
0.140639
 30
0.000000
  0
VERTEX
  8
LAYER-1
 10
1.446357
 20
0.143242
 30
0.000000
  0
SEQEND
  8
LAYER-1
  0
POLYLINE
  8
LAYER-1
 66
  1
 70
  0
 62
  0
 10
1.028822
 20
0.120672
 30
0.000000
  0
VERTEX
  8
LAYER-1
 10
1.028822
 20
0.120672
 30
0.000000
  0
VERTEX
  8
LAYER-1
 10
1.024481
 20
0.120672
 30
0.000000
  0
VERTEX
  8
LAYER-1
 10
1.021009
 20
0.116332
 30
0.000000
  0
VERTEX
  8
LAYER-1
 10
1.020141
 20
0.111124
 30
0.000000
  0
VERTEX
  8
LAYER-1
 10
1.021877
 20
0.106784
 30
0.000000
  0
VERTEX
  8
LAYER-1
 10
1.026217
 20
0.105047
 30
0.000000
  0
VERTEX
  8
LAYER-1
 10
1.030558
 20
0.105047
 30
0.000000
  0
VERTEX
  8
LAYER-1
 10
1.034897
 20
0.108520
 30
0.000000
  0
VERTEX
  8
LAYER-1
 10
1.034897
 20
0.112860
 30
0.000000
  0
VERTEX
  8
LAYER-1
 10
1.034029
 20
0.117201
 30
0.000000
  0
VERTEX
  8
LAYER-1
 10
1.029690
 20
0.119804
 30
0.000000
  0
SEQEND
  8
LAYER-1
  0
POLYLINE
  8
LAYER-1
 66
  1
 70
  1
 62
  0
 10
2.996704
 20
0.194891
 30
0.000000
  0
VERTEX
  8
LAYER-1
 10
2.996704
 20
0.194891
 30
0.000000
  0
VERTEX
  8
LAYER-1
 10
3.003649
 20
0.168851
 30
0.000000
  0
VERTEX
  8
LAYER-1
 10
3.028822
 20
0.182738
 30
0.000000
  0
SEQEND
  8
LAYER-1
  0
POLYLINE
  8
LAYER-1
 66
  1
 70
  1
 62
  0
 10
3.159030
 20
0.223539
 30
0.000000
  0
VERTEX
  8
LAYER-1
 10
3.159030
 20
0.223539
 30
0.000000
  0
VERTEX
  8
LAYER-1
 10
3.146010
 20
0.200968
 30
0.000000
  0
VERTEX
  8
LAYER-1
 10
3.176392
 20
0.221801
 30
0.000000
  0
SEQEND
  8
LAYER-1
  0
POLYLINE
  8
LAYER-1
 66
  1
 70
  1
 62
  0
 10
2.387330
 20
0.159302
 30
0.000000
  0
VERTEX
  8
LAYER-1
 10
2.387330
 20
0.159302
 30
0.000000
  0
VERTEX
  8
LAYER-1
 10
2.412503
 20
0.142808
 30
0.000000
  0
VERTEX
  8
LAYER-1
 10
2.420315
 20
0.157566
 30
0.000000
  0
SEQEND
  8
LAYER-1
  0
POLYLINE
  8
LAYER-1
 66
  1
 70
  0
 62
  0
 10
2.957641
 20
0.215726
 30
0.000000
  0
VERTEX
  8
LAYER-1
 10
2.957641
 20
0.215726
 30
0.000000
  0
VERTEX
  8
LAYER-1
 10
2.953301
 20
0.215726
 30
0.000000
  0
VERTEX
  8
LAYER-1
 10
2.949829
 20
0.211385
 30
0.000000
  0
VERTEX
  8
LAYER-1
 10
2.948961
 20
0.206178
 30
0.000000
  0
VERTEX
  8
LAYER-1
 10
2.950697
 20
0.201836
 30
0.000000
  0
VERTEX
  8
LAYER-1
 10
2.955038
 20
0.200101
 30
0.000000
  0
VERTEX
  8
LAYER-1
 10
2.959377
 20
0.200101
 30
0.000000
  0
VERTEX
  8
LAYER-1
 10
2.963718
 20
0.203573
 30
0.000000
  0
VERTEX
  8
LAYER-1
 10
2.963718
 20
0.207914
 30
0.000000
  0
VERTEX
  8
LAYER-1
 10
2.962850
 20
0.212254
 30
0.000000
  0
VERTEX
  8
LAYER-1
 10
2.958509
 20
0.214859
 30
0.000000
  0
SEQEND
  8
LAYER-1
  0
POLYLINE
  8
LAYER-1
 66
  1
 70
  1
 62
  0
 10
2.973267
 20
0.127184
 30
0.000000
  0
VERTEX
  8
LAYER-1
 10
2.973267
 20
0.127184
 30
0.000000
  0
VERTEX
  8
LAYER-1
 10
2.960246
 20
0.104613
 30
0.000000
  0
VERTEX
  8
LAYER-1
 10
2.990628
 20
0.125446
 30
0.000000
  0
SEQEND
  8
LAYER-1
  0
POLYLINE
  8
LAYER-1
 66
  1
 70
  1
 62
  0
 10
3.067718
 20
0.120771
 30
0.000000
  0
VERTEX
  8
LAYER-1
 10
3.067718
 20
0.120771
 30
0.000000
  0
VERTEX
  8
LAYER-1
 10
3.055031
 20
0.101407
 30
0.000000
  0
VERTEX
  8
LAYER-1
 10
3.066382
 20
0.095395
 30
0.000000
  0
SEQEND
  8
LAYER-1
  0
POLYLINE
  8
LAYER-1
 66
  1
 70
  0
 62
  0
 10
3.099134
 20
0.220066
 30
0.000000
  0
VERTEX
  8
LAYER-1
 10
3.099134
 20
0.220066
 30
0.000000
  0
VERTEX
  8
LAYER-1
 10
3.094795
 20
0.220066
 30
0.000000
  0
VERTEX
  8
LAYER-1
 10
3.091322
 20
0.215725
 30
0.000000
  0
VERTEX
  8
LAYER-1
 10
3.090454
 20
0.210517
 30
0.000000
  0
VERTEX
  8
LAYER-1
 10
3.092190
 20
0.206177
 30
0.000000
  0
VERTEX
  8
LAYER-1
 10
3.096531
 20
0.204441
 30
0.000000
  0
VERTEX
  8
LAYER-1
 10
3.100871
 20
0.204441
 30
0.000000
  0
VERTEX
  8
LAYER-1
 10
3.105211
 20
0.207913
 30
0.000000
  0
VERTEX
  8
LAYER-1
 10
3.105211
 20
0.212253
 30
0.000000
  0
VERTEX
  8
LAYER-1
 10
3.104343
 20
0.216594
 30
0.000000
  0
VERTEX
  8
LAYER-1
 10
3.100003
 20
0.219198
 30
0.000000
  0
SEQEND
  8
LAYER-1
  0
POLYLINE
  8
LAYER-1
 66
  1
 70
  0
 62
  0
 10
2.376045
 20
0.212253
 30
0.000000
  0
VERTEX
  8
LAYER-1
 10
2.376045
 20
0.212253
 30
0.000000
  0
VERTEX
  8
LAYER-1
 10
2.376045
 20
0.207913
 30
0.000000
  0
VERTEX
  8
LAYER-1
 10
2.380386
 20
0.204441
 30
0.000000
  0
VERTEX
  8
LAYER-1
 10
2.385594
 20
0.203572
 30
0.000000
  0
VERTEX
  8
LAYER-1
 10
2.389934
 20
0.205308
 30
0.000000
  0
VERTEX
  8
LAYER-1
 10
2.391670
 20
0.209648
 30
0.000000
  0
VERTEX
  8
LAYER-1
 10
2.391670
 20
0.213989
 30
0.000000
  0
VERTEX
  8
LAYER-1
 10
2.388198
 20
0.218330
 30
0.000000
  0
VERTEX
  8
LAYER-1
 10
2.383858
 20
0.218330
 30
0.000000
  0
VERTEX
  8
LAYER-1
 10
2.379517
 20
0.217461
 30
0.000000
  0
VERTEX
  8
LAYER-1
 10
2.376912
 20
0.213120
 30
0.000000
  0
SEQEND
  8
LAYER-1
  0
POLYLINE
  8
LAYER-1
 66
  1
 70
  0
 62
  0
 10
2.939412
 20
0.128049
 30
0.000000
  0
VERTEX
  8
LAYER-1
 10
2.939412
 20
0.128049
 30
0.000000
  0
VERTEX
  8
LAYER-1
 10
2.935071
 20
0.128049
 30
0.000000
  0
VERTEX
  8
LAYER-1
 10
2.931599
 20
0.123709
 30
0.000000
  0
VERTEX
  8
LAYER-1
 10
2.930731
 20
0.118501
 30
0.000000
  0
VERTEX
  8
LAYER-1
 10
2.932467
 20
0.114160
 30
0.000000
  0
VERTEX
  8
LAYER-1
 10
2.936808
 20
0.112424
 30
0.000000
  0
VERTEX
  8
LAYER-1
 10
2.941147
 20
0.112424
 30
0.000000
  0
VERTEX
  8
LAYER-1
 10
2.945488
 20
0.115896
 30
0.000000
  0
VERTEX
  8
LAYER-1
 10
2.945488
 20
0.120237
 30
0.000000
  0
VERTEX
  8
LAYER-1
 10
2.944620
 20
0.124578
 30
0.000000
  0
VERTEX
  8
LAYER-1
 10
2.940280
 20
0.127183
 30
0.000000
  0
SEQEND
  8
LAYER-1
  0
POLYLINE
  8
LAYER-1
 66
  1
 70
  1
 62
  0
 10
2.806601
 20
0.116333
 30
0.000000
  0
VERTEX
  8
LAYER-1
 10
2.806601
 20
0.116333
 30
0.000000
  0
VERTEX
  8
LAYER-1
 10
2.780559
 20
0.109389
 30
0.000000
  0
VERTEX
  8
LAYER-1
 10
2.794448
 20
0.084215
 30
0.000000
  0
SEQEND
  8
LAYER-1
  0
POLYLINE
  8
LAYER-1
 66
  1
 70
  1
 62
  0
 10
1.429865
 20
0.090725
 30
0.000000
  0
VERTEX
  8
LAYER-1
 10
1.429865
 20
0.090725
 30
0.000000
  0
VERTEX
  8
LAYER-1
 10
1.404689
 20
0.107218
 30
0.000000
  0
VERTEX
  8
LAYER-1
 10
1.396877
 20
0.092461
 30
0.000000
  0
SEQEND
  8
LAYER-1
  0
POLYLINE
  8
LAYER-1
 66
  1
 70
  0
 62
  0
 10
2.837851
 20
0.165811
 30
0.000000
  0
VERTEX
  8
LAYER-1
 10
2.837851
 20
0.165811
 30
0.000000
  0
VERTEX
  8
LAYER-1
 10
2.837851
 20
0.170152
 30
0.000000
  0
VERTEX
  8
LAYER-1
 10
2.833510
 20
0.173624
 30
0.000000
  0
VERTEX
  8
LAYER-1
 10
2.828303
 20
0.174492
 30
0.000000
  0
VERTEX
  8
LAYER-1
 10
2.823962
 20
0.172757
 30
0.000000
  0
VERTEX
  8
LAYER-1
 10
2.822226
 20
0.168415
 30
0.000000
  0
VERTEX
  8
LAYER-1
 10
2.822226
 20
0.164076
 30
0.000000
  0
VERTEX
  8
LAYER-1
 10
2.825698
 20
0.159736
 30
0.000000
  0
VERTEX
  8
LAYER-1
 10
2.830039
 20
0.159736
 30
0.000000
  0
VERTEX
  8
LAYER-1
 10
2.834379
 20
0.160603
 30
0.000000
  0
VERTEX
  8
LAYER-1
 10
2.836982
 20
0.164944
 30
0.000000
  0
SEQEND
  8
LAYER-1
  0
POLYLINE
  8
LAYER-1
 66
  1
 70
  1
 62
  0
 10
2.770142
 20
0.128486
 30
0.000000
  0
VERTEX
  8
LAYER-1
 10
2.770142
 20
0.128486
 30
0.000000
  0
VERTEX
  8
LAYER-1
 10
2.747573
 20
0.141507
 30
0.000000
  0
VERTEX
  8
LAYER-1
 10
2.768406
 20
0.111124
 30
0.000000
  0
SEQEND
  8
LAYER-1
  0
POLYLINE
  8
LAYER-1
 66
  1
 70
  1
 62
  0
 10
1.507655
 20
0.109988
 30
0.000000
  0
VERTEX
  8
LAYER-1
 10
1.507655
 20
0.109988
 30
0.000000
  0
VERTEX
  8
LAYER-1
 10
1.488289
 20
0.122675
 30
0.000000
  0
VERTEX
  8
LAYER-1
 10
1.482280
 20
0.111323
 30
0.000000
  0
SEQEND
  8
LAYER-1
  0
POLYLINE
  8
LAYER-1
 66
  1
 70
  0
 62
  0
 10
1.567886
 20
0.098538
 30
0.000000
  0
VERTEX
  8
LAYER-1
 10
1.567886
 20
0.098538
 30
0.000000
  0
VERTEX
  8
LAYER-1
 10
1.567886
 20
0.102877
 30
0.000000
  0
VERTEX
  8
LAYER-1
 10
1.563545
 20
0.106350
 30
0.000000
  0
VERTEX
  8
LAYER-1
 10
1.558337
 20
0.107218
 30
0.000000
  0
VERTEX
  8
LAYER-1
 10
1.553996
 20
0.105482
 30
0.000000
  0
VERTEX
  8
LAYER-1
 10
1.552260
 20
0.101141
 30
0.000000
  0
VERTEX
  8
LAYER-1
 10
1.552260
 20
0.096801
 30
0.000000
  0
VERTEX
  8
LAYER-1
 10
1.555732
 20
0.092461
 30
0.000000
  0
VERTEX
  8
LAYER-1
 10
1.560073
 20
0.092461
 30
0.000000
  0
VERTEX
  8
LAYER-1
 10
1.564414
 20
0.093329
 30
0.000000
  0
VERTEX
  8
LAYER-1
 10
1.567017
 20
0.097670
 30
0.000000
  0
SEQEND
  8
LAYER-1
  0
POLYLINE
  8
LAYER-1
 66
  1
 70
  0
 62
  0
 10
2.687678
 20
0.118069
 30
0.000000
  0
VERTEX
  8
LAYER-1
 10
2.687678
 20
0.118069
 30
0.000000
  0
VERTEX
  8
LAYER-1
 10
2.687678
 20
0.122409
 30
0.000000
  0
VERTEX
  8
LAYER-1
 10
2.683337
 20
0.125882
 30
0.000000
  0
VERTEX
  8
LAYER-1
 10
2.678130
 20
0.126749
 30
0.000000
  0
VERTEX
  8
LAYER-1
 10
2.673789
 20
0.125014
 30
0.000000
  0
VERTEX
  8
LAYER-1
 10
2.672053
 20
0.120673
 30
0.000000
  0
VERTEX
  8
LAYER-1
 10
2.672053
 20
0.116333
 30
0.000000
  0
VERTEX
  8
LAYER-1
 10
2.675525
 20
0.111992
 30
0.000000
  0
VERTEX
  8
LAYER-1
 10
2.679866
 20
0.111992
 30
0.000000
  0
VERTEX
  8
LAYER-1
 10
2.684206
 20
0.112861
 30
0.000000
  0
VERTEX
  8
LAYER-1
 10
2.686809
 20
0.117201
 30
0.000000
  0
SEQEND
  8
LAYER-1
  0
POLYLINE
  8
LAYER-1
 66
  1
 70
  1
 62
  0
 10
2.880385
 20
0.119372
 30
0.000000
  0
VERTEX
  8
LAYER-1
 10
2.880385
 20
0.119372
 30
0.000000
  0
VERTEX
  8
LAYER-1
 10
2.873440
 20
0.145413
 30
0.000000
  0
VERTEX
  8
LAYER-1
 10
2.848267
 20
0.131526
 30
0.000000
  0
SEQEND
  8
LAYER-1
  0
POLYLINE
  8
LAYER-1
 66
  1
 70
  1
 62
  0
 10
2.327434
 20
0.106350
 30
0.000000
  0
VERTEX
  8
LAYER-1
 10
2.327434
 20
0.106350
 30
0.000000
  0
VERTEX
  8
LAYER-1
 10
2.304863
 20
0.119372
 30
0.000000
  0
VERTEX
  8
LAYER-1
 10
2.325696
 20
0.088989
 30
0.000000
  0
SEQEND
  8
LAYER-1
  0
POLYLINE
  8
LAYER-1
 66
  1
 70
  1
 62
  0
 10
3.105212
 20
0.130657
 30
0.000000
  0
VERTEX
  8
LAYER-1
 10
3.105212
 20
0.130657
 30
0.000000
  0
VERTEX
  8
LAYER-1
 10
3.121705
 20
0.155830
 30
0.000000
  0
VERTEX
  8
LAYER-1
 10
3.106948
 20
0.163642
 30
0.000000
  0
SEQEND
  8
LAYER-1
  0
POLYLINE
  8
LAYER-1
 66
  1
 70
  0
 62
  0
 10
3.240628
 20
0.098535
 30
0.000000
  0
VERTEX
  8
LAYER-1
 10
3.240628
 20
0.098535
 30
0.000000
  0
VERTEX
  8
LAYER-1
 10
3.244968
 20
0.098535
 30
0.000000
  0
VERTEX
  8
LAYER-1
 10
3.248440
 20
0.102876
 30
0.000000
  0
VERTEX
  8
LAYER-1
 10
3.249308
 20
0.108084
 30
0.000000
  0
VERTEX
  8
LAYER-1
 10
3.247573
 20
0.112424
 30
0.000000
  0
VERTEX
  8
LAYER-1
 10
3.243232
 20
0.114160
 30
0.000000
  0
VERTEX
  8
LAYER-1
 10
3.238892
 20
0.114160
 30
0.000000
  0
VERTEX
  8
LAYER-1
 10
3.234551
 20
0.110689
 30
0.000000
  0
VERTEX
  8
LAYER-1
 10
3.234551
 20
0.106348
 30
0.000000
  0
VERTEX
  8
LAYER-1
 10
3.235419
 20
0.102008
 30
0.000000
  0
VERTEX
  8
LAYER-1
 10
3.239760
 20
0.099403
 30
0.000000
  0
SEQEND
  8
LAYER-1
  0
POLYLINE
  8
LAYER-1
 66
  1
 70
  1
 62
  0
 10
2.892537
 20
0.155830
 30
0.000000
  0
VERTEX
  8
LAYER-1
 10
2.892537
 20
0.155830
 30
0.000000
  0
VERTEX
  8
LAYER-1
 10
2.905558
 20
0.178401
 30
0.000000
  0
VERTEX
  8
LAYER-1
 10
2.875176
 20
0.157567
 30
0.000000
  0
SEQEND
  8
LAYER-1
  0
POLYLINE
  8
LAYER-1
 66
  1
 70
  1
 62
  0
 10
3.146177
 20
0.106685
 30
0.000000
  0
VERTEX
  8
LAYER-1
 10
3.146177
 20
0.106685
 30
0.000000
  0
VERTEX
  8
LAYER-1
 10
3.158863
 20
0.126049
 30
0.000000
  0
VERTEX
  8
LAYER-1
 10
3.147513
 20
0.132061
 30
0.000000
  0
SEQEND
  8
LAYER-1
  0
POLYLINE
  8
LAYER-1
 66
  1
 70
  0
 62
  0
 10
2.467189
 20
0.166247
 30
0.000000
  0
VERTEX
  8
LAYER-1
 10
2.467189
 20
0.166247
 30
0.000000
  0
VERTEX
  8
LAYER-1
 10
2.467189
 20
0.170586
 30
0.000000
  0
VERTEX
  8
LAYER-1
 10
2.462849
 20
0.174060
 30
0.000000
  0
VERTEX
  8
LAYER-1
 10
2.457641
 20
0.174927
 30
0.000000
  0
VERTEX
  8
LAYER-1
 10
2.453300
 20
0.173191
 30
0.000000
  0
VERTEX
  8
LAYER-1
 10
2.451564
 20
0.168850
 30
0.000000
  0
VERTEX
  8
LAYER-1
 10
2.451564
 20
0.164509
 30
0.000000
  0
VERTEX
  8
LAYER-1
 10
2.455036
 20
0.160171
 30
0.000000
  0
VERTEX
  8
LAYER-1
 10
2.459377
 20
0.160171
 30
0.000000
  0
VERTEX
  8
LAYER-1
 10
2.463718
 20
0.161038
 30
0.000000
  0
VERTEX
  8
LAYER-1
 10
2.466322
 20
0.165378
 30
0.000000
  0
SEQEND
  8
LAYER-1
  0
POLYLINE
  8
LAYER-1
 66
  1
 70
  0
 62
  0
 10
3.053128
 20
0.136733
 30
0.000000
  0
VERTEX
  8
LAYER-1
 10
3.053128
 20
0.136733
 30
0.000000
  0
VERTEX
  8
LAYER-1
 10
3.057469
 20
0.136733
 30
0.000000
  0
VERTEX
  8
LAYER-1
 10
3.060941
 20
0.141073
 30
0.000000
  0
VERTEX
  8
LAYER-1
 10
3.061809
 20
0.146282
 30
0.000000
  0
VERTEX
  8
LAYER-1
 10
3.060073
 20
0.150622
 30
0.000000
  0
VERTEX
  8
LAYER-1
 10
3.055732
 20
0.152358
 30
0.000000
  0
VERTEX
  8
LAYER-1
 10
3.051392
 20
0.152358
 30
0.000000
  0
VERTEX
  8
LAYER-1
 10
3.047052
 20
0.148886
 30
0.000000
  0
VERTEX
  8
LAYER-1
 10
3.047052
 20
0.144546
 30
0.000000
  0
VERTEX
  8
LAYER-1
 10
3.047920
 20
0.140205
 30
0.000000
  0
VERTEX
  8
LAYER-1
 10
3.052261
 20
0.137600
 30
0.000000
  0
SEQEND
  8
LAYER-1
  0
POLYLINE
  8
LAYER-1
 66
  1
 70
  0
 62
  0
 10
3.217191
 20
0.144546
 30
0.000000
  0
VERTEX
  8
LAYER-1
 10
3.217191
 20
0.144546
 30
0.000000
  0
VERTEX
  8
LAYER-1
 10
3.221532
 20
0.144546
 30
0.000000
  0
VERTEX
  8
LAYER-1
 10
3.225004
 20
0.148886
 30
0.000000
  0
VERTEX
  8
LAYER-1
 10
3.225871
 20
0.154094
 30
0.000000
  0
VERTEX
  8
LAYER-1
 10
3.224136
 20
0.158435
 30
0.000000
  0
VERTEX
  8
LAYER-1
 10
3.219795
 20
0.160171
 30
0.000000
  0
VERTEX
  8
LAYER-1
 10
3.215455
 20
0.160171
 30
0.000000
  0
VERTEX
  8
LAYER-1
 10
3.211114
 20
0.156698
 30
0.000000
  0
VERTEX
  8
LAYER-1
 10
3.211114
 20
0.152358
 30
0.000000
  0
VERTEX
  8
LAYER-1
 10
3.211982
 20
0.148017
 30
0.000000
  0
VERTEX
  8
LAYER-1
 10
3.216323
 20
0.145413
 30
0.000000
  0
SEQEND
  8
LAYER-1
  0
POLYLINE
  8
LAYER-1
 66
  1
 70
  1
 62
  0
 10
3.624308
 20
0.142810
 30
0.000000
  0
VERTEX
  8
LAYER-1
 10
3.624308
 20
0.142810
 30
0.000000
  0
VERTEX
  8
LAYER-1
 10
3.631252
 20
0.116768
 30
0.000000
  0
VERTEX
  8
LAYER-1
 10
3.656425
 20
0.130657
 30
0.000000
  0
SEQEND
  8
LAYER-1
  0
POLYLINE
  8
LAYER-1
 66
  1
 70
  1
 62
  0
 10
3.790540
 20
0.096803
 30
0.000000
  0
VERTEX
  8
LAYER-1
 10
3.790540
 20
0.096803
 30
0.000000
  0
VERTEX
  8
LAYER-1
 10
3.777519
 20
0.074233
 30
0.000000
  0
VERTEX
  8
LAYER-1
 10
3.807902
 20
0.095066
 30
0.000000
  0
SEQEND
  8
LAYER-1
  0
POLYLINE
  8
LAYER-1
 66
  1
 70
  1
 62
  0
 10
3.675522
 20
0.187077
 30
0.000000
  0
VERTEX
  8
LAYER-1
 10
3.675522
 20
0.187077
 30
0.000000
  0
VERTEX
  8
LAYER-1
 10
3.659030
 20
0.161903
 30
0.000000
  0
VERTEX
  8
LAYER-1
 10
3.673786
 20
0.154090
 30
0.000000
  0
SEQEND
  8
LAYER-1
  0
POLYLINE
  8
LAYER-1
 66
  1
 70
  0
 62
  0
 10
3.590454
 20
0.174060
 30
0.000000
  0
VERTEX
  8
LAYER-1
 10
3.590454
 20
0.174060
 30
0.000000
  0
VERTEX
  8
LAYER-1
 10
3.586114
 20
0.174060
 30
0.000000
  0
VERTEX
  8
LAYER-1
 10
3.582642
 20
0.169719
 30
0.000000
  0
VERTEX
  8
LAYER-1
 10
3.581772
 20
0.164511
 30
0.000000
  0
VERTEX
  8
LAYER-1
 10
3.583510
 20
0.160171
 30
0.000000
  0
VERTEX
  8
LAYER-1
 10
3.587850
 20
0.158435
 30
0.000000
  0
VERTEX
  8
LAYER-1
 10
3.592189
 20
0.158435
 30
0.000000
  0
VERTEX
  8
LAYER-1
 10
3.596529
 20
0.161907
 30
0.000000
  0
VERTEX
  8
LAYER-1
 10
3.596529
 20
0.166247
 30
0.000000
  0
VERTEX
  8
LAYER-1
 10
3.595661
 20
0.170588
 30
0.000000
  0
VERTEX
  8
LAYER-1
 10
3.591322
 20
0.173191
 30
0.000000
  0
SEQEND
  8
LAYER-1
  0
POLYLINE
  8
LAYER-1
 66
  1
 70
  1
 62
  0
 10
3.573961
 20
0.114161
 30
0.000000
  0
VERTEX
  8
LAYER-1
 10
3.573961
 20
0.114161
 30
0.000000
  0
VERTEX
  8
LAYER-1
 10
3.560940
 20
0.091592
 30
0.000000
  0
VERTEX
  8
LAYER-1
 10
3.591322
 20
0.112424
 30
0.000000
  0
SEQEND
  8
LAYER-1
  0
POLYLINE
  8
LAYER-1
 66
  1
 70
  1
 62
  0
 10
3.629415
 20
0.212516
 30
0.000000
  0
VERTEX
  8
LAYER-1
 10
3.629415
 20
0.212516
 30
0.000000
  0
VERTEX
  8
LAYER-1
 10
3.648780
 20
0.199828
 30
0.000000
  0
VERTEX
  8
LAYER-1
 10
3.654790
 20
0.211180
 30
0.000000
  0
SEQEND
  8
LAYER-1
  0
POLYLINE
  8
LAYER-1
 66
  1
 70
  0
 62
  0
 10
3.514064
 20
0.163764
 30
0.000000
  0
VERTEX
  8
LAYER-1
 10
3.514064
 20
0.163764
 30
0.000000
  0
VERTEX
  8
LAYER-1
 10
3.509724
 20
0.163764
 30
0.000000
  0
VERTEX
  8
LAYER-1
 10
3.506251
 20
0.159424
 30
0.000000
  0
VERTEX
  8
LAYER-1
 10
3.505385
 20
0.154216
 30
0.000000
  0
VERTEX
  8
LAYER-1
 10
3.507120
 20
0.149875
 30
0.000000
  0
VERTEX
  8
LAYER-1
 10
3.511460
 20
0.148139
 30
0.000000
  0
VERTEX
  8
LAYER-1
 10
3.515801
 20
0.148139
 30
0.000000
  0
VERTEX
  8
LAYER-1
 10
3.520141
 20
0.151611
 30
0.000000
  0
VERTEX
  8
LAYER-1
 10
3.520141
 20
0.155952
 30
0.000000
  0
VERTEX
  8
LAYER-1
 10
3.519273
 20
0.160293
 30
0.000000
  0
VERTEX
  8
LAYER-1
 10
3.514933
 20
0.162896
 30
0.000000
  0
SEQEND
  8
LAYER-1
  0
POLYLINE
  8
LAYER-1
 66
  1
 70
  0
 62
  0
 10
3.890802
 20
0.135860
 30
0.000000
  0
VERTEX
  8
LAYER-1
 10
3.890802
 20
0.135860
 30
0.000000
  0
VERTEX
  8
LAYER-1
 10
3.886463
 20
0.135860
 30
0.000000
  0
VERTEX
  8
LAYER-1
 10
3.882990
 20
0.131520
 30
0.000000
  0
VERTEX
  8
LAYER-1
 10
3.882122
 20
0.126311
 30
0.000000
  0
VERTEX
  8
LAYER-1
 10
3.883858
 20
0.121971
 30
0.000000
  0
VERTEX
  8
LAYER-1
 10
3.888198
 20
0.120235
 30
0.000000
  0
VERTEX
  8
LAYER-1
 10
3.892538
 20
0.120235
 30
0.000000
  0
VERTEX
  8
LAYER-1
 10
3.896879
 20
0.123707
 30
0.000000
  0
VERTEX
  8
LAYER-1
 10
3.896879
 20
0.128048
 30
0.000000
  0
VERTEX
  8
LAYER-1
 10
3.896011
 20
0.132389
 30
0.000000
  0
VERTEX
  8
LAYER-1
 10
3.891670
 20
0.134992
 30
0.000000
  0
SEQEND
  8
LAYER-1
  0
POLYLINE
  8
LAYER-1
 66
  1
 70
  0
 62
  0
 10
3.622571
 20
0.107217
 30
0.000000
  0
VERTEX
  8
LAYER-1
 10
3.622571
 20
0.107217
 30
0.000000
  0
VERTEX
  8
LAYER-1
 10
3.618232
 20
0.107217
 30
0.000000
  0
VERTEX
  8
LAYER-1
 10
3.614759
 20
0.102876
 30
0.000000
  0
VERTEX
  8
LAYER-1
 10
3.613891
 20
0.097669
 30
0.000000
  0
VERTEX
  8
LAYER-1
 10
3.615627
 20
0.093328
 30
0.000000
  0
VERTEX
  8
LAYER-1
 10
3.619968
 20
0.091592
 30
0.000000
  0
VERTEX
  8
LAYER-1
 10
3.624307
 20
0.091592
 30
0.000000
  0
VERTEX
  8
LAYER-1
 10
3.628648
 20
0.095064
 30
0.000000
  0
VERTEX
  8
LAYER-1
 10
3.628648
 20
0.099404
 30
0.000000
  0
VERTEX
  8
LAYER-1
 10
3.627780
 20
0.103745
 30
0.000000
  0
VERTEX
  8
LAYER-1
 10
3.623439
 20
0.106349
 30
0.000000
  0
SEQEND
  8
LAYER-1
  0
POLYLINE
  8
LAYER-1
 66
  1
 70
  1
 62
  0
 10
3.420749
 20
0.166680
 30
0.000000
  0
VERTEX
  8
LAYER-1
 10
3.420749
 20
0.166680
 30
0.000000
  0
VERTEX
  8
LAYER-1
 10
3.394709
 20
0.159736
 30
0.000000
  0
VERTEX
  8
LAYER-1
 10
3.408596
 20
0.134563
 30
0.000000
  0
SEQEND
  8
LAYER-1
  0
POLYLINE
  8
LAYER-1
 66
  1
 70
  1
 62
  0
 10
3.327868
 20
0.115465
 30
0.000000
  0
VERTEX
  8
LAYER-1
 10
3.327868
 20
0.115465
 30
0.000000
  0
VERTEX
  8
LAYER-1
 10
3.305298
 20
0.128486
 30
0.000000
  0
VERTEX
  8
LAYER-1
 10
3.326130
 20
0.098104
 30
0.000000
  0
SEQEND
  8
LAYER-1
  0
POLYLINE
  8
LAYER-1
 66
  1
 70
  1
 62
  0
 10
3.291409
 20
0.160601
 30
0.000000
  0
VERTEX
  8
LAYER-1
 10
3.291409
 20
0.160601
 30
0.000000
  0
VERTEX
  8
LAYER-1
 10
3.266236
 20
0.177094
 30
0.000000
  0
VERTEX
  8
LAYER-1
 10
3.258423
 20
0.162337
 30
0.000000
  0
SEQEND
  8
LAYER-1
  0
POLYLINE
  8
LAYER-1
 66
  1
 70
  0
 62
  0
 10
3.451999
 20
0.216159
 30
0.000000
  0
VERTEX
  8
LAYER-1
 10
3.451999
 20
0.216159
 30
0.000000
  0
VERTEX
  8
LAYER-1
 10
3.451999
 20
0.220501
 30
0.000000
  0
VERTEX
  8
LAYER-1
 10
3.447659
 20
0.223972
 30
0.000000
  0
VERTEX
  8
LAYER-1
 10
3.442451
 20
0.224840
 30
0.000000
  0
VERTEX
  8
LAYER-1
 10
3.438110
 20
0.223104
 30
0.000000
  0
VERTEX
  8
LAYER-1
 10
3.436374
 20
0.218764
 30
0.000000
  0
VERTEX
  8
LAYER-1
 10
3.436374
 20
0.214423
 30
0.000000
  0
VERTEX
  8
LAYER-1
 10
3.439846
 20
0.210083
 30
0.000000
  0
VERTEX
  8
LAYER-1
 10
3.444187
 20
0.210083
 30
0.000000
  0
VERTEX
  8
LAYER-1
 10
3.448527
 20
0.210951
 30
0.000000
  0
VERTEX
  8
LAYER-1
 10
3.451132
 20
0.215291
 30
0.000000
  0
SEQEND
  8
LAYER-1
  0
POLYLINE
  8
LAYER-1
 66
  1
 70
  1
 62
  0
 10
3.384292
 20
0.178833
 30
0.000000
  0
VERTEX
  8
LAYER-1
 10
3.384292
 20
0.178833
 30
0.000000
  0
VERTEX
  8
LAYER-1
 10
3.361721
 20
0.191854
 30
0.000000
  0
VERTEX
  8
LAYER-1
 10
3.382554
 20
0.161472
 30
0.000000
  0
SEQEND
  8
LAYER-1
  0
POLYLINE
  8
LAYER-1
 66
  1
 70
  1
 62
  0
 10
3.335946
 20
0.185874
 30
0.000000
  0
VERTEX
  8
LAYER-1
 10
3.335946
 20
0.185874
 30
0.000000
  0
VERTEX
  8
LAYER-1
 10
3.323259
 20
0.166511
 30
0.000000
  0
VERTEX
  8
LAYER-1
 10
3.334610
 20
0.160500
 30
0.000000
  0
SEQEND
  8
LAYER-1
  0
POLYLINE
  8
LAYER-1
 66
  1
 70
  0
 62
  0
 10
3.453735
 20
0.088554
 30
0.000000
  0
VERTEX
  8
LAYER-1
 10
3.453735
 20
0.088554
 30
0.000000
  0
VERTEX
  8
LAYER-1
 10
3.453735
 20
0.092895
 30
0.000000
  0
VERTEX
  8
LAYER-1
 10
3.449395
 20
0.096367
 30
0.000000
  0
VERTEX
  8
LAYER-1
 10
3.444187
 20
0.097235
 30
0.000000
  0
VERTEX
  8
LAYER-1
 10
3.439846
 20
0.095499
 30
0.000000
  0
VERTEX
  8
LAYER-1
 10
3.438110
 20
0.091159
 30
0.000000
  0
VERTEX
  8
LAYER-1
 10
3.438110
 20
0.086817
 30
0.000000
  0
VERTEX
  8
LAYER-1
 10
3.441582
 20
0.082478
 30
0.000000
  0
VERTEX
  8
LAYER-1
 10
3.445923
 20
0.082478
 30
0.000000
  0
VERTEX
  8
LAYER-1
 10
3.450264
 20
0.083346
 30
0.000000
  0
VERTEX
  8
LAYER-1
 10
3.452868
 20
0.087686
 30
0.000000
  0
SEQEND
  8
LAYER-1
  0
POLYLINE
  8
LAYER-1
 66
  1
 70
  0
 62
  0
 10
3.372138
 20
0.089422
 30
0.000000
  0
VERTEX
  8
LAYER-1
 10
3.372138
 20
0.089422
 30
0.000000
  0
VERTEX
  8
LAYER-1
 10
3.372138
 20
0.093764
 30
0.000000
  0
VERTEX
  8
LAYER-1
 10
3.367797
 20
0.097235
 30
0.000000
  0
VERTEX
  8
LAYER-1
 10
3.362590
 20
0.098103
 30
0.000000
  0
VERTEX
  8
LAYER-1
 10
3.358249
 20
0.096367
 30
0.000000
  0
VERTEX
  8
LAYER-1
 10
3.356513
 20
0.092027
 30
0.000000
  0
VERTEX
  8
LAYER-1
 10
3.356513
 20
0.087686
 30
0.000000
  0
VERTEX
  8
LAYER-1
 10
3.359985
 20
0.083346
 30
0.000000
  0
VERTEX
  8
LAYER-1
 10
3.364326
 20
0.083346
 30
0.000000
  0
VERTEX
  8
LAYER-1
 10
3.368666
 20
0.084214
 30
0.000000
  0
VERTEX
  8
LAYER-1
 10
3.371271
 20
0.088554
 30
0.000000
  0
SEQEND
  8
LAYER-1
  0
POLYLINE
  8
LAYER-1
 66
  1
 70
  0
 62
  0
 10
3.301826
 20
0.199665
 30
0.000000
  0
VERTEX
  8
LAYER-1
 10
3.301826
 20
0.199665
 30
0.000000
  0
VERTEX
  8
LAYER-1
 10
3.301826
 20
0.204007
 30
0.000000
  0
VERTEX
  8
LAYER-1
 10
3.297485
 20
0.207478
 30
0.000000
  0
VERTEX
  8
LAYER-1
 10
3.292277
 20
0.208346
 30
0.000000
  0
VERTEX
  8
LAYER-1
 10
3.287937
 20
0.206610
 30
0.000000
  0
VERTEX
  8
LAYER-1
 10
3.286201
 20
0.202270
 30
0.000000
  0
VERTEX
  8
LAYER-1
 10
3.286201
 20
0.197929
 30
0.000000
  0
VERTEX
  8
LAYER-1
 10
3.289673
 20
0.193589
 30
0.000000
  0
VERTEX
  8
LAYER-1
 10
3.294014
 20
0.193589
 30
0.000000
  0
VERTEX
  8
LAYER-1
 10
3.298354
 20
0.194457
 30
0.000000
  0
VERTEX
  8
LAYER-1
 10
3.300959
 20
0.198797
 30
0.000000
  0
SEQEND
  8
LAYER-1
  0
POLYLINE
  8
LAYER-1
 66
  1
 70
  1
 62
  0
 10
4.084377
 20
0.189251
 30
0.000000
  0
VERTEX
  8
LAYER-1
 10
4.084377
 20
0.189251
 30
0.000000
  0
VERTEX
  8
LAYER-1
 10
4.091321
 20
0.163209
 30
0.000000
  0
VERTEX
  8
LAYER-1
 10
4.116495
 20
0.177097
 30
0.000000
  0
SEQEND
  8
LAYER-1
  0
POLYLINE
  8
LAYER-1
 66
  1
 70
  1
 62
  0
 10
4.246704
 20
0.217896
 30
0.000000
  0
VERTEX
  8
LAYER-1
 10
4.246704
 20
0.217896
 30
0.000000
  0
VERTEX
  8
LAYER-1
 10
4.233682
 20
0.195327
 30
0.000000
  0
VERTEX
  8
LAYER-1
 10
4.264064
 20
0.216159
 30
0.000000
  0
SEQEND
  8
LAYER-1
  0
POLYLINE
  8
LAYER-1
 66
  1
 70
  1
 62
  0
 10
4.225870
 20
0.132825
 30
0.000000
  0
VERTEX
  8
LAYER-1
 10
4.225870
 20
0.132825
 30
0.000000
  0
VERTEX
  8
LAYER-1
 10
4.209377
 20
0.107651
 30
0.000000
  0
VERTEX
  8
LAYER-1
 10
4.224135
 20
0.099838
 30
0.000000
  0
SEQEND
  8
LAYER-1
  0
POLYLINE
  8
LAYER-1
 66
  1
 70
  0
 62
  0
 10
4.034898
 20
0.220501
 30
0.000000
  0
VERTEX
  8
LAYER-1
 10
4.034898
 20
0.220501
 30
0.000000
  0
VERTEX
  8
LAYER-1
 10
4.030557
 20
0.220501
 30
0.000000
  0
VERTEX
  8
LAYER-1
 10
4.027086
 20
0.216159
 30
0.000000
  0
VERTEX
  8
LAYER-1
 10
4.026218
 20
0.210952
 30
0.000000
  0
VERTEX
  8
LAYER-1
 10
4.027954
 20
0.206611
 30
0.000000
  0
VERTEX
  8
LAYER-1
 10
4.032294
 20
0.204876
 30
0.000000
  0
VERTEX
  8
LAYER-1
 10
4.036634
 20
0.204876
 30
0.000000
  0
VERTEX
  8
LAYER-1
 10
4.040975
 20
0.208347
 30
0.000000
  0
VERTEX
  8
LAYER-1
 10
4.040975
 20
0.212688
 30
0.000000
  0
VERTEX
  8
LAYER-1
 10
4.040107
 20
0.217028
 30
0.000000
  0
VERTEX
  8
LAYER-1
 10
4.035766
 20
0.219632
 30
0.000000
  0
SEQEND
  8
LAYER-1
  0
POLYLINE
  8
LAYER-1
 66
  1
 70
  1
 62
  0
 10
4.056164
 20
0.152356
 30
0.000000
  0
VERTEX
  8
LAYER-1
 10
4.056164
 20
0.152356
 30
0.000000
  0
VERTEX
  8
LAYER-1
 10
4.078734
 20
0.139336
 30
0.000000
  0
VERTEX
  8
LAYER-1
 10
4.057901
 20
0.169717
 30
0.000000
  0
SEQEND
  8
LAYER-1
  0
POLYLINE
  8
LAYER-1
 66
  1
 70
  1
 62
  0
 10
4.172819
 20
0.144376
 30
0.000000
  0
VERTEX
  8
LAYER-1
 10
4.172819
 20
0.144376
 30
0.000000
  0
VERTEX
  8
LAYER-1
 10
4.192183
 20
0.131688
 30
0.000000
  0
VERTEX
  8
LAYER-1
 10
4.198193
 20
0.143040
 30
0.000000
  0
SEQEND
  8
LAYER-1
  0
POLYLINE
  8
LAYER-1
 66
  1
 70
  0
 62
  0
 10
4.186807
 20
0.222236
 30
0.000000
  0
VERTEX
  8
LAYER-1
 10
4.186807
 20
0.222236
 30
0.000000
  0
VERTEX
  8
LAYER-1
 10
4.182468
 20
0.222236
 30
0.000000
  0
VERTEX
  8
LAYER-1
 10
4.178995
 20
0.217896
 30
0.000000
  0
VERTEX
  8
LAYER-1
 10
4.178127
 20
0.212688
 30
0.000000
  0
VERTEX
  8
LAYER-1
 10
4.179863
 20
0.208347
 30
0.000000
  0
VERTEX
  8
LAYER-1
 10
4.184204
 20
0.206611
 30
0.000000
  0
VERTEX
  8
LAYER-1
 10
4.188544
 20
0.206611
 30
0.000000
  0
VERTEX
  8
LAYER-1
 10
4.192884
 20
0.210083
 30
0.000000
  0
VERTEX
  8
LAYER-1
 10
4.192884
 20
0.214423
 30
0.000000
  0
VERTEX
  8
LAYER-1
 10
4.192016
 20
0.218764
 30
0.000000
  0
VERTEX
  8
LAYER-1
 10
4.187675
 20
0.221368
 30
0.000000
  0
SEQEND
  8
LAYER-1
  0
POLYLINE
  8
LAYER-1
 66
  1
 70
  0
 62
  0
 10
4.271010
 20
0.095498
 30
0.000000
  0
VERTEX
  8
LAYER-1
 10
4.271010
 20
0.095498
 30
0.000000
  0
VERTEX
  8
LAYER-1
 10
4.266669
 20
0.095498
 30
0.000000
  0
VERTEX
  8
LAYER-1
 10
4.263197
 20
0.091158
 30
0.000000
  0
VERTEX
  8
LAYER-1
 10
4.262329
 20
0.085950
 30
0.000000
  0
VERTEX
  8
LAYER-1
 10
4.264065
 20
0.081609
 30
0.000000
  0
VERTEX
  8
LAYER-1
 10
4.268405
 20
0.079873
 30
0.000000
  0
VERTEX
  8
LAYER-1
 10
4.272745
 20
0.079873
 30
0.000000
  0
VERTEX
  8
LAYER-1
 10
4.277086
 20
0.083345
 30
0.000000
  0
VERTEX
  8
LAYER-1
 10
4.277086
 20
0.087685
 30
0.000000
  0
VERTEX
  8
LAYER-1
 10
4.276217
 20
0.092027
 30
0.000000
  0
VERTEX
  8
LAYER-1
 10
4.271877
 20
0.094630
 30
0.000000
  0
SEQEND
  8
LAYER-1
  0
POLYLINE
  8
LAYER-1
 66
  1
 70
  0
 62
  0
 10
4.117364
 20
0.150184
 30
0.000000
  0
VERTEX
  8
LAYER-1
 10
4.117364
 20
0.150184
 30
0.000000
  0
VERTEX
  8
LAYER-1
 10
4.113023
 20
0.150184
 30
0.000000
  0
VERTEX
  8
LAYER-1
 10
4.109551
 20
0.145843
 30
0.000000
  0
VERTEX
  8
LAYER-1
 10
4.108683
 20
0.140635
 30
0.000000
  0
VERTEX
  8
LAYER-1
 10
4.110419
 20
0.136295
 30
0.000000
  0
VERTEX
  8
LAYER-1
 10
4.114759
 20
0.134559
 30
0.000000
  0
VERTEX
  8
LAYER-1
 10
4.119100
 20
0.134559
 30
0.000000
  0
VERTEX
  8
LAYER-1
 10
4.123441
 20
0.138030
 30
0.000000
  0
VERTEX
  8
LAYER-1
 10
4.123441
 20
0.142371
 30
0.000000
  0
VERTEX
  8
LAYER-1
 10
4.122571
 20
0.146712
 30
0.000000
  0
VERTEX
  8
LAYER-1
 10
4.118232
 20
0.149316
 30
0.000000
  0
SEQEND
  8
LAYER-1
  0
POLYLINE
  8
LAYER-1
 66
  1
 70
  1
 62
  0
 10
3.952435
 20
0.158865
 30
0.000000
  0
VERTEX
  8
LAYER-1
 10
3.952435
 20
0.158865
 30
0.000000
  0
VERTEX
  8
LAYER-1
 10
3.945489
 20
0.184905
 30
0.000000
  0
VERTEX
  8
LAYER-1
 10
3.920315
 20
0.171019
 30
0.000000
  0
SEQEND
  8
LAYER-1
  0
POLYLINE
  8
LAYER-1
 66
  1
 70
  1
 62
  0
 10
3.541410
 20
0.190548
 30
0.000000
  0
VERTEX
  8
LAYER-1
 10
3.541410
 20
0.190548
 30
0.000000
  0
VERTEX
  8
LAYER-1
 10
3.554430
 20
0.213120
 30
0.000000
  0
VERTEX
  8
LAYER-1
 10
3.524049
 20
0.192286
 30
0.000000
  0
SEQEND
  8
LAYER-1
  0
POLYLINE
  8
LAYER-1
 66
  1
 70
  1
 62
  0
 10
3.838718
 20
0.184040
 30
0.000000
  0
VERTEX
  8
LAYER-1
 10
3.838718
 20
0.184040
 30
0.000000
  0
VERTEX
  8
LAYER-1
 10
3.855211
 20
0.209214
 30
0.000000
  0
VERTEX
  8
LAYER-1
 10
3.840454
 20
0.217027
 30
0.000000
  0
SEQEND
  8
LAYER-1
  0
POLYLINE
  8
LAYER-1
 66
  1
 70
  0
 62
  0
 10
4.001912
 20
0.127615
 30
0.000000
  0
VERTEX
  8
LAYER-1
 10
4.001912
 20
0.127615
 30
0.000000
  0
VERTEX
  8
LAYER-1
 10
4.006253
 20
0.127615
 30
0.000000
  0
VERTEX
  8
LAYER-1
 10
4.009725
 20
0.131955
 30
0.000000
  0
VERTEX
  8
LAYER-1
 10
4.010594
 20
0.137164
 30
0.000000
  0
VERTEX
  8
LAYER-1
 10
4.008858
 20
0.141504
 30
0.000000
  0
VERTEX
  8
LAYER-1
 10
4.004517
 20
0.143240
 30
0.000000
  0
VERTEX
  8
LAYER-1
 10
4.000176
 20
0.143240
 30
0.000000
  0
VERTEX
  8
LAYER-1
 10
3.995836
 20
0.139768
 30
0.000000
  0
VERTEX
  8
LAYER-1
 10
3.995836
 20
0.135428
 30
0.000000
  0
VERTEX
  8
LAYER-1
 10
3.996705
 20
0.131087
 30
0.000000
  0
VERTEX
  8
LAYER-1
 10
4.001045
 20
0.128482
 30
0.000000
  0
SEQEND
  8
LAYER-1
  0
POLYLINE
  8
LAYER-1
 66
  1
 70
  1
 62
  0
 10
3.955905
 20
0.124145
 30
0.000000
  0
VERTEX
  8
LAYER-1
 10
3.955905
 20
0.124145
 30
0.000000
  0
VERTEX
  8
LAYER-1
 10
3.968926
 20
0.146715
 30
0.000000
  0
VERTEX
  8
LAYER-1
 10
3.938544
 20
0.125882
 30
0.000000
  0
SEQEND
  8
LAYER-1
  0
POLYLINE
  8
LAYER-1
 66
  1
 70
  1
 62
  0
 10
3.901318
 20
0.165545
 30
0.000000
  0
VERTEX
  8
LAYER-1
 10
3.901318
 20
0.165545
 30
0.000000
  0
VERTEX
  8
LAYER-1
 10
3.881955
 20
0.178233
 30
0.000000
  0
VERTEX
  8
LAYER-1
 10
3.875944
 20
0.166881
 30
0.000000
  0
SEQEND
  8
LAYER-1
  0
POLYLINE
  8
LAYER-1
 66
  1
 70
  0
 62
  0
 10
3.878212
 20
0.062201
 30
0.000000
  0
VERTEX
  8
LAYER-1
 10
3.878212
 20
0.062201
 30
0.000000
  0
VERTEX
  8
LAYER-1
 10
3.882553
 20
0.062201
 30
0.000000
  0
VERTEX
  8
LAYER-1
 10
3.886025
 20
0.066542
 30
0.000000
  0
VERTEX
  8
LAYER-1
 10
3.886894
 20
0.071749
 30
0.000000
  0
VERTEX
  8
LAYER-1
 10
3.885158
 20
0.076090
 30
0.000000
  0
VERTEX
  8
LAYER-1
 10
3.880817
 20
0.077826
 30
0.000000
  0
VERTEX
  8
LAYER-1
 10
3.876476
 20
0.077826
 30
0.000000
  0
VERTEX
  8
LAYER-1
 10
3.872136
 20
0.074354
 30
0.000000
  0
VERTEX
  8
LAYER-1
 10
3.872136
 20
0.070013
 30
0.000000
  0
VERTEX
  8
LAYER-1
 10
3.873004
 20
0.065673
 30
0.000000
  0
VERTEX
  8
LAYER-1
 10
3.877345
 20
0.063068
 30
0.000000
  0
SEQEND
  8
LAYER-1
  0
POLYLINE
  8
LAYER-1
 66
  1
 70
  0
 62
  0
 10
3.788370
 20
0.204996
 30
0.000000
  0
VERTEX
  8
LAYER-1
 10
3.788370
 20
0.204996
 30
0.000000
  0
VERTEX
  8
LAYER-1
 10
3.792711
 20
0.204996
 30
0.000000
  0
VERTEX
  8
LAYER-1
 10
3.796182
 20
0.209337
 30
0.000000
  0
VERTEX
  8
LAYER-1
 10
3.797049
 20
0.214545
 30
0.000000
  0
VERTEX
  8
LAYER-1
 10
3.795314
 20
0.218886
 30
0.000000
  0
VERTEX
  8
LAYER-1
 10
3.790973
 20
0.220621
 30
0.000000
  0
VERTEX
  8
LAYER-1
 10
3.786634
 20
0.220621
 30
0.000000
  0
VERTEX
  8
LAYER-1
 10
3.782293
 20
0.217150
 30
0.000000
  0
VERTEX
  8
LAYER-1
 10
3.782293
 20
0.212808
 30
0.000000
  0
VERTEX
  8
LAYER-1
 10
3.783160
 20
0.208468
 30
0.000000
  0
VERTEX
  8
LAYER-1
 10
3.787501
 20
0.205863
 30
0.000000
  0
SEQEND
  8
LAYER-1
  0
POLYLINE
  8
LAYER-1
 66
  1
 70
  0
 62
  0
 10
3.950698
 20
0.197929
 30
0.000000
  0
VERTEX
  8
LAYER-1
 10
3.950698
 20
0.197929
 30
0.000000
  0
VERTEX
  8
LAYER-1
 10
3.955038
 20
0.197929
 30
0.000000
  0
VERTEX
  8
LAYER-1
 10
3.958510
 20
0.202271
 30
0.000000
  0
VERTEX
  8
LAYER-1
 10
3.959377
 20
0.207478
 30
0.000000
  0
VERTEX
  8
LAYER-1
 10
3.957641
 20
0.211819
 30
0.000000
  0
VERTEX
  8
LAYER-1
 10
3.953300
 20
0.213554
 30
0.000000
  0
VERTEX
  8
LAYER-1
 10
3.948961
 20
0.213554
 30
0.000000
  0
VERTEX
  8
LAYER-1
 10
3.944621
 20
0.210083
 30
0.000000
  0
VERTEX
  8
LAYER-1
 10
3.944621
 20
0.205742
 30
0.000000
  0
VERTEX
  8
LAYER-1
 10
3.945488
 20
0.201402
 30
0.000000
  0
VERTEX
  8
LAYER-1
 10
3.949829
 20
0.198797
 30
0.000000
  0
SEQEND
  8
LAYER-1
  0
POLYLINE
  8
LAYER-1
 66
  1
 70
  1
 62
  0
 10
4.706772
 20
0.167115
 30
0.000000
  0
VERTEX
  8
LAYER-1
 10
4.706772
 20
0.167115
 30
0.000000
  0
VERTEX
  8
LAYER-1
 10
4.713717
 20
0.141073
 30
0.000000
  0
VERTEX
  8
LAYER-1
 10
4.738890
 20
0.154961
 30
0.000000
  0
SEQEND
  8
LAYER-1
  0
POLYLINE
  8
LAYER-1
 66
  1
 70
  1
 62
  0
 10
4.833507
 20
0.202705
 30
0.000000
  0
VERTEX
  8
LAYER-1
 10
4.833507
 20
0.202705
 30
0.000000
  0
VERTEX
  8
LAYER-1
 10
4.820486
 20
0.180136
 30
0.000000
  0
VERTEX
  8
LAYER-1
 10
4.850868
 20
0.200969
 30
0.000000
  0
SEQEND
  8
LAYER-1
  0
POLYLINE
  8
LAYER-1
 66
  1
 70
  1
 62
  0
 10
4.508857
 20
0.191422
 30
0.000000
  0
VERTEX
  8
LAYER-1
 10
4.508857
 20
0.191422
 30
0.000000
  0
VERTEX
  8
LAYER-1
 10
4.492364
 20
0.166247
 30
0.000000
  0
VERTEX
  8
LAYER-1
 10
4.507121
 20
0.158435
 30
0.000000
  0
SEQEND
  8
LAYER-1
  0
POLYLINE
  8
LAYER-1
 66
  1
 70
  0
 62
  0
 10
4.619099
 20
0.183611
 30
0.000000
  0
VERTEX
  8
LAYER-1
 10
4.619099
 20
0.183611
 30
0.000000
  0
VERTEX
  8
LAYER-1
 10
4.614758
 20
0.183611
 30
0.000000
  0
VERTEX
  8
LAYER-1
 10
4.611286
 20
0.179270
 30
0.000000
  0
VERTEX
  8
LAYER-1
 10
4.610417
 20
0.174062
 30
0.000000
  0
VERTEX
  8
LAYER-1
 10
4.612153
 20
0.169722
 30
0.000000
  0
VERTEX
  8
LAYER-1
 10
4.616494
 20
0.167986
 30
0.000000
  0
VERTEX
  8
LAYER-1
 10
4.620835
 20
0.167986
 30
0.000000
  0
VERTEX
  8
LAYER-1
 10
4.625175
 20
0.171458
 30
0.000000
  0
VERTEX
  8
LAYER-1
 10
4.625175
 20
0.175798
 30
0.000000
  0
VERTEX
  8
LAYER-1
 10
4.624307
 20
0.180139
 30
0.000000
  0
VERTEX
  8
LAYER-1
 10
4.619966
 20
0.182743
 30
0.000000
  0
SEQEND
  8
LAYER-1
  0
POLYLINE
  8
LAYER-1
 66
  1
 70
  1
 62
  0
 10
4.648613
 20
0.137601
 30
0.000000
  0
VERTEX
  8
LAYER-1
 10
4.648613
 20
0.137601
 30
0.000000
  0
VERTEX
  8
LAYER-1
 10
4.635592
 20
0.115032
 30
0.000000
  0
VERTEX
  8
LAYER-1
 10
4.665974
 20
0.135864
 30
0.000000
  0
SEQEND
  8
LAYER-1
  0
POLYLINE
  8
LAYER-1
 66
  1
 70
  1
 62
  0
 10
4.855910
 20
0.138133
 30
0.000000
  0
VERTEX
  8
LAYER-1
 10
4.855910
 20
0.138133
 30
0.000000
  0
VERTEX
  8
LAYER-1
 10
4.843224
 20
0.118768
 30
0.000000
  0
VERTEX
  8
LAYER-1
 10
4.854575
 20
0.112757
 30
0.000000
  0
SEQEND
  8
LAYER-1
  0
POLYLINE
  8
LAYER-1
 66
  1
 70
  0
 62
  0
 10
4.763195
 20
0.207046
 30
0.000000
  0
VERTEX
  8
LAYER-1
 10
4.763195
 20
0.207046
 30
0.000000
  0
VERTEX
  8
LAYER-1
 10
4.758854
 20
0.207046
 30
0.000000
  0
VERTEX
  8
LAYER-1
 10
4.755382
 20
0.202705
 30
0.000000
  0
VERTEX
  8
LAYER-1
 10
4.754514
 20
0.197497
 30
0.000000
  0
VERTEX
  8
LAYER-1
 10
4.756250
 20
0.193157
 30
0.000000
  0
VERTEX
  8
LAYER-1
 10
4.760590
 20
0.191421
 30
0.000000
  0
VERTEX
  8
LAYER-1
 10
4.764931
 20
0.191421
 30
0.000000
  0
VERTEX
  8
LAYER-1
 10
4.769271
 20
0.194892
 30
0.000000
  0
VERTEX
  8
LAYER-1
 10
4.769271
 20
0.199233
 30
0.000000
  0
VERTEX
  8
LAYER-1
 10
4.768403
 20
0.203573
 30
0.000000
  0
VERTEX
  8
LAYER-1
 10
4.764063
 20
0.206178
 30
0.000000
  0
SEQEND
  8
LAYER-1
  0
POLYLINE
  8
LAYER-1
 66
  1
 70
  0
 62
  0
 10
4.550523
 20
0.197496
 30
0.000000
  0
VERTEX
  8
LAYER-1
 10
4.550523
 20
0.197496
 30
0.000000
  0
VERTEX
  8
LAYER-1
 10
4.546183
 20
0.197496
 30
0.000000
  0
VERTEX
  8
LAYER-1
 10
4.542711
 20
0.193155
 30
0.000000
  0
VERTEX
  8
LAYER-1
 10
4.541843
 20
0.187948
 30
0.000000
  0
VERTEX
  8
LAYER-1
 10
4.543580
 20
0.183607
 30
0.000000
  0
VERTEX
  8
LAYER-1
 10
4.547919
 20
0.181871
 30
0.000000
  0
VERTEX
  8
LAYER-1
 10
4.552260
 20
0.181871
 30
0.000000
  0
VERTEX
  8
LAYER-1
 10
4.556600
 20
0.185343
 30
0.000000
  0
VERTEX
  8
LAYER-1
 10
4.556600
 20
0.189684
 30
0.000000
  0
VERTEX
  8
LAYER-1
 10
4.555732
 20
0.194024
 30
0.000000
  0
VERTEX
  8
LAYER-1
 10
4.551392
 20
0.196628
 30
0.000000
  0
SEQEND
  8
LAYER-1
  0
POLYLINE
  8
LAYER-1
 66
  1
 70
  0
 62
  0
 10
4.797919
 20
0.169716
 30
0.000000
  0
VERTEX
  8
LAYER-1
 10
4.797919
 20
0.169716
 30
0.000000
  0
VERTEX
  8
LAYER-1
 10
4.793579
 20
0.169716
 30
0.000000
  0
VERTEX
  8
LAYER-1
 10
4.790106
 20
0.165376
 30
0.000000
  0
VERTEX
  8
LAYER-1
 10
4.789239
 20
0.160167
 30
0.000000
  0
VERTEX
  8
LAYER-1
 10
4.790975
 20
0.155827
 30
0.000000
  0
VERTEX
  8
LAYER-1
 10
4.795316
 20
0.154091
 30
0.000000
  0
VERTEX
  8
LAYER-1
 10
4.799655
 20
0.154091
 30
0.000000
  0
VERTEX
  8
LAYER-1
 10
4.803995
 20
0.157563
 30
0.000000
  0
VERTEX
  8
LAYER-1
 10
4.803995
 20
0.161903
 30
0.000000
  0
VERTEX
  8
LAYER-1
 10
4.803129
 20
0.166245
 30
0.000000
  0
VERTEX
  8
LAYER-1
 10
4.798788
 20
0.168848
 30
0.000000
  0
SEQEND
  8
LAYER-1
  0
POLYLINE
  8
LAYER-1
 66
  1
 70
  1
 62
  0
 10
4.412502
 20
0.116332
 30
0.000000
  0
VERTEX
  8
LAYER-1
 10
4.412502
 20
0.116332
 30
0.000000
  0
VERTEX
  8
LAYER-1
 10
4.405557
 20
0.142372
 30
0.000000
  0
VERTEX
  8
LAYER-1
 10
4.380384
 20
0.128485
 30
0.000000
  0
SEQEND
  8
LAYER-1
  0
POLYLINE
  8
LAYER-1
 66
  1
 70
  1
 62
  0
 10
4.260592
 20
0.157128
 30
0.000000
  0
VERTEX
  8
LAYER-1
 10
4.260592
 20
0.157128
 30
0.000000
  0
VERTEX
  8
LAYER-1
 10
4.273613
 20
0.179699
 30
0.000000
  0
VERTEX
  8
LAYER-1
 10
4.243231
 20
0.158866
 30
0.000000
  0
SEQEND
  8
LAYER-1
  0
POLYLINE
  8
LAYER-1
 66
  1
 70
  1
 62
  0
 10
4.343926
 20
0.117203
 30
0.000000
  0
VERTEX
  8
LAYER-1
 10
4.343926
 20
0.117203
 30
0.000000
  0
VERTEX
  8
LAYER-1
 10
4.360419
 20
0.142376
 30
0.000000
  0
VERTEX
  8
LAYER-1
 10
4.345662
 20
0.150189
 30
0.000000
  0
SEQEND
  8
LAYER-1
  0
POLYLINE
  8
LAYER-1
 66
  1
 70
  0
 62
  0
 10
4.518406
 20
0.118940
 30
0.000000
  0
VERTEX
  8
LAYER-1
 10
4.518406
 20
0.118940
 30
0.000000
  0
VERTEX
  8
LAYER-1
 10
4.522747
 20
0.118940
 30
0.000000
  0
VERTEX
  8
LAYER-1
 10
4.526219
 20
0.123280
 30
0.000000
  0
VERTEX
  8
LAYER-1
 10
4.527086
 20
0.128488
 30
0.000000
  0
VERTEX
  8
LAYER-1
 10
4.525351
 20
0.132829
 30
0.000000
  0
VERTEX
  8
LAYER-1
 10
4.521010
 20
0.134565
 30
0.000000
  0
VERTEX
  8
LAYER-1
 10
4.516670
 20
0.134565
 30
0.000000
  0
VERTEX
  8
LAYER-1
 10
4.512330
 20
0.131092
 30
0.000000
  0
VERTEX
  8
LAYER-1
 10
4.512330
 20
0.126752
 30
0.000000
  0
VERTEX
  8
LAYER-1
 10
4.513198
 20
0.122411
 30
0.000000
  0
VERTEX
  8
LAYER-1
 10
4.517538
 20
0.119807
 30
0.000000
  0
SEQEND
  8
LAYER-1
  0
POLYLINE
  8
LAYER-1
 66
  1
 70
  1
 62
  0
 10
4.469794
 20
0.133695
 30
0.000000
  0
VERTEX
  8
LAYER-1
 10
4.469794
 20
0.133695
 30
0.000000
  0
VERTEX
  8
LAYER-1
 10
4.482814
 20
0.156265
 30
0.000000
  0
VERTEX
  8
LAYER-1
 10
4.452432
 20
0.135433
 30
0.000000
  0
SEQEND
  8
LAYER-1
  0
POLYLINE
  8
LAYER-1
 66
  1
 70
  1
 62
  0
 10
4.358850
 20
0.169620
 30
0.000000
  0
VERTEX
  8
LAYER-1
 10
4.358850
 20
0.169620
 30
0.000000
  0
VERTEX
  8
LAYER-1
 10
4.371536
 20
0.188983
 30
0.000000
  0
VERTEX
  8
LAYER-1
 10
4.360186
 20
0.194995
 30
0.000000
  0
SEQEND
  8
LAYER-1
  0
POLYLINE
  8
LAYER-1
 66
  1
 70
  0
 62
  0
 10
4.314497
 20
0.201091
 30
0.000000
  0
VERTEX
  8
LAYER-1
 10
4.314497
 20
0.201091
 30
0.000000
  0
VERTEX
  8
LAYER-1
 10
4.318837
 20
0.201091
 30
0.000000
  0
VERTEX
  8
LAYER-1
 10
4.322310
 20
0.205432
 30
0.000000
  0
VERTEX
  8
LAYER-1
 10
4.323178
 20
0.210639
 30
0.000000
  0
VERTEX
  8
LAYER-1
 10
4.321442
 20
0.214980
 30
0.000000
  0
VERTEX
  8
LAYER-1
 10
4.317101
 20
0.216716
 30
0.000000
  0
VERTEX
  8
LAYER-1
 10
4.312760
 20
0.216716
 30
0.000000
  0
VERTEX
  8
LAYER-1
 10
4.308421
 20
0.213244
 30
0.000000
  0
VERTEX
  8
LAYER-1
 10
4.308421
 20
0.208904
 30
0.000000
  0
VERTEX
  8
LAYER-1
 10
4.309288
 20
0.204563
 30
0.000000
  0
VERTEX
  8
LAYER-1
 10
4.313629
 20
0.201958
 30
0.000000
  0
SEQEND
  8
LAYER-1
  0
POLYLINE
  8
LAYER-1
 66
  1
 70
  0
 62
  0
 10
4.291843
 20
0.123279
 30
0.000000
  0
VERTEX
  8
LAYER-1
 10
4.291843
 20
0.123279
 30
0.000000
  0
VERTEX
  8
LAYER-1
 10
4.296183
 20
0.123279
 30
0.000000
  0
VERTEX
  8
LAYER-1
 10
4.299655
 20
0.127620
 30
0.000000
  0
VERTEX
  8
LAYER-1
 10
4.300523
 20
0.132828
 30
0.000000
  0
VERTEX
  8
LAYER-1
 10
4.298787
 20
0.137168
 30
0.000000
  0
VERTEX
  8
LAYER-1
 10
4.294447
 20
0.138904
 30
0.000000
  0
VERTEX
  8
LAYER-1
 10
4.290107
 20
0.138904
 30
0.000000
  0
VERTEX
  8
LAYER-1
 10
4.285766
 20
0.135433
 30
0.000000
  0
VERTEX
  8
LAYER-1
 10
4.285766
 20
0.131092
 30
0.000000
  0
VERTEX
  8
LAYER-1
 10
4.286634
 20
0.126751
 30
0.000000
  0
VERTEX
  8
LAYER-1
 10
4.290975
 20
0.124146
 30
0.000000
  0
SEQEND
  8
LAYER-1
  0
POLYLINE
  8
LAYER-1
 66
  1
 70
  0
 62
  0
 10
4.455905
 20
0.200535
 30
0.000000
  0
VERTEX
  8
LAYER-1
 10
4.455905
 20
0.200535
 30
0.000000
  0
VERTEX
  8
LAYER-1
 10
4.460246
 20
0.200535
 30
0.000000
  0
VERTEX
  8
LAYER-1
 10
4.463718
 20
0.204876
 30
0.000000
  0
VERTEX
  8
LAYER-1
 10
4.464586
 20
0.210084
 30
0.000000
  0
VERTEX
  8
LAYER-1
 10
4.462850
 20
0.214424
 30
0.000000
  0
VERTEX
  8
LAYER-1
 10
4.458509
 20
0.216160
 30
0.000000
  0
VERTEX
  8
LAYER-1
 10
4.454169
 20
0.216160
 30
0.000000
  0
VERTEX
  8
LAYER-1
 10
4.449829
 20
0.212689
 30
0.000000
  0
VERTEX
  8
LAYER-1
 10
4.449829
 20
0.208348
 30
0.000000
  0
VERTEX
  8
LAYER-1
 10
4.450697
 20
0.204007
 30
0.000000
  0
VERTEX
  8
LAYER-1
 10
4.455037
 20
0.201402
 30
0.000000
  0
SEQEND
  8
LAYER-1
  0
POLYLINE
  8
LAYER-1
 66
  1
 70
  1
 62
  0
 10
4.907722
 20
0.157132
 30
0.000000
  0
VERTEX
  8
LAYER-1
 10
4.907722
 20
0.157132
 30
0.000000
  0
VERTEX
  8
LAYER-1
 10
4.933764
 20
0.164076
 30
0.000000
  0
VERTEX
  8
LAYER-1
 10
4.919876
 20
0.189249
 30
0.000000
  0
SEQEND
  8
LAYER-1
  0
POLYLINE
  8
LAYER-1
 66
  1
 70
  1
 62
  0
 10
4.590018
 20
0.210084
 30
0.000000
  0
VERTEX
  8
LAYER-1
 10
4.590018
 20
0.210084
 30
0.000000
  0
VERTEX
  8
LAYER-1
 10
4.612588
 20
0.197063
 30
0.000000
  0
VERTEX
  8
LAYER-1
 10
4.591755
 20
0.227445
 30
0.000000
  0
SEQEND
  8
LAYER-1
  0
POLYLINE
  8
LAYER-1
 66
  1
 70
  1
 62
  0
 10
5.526647
 20
0.115461
 30
0.000000
  0
VERTEX
  8
LAYER-1
 10
5.526647
 20
0.115461
 30
0.000000
  0
VERTEX
  8
LAYER-1
 10
5.551822
 20
0.098968
 30
0.000000
  0
VERTEX
  8
LAYER-1
 10
5.559634
 20
0.113725
 30
0.000000
  0
SEQEND
  8
LAYER-1
  0
POLYLINE
  8
LAYER-1
 66
  1
 70
  0
 62
  0
 10
5.347827
 20
0.124143
 30
0.000000
  0
VERTEX
  8
LAYER-1
 10
5.347827
 20
0.124143
 30
0.000000
  0
VERTEX
  8
LAYER-1
 10
5.347827
 20
0.119804
 30
0.000000
  0
VERTEX
  8
LAYER-1
 10
5.352168
 20
0.116330
 30
0.000000
  0
VERTEX
  8
LAYER-1
 10
5.357376
 20
0.115464
 30
0.000000
  0
VERTEX
  8
LAYER-1
 10
5.361716
 20
0.117200
 30
0.000000
  0
VERTEX
  8
LAYER-1
 10
5.363452
 20
0.121540
 30
0.000000
  0
VERTEX
  8
LAYER-1
 10
5.363452
 20
0.125880
 30
0.000000
  0
VERTEX
  8
LAYER-1
 10
5.359981
 20
0.130220
 30
0.000000
  0
VERTEX
  8
LAYER-1
 10
5.355640
 20
0.130220
 30
0.000000
  0
VERTEX
  8
LAYER-1
 10
5.351299
 20
0.129352
 30
0.000000
  0
VERTEX
  8
LAYER-1
 10
5.348695
 20
0.125013
 30
0.000000
  0
SEQEND
  8
LAYER-1
  0
POLYLINE
  8
LAYER-1
 66
  1
 70
  1
 62
  0
 10
4.978036
 20
0.144109
 30
0.000000
  0
VERTEX
  8
LAYER-1
 10
4.978036
 20
0.144109
 30
0.000000
  0
VERTEX
  8
LAYER-1
 10
5.000606
 20
0.131089
 30
0.000000
  0
VERTEX
  8
LAYER-1
 10
4.979773
 20
0.161470
 30
0.000000
  0
SEQEND
  8
LAYER-1
  0
POLYLINE
  8
LAYER-1
 66
  1
 70
  1
 62
  0
 10
4.941044
 20
0.215124
 30
0.000000
  0
VERTEX
  8
LAYER-1
 10
4.941044
 20
0.215124
 30
0.000000
  0
VERTEX
  8
LAYER-1
 10
4.960409
 20
0.202438
 30
0.000000
  0
VERTEX
  8
LAYER-1
 10
4.966419
 20
0.213789
 30
0.000000
  0
SEQEND
  8
LAYER-1
  0
POLYLINE
  8
LAYER-1
 66
  1
 70
  0
 62
  0
 10
4.585679
 20
0.150188
 30
0.000000
  0
VERTEX
  8
LAYER-1
 10
4.585679
 20
0.150188
 30
0.000000
  0
VERTEX
  8
LAYER-1
 10
4.585679
 20
0.145848
 30
0.000000
  0
VERTEX
  8
LAYER-1
 10
4.590019
 20
0.142376
 30
0.000000
  0
VERTEX
  8
LAYER-1
 10
4.595227
 20
0.141507
 30
0.000000
  0
VERTEX
  8
LAYER-1
 10
4.599567
 20
0.143243
 30
0.000000
  0
VERTEX
  8
LAYER-1
 10
4.601304
 20
0.147584
 30
0.000000
  0
VERTEX
  8
LAYER-1
 10
4.601304
 20
0.151923
 30
0.000000
  0
VERTEX
  8
LAYER-1
 10
4.597832
 20
0.156264
 30
0.000000
  0
VERTEX
  8
LAYER-1
 10
4.593491
 20
0.156264
 30
0.000000
  0
VERTEX
  8
LAYER-1
 10
4.589150
 20
0.155396
 30
0.000000
  0
VERTEX
  8
LAYER-1
 10
4.586547
 20
0.151055
 30
0.000000
  0
SEQEND
  8
LAYER-1
  0
POLYLINE
  8
LAYER-1
 66
  1
 70
  0
 62
  0
 10
4.991924
 20
0.111992
 30
0.000000
  0
VERTEX
  8
LAYER-1
 10
4.991924
 20
0.111992
 30
0.000000
  0
VERTEX
  8
LAYER-1
 10
4.991924
 20
0.107652
 30
0.000000
  0
VERTEX
  8
LAYER-1
 10
4.996265
 20
0.104179
 30
0.000000
  0
VERTEX
  8
LAYER-1
 10
5.001472
 20
0.103310
 30
0.000000
  0
VERTEX
  8
LAYER-1
 10
5.005813
 20
0.105047
 30
0.000000
  0
VERTEX
  8
LAYER-1
 10
5.007549
 20
0.109388
 30
0.000000
  0
VERTEX
  8
LAYER-1
 10
5.007549
 20
0.113728
 30
0.000000
  0
VERTEX
  8
LAYER-1
 10
5.004077
 20
0.118069
 30
0.000000
  0
VERTEX
  8
LAYER-1
 10
4.999737
 20
0.118069
 30
0.000000
  0
VERTEX
  8
LAYER-1
 10
4.995396
 20
0.117200
 30
0.000000
  0
VERTEX
  8
LAYER-1
 10
4.992792
 20
0.112860
 30
0.000000
  0
SEQEND
  8
LAYER-1
  0
POLYLINE
  8
LAYER-1
 66
  1
 70
  0
 62
  0
 10
5.060501
 20
0.147583
 30
0.000000
  0
VERTEX
  8
LAYER-1
 10
5.060501
 20
0.147583
 30
0.000000
  0
VERTEX
  8
LAYER-1
 10
5.060501
 20
0.143242
 30
0.000000
  0
VERTEX
  8
LAYER-1
 10
5.064841
 20
0.139771
 30
0.000000
  0
VERTEX
  8
LAYER-1
 10
5.070049
 20
0.138902
 30
0.000000
  0
VERTEX
  8
LAYER-1
 10
5.074390
 20
0.140639
 30
0.000000
  0
VERTEX
  8
LAYER-1
 10
5.076126
 20
0.144978
 30
0.000000
  0
VERTEX
  8
LAYER-1
 10
5.076126
 20
0.149319
 30
0.000000
  0
VERTEX
  8
LAYER-1
 10
5.072654
 20
0.153659
 30
0.000000
  0
VERTEX
  8
LAYER-1
 10
5.068313
 20
0.153659
 30
0.000000
  0
VERTEX
  8
LAYER-1
 10
5.063972
 20
0.152790
 30
0.000000
  0
VERTEX
  8
LAYER-1
 10
5.061369
 20
0.148451
 30
0.000000
  0
SEQEND
  8
LAYER-1
  0
POLYLINE
  8
LAYER-1
 66
  1
 70
  1
 62
  0
 10
5.099911
 20
0.168850
 30
0.000000
  0
VERTEX
  8
LAYER-1
 10
5.099911
 20
0.168850
 30
0.000000
  0
VERTEX
  8
LAYER-1
 10
5.106856
 20
0.142810
 30
0.000000
  0
VERTEX
  8
LAYER-1
 10
5.132029
 20
0.156697
 30
0.000000
  0
SEQEND
  8
LAYER-1
  0
POLYLINE
  8
LAYER-1
 66
  1
 70
  1
 62
  0
 10
5.261456
 20
0.197497
 30
0.000000
  0
VERTEX
  8
LAYER-1
 10
5.261456
 20
0.197497
 30
0.000000
  0
VERTEX
  8
LAYER-1
 10
5.248435
 20
0.174927
 30
0.000000
  0
VERTEX
  8
LAYER-1
 10
5.278817
 20
0.195759
 30
0.000000
  0
SEQEND
  8
LAYER-1
  0
POLYLINE
  8
LAYER-1
 66
  1
 70
  1
 62
  0
 10
5.653818
 20
0.167978
 30
0.000000
  0
VERTEX
  8
LAYER-1
 10
5.653818
 20
0.167978
 30
0.000000
  0
VERTEX
  8
LAYER-1
 10
5.637325
 20
0.142804
 30
0.000000
  0
VERTEX
  8
LAYER-1
 10
5.652082
 20
0.134992
 30
0.000000
  0
SEQEND
  8
LAYER-1
  0
POLYLINE
  8
LAYER-1
 66
  1
 70
  0
 62
  0
 10
5.049651
 20
0.200100
 30
0.000000
  0
VERTEX
  8
LAYER-1
 10
5.049651
 20
0.200100
 30
0.000000
  0
VERTEX
  8
LAYER-1
 10
5.045310
 20
0.200100
 30
0.000000
  0
VERTEX
  8
LAYER-1
 10
5.041838
 20
0.195759
 30
0.000000
  0
VERTEX
  8
LAYER-1
 10
5.040970
 20
0.190552
 30
0.000000
  0
VERTEX
  8
LAYER-1
 10
5.042706
 20
0.186211
 30
0.000000
  0
VERTEX
  8
LAYER-1
 10
5.047047
 20
0.184475
 30
0.000000
  0
VERTEX
  8
LAYER-1
 10
5.051387
 20
0.184475
 30
0.000000
  0
VERTEX
  8
LAYER-1
 10
5.055728
 20
0.187947
 30
0.000000
  0
VERTEX
  8
LAYER-1
 10
5.055728
 20
0.192288
 30
0.000000
  0
VERTEX
  8
LAYER-1
 10
5.054860
 20
0.196628
 30
0.000000
  0
VERTEX
  8
LAYER-1
 10
5.050519
 20
0.199233
 30
0.000000
  0
SEQEND
  8
LAYER-1
  0
POLYLINE
  8
LAYER-1
 66
  1
 70
  1
 62
  0
 10
5.113020
 20
0.123711
 30
0.000000
  0
VERTEX
  8
LAYER-1
 10
5.113020
 20
0.123711
 30
0.000000
  0
VERTEX
  8
LAYER-1
 10
5.099998
 20
0.101140
 30
0.000000
  0
VERTEX
  8
LAYER-1
 10
5.130381
 20
0.121973
 30
0.000000
  0
SEQEND
  8
LAYER-1
  0
POLYLINE
  8
LAYER-1
 66
  1
 70
  1
 62
  0
 10
5.181763
 20
0.101473
 30
0.000000
  0
VERTEX
  8
LAYER-1
 10
5.181763
 20
0.101473
 30
0.000000
  0
VERTEX
  8
LAYER-1
 10
5.194450
 20
0.120837
 30
0.000000
  0
VERTEX
  8
LAYER-1
 10
5.183099
 20
0.126848
 30
0.000000
  0
SEQEND
  8
LAYER-1
  0
POLYLINE
  8
LAYER-1
 66
  1
 70
  0
 62
  0
 10
5.201560
 20
0.201836
 30
0.000000
  0
VERTEX
  8
LAYER-1
 10
5.201560
 20
0.201836
 30
0.000000
  0
VERTEX
  8
LAYER-1
 10
5.197220
 20
0.201836
 30
0.000000
  0
VERTEX
  8
LAYER-1
 10
5.193748
 20
0.197495
 30
0.000000
  0
VERTEX
  8
LAYER-1
 10
5.192880
 20
0.192288
 30
0.000000
  0
VERTEX
  8
LAYER-1
 10
5.194616
 20
0.187947
 30
0.000000
  0
VERTEX
  8
LAYER-1
 10
5.198956
 20
0.186211
 30
0.000000
  0
VERTEX
  8
LAYER-1
 10
5.203297
 20
0.186211
 30
0.000000
  0
VERTEX
  8
LAYER-1
 10
5.207637
 20
0.189683
 30
0.000000
  0
VERTEX
  8
LAYER-1
 10
5.207637
 20
0.194023
 30
0.000000
  0
VERTEX
  8
LAYER-1
 10
5.206769
 20
0.198364
 30
0.000000
  0
VERTEX
  8
LAYER-1
 10
5.202428
 20
0.200969
 30
0.000000
  0
SEQEND
  8
LAYER-1
  0
POLYLINE
  8
LAYER-1
 66
  1
 70
  0
 62
  0
 10
5.705901
 20
0.161902
 30
0.000000
  0
VERTEX
  8
LAYER-1
 10
5.705901
 20
0.161902
 30
0.000000
  0
VERTEX
  8
LAYER-1
 10
5.701561
 20
0.161902
 30
0.000000
  0
VERTEX
  8
LAYER-1
 10
5.698089
 20
0.157561
 30
0.000000
  0
VERTEX
  8
LAYER-1
 10
5.697221
 20
0.152353
 30
0.000000
  0
VERTEX
  8
LAYER-1
 10
5.698957
 20
0.148013
 30
0.000000
  0
VERTEX
  8
LAYER-1
 10
5.703298
 20
0.146277
 30
0.000000
  0
VERTEX
  8
LAYER-1
 10
5.707637
 20
0.146277
 30
0.000000
  0
VERTEX
  8
LAYER-1
 10
5.711978
 20
0.149748
 30
0.000000
  0
VERTEX
  8
LAYER-1
 10
5.711978
 20
0.154089
 30
0.000000
  0
VERTEX
  8
LAYER-1
 10
5.711110
 20
0.158429
 30
0.000000
  0
VERTEX
  8
LAYER-1
 10
5.706769
 20
0.161034
 30
0.000000
  0
SEQEND
  8
LAYER-1
  0
POLYLINE
  8
LAYER-1
 66
  1
 70
  0
 62
  0
 10
5.614756
 20
0.129784
 30
0.000000
  0
VERTEX
  8
LAYER-1
 10
5.614756
 20
0.129784
 30
0.000000
  0
VERTEX
  8
LAYER-1
 10
5.610416
 20
0.129784
 30
0.000000
  0
VERTEX
  8
LAYER-1
 10
5.606944
 20
0.125443
 30
0.000000
  0
VERTEX
  8
LAYER-1
 10
5.606076
 20
0.120235
 30
0.000000
  0
VERTEX
  8
LAYER-1
 10
5.607812
 20
0.115895
 30
0.000000
  0
VERTEX
  8
LAYER-1
 10
5.612153
 20
0.114159
 30
0.000000
  0
VERTEX
  8
LAYER-1
 10
5.616492
 20
0.114159
 30
0.000000
  0
VERTEX
  8
LAYER-1
 10
5.620833
 20
0.117630
 30
0.000000
  0
VERTEX
  8
LAYER-1
 10
5.620833
 20
0.121971
 30
0.000000
  0
VERTEX
  8
LAYER-1
 10
5.619965
 20
0.126311
 30
0.000000
  0
VERTEX
  8
LAYER-1
 10
5.615624
 20
0.128916
 30
0.000000
  0
SEQEND
  8
LAYER-1
  0
POLYLINE
  8
LAYER-1
 66
  1
 70
  1
 62
  0
 10
5.299651
 20
0.184042
 30
0.000000
  0
VERTEX
  8
LAYER-1
 10
5.299651
 20
0.184042
 30
0.000000
  0
VERTEX
  8
LAYER-1
 10
5.325691
 20
0.190987
 30
0.000000
  0
VERTEX
  8
LAYER-1
 10
5.311804
 20
0.216160
 30
0.000000
  0
SEQEND
  8
LAYER-1
  0
POLYLINE
  8
LAYER-1
 66
  1
 70
  0
 62
  0
 10
5.268401
 20
0.134563
 30
0.000000
  0
VERTEX
  8
LAYER-1
 10
5.268401
 20
0.134563
 30
0.000000
  0
VERTEX
  8
LAYER-1
 10
5.268401
 20
0.130223
 30
0.000000
  0
VERTEX
  8
LAYER-1
 10
5.272742
 20
0.126751
 30
0.000000
  0
VERTEX
  8
LAYER-1
 10
5.277949
 20
0.125883
 30
0.000000
  0
VERTEX
  8
LAYER-1
 10
5.282290
 20
0.127619
 30
0.000000
  0
VERTEX
  8
LAYER-1
 10
5.284026
 20
0.131959
 30
0.000000
  0
VERTEX
  8
LAYER-1
 10
5.284026
 20
0.136299
 30
0.000000
  0
VERTEX
  8
LAYER-1
 10
5.280554
 20
0.140639
 30
0.000000
  0
VERTEX
  8
LAYER-1
 10
5.276213
 20
0.140639
 30
0.000000
  0
VERTEX
  8
LAYER-1
 10
5.271873
 20
0.139771
 30
0.000000
  0
VERTEX
  8
LAYER-1
 10
5.269268
 20
0.135432
 30
0.000000
  0
SEQEND
  8
LAYER-1
  0
POLYLINE
  8
LAYER-1
 66
  1
 70
  1
 62
  0
 10
5.363453
 20
0.148017
 30
0.000000
  0
VERTEX
  8
LAYER-1
 10
5.363453
 20
0.148017
 30
0.000000
  0
VERTEX
  8
LAYER-1
 10
5.376473
 20
0.170588
 30
0.000000
  0
VERTEX
  8
LAYER-1
 10
5.346092
 20
0.149755
 30
0.000000
  0
SEQEND
  8
LAYER-1
  0
POLYLINE
  8
LAYER-1
 66
  1
 70
  0
 62
  0
 10
5.418574
 20
0.182307
 30
0.000000
  0
VERTEX
  8
LAYER-1
 10
5.418574
 20
0.182307
 30
0.000000
  0
VERTEX
  8
LAYER-1
 10
5.418574
 20
0.177966
 30
0.000000
  0
VERTEX
  8
LAYER-1
 10
5.422915
 20
0.174494
 30
0.000000
  0
VERTEX
  8
LAYER-1
 10
5.428123
 20
0.173626
 30
0.000000
  0
VERTEX
  8
LAYER-1
 10
5.432463
 20
0.175362
 30
0.000000
  0
VERTEX
  8
LAYER-1
 10
5.434199
 20
0.179702
 30
0.000000
  0
VERTEX
  8
LAYER-1
 10
5.434199
 20
0.184042
 30
0.000000
  0
VERTEX
  8
LAYER-1
 10
5.430728
 20
0.188383
 30
0.000000
  0
VERTEX
  8
LAYER-1
 10
5.426387
 20
0.188383
 30
0.000000
  0
VERTEX
  8
LAYER-1
 10
5.422046
 20
0.187514
 30
0.000000
  0
VERTEX
  8
LAYER-1
 10
5.419441
 20
0.183174
 30
0.000000
  0
SEQEND
  8
LAYER-1
  0
POLYLINE
  8
LAYER-1
 66
  1
 70
  1
 62
  0
 10
6.164499
 20
0.198711
 30
0.000000
  0
VERTEX
  8
LAYER-1
 10
6.164499
 20
0.198711
 30
0.000000
  0
VERTEX
  8
LAYER-1
 10
6.157554
 20
0.224753
 30
0.000000
  0
VERTEX
  8
LAYER-1
 10
6.132381
 20
0.210865
 30
0.000000
  0
SEQEND
  8
LAYER-1
  0
POLYLINE
  8
LAYER-1
 66
  1
 70
  0
 62
  0
 10
6.205038
 20
0.072495
 30
0.000000
  0
VERTEX
  8
LAYER-1
 10
6.205038
 20
0.072495
 30
0.000000
  0
VERTEX
  8
LAYER-1
 10
6.209378
 20
0.072495
 30
0.000000
  0
VERTEX
  8
LAYER-1
 10
6.212850
 20
0.076836
 30
0.000000
  0
VERTEX
  8
LAYER-1
 10
6.213717
 20
0.082044
 30
0.000000
  0
VERTEX
  8
LAYER-1
 10
6.211981
 20
0.086384
 30
0.000000
  0
VERTEX
  8
LAYER-1
 10
6.207642
 20
0.088120
 30
0.000000
  0
VERTEX
  8
LAYER-1
 10
6.203301
 20
0.088120
 30
0.000000
  0
VERTEX
  8
LAYER-1
 10
6.198961
 20
0.084648
 30
0.000000
  0
VERTEX
  8
LAYER-1
 10
6.198961
 20
0.080308
 30
0.000000
  0
VERTEX
  8
LAYER-1
 10
6.199829
 20
0.075967
 30
0.000000
  0
VERTEX
  8
LAYER-1
 10
6.204169
 20
0.073363
 30
0.000000
  0
SEQEND
  8
LAYER-1
  0
POLYLINE
  8
LAYER-1
 66
  1
 70
  1
 62
  0
 10
5.501473
 20
0.105482
 30
0.000000
  0
VERTEX
  8
LAYER-1
 10
5.501473
 20
0.105482
 30
0.000000
  0
VERTEX
  8
LAYER-1
 10
5.514494
 20
0.128052
 30
0.000000
  0
VERTEX
  8
LAYER-1
 10
5.484113
 20
0.107219
 30
0.000000
  0
SEQEND
  8
LAYER-1
  0
POLYLINE
  8
LAYER-1
 66
  1
 70
  0
 62
  0
 10
5.545226
 20
0.183816
 30
0.000000
  0
VERTEX
  8
LAYER-1
 10
5.545226
 20
0.183816
 30
0.000000
  0
VERTEX
  8
LAYER-1
 10
5.549566
 20
0.183816
 30
0.000000
  0
VERTEX
  8
LAYER-1
 10
5.553038
 20
0.188156
 30
0.000000
  0
VERTEX
  8
LAYER-1
 10
5.553907
 20
0.193364
 30
0.000000
  0
VERTEX
  8
LAYER-1
 10
5.552170
 20
0.197705
 30
0.000000
  0
VERTEX
  8
LAYER-1
 10
5.547830
 20
0.199441
 30
0.000000
  0
VERTEX
  8
LAYER-1
 10
5.543490
 20
0.199441
 30
0.000000
  0
VERTEX
  8
LAYER-1
 10
5.539149
 20
0.195969
 30
0.000000
  0
VERTEX
  8
LAYER-1
 10
5.539149
 20
0.191628
 30
0.000000
  0
VERTEX
  8
LAYER-1
 10
5.540018
 20
0.187287
 30
0.000000
  0
VERTEX
  8
LAYER-1
 10
5.544358
 20
0.184684
 30
0.000000
  0
SEQEND
  8
LAYER-1
  0
POLYLINE
  8
LAYER-1
 66
  1
 70
  1
 62
  0
 10
6.084812
 20
0.114598
 30
0.000000
  0
VERTEX
  8
LAYER-1
 10
6.084812
 20
0.114598
 30
0.000000
  0
VERTEX
  8
LAYER-1
 10
6.058770
 20
0.107652
 30
0.000000
  0
VERTEX
  8
LAYER-1
 10
6.072659
 20
0.082479
 30
0.000000
  0
SEQEND
  8
LAYER-1
  0
POLYLINE
  8
LAYER-1
 66
  1
 70
  0
 62
  0
 10
5.449824
 20
0.129356
 30
0.000000
  0
VERTEX
  8
LAYER-1
 10
5.449824
 20
0.129356
 30
0.000000
  0
VERTEX
  8
LAYER-1
 10
5.449824
 20
0.133695
 30
0.000000
  0
VERTEX
  8
LAYER-1
 10
5.445484
 20
0.137168
 30
0.000000
  0
VERTEX
  8
LAYER-1
 10
5.440276
 20
0.138035
 30
0.000000
  0
VERTEX
  8
LAYER-1
 10
5.435935
 20
0.136299
 30
0.000000
  0
VERTEX
  8
LAYER-1
 10
5.434199
 20
0.131959
 30
0.000000
  0
VERTEX
  8
LAYER-1
 10
5.434199
 20
0.127618
 30
0.000000
  0
VERTEX
  8
LAYER-1
 10
5.437671
 20
0.123279
 30
0.000000
  0
VERTEX
  8
LAYER-1
 10
5.442012
 20
0.123279
 30
0.000000
  0
VERTEX
  8
LAYER-1
 10
5.446353
 20
0.124146
 30
0.000000
  0
VERTEX
  8
LAYER-1
 10
5.448956
 20
0.128487
 30
0.000000
  0
SEQEND
  8
LAYER-1
  0
POLYLINE
  8
LAYER-1
 66
  1
 70
  1
 62
  0
 10
6.033596
 20
0.104182
 30
0.000000
  0
VERTEX
  8
LAYER-1
 10
6.033596
 20
0.104182
 30
0.000000
  0
VERTEX
  8
LAYER-1
 10
6.005818
 20
0.120673
 30
0.000000
  0
VERTEX
  8
LAYER-1
 10
6.026651
 20
0.090292
 30
0.000000
  0
SEQEND
  8
LAYER-1
  0
POLYLINE
  8
LAYER-1
 66
  1
 70
  0
 62
  0
 10
5.744096
 20
0.185774
 30
0.000000
  0
VERTEX
  8
LAYER-1
 10
5.744096
 20
0.185774
 30
0.000000
  0
VERTEX
  8
LAYER-1
 10
5.744096
 20
0.190115
 30
0.000000
  0
VERTEX
  8
LAYER-1
 10
5.739755
 20
0.193587
 30
0.000000
  0
VERTEX
  8
LAYER-1
 10
5.734548
 20
0.194456
 30
0.000000
  0
VERTEX
  8
LAYER-1
 10
5.730207
 20
0.192718
 30
0.000000
  0
VERTEX
  8
LAYER-1
 10
5.728471
 20
0.188379
 30
0.000000
  0
VERTEX
  8
LAYER-1
 10
5.728471
 20
0.184039
 30
0.000000
  0
VERTEX
  8
LAYER-1
 10
5.731943
 20
0.179698
 30
0.000000
  0
VERTEX
  8
LAYER-1
 10
5.736284
 20
0.179698
 30
0.000000
  0
VERTEX
  8
LAYER-1
 10
5.740624
 20
0.180567
 30
0.000000
  0
VERTEX
  8
LAYER-1
 10
5.743228
 20
0.184905
 30
0.000000
  0
SEQEND
  8
LAYER-1
  0
POLYLINE
  8
LAYER-1
 66
  1
 70
  1
 62
  0
 10
6.314760
 20
0.092289
 30
0.000000
  0
VERTEX
  8
LAYER-1
 10
6.314760
 20
0.092289
 30
0.000000
  0
VERTEX
  8
LAYER-1
 10
6.307815
 20
0.118330
 30
0.000000
  0
VERTEX
  8
LAYER-1
 10
6.282642
 20
0.104442
 30
0.000000
  0
SEQEND
  8
LAYER-1
  0
POLYLINE
  8
LAYER-1
 66
  1
 70
  0
 62
  0
 10
6.404605
 20
0.192549
 30
0.000000
  0
VERTEX
  8
LAYER-1
 10
6.404605
 20
0.192549
 30
0.000000
  0
VERTEX
  8
LAYER-1
 10
6.408945
 20
0.192549
 30
0.000000
  0
VERTEX
  8
LAYER-1
 10
6.412417
 20
0.196889
 30
0.000000
  0
VERTEX
  8
LAYER-1
 10
6.413284
 20
0.202098
 30
0.000000
  0
VERTEX
  8
LAYER-1
 10
6.411548
 20
0.206438
 30
0.000000
  0
VERTEX
  8
LAYER-1
 10
6.407209
 20
0.208174
 30
0.000000
  0
VERTEX
  8
LAYER-1
 10
6.402868
 20
0.208174
 30
0.000000
  0
VERTEX
  8
LAYER-1
 10
6.398528
 20
0.204702
 30
0.000000
  0
VERTEX
  8
LAYER-1
 10
6.398528
 20
0.200361
 30
0.000000
  0
VERTEX
  8
LAYER-1
 10
6.399397
 20
0.196020
 30
0.000000
  0
VERTEX
  8
LAYER-1
 10
6.403736
 20
0.193417
 30
0.000000
  0
SEQEND
  8
LAYER-1
  0
POLYLINE
  8
LAYER-1
 66
  1
 70
  1
 62
  0
 10
6.389846
 20
0.227705
 30
0.000000
  0
VERTEX
  8
LAYER-1
 10
6.389846
 20
0.227705
 30
0.000000
  0
VERTEX
  8
LAYER-1
 10
6.363804
 20
0.220761
 30
0.000000
  0
VERTEX
  8
LAYER-1
 10
6.377693
 20
0.195587
 30
0.000000
  0
SEQEND
  8
LAYER-1
  0
POLYLINE
  8
LAYER-1
 66
  1
 70
  1
 62
  0
 10
5.638627
 20
0.086388
 30
0.000000
  0
VERTEX
  8
LAYER-1
 10
5.638627
 20
0.086388
 30
0.000000
  0
VERTEX
  8
LAYER-1
 10
5.651647
 20
0.108958
 30
0.000000
  0
VERTEX
  8
LAYER-1
 10
5.621266
 20
0.088125
 30
0.000000
  0
SEQEND
  8
LAYER-1
  0
POLYLINE
  8
LAYER-1
 66
  1
 70
  0
 62
  0
 10
5.635154
 20
0.193158
 30
0.000000
  0
VERTEX
  8
LAYER-1
 10
5.635154
 20
0.193158
 30
0.000000
  0
VERTEX
  8
LAYER-1
 10
5.639495
 20
0.193158
 30
0.000000
  0
VERTEX
  8
LAYER-1
 10
5.642966
 20
0.197498
 30
0.000000
  0
VERTEX
  8
LAYER-1
 10
5.643835
 20
0.202705
 30
0.000000
  0
VERTEX
  8
LAYER-1
 10
5.642100
 20
0.207047
 30
0.000000
  0
VERTEX
  8
LAYER-1
 10
5.637759
 20
0.208783
 30
0.000000
  0
VERTEX
  8
LAYER-1
 10
5.633418
 20
0.208783
 30
0.000000
  0
VERTEX
  8
LAYER-1
 10
5.629077
 20
0.205310
 30
0.000000
  0
VERTEX
  8
LAYER-1
 10
5.629077
 20
0.200970
 30
0.000000
  0
VERTEX
  8
LAYER-1
 10
5.629946
 20
0.196629
 30
0.000000
  0
VERTEX
  8
LAYER-1
 10
5.634287
 20
0.194026
 30
0.000000
  0
SEQEND
  8
LAYER-1
  0
POLYLINE
  8
LAYER-1
 66
  1
 70
  1
 62
  0
 10
5.587844
 20
0.171889
 30
0.000000
  0
VERTEX
  8
LAYER-1
 10
5.587844
 20
0.171889
 30
0.000000
  0
VERTEX
  8
LAYER-1
 10
5.613020
 20
0.155396
 30
0.000000
  0
VERTEX
  8
LAYER-1
 10
5.620832
 20
0.170152
 30
0.000000
  0
SEQEND
  8
LAYER-1
  0
POLYLINE
  8
LAYER-1
 66
  1
 70
  1
 62
  0
 10
5.574492
 20
0.144276
 30
0.000000
  0
VERTEX
  8
LAYER-1
 10
5.574492
 20
0.144276
 30
0.000000
  0
VERTEX
  8
LAYER-1
 10
5.555128
 20
0.156964
 30
0.000000
  0
VERTEX
  8
LAYER-1
 10
5.549116
 20
0.145612
 30
0.000000
  0
SEQEND
  8
LAYER-1
  0
POLYLINE
  8
LAYER-1
 66
  1
 70
  1
 62
  0
 10
1.351737
 20
0.203139
 30
0.000000
  0
VERTEX
  8
LAYER-1
 10
1.351737
 20
0.203139
 30
0.000000
  0
VERTEX
  8
LAYER-1
 10
1.338716
 20
0.180569
 30
0.000000
  0
VERTEX
  8
LAYER-1
 10
1.369098
 20
0.201402
 30
0.000000
  0
SEQEND
  8
LAYER-1
  0
POLYLINE
  8
LAYER-1
 66
  1
 70
  1
 62
  0
 10
5.901217
 20
0.130224
 30
0.000000
  0
VERTEX
  8
LAYER-1
 10
5.901217
 20
0.130224
 30
0.000000
  0
VERTEX
  8
LAYER-1
 10
5.923786
 20
0.117203
 30
0.000000
  0
VERTEX
  8
LAYER-1
 10
5.902954
 20
0.147585
 30
0.000000
  0
SEQEND
  8
LAYER-1
  0
POLYLINE
  8
LAYER-1
 66
  1
 70
  0
 62
  0
 10
5.829169
 20
0.177096
 30
0.000000
  0
VERTEX
  8
LAYER-1
 10
5.829169
 20
0.177096
 30
0.000000
  0
VERTEX
  8
LAYER-1
 10
5.829169
 20
0.172755
 30
0.000000
  0
VERTEX
  8
LAYER-1
 10
5.833509
 20
0.169284
 30
0.000000
  0
VERTEX
  8
LAYER-1
 10
5.838717
 20
0.168415
 30
0.000000
  0
VERTEX
  8
LAYER-1
 10
5.843057
 20
0.170152
 30
0.000000
  0
VERTEX
  8
LAYER-1
 10
5.844794
 20
0.174492
 30
0.000000
  0
VERTEX
  8
LAYER-1
 10
5.844794
 20
0.178832
 30
0.000000
  0
VERTEX
  8
LAYER-1
 10
5.841322
 20
0.183172
 30
0.000000
  0
VERTEX
  8
LAYER-1
 10
5.836981
 20
0.183172
 30
0.000000
  0
VERTEX
  8
LAYER-1
 10
5.832640
 20
0.182304
 30
0.000000
  0
VERTEX
  8
LAYER-1
 10
5.830036
 20
0.177964
 30
0.000000
  0
SEQEND
  8
LAYER-1
  0
POLYLINE
  8
LAYER-1
 66
  1
 70
  1
 62
  0
 10
5.778820
 20
0.188382
 30
0.000000
  0
VERTEX
  8
LAYER-1
 10
5.778820
 20
0.188382
 30
0.000000
  0
VERTEX
  8
LAYER-1
 10
5.801390
 20
0.175361
 30
0.000000
  0
VERTEX
  8
LAYER-1
 10
5.780557
 20
0.205743
 30
0.000000
  0
SEQEND
  8
LAYER-1
  0
POLYLINE
  8
LAYER-1
 66
  1
 70
  0
 62
  0
 10
6.040974
 20
0.130224
 30
0.000000
  0
VERTEX
  8
LAYER-1
 10
6.040974
 20
0.130224
 30
0.000000
  0
VERTEX
  8
LAYER-1
 10
6.040974
 20
0.125883
 30
0.000000
  0
VERTEX
  8
LAYER-1
 10
6.045314
 20
0.122411
 30
0.000000
  0
VERTEX
  8
LAYER-1
 10
6.050522
 20
0.121543
 30
0.000000
  0
VERTEX
  8
LAYER-1
 10
6.054863
 20
0.123279
 30
0.000000
  0
VERTEX
  8
LAYER-1
 10
6.056599
 20
0.127619
 30
0.000000
  0
VERTEX
  8
LAYER-1
 10
6.056599
 20
0.131960
 30
0.000000
  0
VERTEX
  8
LAYER-1
 10
6.053127
 20
0.136301
 30
0.000000
  0
VERTEX
  8
LAYER-1
 10
6.048786
 20
0.136301
 30
0.000000
  0
VERTEX
  8
LAYER-1
 10
6.044445
 20
0.135432
 30
0.000000
  0
VERTEX
  8
LAYER-1
 10
6.041842
 20
0.131092
 30
0.000000
  0
SEQEND
  8
LAYER-1
  0
POLYLINE
  8
LAYER-1
 66
  1
 70
  0
 62
  0
 10
5.875175
 20
0.184911
 30
0.000000
  0
VERTEX
  8
LAYER-1
 10
5.875175
 20
0.184911
 30
0.000000
  0
VERTEX
  8
LAYER-1
 10
5.875175
 20
0.180571
 30
0.000000
  0
VERTEX
  8
LAYER-1
 10
5.879516
 20
0.177099
 30
0.000000
  0
VERTEX
  8
LAYER-1
 10
5.884724
 20
0.176231
 30
0.000000
  0
VERTEX
  8
LAYER-1
 10
5.889064
 20
0.177967
 30
0.000000
  0
VERTEX
  8
LAYER-1
 10
5.890800
 20
0.182307
 30
0.000000
  0
VERTEX
  8
LAYER-1
 10
5.890800
 20
0.186647
 30
0.000000
  0
VERTEX
  8
LAYER-1
 10
5.887329
 20
0.190988
 30
0.000000
  0
VERTEX
  8
LAYER-1
 10
5.882988
 20
0.190988
 30
0.000000
  0
VERTEX
  8
LAYER-1
 10
5.878647
 20
0.190119
 30
0.000000
  0
VERTEX
  8
LAYER-1
 10
5.876042
 20
0.185779
 30
0.000000
  0
SEQEND
  8
LAYER-1
  0
POLYLINE
  8
LAYER-1
 66
  1
 70
  1
 62
  0
 10
5.799655
 20
0.120241
 30
0.000000
  0
VERTEX
  8
LAYER-1
 10
5.799655
 20
0.120241
 30
0.000000
  0
VERTEX
  8
LAYER-1
 10
5.786634
 20
0.097671
 30
0.000000
  0
VERTEX
  8
LAYER-1
 10
5.817016
 20
0.118503
 30
0.000000
  0
SEQEND
  8
LAYER-1
  0
POLYLINE
  8
LAYER-1
 66
  1
 70
  0
 62
  0
 10
5.725955
 20
0.112376
 30
0.000000
  0
VERTEX
  8
LAYER-1
 10
5.725955
 20
0.112376
 30
0.000000
  0
VERTEX
  8
LAYER-1
 10
5.721615
 20
0.112376
 30
0.000000
  0
VERTEX
  8
LAYER-1
 10
5.718142
 20
0.108035
 30
0.000000
  0
VERTEX
  8
LAYER-1
 10
5.717274
 20
0.102827
 30
0.000000
  0
VERTEX
  8
LAYER-1
 10
5.719010
 20
0.098486
 30
0.000000
  0
VERTEX
  8
LAYER-1
 10
5.723351
 20
0.096751
 30
0.000000
  0
VERTEX
  8
LAYER-1
 10
5.727691
 20
0.096751
 30
0.000000
  0
VERTEX
  8
LAYER-1
 10
5.732031
 20
0.100222
 30
0.000000
  0
VERTEX
  8
LAYER-1
 10
5.732031
 20
0.104563
 30
0.000000
  0
VERTEX
  8
LAYER-1
 10
5.731163
 20
0.108904
 30
0.000000
  0
VERTEX
  8
LAYER-1
 10
5.726822
 20
0.111509
 30
0.000000
  0
SEQEND
  8
LAYER-1
  0
POLYLINE
  8
LAYER-1
 66
  1
 70
  0
 62
  0
 10
5.799655
 20
0.150621
 30
0.000000
  0
VERTEX
  8
LAYER-1
 10
5.799655
 20
0.150621
 30
0.000000
  0
VERTEX
  8
LAYER-1
 10
5.795314
 20
0.150621
 30
0.000000
  0
VERTEX
  8
LAYER-1
 10
5.791843
 20
0.146280
 30
0.000000
  0
VERTEX
  8
LAYER-1
 10
5.790975
 20
0.141073
 30
0.000000
  0
VERTEX
  8
LAYER-1
 10
5.792711
 20
0.136732
 30
0.000000
  0
VERTEX
  8
LAYER-1
 10
5.797051
 20
0.134996
 30
0.000000
  0
VERTEX
  8
LAYER-1
 10
5.801391
 20
0.134996
 30
0.000000
  0
VERTEX
  8
LAYER-1
 10
5.805732
 20
0.138468
 30
0.000000
  0
VERTEX
  8
LAYER-1
 10
5.805732
 20
0.142809
 30
0.000000
  0
VERTEX
  8
LAYER-1
 10
5.804864
 20
0.147149
 30
0.000000
  0
VERTEX
  8
LAYER-1
 10
5.800523
 20
0.149754
 30
0.000000
  0
SEQEND
  8
LAYER-1
  0
POLYLINE
  8
LAYER-1
 66
  1
 70
  1
 62
  0
 10
6.106947
 20
0.167115
 30
0.000000
  0
VERTEX
  8
LAYER-1
 10
6.106947
 20
0.167115
 30
0.000000
  0
VERTEX
  8
LAYER-1
 10
6.113891
 20
0.141073
 30
0.000000
  0
VERTEX
  8
LAYER-1
 10
6.139064
 20
0.154961
 30
0.000000
  0
SEQEND
  8
LAYER-1
  0
POLYLINE
  8
LAYER-1
 66
  1
 70
  1
 62
  0
 10
6.269273
 20
0.195761
 30
0.000000
  0
VERTEX
  8
LAYER-1
 10
6.269273
 20
0.195761
 30
0.000000
  0
VERTEX
  8
LAYER-1
 10
6.256252
 20
0.173191
 30
0.000000
  0
VERTEX
  8
LAYER-1
 10
6.286634
 20
0.194024
 30
0.000000
  0
SEQEND
  8
LAYER-1
  0
POLYLINE
  8
LAYER-1
 66
  1
 70
  0
 62
  0
 10
6.057468
 20
0.198365
 30
0.000000
  0
VERTEX
  8
LAYER-1
 10
6.057468
 20
0.198365
 30
0.000000
  0
VERTEX
  8
LAYER-1
 10
6.053127
 20
0.198365
 30
0.000000
  0
VERTEX
  8
LAYER-1
 10
6.049655
 20
0.194024
 30
0.000000
  0
VERTEX
  8
LAYER-1
 10
6.048786
 20
0.188816
 30
0.000000
  0
VERTEX
  8
LAYER-1
 10
6.050523
 20
0.184476
 30
0.000000
  0
VERTEX
  8
LAYER-1
 10
6.054863
 20
0.182740
 30
0.000000
  0
VERTEX
  8
LAYER-1
 10
6.059204
 20
0.182740
 30
0.000000
  0
VERTEX
  8
LAYER-1
 10
6.063544
 20
0.186211
 30
0.000000
  0
VERTEX
  8
LAYER-1
 10
6.063544
 20
0.190553
 30
0.000000
  0
VERTEX
  8
LAYER-1
 10
6.062675
 20
0.194893
 30
0.000000
  0
VERTEX
  8
LAYER-1
 10
6.058336
 20
0.197497
 30
0.000000
  0
SEQEND
  8
LAYER-1
  0
POLYLINE
  8
LAYER-1
 66
  1
 70
  1
 62
  0
 10
6.167712
 20
0.130657
 30
0.000000
  0
VERTEX
  8
LAYER-1
 10
6.167712
 20
0.130657
 30
0.000000
  0
VERTEX
  8
LAYER-1
 10
6.154691
 20
0.108086
 30
0.000000
  0
VERTEX
  8
LAYER-1
 10
6.185073
 20
0.128920
 30
0.000000
  0
SEQEND
  8
LAYER-1
  0
POLYLINE
  8
LAYER-1
 66
  1
 70
  0
 62
  0
 10
6.209377
 20
0.200101
 30
0.000000
  0
VERTEX
  8
LAYER-1
 10
6.209377
 20
0.200101
 30
0.000000
  0
VERTEX
  8
LAYER-1
 10
6.205036
 20
0.200101
 30
0.000000
  0
VERTEX
  8
LAYER-1
 10
6.201564
 20
0.195760
 30
0.000000
  0
VERTEX
  8
LAYER-1
 10
6.200697
 20
0.190553
 30
0.000000
  0
VERTEX
  8
LAYER-1
 10
6.202432
 20
0.186211
 30
0.000000
  0
VERTEX
  8
LAYER-1
 10
6.206773
 20
0.184476
 30
0.000000
  0
VERTEX
  8
LAYER-1
 10
6.211113
 20
0.184476
 30
0.000000
  0
VERTEX
  8
LAYER-1
 10
6.215454
 20
0.187948
 30
0.000000
  0
VERTEX
  8
LAYER-1
 10
6.215454
 20
0.192289
 30
0.000000
  0
VERTEX
  8
LAYER-1
 10
6.214586
 20
0.196629
 30
0.000000
  0
VERTEX
  8
LAYER-1
 10
6.210245
 20
0.199233
 30
0.000000
  0
SEQEND
  8
LAYER-1
  0
POLYLINE
  8
LAYER-1
 66
  1
 70
  1
 62
  0
 10
6.548787
 20
0.191421
 30
0.000000
  0
VERTEX
  8
LAYER-1
 10
6.548787
 20
0.191421
 30
0.000000
  0
VERTEX
  8
LAYER-1
 10
6.555731
 20
0.165380
 30
0.000000
  0
VERTEX
  8
LAYER-1
 10
6.580904
 20
0.179267
 30
0.000000
  0
SEQEND
  8
LAYER-1
  0
POLYLINE
  8
LAYER-1
 66
  1
 70
  1
 62
  0
 10
6.711113
 20
0.220067
 30
0.000000
  0
VERTEX
  8
LAYER-1
 10
6.711113
 20
0.220067
 30
0.000000
  0
VERTEX
  8
LAYER-1
 10
6.698092
 20
0.197497
 30
0.000000
  0
VERTEX
  8
LAYER-1
 10
6.728474
 20
0.218330
 30
0.000000
  0
SEQEND
  8
LAYER-1
  0
POLYLINE
  8
LAYER-1
 66
  1
 70
  1
 62
  0
 10
5.939412
 20
0.155830
 30
0.000000
  0
VERTEX
  8
LAYER-1
 10
5.939412
 20
0.155830
 30
0.000000
  0
VERTEX
  8
LAYER-1
 10
5.964585
 20
0.139336
 30
0.000000
  0
VERTEX
  8
LAYER-1
 10
5.972398
 20
0.154095
 30
0.000000
  0
SEQEND
  8
LAYER-1
  0
POLYLINE
  8
LAYER-1
 66
  1
 70
  0
 62
  0
 10
6.509724
 20
0.212255
 30
0.000000
  0
VERTEX
  8
LAYER-1
 10
6.509724
 20
0.212255
 30
0.000000
  0
VERTEX
  8
LAYER-1
 10
6.505383
 20
0.212255
 30
0.000000
  0
VERTEX
  8
LAYER-1
 10
6.501912
 20
0.207915
 30
0.000000
  0
VERTEX
  8
LAYER-1
 10
6.501044
 20
0.202707
 30
0.000000
  0
VERTEX
  8
LAYER-1
 10
6.502779
 20
0.198366
 30
0.000000
  0
VERTEX
  8
LAYER-1
 10
6.507120
 20
0.196630
 30
0.000000
  0
VERTEX
  8
LAYER-1
 10
6.511460
 20
0.196630
 30
0.000000
  0
VERTEX
  8
LAYER-1
 10
6.515800
 20
0.200102
 30
0.000000
  0
VERTEX
  8
LAYER-1
 10
6.515800
 20
0.204442
 30
0.000000
  0
VERTEX
  8
LAYER-1
 10
6.514932
 20
0.208783
 30
0.000000
  0
VERTEX
  8
LAYER-1
 10
6.510592
 20
0.211388
 30
0.000000
  0
SEQEND
  8
LAYER-1
  0
POLYLINE
  8
LAYER-1
 66
  1
 70
  1
 62
  0
 10
6.525350
 20
0.123713
 30
0.000000
  0
VERTEX
  8
LAYER-1
 10
6.525350
 20
0.123713
 30
0.000000
  0
VERTEX
  8
LAYER-1
 10
6.512329
 20
0.101142
 30
0.000000
  0
VERTEX
  8
LAYER-1
 10
6.542711
 20
0.121975
 30
0.000000
  0
SEQEND
  8
LAYER-1
  0
POLYLINE
  8
LAYER-1
 66
  1
 70
  1
 62
  0
 10
6.619800
 20
0.138130
 30
0.000000
  0
VERTEX
  8
LAYER-1
 10
6.619800
 20
0.138130
 30
0.000000
  0
VERTEX
  8
LAYER-1
 10
6.607113
 20
0.118767
 30
0.000000
  0
VERTEX
  8
LAYER-1
 10
6.618464
 20
0.112756
 30
0.000000
  0
SEQEND
  8
LAYER-1
  0
POLYLINE
  8
LAYER-1
 66
  1
 70
  0
 62
  0
 10
6.651217
 20
0.216595
 30
0.000000
  0
VERTEX
  8
LAYER-1
 10
6.651217
 20
0.216595
 30
0.000000
  0
VERTEX
  8
LAYER-1
 10
6.646877
 20
0.216595
 30
0.000000
  0
VERTEX
  8
LAYER-1
 10
6.643404
 20
0.212254
 30
0.000000
  0
VERTEX
  8
LAYER-1
 10
6.642537
 20
0.207047
 30
0.000000
  0
VERTEX
  8
LAYER-1
 10
6.644272
 20
0.202705
 30
0.000000
  0
VERTEX
  8
LAYER-1
 10
6.648613
 20
0.200970
 30
0.000000
  0
VERTEX
  8
LAYER-1
 10
6.652954
 20
0.200970
 30
0.000000
  0
VERTEX
  8
LAYER-1
 10
6.657294
 20
0.204441
 30
0.000000
  0
VERTEX
  8
LAYER-1
 10
6.657294
 20
0.208783
 30
0.000000
  0
VERTEX
  8
LAYER-1
 10
6.656425
 20
0.213123
 30
0.000000
  0
VERTEX
  8
LAYER-1
 10
6.652085
 20
0.215728
 30
0.000000
  0
SEQEND
  8
LAYER-1
  0
POLYLINE
  8
LAYER-1
 66
  1
 70
  0
 62
  0
 10
5.928128
 20
0.208783
 30
0.000000
  0
VERTEX
  8
LAYER-1
 10
5.928128
 20
0.208783
 30
0.000000
  0
VERTEX
  8
LAYER-1
 10
5.928128
 20
0.204441
 30
0.000000
  0
VERTEX
  8
LAYER-1
 10
5.932468
 20
0.200970
 30
0.000000
  0
VERTEX
  8
LAYER-1
 10
5.937676
 20
0.200101
 30
0.000000
  0
VERTEX
  8
LAYER-1
 10
5.942017
 20
0.201836
 30
0.000000
  0
VERTEX
  8
LAYER-1
 10
5.943753
 20
0.206178
 30
0.000000
  0
VERTEX
  8
LAYER-1
 10
5.943753
 20
0.210518
 30
0.000000
  0
VERTEX
  8
LAYER-1
 10
5.940281
 20
0.214859
 30
0.000000
  0
VERTEX
  8
LAYER-1
 10
5.935940
 20
0.214859
 30
0.000000
  0
VERTEX
  8
LAYER-1
 10
5.931600
 20
0.213990
 30
0.000000
  0
VERTEX
  8
LAYER-1
 10
5.928994
 20
0.209649
 30
0.000000
  0
SEQEND
  8
LAYER-1
  0
POLYLINE
  8
LAYER-1
 66
  1
 70
  0
 62
  0
 10
6.491494
 20
0.124579
 30
0.000000
  0
VERTEX
  8
LAYER-1
 10
6.491494
 20
0.124579
 30
0.000000
  0
VERTEX
  8
LAYER-1
 10
6.487153
 20
0.124579
 30
0.000000
  0
VERTEX
  8
LAYER-1
 10
6.483682
 20
0.120238
 30
0.000000
  0
VERTEX
  8
LAYER-1
 10
6.482814
 20
0.115030
 30
0.000000
  0
VERTEX
  8
LAYER-1
 10
6.484550
 20
0.110690
 30
0.000000
  0
VERTEX
  8
LAYER-1
 10
6.488890
 20
0.108954
 30
0.000000
  0
VERTEX
  8
LAYER-1
 10
6.493230
 20
0.108954
 30
0.000000
  0
VERTEX
  8
LAYER-1
 10
6.497571
 20
0.112426
 30
0.000000
  0
VERTEX
  8
LAYER-1
 10
6.497571
 20
0.116766
 30
0.000000
  0
VERTEX
  8
LAYER-1
 10
6.496703
 20
0.121107
 30
0.000000
  0
VERTEX
  8
LAYER-1
 10
6.492362
 20
0.123711
 30
0.000000
  0
SEQEND
  8
LAYER-1
  0
POLYLINE
  8
LAYER-1
 66
  1
 70
  0
 62
  0
 10
6.389934
 20
0.162341
 30
0.000000
  0
VERTEX
  8
LAYER-1
 10
6.389934
 20
0.162341
 30
0.000000
  0
VERTEX
  8
LAYER-1
 10
6.389934
 20
0.166682
 30
0.000000
  0
VERTEX
  8
LAYER-1
 10
6.385593
 20
0.170153
 30
0.000000
  0
VERTEX
  8
LAYER-1
 10
6.380385
 20
0.171021
 30
0.000000
  0
VERTEX
  8
LAYER-1
 10
6.376044
 20
0.169285
 30
0.000000
  0
VERTEX
  8
LAYER-1
 10
6.374309
 20
0.164945
 30
0.000000
  0
VERTEX
  8
LAYER-1
 10
6.374309
 20
0.160605
 30
0.000000
  0
VERTEX
  8
LAYER-1
 10
6.377780
 20
0.156265
 30
0.000000
  0
VERTEX
  8
LAYER-1
 10
6.382121
 20
0.156265
 30
0.000000
  0
VERTEX
  8
LAYER-1
 10
6.386462
 20
0.157132
 30
0.000000
  0
VERTEX
  8
LAYER-1
 10
6.389065
 20
0.161473
 30
0.000000
  0
SEQEND
  8
LAYER-1
  0
POLYLINE
  8
LAYER-1
 66
  1
 70
  1
 62
  0
 10
6.322224
 20
0.149320
 30
0.000000
  0
VERTEX
  8
LAYER-1
 10
6.322224
 20
0.149320
 30
0.000000
  0
VERTEX
  8
LAYER-1
 10
6.299655
 20
0.162340
 30
0.000000
  0
VERTEX
  8
LAYER-1
 10
6.320488
 20
0.131958
 30
0.000000
  0
SEQEND
  8
LAYER-1
  0
POLYLINE
  8
LAYER-1
 66
  1
 70
  0
 62
  0
 10
6.239760
 20
0.114598
 30
0.000000
  0
VERTEX
  8
LAYER-1
 10
6.239760
 20
0.114598
 30
0.000000
  0
VERTEX
  8
LAYER-1
 10
6.239760
 20
0.118939
 30
0.000000
  0
VERTEX
  8
LAYER-1
 10
6.235419
 20
0.122410
 30
0.000000
  0
VERTEX
  8
LAYER-1
 10
6.230212
 20
0.123278
 30
0.000000
  0
VERTEX
  8
LAYER-1
 10
6.225871
 20
0.121542
 30
0.000000
  0
VERTEX
  8
LAYER-1
 10
6.224135
 20
0.117203
 30
0.000000
  0
VERTEX
  8
LAYER-1
 10
6.224135
 20
0.112862
 30
0.000000
  0
VERTEX
  8
LAYER-1
 10
6.227607
 20
0.108521
 30
0.000000
  0
VERTEX
  8
LAYER-1
 10
6.231948
 20
0.108521
 30
0.000000
  0
VERTEX
  8
LAYER-1
 10
6.236288
 20
0.109390
 30
0.000000
  0
VERTEX
  8
LAYER-1
 10
6.238891
 20
0.113730
 30
0.000000
  0
SEQEND
  8
LAYER-1
  0
POLYLINE
  8
LAYER-1
 66
  1
 70
  1
 62
  0
 10
6.430038
 20
0.104876
 30
0.000000
  0
VERTEX
  8
LAYER-1
 10
6.430038
 20
0.104876
 30
0.000000
  0
VERTEX
  8
LAYER-1
 10
6.423093
 20
0.130917
 30
0.000000
  0
VERTEX
  8
LAYER-1
 10
6.397920
 20
0.117030
 30
0.000000
  0
SEQEND
  8
LAYER-1
  0
POLYLINE
  8
LAYER-1
 66
  1
 70
  1
 62
  0
 10
6.451565
 20
0.159303
 30
0.000000
  0
VERTEX
  8
LAYER-1
 10
6.451565
 20
0.159303
 30
0.000000
  0
VERTEX
  8
LAYER-1
 10
6.464586
 20
0.181873
 30
0.000000
  0
VERTEX
  8
LAYER-1
 10
6.434204
 20
0.161040
 30
0.000000
  0
SEQEND
  8
LAYER-1
  0
POLYLINE
  8
LAYER-1
 66
  1
 70
  1
 62
  0
 10
5.879516
 20
0.102879
 30
0.000000
  0
VERTEX
  8
LAYER-1
 10
5.879516
 20
0.102879
 30
0.000000
  0
VERTEX
  8
LAYER-1
 10
5.856945
 20
0.115902
 30
0.000000
  0
VERTEX
  8
LAYER-1
 10
5.877778
 20
0.085518
 30
0.000000
  0
SEQEND
  8
LAYER-1
  0
POLYLINE
  8
LAYER-1
 66
  1
 70
  1
 62
  0
 10
6.657294
 20
0.127185
 30
0.000000
  0
VERTEX
  8
LAYER-1
 10
6.657294
 20
0.127185
 30
0.000000
  0
VERTEX
  8
LAYER-1
 10
6.673787
 20
0.152359
 30
0.000000
  0
VERTEX
  8
LAYER-1
 10
6.659030
 20
0.160172
 30
0.000000
  0
SEQEND
  8
LAYER-1
  0
POLYLINE
  8
LAYER-1
 66
  1
 70
  0
 62
  0
 10
6.688194
 20
0.053782
 30
0.000000
  0
VERTEX
  8
LAYER-1
 10
6.688194
 20
0.053782
 30
0.000000
  0
VERTEX
  8
LAYER-1
 10
6.692535
 20
0.053782
 30
0.000000
  0
VERTEX
  8
LAYER-1
 10
6.696007
 20
0.058122
 30
0.000000
  0
VERTEX
  8
LAYER-1
 10
6.696875
 20
0.063330
 30
0.000000
  0
VERTEX
  8
LAYER-1
 10
6.695139
 20
0.067671
 30
0.000000
  0
VERTEX
  8
LAYER-1
 10
6.690798
 20
0.069407
 30
0.000000
  0
VERTEX
  8
LAYER-1
 10
6.686459
 20
0.069407
 30
0.000000
  0
VERTEX
  8
LAYER-1
 10
6.682118
 20
0.065935
 30
0.000000
  0
VERTEX
  8
LAYER-1
 10
6.682118
 20
0.061595
 30
0.000000
  0
VERTEX
  8
LAYER-1
 10
6.682986
 20
0.057254
 30
0.000000
  0
VERTEX
  8
LAYER-1
 10
6.687326
 20
0.054649
 30
0.000000
  0
SEQEND
  8
LAYER-1
  0
POLYLINE
  8
LAYER-1
 66
  1
 70
  0
 62
  0
 10
6.664758
 20
0.078961
 30
0.000000
  0
VERTEX
  8
LAYER-1
 10
6.664758
 20
0.078961
 30
0.000000
  0
VERTEX
  8
LAYER-1
 10
6.669098
 20
0.078961
 30
0.000000
  0
VERTEX
  8
LAYER-1
 10
6.672570
 20
0.083302
 30
0.000000
  0
VERTEX
  8
LAYER-1
 10
6.673438
 20
0.088509
 30
0.000000
  0
VERTEX
  8
LAYER-1
 10
6.671702
 20
0.092850
 30
0.000000
  0
VERTEX
  8
LAYER-1
 10
6.667361
 20
0.094586
 30
0.000000
  0
VERTEX
  8
LAYER-1
 10
6.663022
 20
0.094586
 30
0.000000
  0
VERTEX
  8
LAYER-1
 10
6.658681
 20
0.091114
 30
0.000000
  0
VERTEX
  8
LAYER-1
 10
6.658681
 20
0.086773
 30
0.000000
  0
VERTEX
  8
LAYER-1
 10
6.659549
 20
0.082433
 30
0.000000
  0
VERTEX
  8
LAYER-1
 10
6.663890
 20
0.079828
 30
0.000000
  0
SEQEND
  8
LAYER-1
  0
POLYLINE
  8
LAYER-1
 66
  1
 70
  1
 62
  0
 10
6.738976
 20
0.095016
 30
0.000000
  0
VERTEX
  8
LAYER-1
 10
6.738976
 20
0.095016
 30
0.000000
  0
VERTEX
  8
LAYER-1
 10
6.713803
 20
0.111510
 30
0.000000
  0
VERTEX
  8
LAYER-1
 10
6.705990
 20
0.096753
 30
0.000000
  0
SEQEND
  8
LAYER-1
  0
POLYLINE
  8
LAYER-1
 66
  1
 70
  0
 62
  0
 10
6.749392
 20
0.134081
 30
0.000000
  0
VERTEX
  8
LAYER-1
 10
6.749392
 20
0.134081
 30
0.000000
  0
VERTEX
  8
LAYER-1
 10
6.749392
 20
0.138422
 30
0.000000
  0
VERTEX
  8
LAYER-1
 10
6.745052
 20
0.141893
 30
0.000000
  0
VERTEX
  8
LAYER-1
 10
6.739844
 20
0.142761
 30
0.000000
  0
VERTEX
  8
LAYER-1
 10
6.735503
 20
0.141026
 30
0.000000
  0
VERTEX
  8
LAYER-1
 10
6.733767
 20
0.136685
 30
0.000000
  0
VERTEX
  8
LAYER-1
 10
6.733767
 20
0.132345
 30
0.000000
  0
VERTEX
  8
LAYER-1
 10
6.737239
 20
0.128004
 30
0.000000
  0
VERTEX
  8
LAYER-1
 10
6.741580
 20
0.128004
 30
0.000000
  0
VERTEX
  8
LAYER-1
 10
6.745921
 20
0.128872
 30
0.000000
  0
VERTEX
  8
LAYER-1
 10
6.748526
 20
0.133213
 30
0.000000
  0
SEQEND
  8
LAYER-1
  0
POLYLINE
  8
LAYER-1
 66
  1
 70
  1
 62
  0
 10
6.695915
 20
0.139932
 30
0.000000
  0
VERTEX
  8
LAYER-1
 10
6.695915
 20
0.139932
 30
0.000000
  0
VERTEX
  8
LAYER-1
 10
6.708602
 20
0.159297
 30
0.000000
  0
VERTEX
  8
LAYER-1
 10
6.697251
 20
0.165308
 30
0.000000
  0
SEQEND
  8
LAYER-1
  0
POLYLINE
  8
LAYER-1
 66
  1
 70
  0
 62
  0
 10
6.019272
 20
0.169720
 30
0.000000
  0
VERTEX
  8
LAYER-1
 10
6.019272
 20
0.169720
 30
0.000000
  0
VERTEX
  8
LAYER-1
 10
6.019272
 20
0.174059
 30
0.000000
  0
VERTEX
  8
LAYER-1
 10
6.014931
 20
0.177533
 30
0.000000
  0
VERTEX
  8
LAYER-1
 10
6.009723
 20
0.178399
 30
0.000000
  0
VERTEX
  8
LAYER-1
 10
6.005383
 20
0.176664
 30
0.000000
  0
VERTEX
  8
LAYER-1
 10
6.003647
 20
0.172323
 30
0.000000
  0
VERTEX
  8
LAYER-1
 10
6.003647
 20
0.167982
 30
0.000000
  0
VERTEX
  8
LAYER-1
 10
6.007119
 20
0.163643
 30
0.000000
  0
VERTEX
  8
LAYER-1
 10
6.011459
 20
0.163643
 30
0.000000
  0
VERTEX
  8
LAYER-1
 10
6.015800
 20
0.164510
 30
0.000000
  0
VERTEX
  8
LAYER-1
 10
6.018405
 20
0.168851
 30
0.000000
  0
SEQEND
  8
LAYER-1
  0
POLYLINE
  8
LAYER-1
 66
  1
 70
  0
 62
  0
 10
6.605211
 20
0.133262
 30
0.000000
  0
VERTEX
  8
LAYER-1
 10
6.605211
 20
0.133262
 30
0.000000
  0
VERTEX
  8
LAYER-1
 10
6.609551
 20
0.133262
 30
0.000000
  0
VERTEX
  8
LAYER-1
 10
6.613023
 20
0.137603
 30
0.000000
  0
VERTEX
  8
LAYER-1
 10
6.613891
 20
0.142810
 30
0.000000
  0
VERTEX
  8
LAYER-1
 10
6.612155
 20
0.147152
 30
0.000000
  0
VERTEX
  8
LAYER-1
 10
6.607815
 20
0.148887
 30
0.000000
  0
VERTEX
  8
LAYER-1
 10
6.603475
 20
0.148887
 30
0.000000
  0
VERTEX
  8
LAYER-1
 10
6.599134
 20
0.145415
 30
0.000000
  0
VERTEX
  8
LAYER-1
 10
6.599134
 20
0.141074
 30
0.000000
  0
VERTEX
  8
LAYER-1
 10
6.600002
 20
0.136734
 30
0.000000
  0
VERTEX
  8
LAYER-1
 10
6.604343
 20
0.134129
 30
0.000000
  0
SEQEND
  8
LAYER-1
  0
POLYLINE
  8
LAYER-1
 66
  1
 70
  1
 62
  0
 10
0.862847
 20
0.136943
 30
0.000000
  0
VERTEX
  8
LAYER-1
 10
0.862847
 20
0.136943
 30
0.000000
  0
VERTEX
  8
LAYER-1
 10
0.840276
 20
0.149963
 30
0.000000
  0
VERTEX
  8
LAYER-1
 10
0.861109
 20
0.119582
 30
0.000000
  0
SEQEND
  8
LAYER-1
  0
POLYLINE
  8
LAYER-1
 66
  1
 70
  0
 62
  0
 10
0.851562
 20
0.070103
 30
0.000000
  0
VERTEX
  8
LAYER-1
 10
0.851562
 20
0.070103
 30
0.000000
  0
VERTEX
  8
LAYER-1
 10
0.851562
 20
0.074442
 30
0.000000
  0
VERTEX
  8
LAYER-1
 10
0.847222
 20
0.077916
 30
0.000000
  0
VERTEX
  8
LAYER-1
 10
0.842014
 20
0.078782
 30
0.000000
  0
VERTEX
  8
LAYER-1
 10
0.837673
 20
0.077047
 30
0.000000
  0
VERTEX
  8
LAYER-1
 10
0.835937
 20
0.072706
 30
0.000000
  0
VERTEX
  8
LAYER-1
 10
0.835937
 20
0.068365
 30
0.000000
  0
VERTEX
  8
LAYER-1
 10
0.839409
 20
0.064026
 30
0.000000
  0
VERTEX
  8
LAYER-1
 10
0.843750
 20
0.064026
 30
0.000000
  0
VERTEX
  8
LAYER-1
 10
0.848090
 20
0.064893
 30
0.000000
  0
VERTEX
  8
LAYER-1
 10
0.850695
 20
0.069234
 30
0.000000
  0
SEQEND
  8
LAYER-1
  0
POLYLINE
  8
LAYER-1
 66
  1
 70
  1
 62
  0
 10
1.129602
 20
0.058902
 30
0.000000
  0
VERTEX
  8
LAYER-1
 10
1.129602
 20
0.058902
 30
0.000000
  0
VERTEX
  8
LAYER-1
 10
1.146095
 20
0.084077
 30
0.000000
  0
VERTEX
  8
LAYER-1
 10
1.131338
 20
0.091889
 30
0.000000
  0
SEQEND
  8
LAYER-1
  0
POLYLINE
  8
LAYER-1
 66
  1
 70
  1
 62
  0
 10
1.177511
 20
0.073997
 30
0.000000
  0
VERTEX
  8
LAYER-1
 10
1.177511
 20
0.073997
 30
0.000000
  0
VERTEX
  8
LAYER-1
 10
1.190199
 20
0.093362
 30
0.000000
  0
VERTEX
  8
LAYER-1
 10
1.178847
 20
0.099372
 30
0.000000
  0
SEQEND
  8
LAYER-1
  0
POLYLINE
  8
LAYER-1
 66
  1
 70
  0
 62
  0
 10
1.241581
 20
0.050224
 30
0.000000
  0
VERTEX
  8
LAYER-1
 10
1.241581
 20
0.050224
 30
0.000000
  0
VERTEX
  8
LAYER-1
 10
1.245921
 20
0.050224
 30
0.000000
  0
VERTEX
  8
LAYER-1
 10
1.249393
 20
0.054565
 30
0.000000
  0
VERTEX
  8
LAYER-1
 10
1.250261
 20
0.059773
 30
0.000000
  0
VERTEX
  8
LAYER-1
 10
1.248525
 20
0.064114
 30
0.000000
  0
VERTEX
  8
LAYER-1
 10
1.244184
 20
0.065849
 30
0.000000
  0
VERTEX
  8
LAYER-1
 10
1.239845
 20
0.065849
 30
0.000000
  0
VERTEX
  8
LAYER-1
 10
1.235504
 20
0.062378
 30
0.000000
  0
VERTEX
  8
LAYER-1
 10
1.235504
 20
0.058037
 30
0.000000
  0
VERTEX
  8
LAYER-1
 10
1.236372
 20
0.053697
 30
0.000000
  0
VERTEX
  8
LAYER-1
 10
1.240713
 20
0.051092
 30
0.000000
  0
SEQEND
  8
LAYER-1
  0
POLYLINE
  8
LAYER-1
 66
  1
 70
  1
 62
  0
 10
1.275434
 20
0.113157
 30
0.000000
  0
VERTEX
  8
LAYER-1
 10
1.275434
 20
0.113157
 30
0.000000
  0
VERTEX
  8
LAYER-1
 10
1.249393
 20
0.106212
 30
0.000000
  0
VERTEX
  8
LAYER-1
 10
1.263281
 20
0.081039
 30
0.000000
  0
SEQEND
  8
LAYER-1
  0
POLYLINE
  8
LAYER-1
 66
  1
 70
  0
 62
  0
 10
2.643318
 20
0.080864
 30
0.000000
  0
VERTEX
  8
LAYER-1
 10
2.643318
 20
0.080864
 30
0.000000
  0
VERTEX
  8
LAYER-1
 10
2.643318
 20
0.085205
 30
0.000000
  0
VERTEX
  8
LAYER-1
 10
2.638977
 20
0.088676
 30
0.000000
  0
VERTEX
  8
LAYER-1
 10
2.633770
 20
0.089545
 30
0.000000
  0
VERTEX
  8
LAYER-1
 10
2.629429
 20
0.087808
 30
0.000000
  0
VERTEX
  8
LAYER-1
 10
2.627693
 20
0.083469
 30
0.000000
  0
VERTEX
  8
LAYER-1
 10
2.627693
 20
0.079129
 30
0.000000
  0
VERTEX
  8
LAYER-1
 10
2.631165
 20
0.074788
 30
0.000000
  0
VERTEX
  8
LAYER-1
 10
2.635505
 20
0.074788
 30
0.000000
  0
VERTEX
  8
LAYER-1
 10
2.639846
 20
0.075656
 30
0.000000
  0
VERTEX
  8
LAYER-1
 10
2.642450
 20
0.079996
 30
0.000000
  0
SEQEND
  8
LAYER-1
  0
POLYLINE
  8
LAYER-1
 66
  1
 70
  1
 62
  0
 10
2.577345
 20
0.043973
 30
0.000000
  0
VERTEX
  8
LAYER-1
 10
2.577345
 20
0.043973
 30
0.000000
  0
VERTEX
  8
LAYER-1
 10
2.570401
 20
0.070014
 30
0.000000
  0
VERTEX
  8
LAYER-1
 10
2.545227
 20
0.056126
 30
0.000000
  0
SEQEND
  8
LAYER-1
  0
POLYLINE
  8
LAYER-1
 66
  1
 70
  1
 62
  0
 10
2.589497
 20
0.080432
 30
0.000000
  0
VERTEX
  8
LAYER-1
 10
2.589497
 20
0.080432
 30
0.000000
  0
VERTEX
  8
LAYER-1
 10
2.602519
 20
0.103001
 30
0.000000
  0
VERTEX
  8
LAYER-1
 10
2.572137
 20
0.082169
 30
0.000000
  0
SEQEND
  8
LAYER-1
  0
POLYLINE
  8
LAYER-1
 66
  1
 70
  0
 62
  0
 10
2.425696
 20
0.091281
 30
0.000000
  0
VERTEX
  8
LAYER-1
 10
2.425696
 20
0.091281
 30
0.000000
  0
VERTEX
  8
LAYER-1
 10
2.421355
 20
0.091281
 30
0.000000
  0
VERTEX
  8
LAYER-1
 10
2.417884
 20
0.086941
 30
0.000000
  0
VERTEX
  8
LAYER-1
 10
2.417015
 20
0.081733
 30
0.000000
  0
VERTEX
  8
LAYER-1
 10
2.418751
 20
0.077393
 30
0.000000
  0
VERTEX
  8
LAYER-1
 10
2.423092
 20
0.075656
 30
0.000000
  0
VERTEX
  8
LAYER-1
 10
2.427432
 20
0.075656
 30
0.000000
  0
VERTEX
  8
LAYER-1
 10
2.431773
 20
0.079129
 30
0.000000
  0
VERTEX
  8
LAYER-1
 10
2.431773
 20
0.083469
 30
0.000000
  0
VERTEX
  8
LAYER-1
 10
2.430905
 20
0.087810
 30
0.000000
  0
VERTEX
  8
LAYER-1
 10
2.426564
 20
0.090414
 30
0.000000
  0
SEQEND
  8
LAYER-1
  0
POLYLINE
  8
LAYER-1
 66
  1
 70
  1
 62
  0
 10
2.505557
 20
0.053955
 30
0.000000
  0
VERTEX
  8
LAYER-1
 10
2.505557
 20
0.053955
 30
0.000000
  0
VERTEX
  8
LAYER-1
 10
2.482986
 20
0.066977
 30
0.000000
  0
VERTEX
  8
LAYER-1
 10
2.503819
 20
0.036594
 30
0.000000
  0
SEQEND
  8
LAYER-1
  0
POLYLINE
  8
LAYER-1
 66
  1
 70
  1
 62
  0
 10
3.100528
 20
0.054805
 30
0.000000
  0
VERTEX
  8
LAYER-1
 10
3.100528
 20
0.054805
 30
0.000000
  0
VERTEX
  8
LAYER-1
 10
3.113549
 20
0.077376
 30
0.000000
  0
VERTEX
  8
LAYER-1
 10
3.083167
 20
0.056543
 30
0.000000
  0
SEQEND
  8
LAYER-1
  0
POLYLINE
  8
LAYER-1
 66
  1
 70
  1
 62
  0
 10
3.006078
 20
0.061218
 30
0.000000
  0
VERTEX
  8
LAYER-1
 10
3.006078
 20
0.061218
 30
0.000000
  0
VERTEX
  8
LAYER-1
 10
3.018764
 20
0.080583
 30
0.000000
  0
VERTEX
  8
LAYER-1
 10
3.007414
 20
0.086594
 30
0.000000
  0
SEQEND
  8
LAYER-1
  0
POLYLINE
  8
LAYER-1
 66
  1
 70
  0
 62
  0
 10
3.134383
 20
0.053938
 30
0.000000
  0
VERTEX
  8
LAYER-1
 10
3.134383
 20
0.053938
 30
0.000000
  0
VERTEX
  8
LAYER-1
 10
3.138724
 20
0.053938
 30
0.000000
  0
VERTEX
  8
LAYER-1
 10
3.142196
 20
0.058279
 30
0.000000
  0
VERTEX
  8
LAYER-1
 10
3.143064
 20
0.063487
 30
0.000000
  0
VERTEX
  8
LAYER-1
 10
3.141328
 20
0.067828
 30
0.000000
  0
VERTEX
  8
LAYER-1
 10
3.136987
 20
0.069563
 30
0.000000
  0
VERTEX
  8
LAYER-1
 10
3.132648
 20
0.069563
 30
0.000000
  0
VERTEX
  8
LAYER-1
 10
3.128307
 20
0.066092
 30
0.000000
  0
VERTEX
  8
LAYER-1
 10
3.128307
 20
0.061751
 30
0.000000
  0
VERTEX
  8
LAYER-1
 10
3.129175
 20
0.057410
 30
0.000000
  0
VERTEX
  8
LAYER-1
 10
3.133516
 20
0.054805
 30
0.000000
  0
SEQEND
  8
LAYER-1
  0
POLYLINE
  8
LAYER-1
 66
  1
 70
  0
 62
  0
 10
3.020667
 20
0.045255
 30
0.000000
  0
VERTEX
  8
LAYER-1
 10
3.020667
 20
0.045255
 30
0.000000
  0
VERTEX
  8
LAYER-1
 10
3.016326
 20
0.045255
 30
0.000000
  0
VERTEX
  8
LAYER-1
 10
3.012854
 20
0.040915
 30
0.000000
  0
VERTEX
  8
LAYER-1
 10
3.011986
 20
0.035706
 30
0.000000
  0
VERTEX
  8
LAYER-1
 10
3.013722
 20
0.031366
 30
0.000000
  0
VERTEX
  8
LAYER-1
 10
3.018063
 20
0.029630
 30
0.000000
  0
VERTEX
  8
LAYER-1
 10
3.022403
 20
0.029630
 30
0.000000
  0
VERTEX
  8
LAYER-1
 10
3.026743
 20
0.033102
 30
0.000000
  0
VERTEX
  8
LAYER-1
 10
3.026743
 20
0.037443
 30
0.000000
  0
VERTEX
  8
LAYER-1
 10
3.025876
 20
0.041784
 30
0.000000
  0
VERTEX
  8
LAYER-1
 10
3.021535
 20
0.044388
 30
0.000000
  0
SEQEND
  8
LAYER-1
  0
POLYLINE
  8
LAYER-1
 66
  1
 70
  1
 62
  0
 10
2.861720
 20
0.058556
 30
0.000000
  0
VERTEX
  8
LAYER-1
 10
2.861720
 20
0.058556
 30
0.000000
  0
VERTEX
  8
LAYER-1
 10
2.874741
 20
0.081127
 30
0.000000
  0
VERTEX
  8
LAYER-1
 10
2.844359
 20
0.060294
 30
0.000000
  0
SEQEND
  8
LAYER-1
  0
POLYLINE
  8
LAYER-1
 66
  1
 70
  0
 62
  0
 10
2.895576
 20
0.057689
 30
0.000000
  0
VERTEX
  8
LAYER-1
 10
2.895576
 20
0.057689
 30
0.000000
  0
VERTEX
  8
LAYER-1
 10
2.899917
 20
0.057689
 30
0.000000
  0
VERTEX
  8
LAYER-1
 10
2.903388
 20
0.062030
 30
0.000000
  0
VERTEX
  8
LAYER-1
 10
2.904256
 20
0.067238
 30
0.000000
  0
VERTEX
  8
LAYER-1
 10
2.902520
 20
0.071578
 30
0.000000
  0
VERTEX
  8
LAYER-1
 10
2.898180
 20
0.073314
 30
0.000000
  0
VERTEX
  8
LAYER-1
 10
2.893840
 20
0.073314
 30
0.000000
  0
VERTEX
  8
LAYER-1
 10
2.889499
 20
0.069842
 30
0.000000
  0
VERTEX
  8
LAYER-1
 10
2.889499
 20
0.065502
 30
0.000000
  0
VERTEX
  8
LAYER-1
 10
2.890367
 20
0.061161
 30
0.000000
  0
VERTEX
  8
LAYER-1
 10
2.894708
 20
0.058556
 30
0.000000
  0
SEQEND
  8
LAYER-1
  0
POLYLINE
  8
LAYER-1
 66
  1
 70
  1
 62
  0
 10
3.493838
 20
0.093627
 30
0.000000
  0
VERTEX
  8
LAYER-1
 10
3.493838
 20
0.093627
 30
0.000000
  0
VERTEX
  8
LAYER-1
 10
3.516408
 20
0.080605
 30
0.000000
  0
VERTEX
  8
LAYER-1
 10
3.495576
 20
0.110987
 30
0.000000
  0
SEQEND
  8
LAYER-1
  0
POLYLINE
  8
LAYER-1
 66
  1
 70
  0
 62
  0
 10
3.492971
 20
0.059771
 30
0.000000
  0
VERTEX
  8
LAYER-1
 10
3.492971
 20
0.059771
 30
0.000000
  0
VERTEX
  8
LAYER-1
 10
3.492971
 20
0.055430
 30
0.000000
  0
VERTEX
  8
LAYER-1
 10
3.497311
 20
0.051959
 30
0.000000
  0
VERTEX
  8
LAYER-1
 10
3.502519
 20
0.051091
 30
0.000000
  0
VERTEX
  8
LAYER-1
 10
3.506860
 20
0.052827
 30
0.000000
  0
VERTEX
  8
LAYER-1
 10
3.508596
 20
0.057167
 30
0.000000
  0
VERTEX
  8
LAYER-1
 10
3.508596
 20
0.061506
 30
0.000000
  0
VERTEX
  8
LAYER-1
 10
3.505124
 20
0.065848
 30
0.000000
  0
VERTEX
  8
LAYER-1
 10
3.500783
 20
0.065848
 30
0.000000
  0
VERTEX
  8
LAYER-1
 10
3.496443
 20
0.064980
 30
0.000000
  0
VERTEX
  8
LAYER-1
 10
3.493838
 20
0.060639
 30
0.000000
  0
SEQEND
  8
LAYER-1
  0
POLYLINE
  8
LAYER-1
 66
  1
 70
  1
 62
  0
 10
4.043316
 20
0.125656
 30
0.000000
  0
VERTEX
  8
LAYER-1
 10
4.043316
 20
0.125656
 30
0.000000
  0
VERTEX
  8
LAYER-1
 10
4.050260
 20
0.099615
 30
0.000000
  0
VERTEX
  8
LAYER-1
 10
4.075434
 20
0.113503
 30
0.000000
  0
SEQEND
  8
LAYER-1
  0
POLYLINE
  8
LAYER-1
 66
  1
 70
  1
 62
  0
 10
4.015103
 20
0.088762
 30
0.000000
  0
VERTEX
  8
LAYER-1
 10
4.015103
 20
0.088762
 30
0.000000
  0
VERTEX
  8
LAYER-1
 10
4.037673
 20
0.075742
 30
0.000000
  0
VERTEX
  8
LAYER-1
 10
4.016840
 20
0.106123
 30
0.000000
  0
SEQEND
  8
LAYER-1
  0
POLYLINE
  8
LAYER-1
 66
  1
 70
  1
 62
  0
 10
4.131757
 20
0.080783
 30
0.000000
  0
VERTEX
  8
LAYER-1
 10
4.131757
 20
0.080783
 30
0.000000
  0
VERTEX
  8
LAYER-1
 10
4.151122
 20
0.068095
 30
0.000000
  0
VERTEX
  8
LAYER-1
 10
4.157132
 20
0.079447
 30
0.000000
  0
SEQEND
  8
LAYER-1
  0
POLYLINE
  8
LAYER-1
 66
  1
 70
  0
 62
  0
 10
4.076302
 20
0.086590
 30
0.000000
  0
VERTEX
  8
LAYER-1
 10
4.076302
 20
0.086590
 30
0.000000
  0
VERTEX
  8
LAYER-1
 10
4.071962
 20
0.086590
 30
0.000000
  0
VERTEX
  8
LAYER-1
 10
4.068490
 20
0.082249
 30
0.000000
  0
VERTEX
  8
LAYER-1
 10
4.067622
 20
0.077042
 30
0.000000
  0
VERTEX
  8
LAYER-1
 10
4.069358
 20
0.072701
 30
0.000000
  0
VERTEX
  8
LAYER-1
 10
4.073698
 20
0.070965
 30
0.000000
  0
VERTEX
  8
LAYER-1
 10
4.078039
 20
0.070965
 30
0.000000
  0
VERTEX
  8
LAYER-1
 10
4.082379
 20
0.074437
 30
0.000000
  0
VERTEX
  8
LAYER-1
 10
4.082379
 20
0.078778
 30
0.000000
  0
VERTEX
  8
LAYER-1
 10
4.081510
 20
0.083118
 30
0.000000
  0
VERTEX
  8
LAYER-1
 10
4.077170
 20
0.085722
 30
0.000000
  0
SEQEND
  8
LAYER-1
  0
POLYLINE
  8
LAYER-1
 66
  1
 70
  0
 62
  0
 10
3.960851
 20
0.064022
 30
0.000000
  0
VERTEX
  8
LAYER-1
 10
3.960851
 20
0.064022
 30
0.000000
  0
VERTEX
  8
LAYER-1
 10
3.965192
 20
0.064022
 30
0.000000
  0
VERTEX
  8
LAYER-1
 10
3.968664
 20
0.068362
 30
0.000000
  0
VERTEX
  8
LAYER-1
 10
3.969532
 20
0.073569
 30
0.000000
  0
VERTEX
  8
LAYER-1
 10
3.967796
 20
0.077911
 30
0.000000
  0
VERTEX
  8
LAYER-1
 10
3.963456
 20
0.079647
 30
0.000000
  0
VERTEX
  8
LAYER-1
 10
3.959115
 20
0.079647
 30
0.000000
  0
VERTEX
  8
LAYER-1
 10
3.954774
 20
0.076174
 30
0.000000
  0
VERTEX
  8
LAYER-1
 10
3.954774
 20
0.071834
 30
0.000000
  0
VERTEX
  8
LAYER-1
 10
3.955643
 20
0.067493
 30
0.000000
  0
VERTEX
  8
LAYER-1
 10
3.959984
 20
0.064888
 30
0.000000
  0
SEQEND
  8
LAYER-1
  0
POLYLINE
  8
LAYER-1
 66
  1
 70
  1
 62
  0
 10
4.447497
 20
0.034334
 30
0.000000
  0
VERTEX
  8
LAYER-1
 10
4.447497
 20
0.034334
 30
0.000000
  0
VERTEX
  8
LAYER-1
 10
4.440553
 20
0.060376
 30
0.000000
  0
VERTEX
  8
LAYER-1
 10
4.415379
 20
0.046488
 30
0.000000
  0
SEQEND
  8
LAYER-1
  0
POLYLINE
  8
LAYER-1
 66
  1
 70
  1
 62
  0
 10
4.475710
 20
0.071228
 30
0.000000
  0
VERTEX
  8
LAYER-1
 10
4.475710
 20
0.071228
 30
0.000000
  0
VERTEX
  8
LAYER-1
 10
4.453140
 20
0.084249
 30
0.000000
  0
VERTEX
  8
LAYER-1
 10
4.473973
 20
0.053868
 30
0.000000
  0
SEQEND
  8
LAYER-1
  0
POLYLINE
  8
LAYER-1
 66
  1
 70
  1
 62
  0
 10
4.359056
 20
0.079208
 30
0.000000
  0
VERTEX
  8
LAYER-1
 10
4.359056
 20
0.079208
 30
0.000000
  0
VERTEX
  8
LAYER-1
 10
4.339691
 20
0.091896
 30
0.000000
  0
VERTEX
  8
LAYER-1
 10
4.333680
 20
0.080544
 30
0.000000
  0
SEQEND
  8
LAYER-1
  0
POLYLINE
  8
LAYER-1
 66
  1
 70
  0
 62
  0
 10
4.414511
 20
0.073401
 30
0.000000
  0
VERTEX
  8
LAYER-1
 10
4.414511
 20
0.073401
 30
0.000000
  0
VERTEX
  8
LAYER-1
 10
4.418851
 20
0.073401
 30
0.000000
  0
VERTEX
  8
LAYER-1
 10
4.422323
 20
0.077741
 30
0.000000
  0
VERTEX
  8
LAYER-1
 10
4.423191
 20
0.082949
 30
0.000000
  0
VERTEX
  8
LAYER-1
 10
4.421455
 20
0.087290
 30
0.000000
  0
VERTEX
  8
LAYER-1
 10
4.417115
 20
0.089026
 30
0.000000
  0
VERTEX
  8
LAYER-1
 10
4.412774
 20
0.089026
 30
0.000000
  0
VERTEX
  8
LAYER-1
 10
4.408434
 20
0.085553
 30
0.000000
  0
VERTEX
  8
LAYER-1
 10
4.408434
 20
0.081213
 30
0.000000
  0
VERTEX
  8
LAYER-1
 10
4.409303
 20
0.076872
 30
0.000000
  0
VERTEX
  8
LAYER-1
 10
4.413642
 20
0.074269
 30
0.000000
  0
SEQEND
  8
LAYER-1
  0
POLYLINE
  8
LAYER-1
 66
  1
 70
  0
 62
  0
 10
4.529962
 20
0.095969
 30
0.000000
  0
VERTEX
  8
LAYER-1
 10
4.529962
 20
0.095969
 30
0.000000
  0
VERTEX
  8
LAYER-1
 10
4.525621
 20
0.095969
 30
0.000000
  0
VERTEX
  8
LAYER-1
 10
4.522149
 20
0.091628
 30
0.000000
  0
VERTEX
  8
LAYER-1
 10
4.521281
 20
0.086421
 30
0.000000
  0
VERTEX
  8
LAYER-1
 10
4.523017
 20
0.082080
 30
0.000000
  0
VERTEX
  8
LAYER-1
 10
4.527357
 20
0.080344
 30
0.000000
  0
VERTEX
  8
LAYER-1
 10
4.531698
 20
0.080344
 30
0.000000
  0
VERTEX
  8
LAYER-1
 10
4.536039
 20
0.083816
 30
0.000000
  0
VERTEX
  8
LAYER-1
 10
4.536039
 20
0.088157
 30
0.000000
  0
VERTEX
  8
LAYER-1
 10
4.535170
 20
0.092497
 30
0.000000
  0
VERTEX
  8
LAYER-1
 10
4.530829
 20
0.095102
 30
0.000000
  0
SEQEND
  8
LAYER-1
  0
POLYLINE
  8
LAYER-1
 66
  1
 70
  1
 62
  0
 10
4.699841
 20
0.017927
 30
0.000000
  0
VERTEX
  8
LAYER-1
 10
4.699841
 20
0.017927
 30
0.000000
  0
VERTEX
  8
LAYER-1
 10
4.692897
 20
0.043969
 30
0.000000
  0
VERTEX
  8
LAYER-1
 10
4.667723
 20
0.030081
 30
0.000000
  0
SEQEND
  8
LAYER-1
  0
POLYLINE
  8
LAYER-1
 66
  1
 70
  1
 62
  0
 10
4.728054
 20
0.054822
 30
0.000000
  0
VERTEX
  8
LAYER-1
 10
4.728054
 20
0.054822
 30
0.000000
  0
VERTEX
  8
LAYER-1
 10
4.705484
 20
0.067842
 30
0.000000
  0
VERTEX
  8
LAYER-1
 10
4.726317
 20
0.037461
 30
0.000000
  0
SEQEND
  8
LAYER-1
  0
POLYLINE
  8
LAYER-1
 66
  1
 70
  1
 62
  0
 10
4.611400
 20
0.062802
 30
0.000000
  0
VERTEX
  8
LAYER-1
 10
4.611400
 20
0.062802
 30
0.000000
  0
VERTEX
  8
LAYER-1
 10
4.592035
 20
0.075489
 30
0.000000
  0
VERTEX
  8
LAYER-1
 10
4.586024
 20
0.064138
 30
0.000000
  0
SEQEND
  8
LAYER-1
  0
POLYLINE
  8
LAYER-1
 66
  1
 70
  0
 62
  0
 10
4.666854
 20
0.056994
 30
0.000000
  0
VERTEX
  8
LAYER-1
 10
4.666854
 20
0.056994
 30
0.000000
  0
VERTEX
  8
LAYER-1
 10
4.671195
 20
0.056994
 30
0.000000
  0
VERTEX
  8
LAYER-1
 10
4.674667
 20
0.061335
 30
0.000000
  0
VERTEX
  8
LAYER-1
 10
4.675535
 20
0.066543
 30
0.000000
  0
VERTEX
  8
LAYER-1
 10
4.673799
 20
0.070883
 30
0.000000
  0
VERTEX
  8
LAYER-1
 10
4.669459
 20
0.072619
 30
0.000000
  0
VERTEX
  8
LAYER-1
 10
4.665118
 20
0.072619
 30
0.000000
  0
VERTEX
  8
LAYER-1
 10
4.660778
 20
0.069148
 30
0.000000
  0
VERTEX
  8
LAYER-1
 10
4.660778
 20
0.064807
 30
0.000000
  0
VERTEX
  8
LAYER-1
 10
4.661647
 20
0.060466
 30
0.000000
  0
VERTEX
  8
LAYER-1
 10
4.665986
 20
0.057862
 30
0.000000
  0
SEQEND
  8
LAYER-1
  0
POLYLINE
  8
LAYER-1
 66
  1
 70
  0
 62
  0
 10
4.782306
 20
0.079563
 30
0.000000
  0
VERTEX
  8
LAYER-1
 10
4.782306
 20
0.079563
 30
0.000000
  0
VERTEX
  8
LAYER-1
 10
4.777965
 20
0.079563
 30
0.000000
  0
VERTEX
  8
LAYER-1
 10
4.774493
 20
0.075222
 30
0.000000
  0
VERTEX
  8
LAYER-1
 10
4.773624
 20
0.070014
 30
0.000000
  0
VERTEX
  8
LAYER-1
 10
4.775361
 20
0.065674
 30
0.000000
  0
VERTEX
  8
LAYER-1
 10
4.779701
 20
0.063938
 30
0.000000
  0
VERTEX
  8
LAYER-1
 10
4.784042
 20
0.063938
 30
0.000000
  0
VERTEX
  8
LAYER-1
 10
4.788383
 20
0.067410
 30
0.000000
  0
VERTEX
  8
LAYER-1
 10
4.788383
 20
0.071750
 30
0.000000
  0
VERTEX
  8
LAYER-1
 10
4.787514
 20
0.076091
 30
0.000000
  0
VERTEX
  8
LAYER-1
 10
4.783173
 20
0.078696
 30
0.000000
  0
SEQEND
  8
LAYER-1
  0
POLYLINE
  8
LAYER-1
 66
  1
 70
  1
 62
  0
 10
4.920400
 20
0.116976
 30
0.000000
  0
VERTEX
  8
LAYER-1
 10
4.920400
 20
0.116976
 30
0.000000
  0
VERTEX
  8
LAYER-1
 10
4.927344
 20
0.090936
 30
0.000000
  0
VERTEX
  8
LAYER-1
 10
4.952518
 20
0.104824
 30
0.000000
  0
SEQEND
  8
LAYER-1
  0
POLYLINE
  8
LAYER-1
 66
  1
 70
  1
 62
  0
 10
4.892187
 20
0.080082
 30
0.000000
  0
VERTEX
  8
LAYER-1
 10
4.892187
 20
0.080082
 30
0.000000
  0
VERTEX
  8
LAYER-1
 10
4.914757
 20
0.067062
 30
0.000000
  0
VERTEX
  8
LAYER-1
 10
4.893924
 20
0.097443
 30
0.000000
  0
SEQEND
  8
LAYER-1
  0
POLYLINE
  8
LAYER-1
 66
  1
 70
  0
 62
  0
 10
4.837935
 20
0.055342
 30
0.000000
  0
VERTEX
  8
LAYER-1
 10
4.837935
 20
0.055342
 30
0.000000
  0
VERTEX
  8
LAYER-1
 10
4.842276
 20
0.055342
 30
0.000000
  0
VERTEX
  8
LAYER-1
 10
4.845748
 20
0.059682
 30
0.000000
  0
VERTEX
  8
LAYER-1
 10
4.846617
 20
0.064891
 30
0.000000
  0
VERTEX
  8
LAYER-1
 10
4.844881
 20
0.069231
 30
0.000000
  0
VERTEX
  8
LAYER-1
 10
4.840540
 20
0.070967
 30
0.000000
  0
VERTEX
  8
LAYER-1
 10
4.836199
 20
0.070967
 30
0.000000
  0
VERTEX
  8
LAYER-1
 10
4.831859
 20
0.067495
 30
0.000000
  0
VERTEX
  8
LAYER-1
 10
4.831859
 20
0.063154
 30
0.000000
  0
VERTEX
  8
LAYER-1
 10
4.832728
 20
0.058813
 30
0.000000
  0
VERTEX
  8
LAYER-1
 10
4.837068
 20
0.056209
 30
0.000000
  0
SEQEND
  8
LAYER-1
  0
POLYLINE
  8
LAYER-1
 66
  1
 70
  1
 62
  0
 10
5.473523
 20
0.229094
 30
0.000000
  0
VERTEX
  8
LAYER-1
 10
5.473523
 20
0.229094
 30
0.000000
  0
VERTEX
  8
LAYER-1
 10
5.480467
 20
0.203054
 30
0.000000
  0
VERTEX
  8
LAYER-1
 10
5.505641
 20
0.216941
 30
0.000000
  0
SEQEND
  8
LAYER-1
  0
POLYLINE
  8
LAYER-1
 66
  1
 70
  1
 62
  0
 10
5.486632
 20
0.183955
 30
0.000000
  0
VERTEX
  8
LAYER-1
 10
5.486632
 20
0.183955
 30
0.000000
  0
VERTEX
  8
LAYER-1
 10
5.473610
 20
0.161385
 30
0.000000
  0
VERTEX
  8
LAYER-1
 10
5.503992
 20
0.182217
 30
0.000000
  0
SEQEND
  8
LAYER-1
  0
POLYLINE
  8
LAYER-1
 66
  1
 70
  1
 62
  0
 10
5.178125
 20
0.152479
 30
0.000000
  0
VERTEX
  8
LAYER-1
 10
5.178125
 20
0.152479
 30
0.000000
  0
VERTEX
  8
LAYER-1
 10
5.171181
 20
0.178519
 30
0.000000
  0
VERTEX
  8
LAYER-1
 10
5.146008
 20
0.164631
 30
0.000000
  0
SEQEND
  8
LAYER-1
  0
POLYLINE
  8
LAYER-1
 66
  1
 70
  1
 62
  0
 10
5.165016
 20
0.197617
 30
0.000000
  0
VERTEX
  8
LAYER-1
 10
5.165016
 20
0.197617
 30
0.000000
  0
VERTEX
  8
LAYER-1
 10
5.178038
 20
0.220188
 30
0.000000
  0
VERTEX
  8
LAYER-1
 10
5.147655
 20
0.199355
 30
0.000000
  0
SEQEND
  8
LAYER-1
  0
POLYLINE
  8
LAYER-1
 66
  1
 70
  1
 62
  0
 10
5.682898
 20
0.054649
 30
0.000000
  0
VERTEX
  8
LAYER-1
 10
5.682898
 20
0.054649
 30
0.000000
  0
VERTEX
  8
LAYER-1
 10
5.708939
 20
0.061595
 30
0.000000
  0
VERTEX
  8
LAYER-1
 10
5.695051
 20
0.086767
 30
0.000000
  0
SEQEND
  8
LAYER-1
  0
POLYLINE
  8
LAYER-1
 66
  1
 70
  1
 62
  0
 10
5.728038
 20
0.067758
 30
0.000000
  0
VERTEX
  8
LAYER-1
 10
5.728038
 20
0.067758
 30
0.000000
  0
VERTEX
  8
LAYER-1
 10
5.750608
 20
0.054738
 30
0.000000
  0
VERTEX
  8
LAYER-1
 10
5.729775
 20
0.085119
 30
0.000000
  0
SEQEND
  8
LAYER-1
  0
ENDSEC
  0
EOF
