  0
SECTION
  2
HEADER
999
MacDraft 5.0\0
  9
$ACADVER
  1
AC1006
  9
$CLAYER
  8
LAYER-1
  9
$EXTMIN
 10
0.000000
 20
0.000000
  9
$EXTMAX
 10
7.004300
 20
9.982811
  9
$FASTZOOM
 70
0
  9
$FILLMODE
 70
1
  0
ENDSEC
  0
SECTION
  2
TABLES
  0
TABLE
  2
LTYPE
 70
16
  0
LTYPE
  2
CONTINUOUS
 70
64
  3
Solid Line
 72
65
 73
0
 40
0.000000
  0
LTYPE
  2
LTYPE01
 70
64
  3
CUSTOM
 72
65
 73
2
 40
0.111111
 49
0.083333
 49
-0.027778
  0
LTYPE
  2
LTYPE02
 70
64
  3
CUSTOM
 72
65
 73
2
 40
0.194444
 49
0.166667
 49
-0.027778
  0
LTYPE
  2
LTYPE03
 70
64
  3
CUSTOM
 72
65
 73
2
 40
0.375000
 49
0.333333
 49
-0.041667
  0
LTYPE
  2
LTYPE04
 70
64
  3
CUSTOM
 72
65
 73
2
 40
0.722222
 49
0.666667
 49
-0.055556
  0
LTYPE
  2
LTYPE05
 70
64
  3
CUSTOM
 72
65
 73
4
 40
0.152778
 49
0.083333
 49
-0.027778
 49
0.013889
 49
-0.027778
  0
LTYPE
  2
LTYPE06
 70
64
  3
CUSTOM
 72
65
 73
4
 40
0.236111
 49
0.166667
 49
-0.027778
 49
0.013889
 49
-0.027778
  0
LTYPE
  2
LTYPE07
 70
64
  3
CUSTOM
 72
65
 73
4
 40
0.444444
 49
0.333333
 49
-0.041667
 49
0.027778
 49
-0.041667
  0
LTYPE
  2
LTYPE08
 70
64
  3
CUSTOM
 72
65
 73
4
 40
0.805556
 49
0.666667
 49
-0.055556
 49
0.027778
 49
-0.055556
  0
LTYPE
  2
LTYPE09
 70
64
  3
CUSTOM
 72
65
 73
6
 40
0.194444
 49
0.083333
 49
-0.027778
 49
0.013889
 49
-0.027778
 49
0.013889
 49
-0.027778
  0
LTYPE
  2
LTYPE10
 70
64
  3
CUSTOM
 72
65
 73
6
 40
0.277778
 49
0.166667
 49
-0.027778
 49
0.013889
 49
-0.027778
 49
0.013889
 49
-0.027778
  0
LTYPE
  2
LTYPE11
 70
64
  3
CUSTOM
 72
65
 73
6
 40
0.500000
 49
0.333333
 49
-0.041667
 49
0.027778
 49
-0.027778
 49
0.027778
 49
-0.041667
  0
LTYPE
  2
LTYPE12
 70
64
  3
CUSTOM
 72
65
 73
6
 40
0.861111
 49
0.666667
 49
-0.055556
 49
0.027778
 49
-0.027778
 49
0.027778
 49
-0.055556
  0
LTYPE
  2
LTYPE13
 70
64
  3
CUSTOM
 72
65
 73
8
 40
0.319444
 49
0.166667
 49
-0.027778
 49
0.013889
 49
-0.027778
 49
0.013889
 49
-0.027778
 49
0.013889
 49
-0.027778
  0
LTYPE
  2
LTYPE14
 70
64
  3
CUSTOM
 72
65
 73
8
 40
0.555556
 49
0.333333
 49
-0.041667
 49
0.027778
 49
-0.027778
 49
0.027778
 49
-0.027778
 49
0.027778
 49
-0.041667
  0
LTYPE
  2
LTYPE15
 70
64
  3
CUSTOM
 72
65
 73
8
 40
0.944444
 49
0.666667
 49
-0.055556
 49
0.027778
 49
-0.041667
 49
0.027778
 49
-0.041667
 49
0.027778
 49
-0.055556
  0
ENDTAB
  0
TABLE
  2
LAYER
 70
1
  0
LAYER
  2
LAYER-1
 70
0
 62
7
  6
CONTINUOUS
  0
ENDTAB
  0
ENDSEC
  0
SECTION
  2
BLOCKS
  0
ENDSEC
  0
SECTION
  2
ENTITIES
  0
POLYLINE
  8
LAYER-1
 66
  1
 70
  0
 62
  0
 10
3.475635
 20
0.209548
 30
0.000000
  0
VERTEX
  8
LAYER-1
 10
3.475635
 20
0.209548
 30
0.000000
  0
VERTEX
  8
LAYER-1
 10
3.475635
 20
0.208359
 30
0.000000
  0
SEQEND
  8
LAYER-1
  0
POLYLINE
  8
LAYER-1
 66
  1
 70
  1
 62
  0
 10
1.303777
 20
0.114381
 30
0.000000
  0
VERTEX
  8
LAYER-1
 10
1.303777
 20
0.114381
 30
0.000000
  0
VERTEX
  8
LAYER-1
 10
1.310722
 20
0.088339
 30
0.000000
  0
VERTEX
  8
LAYER-1
 10
1.335896
 20
0.102227
 30
0.000000
  0
SEQEND
  8
LAYER-1
  0
POLYLINE
  8
LAYER-1
 66
  1
 70
  1
 62
  0
 10
1.493882
 20
0.219413
 30
0.000000
  0
VERTEX
  8
LAYER-1
 10
1.493882
 20
0.219413
 30
0.000000
  0
VERTEX
  8
LAYER-1
 10
1.480862
 20
0.196843
 30
0.000000
  0
VERTEX
  8
LAYER-1
 10
1.511244
 20
0.217676
 30
0.000000
  0
SEQEND
  8
LAYER-1
  0
POLYLINE
  8
LAYER-1
 66
  1
 70
  1
 62
  0
 10
1.139716
 20
0.155179
 30
0.000000
  0
VERTEX
  8
LAYER-1
 10
1.139716
 20
0.155179
 30
0.000000
  0
VERTEX
  8
LAYER-1
 10
1.123223
 20
0.130005
 30
0.000000
  0
VERTEX
  8
LAYER-1
 10
1.137979
 20
0.122192
 30
0.000000
  0
SEQEND
  8
LAYER-1
  0
POLYLINE
  8
LAYER-1
 66
  1
 70
  0
 62
  0
 10
1.306382
 20
0.156048
 30
0.000000
  0
VERTEX
  8
LAYER-1
 10
1.306382
 20
0.156048
 30
0.000000
  0
VERTEX
  8
LAYER-1
 10
1.302042
 20
0.156048
 30
0.000000
  0
VERTEX
  8
LAYER-1
 10
1.298569
 20
0.151707
 30
0.000000
  0
VERTEX
  8
LAYER-1
 10
1.297702
 20
0.146500
 30
0.000000
  0
VERTEX
  8
LAYER-1
 10
1.299437
 20
0.142159
 30
0.000000
  0
VERTEX
  8
LAYER-1
 10
1.303778
 20
0.140423
 30
0.000000
  0
VERTEX
  8
LAYER-1
 10
1.308118
 20
0.140423
 30
0.000000
  0
VERTEX
  8
LAYER-1
 10
1.312459
 20
0.143895
 30
0.000000
  0
VERTEX
  8
LAYER-1
 10
1.312459
 20
0.148236
 30
0.000000
  0
VERTEX
  8
LAYER-1
 10
1.311591
 20
0.152576
 30
0.000000
  0
VERTEX
  8
LAYER-1
 10
1.307250
 20
0.155180
 30
0.000000
  0
SEQEND
  8
LAYER-1
  0
POLYLINE
  8
LAYER-1
 66
  1
 70
  1
 62
  0
 10
0.944403
 20
0.194240
 30
0.000000
  0
VERTEX
  8
LAYER-1
 10
0.944403
 20
0.194240
 30
0.000000
  0
VERTEX
  8
LAYER-1
 10
0.931382
 20
0.171671
 30
0.000000
  0
VERTEX
  8
LAYER-1
 10
0.961764
 20
0.192504
 30
0.000000
  0
SEQEND
  8
LAYER-1
  0
POLYLINE
  8
LAYER-1
 66
  1
 70
  1
 62
  0
 10
1.076180
 20
0.193907
 30
0.000000
  0
VERTEX
  8
LAYER-1
 10
1.076180
 20
0.193907
 30
0.000000
  0
VERTEX
  8
LAYER-1
 10
1.063494
 20
0.174542
 30
0.000000
  0
VERTEX
  8
LAYER-1
 10
1.074845
 20
0.168532
 30
0.000000
  0
SEQEND
  8
LAYER-1
  0
POLYLINE
  8
LAYER-1
 66
  1
 70
  0
 62
  0
 10
1.433987
 20
0.175144
 30
0.000000
  0
VERTEX
  8
LAYER-1
 10
1.433987
 20
0.175144
 30
0.000000
  0
VERTEX
  8
LAYER-1
 10
1.429646
 20
0.175144
 30
0.000000
  0
VERTEX
  8
LAYER-1
 10
1.426174
 20
0.170803
 30
0.000000
  0
VERTEX
  8
LAYER-1
 10
1.425306
 20
0.165595
 30
0.000000
  0
VERTEX
  8
LAYER-1
 10
1.427042
 20
0.161255
 30
0.000000
  0
VERTEX
  8
LAYER-1
 10
1.431382
 20
0.159519
 30
0.000000
  0
VERTEX
  8
LAYER-1
 10
1.435722
 20
0.159519
 30
0.000000
  0
VERTEX
  8
LAYER-1
 10
1.440062
 20
0.162990
 30
0.000000
  0
VERTEX
  8
LAYER-1
 10
1.440062
 20
0.167331
 30
0.000000
  0
VERTEX
  8
LAYER-1
 10
1.439194
 20
0.171672
 30
0.000000
  0
VERTEX
  8
LAYER-1
 10
1.434855
 20
0.174276
 30
0.000000
  0
SEQEND
  8
LAYER-1
  0
POLYLINE
  8
LAYER-1
 66
  1
 70
  0
 62
  0
 10
1.191798
 20
0.149102
 30
0.000000
  0
VERTEX
  8
LAYER-1
 10
1.191798
 20
0.149102
 30
0.000000
  0
VERTEX
  8
LAYER-1
 10
1.187459
 20
0.149102
 30
0.000000
  0
VERTEX
  8
LAYER-1
 10
1.183986
 20
0.144762
 30
0.000000
  0
VERTEX
  8
LAYER-1
 10
1.183118
 20
0.139554
 30
0.000000
  0
VERTEX
  8
LAYER-1
 10
1.184854
 20
0.135213
 30
0.000000
  0
VERTEX
  8
LAYER-1
 10
1.189194
 20
0.133477
 30
0.000000
  0
VERTEX
  8
LAYER-1
 10
1.193535
 20
0.133477
 30
0.000000
  0
VERTEX
  8
LAYER-1
 10
1.197875
 20
0.136949
 30
0.000000
  0
VERTEX
  8
LAYER-1
 10
1.197875
 20
0.141290
 30
0.000000
  0
VERTEX
  8
LAYER-1
 10
1.197007
 20
0.145631
 30
0.000000
  0
VERTEX
  8
LAYER-1
 10
1.192666
 20
0.148234
 30
0.000000
  0
SEQEND
  8
LAYER-1
  0
POLYLINE
  8
LAYER-1
 66
  1
 70
  0
 62
  0
 10
1.027736
 20
0.141290
 30
0.000000
  0
VERTEX
  8
LAYER-1
 10
1.027736
 20
0.141290
 30
0.000000
  0
VERTEX
  8
LAYER-1
 10
1.023396
 20
0.141290
 30
0.000000
  0
VERTEX
  8
LAYER-1
 10
1.019923
 20
0.136949
 30
0.000000
  0
VERTEX
  8
LAYER-1
 10
1.019055
 20
0.131742
 30
0.000000
  0
VERTEX
  8
LAYER-1
 10
1.020791
 20
0.127401
 30
0.000000
  0
VERTEX
  8
LAYER-1
 10
1.025132
 20
0.125665
 30
0.000000
  0
VERTEX
  8
LAYER-1
 10
1.029472
 20
0.125665
 30
0.000000
  0
VERTEX
  8
LAYER-1
 10
1.033812
 20
0.129137
 30
0.000000
  0
VERTEX
  8
LAYER-1
 10
1.033812
 20
0.133477
 30
0.000000
  0
VERTEX
  8
LAYER-1
 10
1.032944
 20
0.137818
 30
0.000000
  0
VERTEX
  8
LAYER-1
 10
1.028604
 20
0.140422
 30
0.000000
  0
SEQEND
  8
LAYER-1
  0
POLYLINE
  8
LAYER-1
 66
  1
 70
  1
 62
  0
 10
1.655775
 20
0.166029
 30
0.000000
  0
VERTEX
  8
LAYER-1
 10
1.655775
 20
0.166029
 30
0.000000
  0
VERTEX
  8
LAYER-1
 10
1.629735
 20
0.159084
 30
0.000000
  0
VERTEX
  8
LAYER-1
 10
1.643622
 20
0.133911
 30
0.000000
  0
SEQEND
  8
LAYER-1
  0
POLYLINE
  8
LAYER-1
 66
  1
 70
  1
 62
  0
 10
1.717319
 20
0.106432
 30
0.000000
  0
VERTEX
  8
LAYER-1
 10
1.717319
 20
0.106432
 30
0.000000
  0
VERTEX
  8
LAYER-1
 10
1.739889
 20
0.093410
 30
0.000000
  0
VERTEX
  8
LAYER-1
 10
1.719057
 20
0.123793
 30
0.000000
  0
SEQEND
  8
LAYER-1
  0
POLYLINE
  8
LAYER-1
 66
  1
 70
  1
 62
  0
 10
1.248657
 20
0.173842
 30
0.000000
  0
VERTEX
  8
LAYER-1
 10
1.248657
 20
0.173842
 30
0.000000
  0
VERTEX
  8
LAYER-1
 10
1.223484
 20
0.190334
 30
0.000000
  0
VERTEX
  8
LAYER-1
 10
1.215671
 20
0.175577
 30
0.000000
  0
SEQEND
  8
LAYER-1
  0
POLYLINE
  8
LAYER-1
 66
  1
 70
  0
 62
  0
 10
1.667060
 20
0.202488
 30
0.000000
  0
VERTEX
  8
LAYER-1
 10
1.667060
 20
0.202488
 30
0.000000
  0
VERTEX
  8
LAYER-1
 10
1.667060
 20
0.206829
 30
0.000000
  0
VERTEX
  8
LAYER-1
 10
1.662720
 20
0.210301
 30
0.000000
  0
VERTEX
  8
LAYER-1
 10
1.657512
 20
0.211169
 30
0.000000
  0
VERTEX
  8
LAYER-1
 10
1.653171
 20
0.209433
 30
0.000000
  0
VERTEX
  8
LAYER-1
 10
1.651435
 20
0.205093
 30
0.000000
  0
VERTEX
  8
LAYER-1
 10
1.651435
 20
0.200752
 30
0.000000
  0
VERTEX
  8
LAYER-1
 10
1.654907
 20
0.196412
 30
0.000000
  0
VERTEX
  8
LAYER-1
 10
1.659248
 20
0.196412
 30
0.000000
  0
VERTEX
  8
LAYER-1
 10
1.663589
 20
0.197280
 30
0.000000
  0
VERTEX
  8
LAYER-1
 10
1.666193
 20
0.201620
 30
0.000000
  0
SEQEND
  8
LAYER-1
  0
POLYLINE
  8
LAYER-1
 66
  1
 70
  1
 62
  0
 10
1.619317
 20
0.178181
 30
0.000000
  0
VERTEX
  8
LAYER-1
 10
1.619317
 20
0.178181
 30
0.000000
  0
VERTEX
  8
LAYER-1
 10
1.596747
 20
0.191202
 30
0.000000
  0
VERTEX
  8
LAYER-1
 10
1.617580
 20
0.160820
 30
0.000000
  0
SEQEND
  8
LAYER-1
  0
POLYLINE
  8
LAYER-1
 66
  1
 70
  1
 62
  0
 10
1.267419
 20
0.190501
 30
0.000000
  0
VERTEX
  8
LAYER-1
 10
1.267419
 20
0.190501
 30
0.000000
  0
VERTEX
  8
LAYER-1
 10
1.248055
 20
0.203187
 30
0.000000
  0
VERTEX
  8
LAYER-1
 10
1.242044
 20
0.191837
 30
0.000000
  0
SEQEND
  8
LAYER-1
  0
POLYLINE
  8
LAYER-1
 66
  1
 70
  0
 62
  0
 10
1.733293
 20
0.066848
 30
0.000000
  0
VERTEX
  8
LAYER-1
 10
1.733293
 20
0.066848
 30
0.000000
  0
VERTEX
  8
LAYER-1
 10
1.733293
 20
0.062508
 30
0.000000
  0
VERTEX
  8
LAYER-1
 10
1.737633
 20
0.059035
 30
0.000000
  0
VERTEX
  8
LAYER-1
 10
1.742841
 20
0.058167
 30
0.000000
  0
VERTEX
  8
LAYER-1
 10
1.747182
 20
0.059903
 30
0.000000
  0
VERTEX
  8
LAYER-1
 10
1.748918
 20
0.064245
 30
0.000000
  0
VERTEX
  8
LAYER-1
 10
1.748918
 20
0.068585
 30
0.000000
  0
VERTEX
  8
LAYER-1
 10
1.745446
 20
0.072924
 30
0.000000
  0
VERTEX
  8
LAYER-1
 10
1.741105
 20
0.072924
 30
0.000000
  0
VERTEX
  8
LAYER-1
 10
1.736764
 20
0.072057
 30
0.000000
  0
VERTEX
  8
LAYER-1
 10
1.734160
 20
0.067716
 30
0.000000
  0
SEQEND
  8
LAYER-1
  0
POLYLINE
  8
LAYER-1
 66
  1
 70
  0
 62
  0
 10
1.242581
 20
0.121758
 30
0.000000
  0
VERTEX
  8
LAYER-1
 10
1.242581
 20
0.121758
 30
0.000000
  0
VERTEX
  8
LAYER-1
 10
1.242581
 20
0.126099
 30
0.000000
  0
VERTEX
  8
LAYER-1
 10
1.238240
 20
0.129570
 30
0.000000
  0
VERTEX
  8
LAYER-1
 10
1.233032
 20
0.130438
 30
0.000000
  0
VERTEX
  8
LAYER-1
 10
1.228691
 20
0.128702
 30
0.000000
  0
VERTEX
  8
LAYER-1
 10
1.226956
 20
0.124362
 30
0.000000
  0
VERTEX
  8
LAYER-1
 10
1.226956
 20
0.120021
 30
0.000000
  0
VERTEX
  8
LAYER-1
 10
1.230427
 20
0.115681
 30
0.000000
  0
VERTEX
  8
LAYER-1
 10
1.234768
 20
0.115681
 30
0.000000
  0
VERTEX
  8
LAYER-1
 10
1.239109
 20
0.116549
 30
0.000000
  0
VERTEX
  8
LAYER-1
 10
1.241714
 20
0.120889
 30
0.000000
  0
SEQEND
  8
LAYER-1
  0
POLYLINE
  8
LAYER-1
 66
  1
 70
  0
 62
  0
 10
1.544664
 20
0.156481
 30
0.000000
  0
VERTEX
  8
LAYER-1
 10
1.544664
 20
0.156481
 30
0.000000
  0
VERTEX
  8
LAYER-1
 10
1.544664
 20
0.160822
 30
0.000000
  0
VERTEX
  8
LAYER-1
 10
1.540324
 20
0.164294
 30
0.000000
  0
VERTEX
  8
LAYER-1
 10
1.535116
 20
0.165162
 30
0.000000
  0
VERTEX
  8
LAYER-1
 10
1.530775
 20
0.163426
 30
0.000000
  0
VERTEX
  8
LAYER-1
 10
1.529039
 20
0.159086
 30
0.000000
  0
VERTEX
  8
LAYER-1
 10
1.529039
 20
0.154745
 30
0.000000
  0
VERTEX
  8
LAYER-1
 10
1.532511
 20
0.150405
 30
0.000000
  0
VERTEX
  8
LAYER-1
 10
1.536852
 20
0.150405
 30
0.000000
  0
VERTEX
  8
LAYER-1
 10
1.541193
 20
0.151273
 30
0.000000
  0
VERTEX
  8
LAYER-1
 10
1.543797
 20
0.155613
 30
0.000000
  0
SEQEND
  8
LAYER-1
  0
POLYLINE
  8
LAYER-1
 66
  1
 70
  1
 62
  0
 10
1.763849
 20
0.148669
 30
0.000000
  0
VERTEX
  8
LAYER-1
 10
1.763849
 20
0.148669
 30
0.000000
  0
VERTEX
  8
LAYER-1
 10
1.770792
 20
0.122627
 30
0.000000
  0
VERTEX
  8
LAYER-1
 10
1.789890
 20
0.138251
 30
0.000000
  0
SEQEND
  8
LAYER-1
  0
POLYLINE
  8
LAYER-1
 66
  1
 70
  1
 62
  0
 10
1.947876
 20
0.170370
 30
0.000000
  0
VERTEX
  8
LAYER-1
 10
1.947876
 20
0.170370
 30
0.000000
  0
VERTEX
  8
LAYER-1
 10
1.934855
 20
0.147801
 30
0.000000
  0
VERTEX
  8
LAYER-1
 10
1.965237
 20
0.168633
 30
0.000000
  0
SEQEND
  8
LAYER-1
  0
POLYLINE
  8
LAYER-1
 66
  1
 70
  1
 62
  0
 10
1.997780
 20
0.068910
 30
0.000000
  0
VERTEX
  8
LAYER-1
 10
1.997780
 20
0.068910
 30
0.000000
  0
VERTEX
  8
LAYER-1
 10
1.981288
 20
0.043737
 30
0.000000
  0
VERTEX
  8
LAYER-1
 10
1.996044
 20
0.035924
 30
0.000000
  0
SEQEND
  8
LAYER-1
  0
POLYLINE
  8
LAYER-1
 66
  1
 70
  0
 62
  0
 10
1.736071
 20
0.172974
 30
0.000000
  0
VERTEX
  8
LAYER-1
 10
1.736071
 20
0.172974
 30
0.000000
  0
VERTEX
  8
LAYER-1
 10
1.731730
 20
0.172974
 30
0.000000
  0
VERTEX
  8
LAYER-1
 10
1.728258
 20
0.168633
 30
0.000000
  0
VERTEX
  8
LAYER-1
 10
1.727390
 20
0.163426
 30
0.000000
  0
VERTEX
  8
LAYER-1
 10
1.729126
 20
0.159086
 30
0.000000
  0
VERTEX
  8
LAYER-1
 10
1.733466
 20
0.157349
 30
0.000000
  0
VERTEX
  8
LAYER-1
 10
1.737806
 20
0.157349
 30
0.000000
  0
VERTEX
  8
LAYER-1
 10
1.742146
 20
0.160821
 30
0.000000
  0
VERTEX
  8
LAYER-1
 10
1.742146
 20
0.165162
 30
0.000000
  0
VERTEX
  8
LAYER-1
 10
1.741278
 20
0.169502
 30
0.000000
  0
VERTEX
  8
LAYER-1
 10
1.736938
 20
0.172106
 30
0.000000
  0
SEQEND
  8
LAYER-1
  0
POLYLINE
  8
LAYER-1
 66
  1
 70
  1
 62
  0
 10
1.773397
 20
0.105265
 30
0.000000
  0
VERTEX
  8
LAYER-1
 10
1.773397
 20
0.105265
 30
0.000000
  0
VERTEX
  8
LAYER-1
 10
1.760376
 20
0.082696
 30
0.000000
  0
VERTEX
  8
LAYER-1
 10
1.790758
 20
0.103529
 30
0.000000
  0
SEQEND
  8
LAYER-1
  0
POLYLINE
  8
LAYER-1
 66
  1
 70
  1
 62
  0
 10
2.029197
 20
0.051019
 30
0.000000
  0
VERTEX
  8
LAYER-1
 10
2.029197
 20
0.051019
 30
0.000000
  0
VERTEX
  8
LAYER-1
 10
2.041885
 20
0.070382
 30
0.000000
  0
VERTEX
  8
LAYER-1
 10
2.030533
 20
0.076394
 30
0.000000
  0
SEQEND
  8
LAYER-1
  0
POLYLINE
  8
LAYER-1
 66
  1
 70
  0
 62
  0
 10
1.928423
 20
0.051465
 30
0.000000
  0
VERTEX
  8
LAYER-1
 10
1.928423
 20
0.051465
 30
0.000000
  0
VERTEX
  8
LAYER-1
 10
1.932763
 20
0.051465
 30
0.000000
  0
VERTEX
  8
LAYER-1
 10
1.936235
 20
0.055806
 30
0.000000
  0
VERTEX
  8
LAYER-1
 10
1.937103
 20
0.061014
 30
0.000000
  0
VERTEX
  8
LAYER-1
 10
1.935367
 20
0.065354
 30
0.000000
  0
VERTEX
  8
LAYER-1
 10
1.931026
 20
0.067090
 30
0.000000
  0
VERTEX
  8
LAYER-1
 10
1.926687
 20
0.067090
 30
0.000000
  0
VERTEX
  8
LAYER-1
 10
1.922346
 20
0.063618
 30
0.000000
  0
VERTEX
  8
LAYER-1
 10
1.922346
 20
0.059278
 30
0.000000
  0
VERTEX
  8
LAYER-1
 10
1.923214
 20
0.054937
 30
0.000000
  0
VERTEX
  8
LAYER-1
 10
1.927555
 20
0.052333
 30
0.000000
  0
SEQEND
  8
LAYER-1
  0
POLYLINE
  8
LAYER-1
 66
  1
 70
  0
 62
  0
 10
1.617927
 20
0.087333
 30
0.000000
  0
VERTEX
  8
LAYER-1
 10
1.617927
 20
0.087333
 30
0.000000
  0
VERTEX
  8
LAYER-1
 10
1.622267
 20
0.087333
 30
0.000000
  0
VERTEX
  8
LAYER-1
 10
1.625739
 20
0.091674
 30
0.000000
  0
VERTEX
  8
LAYER-1
 10
1.626608
 20
0.096881
 30
0.000000
  0
VERTEX
  8
LAYER-1
 10
1.624872
 20
0.101222
 30
0.000000
  0
VERTEX
  8
LAYER-1
 10
1.620531
 20
0.102958
 30
0.000000
  0
VERTEX
  8
LAYER-1
 10
1.616191
 20
0.102958
 30
0.000000
  0
VERTEX
  8
LAYER-1
 10
1.611850
 20
0.099486
 30
0.000000
  0
VERTEX
  8
LAYER-1
 10
1.611850
 20
0.095145
 30
0.000000
  0
VERTEX
  8
LAYER-1
 10
1.612719
 20
0.090804
 30
0.000000
  0
VERTEX
  8
LAYER-1
 10
1.617060
 20
0.088201
 30
0.000000
  0
SEQEND
  8
LAYER-1
  0
POLYLINE
  8
LAYER-1
 66
  1
 70
  1
 62
  0
 10
2.113241
 20
0.153443
 30
0.000000
  0
VERTEX
  8
LAYER-1
 10
2.113241
 20
0.153443
 30
0.000000
  0
VERTEX
  8
LAYER-1
 10
2.087201
 20
0.146499
 30
0.000000
  0
VERTEX
  8
LAYER-1
 10
2.101088
 20
0.121325
 30
0.000000
  0
SEQEND
  8
LAYER-1
  0
POLYLINE
  8
LAYER-1
 66
  1
 70
  1
 62
  0
 10
1.852124
 20
0.113848
 30
0.000000
  0
VERTEX
  8
LAYER-1
 10
1.852124
 20
0.113848
 30
0.000000
  0
VERTEX
  8
LAYER-1
 10
1.829553
 20
0.126869
 30
0.000000
  0
VERTEX
  8
LAYER-1
 10
1.850386
 20
0.096487
 30
0.000000
  0
SEQEND
  8
LAYER-1
  0
POLYLINE
  8
LAYER-1
 66
  1
 70
  1
 62
  0
 10
1.881981
 20
0.036274
 30
0.000000
  0
VERTEX
  8
LAYER-1
 10
1.881981
 20
0.036274
 30
0.000000
  0
VERTEX
  8
LAYER-1
 10
1.907155
 20
0.019780
 30
0.000000
  0
VERTEX
  8
LAYER-1
 10
1.914967
 20
0.034539
 30
0.000000
  0
SEQEND
  8
LAYER-1
  0
POLYLINE
  8
LAYER-1
 66
  1
 70
  0
 62
  0
 10
2.144491
 20
0.202921
 30
0.000000
  0
VERTEX
  8
LAYER-1
 10
2.144491
 20
0.202921
 30
0.000000
  0
VERTEX
  8
LAYER-1
 10
2.144491
 20
0.207262
 30
0.000000
  0
VERTEX
  8
LAYER-1
 10
2.140150
 20
0.210733
 30
0.000000
  0
VERTEX
  8
LAYER-1
 10
2.134943
 20
0.211601
 30
0.000000
  0
VERTEX
  8
LAYER-1
 10
2.130602
 20
0.209865
 30
0.000000
  0
VERTEX
  8
LAYER-1
 10
2.128866
 20
0.205525
 30
0.000000
  0
VERTEX
  8
LAYER-1
 10
2.128866
 20
0.201185
 30
0.000000
  0
VERTEX
  8
LAYER-1
 10
2.132338
 20
0.196844
 30
0.000000
  0
VERTEX
  8
LAYER-1
 10
2.136678
 20
0.196844
 30
0.000000
  0
VERTEX
  8
LAYER-1
 10
2.141019
 20
0.197712
 30
0.000000
  0
VERTEX
  8
LAYER-1
 10
2.143624
 20
0.202053
 30
0.000000
  0
SEQEND
  8
LAYER-1
  0
POLYLINE
  8
LAYER-1
 66
  1
 70
  1
 62
  0
 10
2.076783
 20
0.165595
 30
0.000000
  0
VERTEX
  8
LAYER-1
 10
2.076783
 20
0.165595
 30
0.000000
  0
VERTEX
  8
LAYER-1
 10
2.054213
 20
0.178617
 30
0.000000
  0
VERTEX
  8
LAYER-1
 10
2.075045
 20
0.148234
 30
0.000000
  0
SEQEND
  8
LAYER-1
  0
POLYLINE
  8
LAYER-1
 66
  1
 70
  1
 62
  0
 10
0.845545
 20
0.202220
 30
0.000000
  0
VERTEX
  8
LAYER-1
 10
0.845545
 20
0.202220
 30
0.000000
  0
VERTEX
  8
LAYER-1
 10
0.826181
 20
0.214906
 30
0.000000
  0
VERTEX
  8
LAYER-1
 10
0.820170
 20
0.203556
 30
0.000000
  0
SEQEND
  8
LAYER-1
  0
POLYLINE
  8
LAYER-1
 66
  1
 70
  0
 62
  0
 10
1.856463
 20
0.173744
 30
0.000000
  0
VERTEX
  8
LAYER-1
 10
1.856463
 20
0.173744
 30
0.000000
  0
VERTEX
  8
LAYER-1
 10
1.856463
 20
0.178084
 30
0.000000
  0
VERTEX
  8
LAYER-1
 10
1.852122
 20
0.181557
 30
0.000000
  0
VERTEX
  8
LAYER-1
 10
1.846914
 20
0.182425
 30
0.000000
  0
VERTEX
  8
LAYER-1
 10
1.842574
 20
0.180689
 30
0.000000
  0
VERTEX
  8
LAYER-1
 10
1.840838
 20
0.176348
 30
0.000000
  0
VERTEX
  8
LAYER-1
 10
1.840838
 20
0.172007
 30
0.000000
  0
VERTEX
  8
LAYER-1
 10
1.844309
 20
0.167668
 30
0.000000
  0
VERTEX
  8
LAYER-1
 10
1.848650
 20
0.167668
 30
0.000000
  0
VERTEX
  8
LAYER-1
 10
1.852991
 20
0.168536
 30
0.000000
  0
VERTEX
  8
LAYER-1
 10
1.855596
 20
0.172876
 30
0.000000
  0
SEQEND
  8
LAYER-1
  0
POLYLINE
  8
LAYER-1
 66
  1
 70
  0
 62
  0
 10
0.822442
 20
0.135212
 30
0.000000
  0
VERTEX
  8
LAYER-1
 10
0.822442
 20
0.135212
 30
0.000000
  0
VERTEX
  8
LAYER-1
 10
0.822442
 20
0.139553
 30
0.000000
  0
VERTEX
  8
LAYER-1
 10
0.818102
 20
0.143025
 30
0.000000
  0
VERTEX
  8
LAYER-1
 10
0.812894
 20
0.143893
 30
0.000000
  0
VERTEX
  8
LAYER-1
 10
0.808553
 20
0.142157
 30
0.000000
  0
VERTEX
  8
LAYER-1
 10
0.806817
 20
0.137817
 30
0.000000
  0
VERTEX
  8
LAYER-1
 10
0.806817
 20
0.133476
 30
0.000000
  0
VERTEX
  8
LAYER-1
 10
0.810289
 20
0.129136
 30
0.000000
  0
VERTEX
  8
LAYER-1
 10
0.814630
 20
0.129136
 30
0.000000
  0
VERTEX
  8
LAYER-1
 10
0.818970
 20
0.130004
 30
0.000000
  0
VERTEX
  8
LAYER-1
 10
0.821575
 20
0.134344
 30
0.000000
  0
SEQEND
  8
LAYER-1
  0
POLYLINE
  8
LAYER-1
 66
  1
 70
  0
 62
  0
 10
1.944838
 20
0.202918
 30
0.000000
  0
VERTEX
  8
LAYER-1
 10
1.944838
 20
0.202918
 30
0.000000
  0
VERTEX
  8
LAYER-1
 10
1.944838
 20
0.207258
 30
0.000000
  0
VERTEX
  8
LAYER-1
 10
1.940497
 20
0.210731
 30
0.000000
  0
VERTEX
  8
LAYER-1
 10
1.935289
 20
0.211599
 30
0.000000
  0
VERTEX
  8
LAYER-1
 10
1.930949
 20
0.209863
 30
0.000000
  0
VERTEX
  8
LAYER-1
 10
1.929213
 20
0.205521
 30
0.000000
  0
VERTEX
  8
LAYER-1
 10
1.929213
 20
0.201182
 30
0.000000
  0
VERTEX
  8
LAYER-1
 10
1.932685
 20
0.196842
 30
0.000000
  0
VERTEX
  8
LAYER-1
 10
1.937025
 20
0.196842
 30
0.000000
  0
VERTEX
  8
LAYER-1
 10
1.941366
 20
0.197709
 30
0.000000
  0
VERTEX
  8
LAYER-1
 10
1.943971
 20
0.202050
 30
0.000000
  0
SEQEND
  8
LAYER-1
  0
POLYLINE
  8
LAYER-1
 66
  1
 70
  1
 62
  0
 10
1.504126
 20
0.067452
 30
0.000000
  0
VERTEX
  8
LAYER-1
 10
1.504126
 20
0.067452
 30
0.000000
  0
VERTEX
  8
LAYER-1
 10
1.478084
 20
0.060508
 30
0.000000
  0
VERTEX
  8
LAYER-1
 10
1.491972
 20
0.035335
 30
0.000000
  0
SEQEND
  8
LAYER-1
  0
POLYLINE
  8
LAYER-1
 66
  1
 70
  1
 62
  0
 10
2.350653
 20
0.130874
 30
0.000000
  0
VERTEX
  8
LAYER-1
 10
2.350653
 20
0.130874
 30
0.000000
  0
VERTEX
  8
LAYER-1
 10
2.373223
 20
0.117852
 30
0.000000
  0
VERTEX
  8
LAYER-1
 10
2.352390
 20
0.148234
 30
0.000000
  0
SEQEND
  8
LAYER-1
  0
POLYLINE
  8
LAYER-1
 66
  1
 70
  1
 62
  0
 10
0.960028
 20
0.147800
 30
0.000000
  0
VERTEX
  8
LAYER-1
 10
0.960028
 20
0.147800
 30
0.000000
  0
VERTEX
  8
LAYER-1
 10
0.985202
 20
0.131307
 30
0.000000
  0
VERTEX
  8
LAYER-1
 10
0.993015
 20
0.146064
 30
0.000000
  0
SEQEND
  8
LAYER-1
  0
POLYLINE
  8
LAYER-1
 66
  1
 70
  0
 62
  0
 10
2.278605
 20
0.177745
 30
0.000000
  0
VERTEX
  8
LAYER-1
 10
2.278605
 20
0.177745
 30
0.000000
  0
VERTEX
  8
LAYER-1
 10
2.278605
 20
0.173405
 30
0.000000
  0
VERTEX
  8
LAYER-1
 10
2.282946
 20
0.169933
 30
0.000000
  0
VERTEX
  8
LAYER-1
 10
2.288153
 20
0.169065
 30
0.000000
  0
VERTEX
  8
LAYER-1
 10
2.292494
 20
0.170801
 30
0.000000
  0
VERTEX
  8
LAYER-1
 10
2.294230
 20
0.175142
 30
0.000000
  0
VERTEX
  8
LAYER-1
 10
2.294230
 20
0.179482
 30
0.000000
  0
VERTEX
  8
LAYER-1
 10
2.290758
 20
0.183823
 30
0.000000
  0
VERTEX
  8
LAYER-1
 10
2.286417
 20
0.183823
 30
0.000000
  0
VERTEX
  8
LAYER-1
 10
2.282077
 20
0.182955
 30
0.000000
  0
VERTEX
  8
LAYER-1
 10
2.279473
 20
0.178613
 30
0.000000
  0
SEQEND
  8
LAYER-1
  0
POLYLINE
  8
LAYER-1
 66
  1
 70
  1
 62
  0
 10
2.228257
 20
0.189032
 30
0.000000
  0
VERTEX
  8
LAYER-1
 10
2.228257
 20
0.189032
 30
0.000000
  0
VERTEX
  8
LAYER-1
 10
2.250827
 20
0.176011
 30
0.000000
  0
VERTEX
  8
LAYER-1
 10
2.229994
 20
0.206393
 30
0.000000
  0
SEQEND
  8
LAYER-1
  0
POLYLINE
  8
LAYER-1
 66
  1
 70
  1
 62
  0
 10
0.958626
 20
0.095550
 30
0.000000
  0
VERTEX
  8
LAYER-1
 10
0.958626
 20
0.095550
 30
0.000000
  0
VERTEX
  8
LAYER-1
 10
0.977991
 20
0.082864
 30
0.000000
  0
VERTEX
  8
LAYER-1
 10
0.984002
 20
0.094214
 30
0.000000
  0
SEQEND
  8
LAYER-1
  0
POLYLINE
  8
LAYER-1
 66
  1
 70
  0
 62
  0
 10
1.684767
 20
0.047835
 30
0.000000
  0
VERTEX
  8
LAYER-1
 10
1.684767
 20
0.047835
 30
0.000000
  0
VERTEX
  8
LAYER-1
 10
1.684767
 20
0.052175
 30
0.000000
  0
VERTEX
  8
LAYER-1
 10
1.680427
 20
0.055647
 30
0.000000
  0
VERTEX
  8
LAYER-1
 10
1.675219
 20
0.056515
 30
0.000000
  0
VERTEX
  8
LAYER-1
 10
1.670878
 20
0.054779
 30
0.000000
  0
VERTEX
  8
LAYER-1
 10
1.669142
 20
0.050439
 30
0.000000
  0
VERTEX
  8
LAYER-1
 10
1.669142
 20
0.046098
 30
0.000000
  0
VERTEX
  8
LAYER-1
 10
1.672614
 20
0.041758
 30
0.000000
  0
VERTEX
  8
LAYER-1
 10
1.676955
 20
0.041758
 30
0.000000
  0
VERTEX
  8
LAYER-1
 10
1.681296
 20
0.042626
 30
0.000000
  0
VERTEX
  8
LAYER-1
 10
1.683899
 20
0.046967
 30
0.000000
  0
SEQEND
  8
LAYER-1
  0
POLYLINE
  8
LAYER-1
 66
  1
 70
  0
 62
  0
 10
2.490410
 20
0.130874
 30
0.000000
  0
VERTEX
  8
LAYER-1
 10
2.490410
 20
0.130874
 30
0.000000
  0
VERTEX
  8
LAYER-1
 10
2.490410
 20
0.126533
 30
0.000000
  0
VERTEX
  8
LAYER-1
 10
2.494751
 20
0.123061
 30
0.000000
  0
VERTEX
  8
LAYER-1
 10
2.499959
 20
0.122193
 30
0.000000
  0
VERTEX
  8
LAYER-1
 10
2.504300
 20
0.123929
 30
0.000000
  0
VERTEX
  8
LAYER-1
 10
2.506035
 20
0.128269
 30
0.000000
  0
VERTEX
  8
LAYER-1
 10
2.506035
 20
0.132609
 30
0.000000
  0
VERTEX
  8
LAYER-1
 10
2.502564
 20
0.136950
 30
0.000000
  0
VERTEX
  8
LAYER-1
 10
2.498223
 20
0.136950
 30
0.000000
  0
VERTEX
  8
LAYER-1
 10
2.493882
 20
0.136081
 30
0.000000
  0
VERTEX
  8
LAYER-1
 10
2.491278
 20
0.131742
 30
0.000000
  0
SEQEND
  8
LAYER-1
  0
POLYLINE
  8
LAYER-1
 66
  1
 70
  0
 62
  0
 10
2.324612
 20
0.185561
 30
0.000000
  0
VERTEX
  8
LAYER-1
 10
2.324612
 20
0.185561
 30
0.000000
  0
VERTEX
  8
LAYER-1
 10
2.324612
 20
0.181220
 30
0.000000
  0
VERTEX
  8
LAYER-1
 10
2.328953
 20
0.177749
 30
0.000000
  0
VERTEX
  8
LAYER-1
 10
2.334160
 20
0.176881
 30
0.000000
  0
VERTEX
  8
LAYER-1
 10
2.338501
 20
0.178617
 30
0.000000
  0
VERTEX
  8
LAYER-1
 10
2.340237
 20
0.182956
 30
0.000000
  0
VERTEX
  8
LAYER-1
 10
2.340237
 20
0.187297
 30
0.000000
  0
VERTEX
  8
LAYER-1
 10
2.336765
 20
0.191638
 30
0.000000
  0
VERTEX
  8
LAYER-1
 10
2.332424
 20
0.191638
 30
0.000000
  0
VERTEX
  8
LAYER-1
 10
2.328084
 20
0.190769
 30
0.000000
  0
VERTEX
  8
LAYER-1
 10
2.325479
 20
0.186429
 30
0.000000
  0
SEQEND
  8
LAYER-1
  0
POLYLINE
  8
LAYER-1
 66
  1
 70
  1
 62
  0
 10
2.086765
 20
0.102662
 30
0.000000
  0
VERTEX
  8
LAYER-1
 10
2.086765
 20
0.102662
 30
0.000000
  0
VERTEX
  8
LAYER-1
 10
2.093710
 20
0.076621
 30
0.000000
  0
VERTEX
  8
LAYER-1
 10
2.118883
 20
0.090508
 30
0.000000
  0
SEQEND
  8
LAYER-1
  0
POLYLINE
  8
LAYER-1
 66
  1
 70
  1
 62
  0
 10
2.191280
 20
0.089904
 30
0.000000
  0
VERTEX
  8
LAYER-1
 10
2.191280
 20
0.089904
 30
0.000000
  0
VERTEX
  8
LAYER-1
 10
2.178258
 20
0.067334
 30
0.000000
  0
VERTEX
  8
LAYER-1
 10
2.208640
 20
0.088166
 30
0.000000
  0
SEQEND
  8
LAYER-1
  0
POLYLINE
  8
LAYER-1
 66
  1
 70
  1
 62
  0
 10
1.907244
 20
0.120359
 30
0.000000
  0
VERTEX
  8
LAYER-1
 10
1.907244
 20
0.120359
 30
0.000000
  0
VERTEX
  8
LAYER-1
 10
1.890751
 20
0.095186
 30
0.000000
  0
VERTEX
  8
LAYER-1
 10
1.905508
 20
0.087374
 30
0.000000
  0
SEQEND
  8
LAYER-1
  0
POLYLINE
  8
LAYER-1
 66
  1
 70
  0
 62
  0
 10
2.037286
 20
0.133912
 30
0.000000
  0
VERTEX
  8
LAYER-1
 10
2.037286
 20
0.133912
 30
0.000000
  0
VERTEX
  8
LAYER-1
 10
2.032946
 20
0.133912
 30
0.000000
  0
VERTEX
  8
LAYER-1
 10
2.029474
 20
0.129571
 30
0.000000
  0
VERTEX
  8
LAYER-1
 10
2.028606
 20
0.124363
 30
0.000000
  0
VERTEX
  8
LAYER-1
 10
2.030342
 20
0.120023
 30
0.000000
  0
VERTEX
  8
LAYER-1
 10
2.034682
 20
0.118287
 30
0.000000
  0
VERTEX
  8
LAYER-1
 10
2.039022
 20
0.118287
 30
0.000000
  0
VERTEX
  8
LAYER-1
 10
2.043363
 20
0.121758
 30
0.000000
  0
VERTEX
  8
LAYER-1
 10
2.043363
 20
0.126099
 30
0.000000
  0
VERTEX
  8
LAYER-1
 10
2.042495
 20
0.130440
 30
0.000000
  0
VERTEX
  8
LAYER-1
 10
2.038154
 20
0.133045
 30
0.000000
  0
SEQEND
  8
LAYER-1
  0
POLYLINE
  8
LAYER-1
 66
  1
 70
  1
 62
  0
 10
0.894925
 20
0.210300
 30
0.000000
  0
VERTEX
  8
LAYER-1
 10
0.894925
 20
0.210300
 30
0.000000
  0
VERTEX
  8
LAYER-1
 10
0.881904
 20
0.187730
 30
0.000000
  0
VERTEX
  8
LAYER-1
 10
0.912286
 20
0.208562
 30
0.000000
  0
SEQEND
  8
LAYER-1
  0
POLYLINE
  8
LAYER-1
 66
  1
 70
  1
 62
  0
 10
1.892321
 20
0.153008
 30
0.000000
  0
VERTEX
  8
LAYER-1
 10
1.892321
 20
0.153008
 30
0.000000
  0
VERTEX
  8
LAYER-1
 10
1.879634
 20
0.133645
 30
0.000000
  0
VERTEX
  8
LAYER-1
 10
1.890985
 20
0.127633
 30
0.000000
  0
SEQEND
  8
LAYER-1
  0
POLYLINE
  8
LAYER-1
 66
  1
 70
  0
 62
  0
 10
2.189196
 20
0.135648
 30
0.000000
  0
VERTEX
  8
LAYER-1
 10
2.189196
 20
0.135648
 30
0.000000
  0
VERTEX
  8
LAYER-1
 10
2.184856
 20
0.135648
 30
0.000000
  0
VERTEX
  8
LAYER-1
 10
2.181383
 20
0.131307
 30
0.000000
  0
VERTEX
  8
LAYER-1
 10
2.180515
 20
0.126099
 30
0.000000
  0
VERTEX
  8
LAYER-1
 10
2.182251
 20
0.121758
 30
0.000000
  0
VERTEX
  8
LAYER-1
 10
2.186592
 20
0.120023
 30
0.000000
  0
VERTEX
  8
LAYER-1
 10
2.190932
 20
0.120023
 30
0.000000
  0
VERTEX
  8
LAYER-1
 10
2.195272
 20
0.123494
 30
0.000000
  0
VERTEX
  8
LAYER-1
 10
2.195272
 20
0.127836
 30
0.000000
  0
VERTEX
  8
LAYER-1
 10
2.194404
 20
0.132176
 30
0.000000
  0
VERTEX
  8
LAYER-1
 10
2.190063
 20
0.134781
 30
0.000000
  0
SEQEND
  8
LAYER-1
  0
POLYLINE
  8
LAYER-1
 66
  1
 70
  0
 62
  0
 10
2.249092
 20
0.140856
 30
0.000000
  0
VERTEX
  8
LAYER-1
 10
2.249092
 20
0.140856
 30
0.000000
  0
VERTEX
  8
LAYER-1
 10
2.244751
 20
0.140856
 30
0.000000
  0
VERTEX
  8
LAYER-1
 10
2.241279
 20
0.136514
 30
0.000000
  0
VERTEX
  8
LAYER-1
 10
2.240411
 20
0.131307
 30
0.000000
  0
VERTEX
  8
LAYER-1
 10
2.242147
 20
0.126967
 30
0.000000
  0
VERTEX
  8
LAYER-1
 10
2.246488
 20
0.125231
 30
0.000000
  0
VERTEX
  8
LAYER-1
 10
2.250828
 20
0.125231
 30
0.000000
  0
VERTEX
  8
LAYER-1
 10
2.255168
 20
0.128702
 30
0.000000
  0
VERTEX
  8
LAYER-1
 10
2.255168
 20
0.133043
 30
0.000000
  0
VERTEX
  8
LAYER-1
 10
2.254300
 20
0.137383
 30
0.000000
  0
VERTEX
  8
LAYER-1
 10
2.249960
 20
0.139988
 30
0.000000
  0
SEQEND
  8
LAYER-1
  0
POLYLINE
  8
LAYER-1
 66
  1
 70
  0
 62
  0
 10
0.905341
 20
0.127834
 30
0.000000
  0
VERTEX
  8
LAYER-1
 10
0.905341
 20
0.127834
 30
0.000000
  0
VERTEX
  8
LAYER-1
 10
0.901001
 20
0.127834
 30
0.000000
  0
VERTEX
  8
LAYER-1
 10
0.897529
 20
0.123494
 30
0.000000
  0
VERTEX
  8
LAYER-1
 10
0.896661
 20
0.118286
 30
0.000000
  0
VERTEX
  8
LAYER-1
 10
0.898397
 20
0.113945
 30
0.000000
  0
VERTEX
  8
LAYER-1
 10
0.902738
 20
0.112209
 30
0.000000
  0
VERTEX
  8
LAYER-1
 10
0.907077
 20
0.112209
 30
0.000000
  0
VERTEX
  8
LAYER-1
 10
0.911418
 20
0.115681
 30
0.000000
  0
VERTEX
  8
LAYER-1
 10
0.911418
 20
0.120021
 30
0.000000
  0
VERTEX
  8
LAYER-1
 10
0.910550
 20
0.124363
 30
0.000000
  0
VERTEX
  8
LAYER-1
 10
0.906209
 20
0.126968
 30
0.000000
  0
SEQEND
  8
LAYER-1
  0
POLYLINE
  8
LAYER-1
 66
  1
 70
  1
 62
  0
 10
2.556383
 20
0.167764
 30
0.000000
  0
VERTEX
  8
LAYER-1
 10
2.556383
 20
0.167764
 30
0.000000
  0
VERTEX
  8
LAYER-1
 10
2.563328
 20
0.141724
 30
0.000000
  0
VERTEX
  8
LAYER-1
 10
2.588501
 20
0.155612
 30
0.000000
  0
SEQEND
  8
LAYER-1
  0
POLYLINE
  8
LAYER-1
 66
  1
 70
  1
 62
  0
 10
2.718710
 20
0.196411
 30
0.000000
  0
VERTEX
  8
LAYER-1
 10
2.718710
 20
0.196411
 30
0.000000
  0
VERTEX
  8
LAYER-1
 10
2.705689
 20
0.173842
 30
0.000000
  0
VERTEX
  8
LAYER-1
 10
2.736071
 20
0.194674
 30
0.000000
  0
SEQEND
  8
LAYER-1
  0
POLYLINE
  8
LAYER-1
 66
  1
 70
  1
 62
  0
 10
1.394925
 20
0.147365
 30
0.000000
  0
VERTEX
  8
LAYER-1
 10
1.394925
 20
0.147365
 30
0.000000
  0
VERTEX
  8
LAYER-1
 10
1.378432
 20
0.122192
 30
0.000000
  0
VERTEX
  8
LAYER-1
 10
1.393189
 20
0.114379
 30
0.000000
  0
SEQEND
  8
LAYER-1
  0
POLYLINE
  8
LAYER-1
 66
  1
 70
  0
 62
  0
 10
2.506904
 20
0.199014
 30
0.000000
  0
VERTEX
  8
LAYER-1
 10
2.506904
 20
0.199014
 30
0.000000
  0
VERTEX
  8
LAYER-1
 10
2.502564
 20
0.199014
 30
0.000000
  0
VERTEX
  8
LAYER-1
 10
2.499092
 20
0.194674
 30
0.000000
  0
VERTEX
  8
LAYER-1
 10
2.498223
 20
0.189467
 30
0.000000
  0
VERTEX
  8
LAYER-1
 10
2.499960
 20
0.185126
 30
0.000000
  0
VERTEX
  8
LAYER-1
 10
2.504300
 20
0.183389
 30
0.000000
  0
VERTEX
  8
LAYER-1
 10
2.508640
 20
0.183389
 30
0.000000
  0
VERTEX
  8
LAYER-1
 10
2.512981
 20
0.186862
 30
0.000000
  0
VERTEX
  8
LAYER-1
 10
2.512981
 20
0.191202
 30
0.000000
  0
VERTEX
  8
LAYER-1
 10
2.512112
 20
0.195543
 30
0.000000
  0
VERTEX
  8
LAYER-1
 10
2.507772
 20
0.198146
 30
0.000000
  0
SEQEND
  8
LAYER-1
  0
POLYLINE
  8
LAYER-1
 66
  1
 70
  1
 62
  0
 10
2.544231
 20
0.131306
 30
0.000000
  0
VERTEX
  8
LAYER-1
 10
2.544231
 20
0.131306
 30
0.000000
  0
VERTEX
  8
LAYER-1
 10
2.531210
 20
0.108737
 30
0.000000
  0
VERTEX
  8
LAYER-1
 10
2.561592
 20
0.129569
 30
0.000000
  0
SEQEND
  8
LAYER-1
  0
POLYLINE
  8
LAYER-1
 66
  1
 70
  1
 62
  0
 10
1.103157
 20
0.221677
 30
0.000000
  0
VERTEX
  8
LAYER-1
 10
1.103157
 20
0.221677
 30
0.000000
  0
VERTEX
  8
LAYER-1
 10
1.122522
 20
0.208992
 30
0.000000
  0
VERTEX
  8
LAYER-1
 10
1.128532
 20
0.220341
 30
0.000000
  0
SEQEND
  8
LAYER-1
  0
POLYLINE
  8
LAYER-1
 66
  1
 70
  0
 62
  0
 10
2.658814
 20
0.200751
 30
0.000000
  0
VERTEX
  8
LAYER-1
 10
2.658814
 20
0.200751
 30
0.000000
  0
VERTEX
  8
LAYER-1
 10
2.654473
 20
0.200751
 30
0.000000
  0
VERTEX
  8
LAYER-1
 10
2.651001
 20
0.196410
 30
0.000000
  0
VERTEX
  8
LAYER-1
 10
2.650133
 20
0.191202
 30
0.000000
  0
VERTEX
  8
LAYER-1
 10
2.651869
 20
0.186862
 30
0.000000
  0
VERTEX
  8
LAYER-1
 10
2.656210
 20
0.185126
 30
0.000000
  0
VERTEX
  8
LAYER-1
 10
2.660550
 20
0.185126
 30
0.000000
  0
VERTEX
  8
LAYER-1
 10
2.664890
 20
0.188598
 30
0.000000
  0
VERTEX
  8
LAYER-1
 10
2.664890
 20
0.192938
 30
0.000000
  0
VERTEX
  8
LAYER-1
 10
2.664022
 20
0.197279
 30
0.000000
  0
VERTEX
  8
LAYER-1
 10
2.659682
 20
0.199883
 30
0.000000
  0
SEQEND
  8
LAYER-1
  0
POLYLINE
  8
LAYER-1
 66
  1
 70
  0
 62
  0
 10
1.447008
 20
0.141289
 30
0.000000
  0
VERTEX
  8
LAYER-1
 10
1.447008
 20
0.141289
 30
0.000000
  0
VERTEX
  8
LAYER-1
 10
1.442668
 20
0.141289
 30
0.000000
  0
VERTEX
  8
LAYER-1
 10
1.439196
 20
0.136948
 30
0.000000
  0
VERTEX
  8
LAYER-1
 10
1.438328
 20
0.131740
 30
0.000000
  0
VERTEX
  8
LAYER-1
 10
1.440064
 20
0.127400
 30
0.000000
  0
VERTEX
  8
LAYER-1
 10
1.444404
 20
0.125664
 30
0.000000
  0
VERTEX
  8
LAYER-1
 10
1.448744
 20
0.125664
 30
0.000000
  0
VERTEX
  8
LAYER-1
 10
1.453084
 20
0.129136
 30
0.000000
  0
VERTEX
  8
LAYER-1
 10
1.453084
 20
0.133476
 30
0.000000
  0
VERTEX
  8
LAYER-1
 10
1.452216
 20
0.137817
 30
0.000000
  0
VERTEX
  8
LAYER-1
 10
1.447877
 20
0.140421
 30
0.000000
  0
SEQEND
  8
LAYER-1
  0
POLYLINE
  8
LAYER-1
 66
  1
 70
  0
 62
  0
 10
1.030341
 20
0.117851
 30
0.000000
  0
VERTEX
  8
LAYER-1
 10
1.030341
 20
0.117851
 30
0.000000
  0
VERTEX
  8
LAYER-1
 10
1.026001
 20
0.117851
 30
0.000000
  0
VERTEX
  8
LAYER-1
 10
1.022529
 20
0.113511
 30
0.000000
  0
VERTEX
  8
LAYER-1
 10
1.021661
 20
0.108303
 30
0.000000
  0
VERTEX
  8
LAYER-1
 10
1.023397
 20
0.103962
 30
0.000000
  0
VERTEX
  8
LAYER-1
 10
1.027736
 20
0.102226
 30
0.000000
  0
VERTEX
  8
LAYER-1
 10
1.032077
 20
0.102226
 30
0.000000
  0
VERTEX
  8
LAYER-1
 10
1.036417
 20
0.105698
 30
0.000000
  0
VERTEX
  8
LAYER-1
 10
1.036417
 20
0.110039
 30
0.000000
  0
VERTEX
  8
LAYER-1
 10
1.035549
 20
0.114380
 30
0.000000
  0
VERTEX
  8
LAYER-1
 10
1.031209
 20
0.116983
 30
0.000000
  0
SEQEND
  8
LAYER-1
  0
POLYLINE
  8
LAYER-1
 66
  1
 70
  1
 62
  0
 10
2.998223
 20
0.192070
 30
0.000000
  0
VERTEX
  8
LAYER-1
 10
2.998223
 20
0.192070
 30
0.000000
  0
VERTEX
  8
LAYER-1
 10
3.005167
 20
0.166030
 30
0.000000
  0
VERTEX
  8
LAYER-1
 10
3.030341
 20
0.179917
 30
0.000000
  0
SEQEND
  8
LAYER-1
  0
POLYLINE
  8
LAYER-1
 66
  1
 70
  1
 62
  0
 10
3.160550
 20
0.220718
 30
0.000000
  0
VERTEX
  8
LAYER-1
 10
3.160550
 20
0.220718
 30
0.000000
  0
VERTEX
  8
LAYER-1
 10
3.147528
 20
0.198146
 30
0.000000
  0
VERTEX
  8
LAYER-1
 10
3.177910
 20
0.218980
 30
0.000000
  0
SEQEND
  8
LAYER-1
  0
POLYLINE
  8
LAYER-1
 66
  1
 70
  1
 62
  0
 10
2.388848
 20
0.156481
 30
0.000000
  0
VERTEX
  8
LAYER-1
 10
2.388848
 20
0.156481
 30
0.000000
  0
VERTEX
  8
LAYER-1
 10
2.414022
 20
0.139987
 30
0.000000
  0
VERTEX
  8
LAYER-1
 10
2.421834
 20
0.154744
 30
0.000000
  0
SEQEND
  8
LAYER-1
  0
POLYLINE
  8
LAYER-1
 66
  1
 70
  0
 62
  0
 10
2.959160
 20
0.212905
 30
0.000000
  0
VERTEX
  8
LAYER-1
 10
2.959160
 20
0.212905
 30
0.000000
  0
VERTEX
  8
LAYER-1
 10
2.954820
 20
0.212905
 30
0.000000
  0
VERTEX
  8
LAYER-1
 10
2.951348
 20
0.208564
 30
0.000000
  0
VERTEX
  8
LAYER-1
 10
2.950480
 20
0.203356
 30
0.000000
  0
VERTEX
  8
LAYER-1
 10
2.952216
 20
0.199015
 30
0.000000
  0
VERTEX
  8
LAYER-1
 10
2.956557
 20
0.197280
 30
0.000000
  0
VERTEX
  8
LAYER-1
 10
2.960896
 20
0.197280
 30
0.000000
  0
VERTEX
  8
LAYER-1
 10
2.965237
 20
0.200751
 30
0.000000
  0
VERTEX
  8
LAYER-1
 10
2.965237
 20
0.205093
 30
0.000000
  0
VERTEX
  8
LAYER-1
 10
2.964369
 20
0.209433
 30
0.000000
  0
VERTEX
  8
LAYER-1
 10
2.960028
 20
0.212038
 30
0.000000
  0
SEQEND
  8
LAYER-1
  0
POLYLINE
  8
LAYER-1
 66
  1
 70
  1
 62
  0
 10
2.974786
 20
0.124363
 30
0.000000
  0
VERTEX
  8
LAYER-1
 10
2.974786
 20
0.124363
 30
0.000000
  0
VERTEX
  8
LAYER-1
 10
2.961765
 20
0.101792
 30
0.000000
  0
VERTEX
  8
LAYER-1
 10
2.992147
 20
0.122625
 30
0.000000
  0
SEQEND
  8
LAYER-1
  0
POLYLINE
  8
LAYER-1
 66
  1
 70
  1
 62
  0
 10
3.069237
 20
0.117950
 30
0.000000
  0
VERTEX
  8
LAYER-1
 10
3.069237
 20
0.117950
 30
0.000000
  0
VERTEX
  8
LAYER-1
 10
3.056550
 20
0.098585
 30
0.000000
  0
VERTEX
  8
LAYER-1
 10
3.067901
 20
0.092574
 30
0.000000
  0
SEQEND
  8
LAYER-1
  0
POLYLINE
  8
LAYER-1
 66
  1
 70
  0
 62
  0
 10
3.100653
 20
0.217244
 30
0.000000
  0
VERTEX
  8
LAYER-1
 10
3.100653
 20
0.217244
 30
0.000000
  0
VERTEX
  8
LAYER-1
 10
3.096314
 20
0.217244
 30
0.000000
  0
VERTEX
  8
LAYER-1
 10
3.092841
 20
0.212904
 30
0.000000
  0
VERTEX
  8
LAYER-1
 10
3.091973
 20
0.207696
 30
0.000000
  0
VERTEX
  8
LAYER-1
 10
3.093709
 20
0.203356
 30
0.000000
  0
VERTEX
  8
LAYER-1
 10
3.098050
 20
0.201619
 30
0.000000
  0
VERTEX
  8
LAYER-1
 10
3.102390
 20
0.201619
 30
0.000000
  0
VERTEX
  8
LAYER-1
 10
3.106730
 20
0.205092
 30
0.000000
  0
VERTEX
  8
LAYER-1
 10
3.106730
 20
0.209432
 30
0.000000
  0
VERTEX
  8
LAYER-1
 10
3.105862
 20
0.213773
 30
0.000000
  0
VERTEX
  8
LAYER-1
 10
3.101521
 20
0.216377
 30
0.000000
  0
SEQEND
  8
LAYER-1
  0
POLYLINE
  8
LAYER-1
 66
  1
 70
  0
 62
  0
 10
2.377564
 20
0.209432
 30
0.000000
  0
VERTEX
  8
LAYER-1
 10
2.377564
 20
0.209432
 30
0.000000
  0
VERTEX
  8
LAYER-1
 10
2.377564
 20
0.205092
 30
0.000000
  0
VERTEX
  8
LAYER-1
 10
2.381905
 20
0.201619
 30
0.000000
  0
VERTEX
  8
LAYER-1
 10
2.387113
 20
0.200751
 30
0.000000
  0
VERTEX
  8
LAYER-1
 10
2.391453
 20
0.202487
 30
0.000000
  0
VERTEX
  8
LAYER-1
 10
2.393189
 20
0.206827
 30
0.000000
  0
VERTEX
  8
LAYER-1
 10
2.393189
 20
0.211168
 30
0.000000
  0
VERTEX
  8
LAYER-1
 10
2.389717
 20
0.215508
 30
0.000000
  0
VERTEX
  8
LAYER-1
 10
2.385377
 20
0.215508
 30
0.000000
  0
VERTEX
  8
LAYER-1
 10
2.381036
 20
0.214639
 30
0.000000
  0
VERTEX
  8
LAYER-1
 10
2.378431
 20
0.210299
 30
0.000000
  0
SEQEND
  8
LAYER-1
  0
POLYLINE
  8
LAYER-1
 66
  1
 70
  0
 62
  0
 10
2.940931
 20
0.125228
 30
0.000000
  0
VERTEX
  8
LAYER-1
 10
2.940931
 20
0.125228
 30
0.000000
  0
VERTEX
  8
LAYER-1
 10
2.936590
 20
0.125228
 30
0.000000
  0
VERTEX
  8
LAYER-1
 10
2.933118
 20
0.120888
 30
0.000000
  0
VERTEX
  8
LAYER-1
 10
2.932250
 20
0.115680
 30
0.000000
  0
VERTEX
  8
LAYER-1
 10
2.933986
 20
0.111339
 30
0.000000
  0
VERTEX
  8
LAYER-1
 10
2.938327
 20
0.109603
 30
0.000000
  0
VERTEX
  8
LAYER-1
 10
2.942667
 20
0.109603
 30
0.000000
  0
VERTEX
  8
LAYER-1
 10
2.947007
 20
0.113075
 30
0.000000
  0
VERTEX
  8
LAYER-1
 10
2.947007
 20
0.117416
 30
0.000000
  0
VERTEX
  8
LAYER-1
 10
2.946139
 20
0.121757
 30
0.000000
  0
VERTEX
  8
LAYER-1
 10
2.941799
 20
0.124362
 30
0.000000
  0
SEQEND
  8
LAYER-1
  0
POLYLINE
  8
LAYER-1
 66
  1
 70
  1
 62
  0
 10
2.808120
 20
0.113512
 30
0.000000
  0
VERTEX
  8
LAYER-1
 10
2.808120
 20
0.113512
 30
0.000000
  0
VERTEX
  8
LAYER-1
 10
2.782078
 20
0.106567
 30
0.000000
  0
VERTEX
  8
LAYER-1
 10
2.795967
 20
0.081394
 30
0.000000
  0
SEQEND
  8
LAYER-1
  0
POLYLINE
  8
LAYER-1
 66
  1
 70
  1
 62
  0
 10
1.431385
 20
0.087904
 30
0.000000
  0
VERTEX
  8
LAYER-1
 10
1.431385
 20
0.087904
 30
0.000000
  0
VERTEX
  8
LAYER-1
 10
1.406209
 20
0.104396
 30
0.000000
  0
VERTEX
  8
LAYER-1
 10
1.398397
 20
0.089639
 30
0.000000
  0
SEQEND
  8
LAYER-1
  0
POLYLINE
  8
LAYER-1
 66
  1
 70
  0
 62
  0
 10
2.839370
 20
0.162990
 30
0.000000
  0
VERTEX
  8
LAYER-1
 10
2.839370
 20
0.162990
 30
0.000000
  0
VERTEX
  8
LAYER-1
 10
2.839370
 20
0.167331
 30
0.000000
  0
VERTEX
  8
LAYER-1
 10
2.835029
 20
0.170803
 30
0.000000
  0
VERTEX
  8
LAYER-1
 10
2.829822
 20
0.171671
 30
0.000000
  0
VERTEX
  8
LAYER-1
 10
2.825481
 20
0.169935
 30
0.000000
  0
VERTEX
  8
LAYER-1
 10
2.823745
 20
0.165594
 30
0.000000
  0
VERTEX
  8
LAYER-1
 10
2.823745
 20
0.161255
 30
0.000000
  0
VERTEX
  8
LAYER-1
 10
2.827217
 20
0.156915
 30
0.000000
  0
VERTEX
  8
LAYER-1
 10
2.831558
 20
0.156915
 30
0.000000
  0
VERTEX
  8
LAYER-1
 10
2.835898
 20
0.157782
 30
0.000000
  0
VERTEX
  8
LAYER-1
 10
2.838501
 20
0.162123
 30
0.000000
  0
SEQEND
  8
LAYER-1
  0
POLYLINE
  8
LAYER-1
 66
  1
 70
  1
 62
  0
 10
2.771660
 20
0.125665
 30
0.000000
  0
VERTEX
  8
LAYER-1
 10
2.771660
 20
0.125665
 30
0.000000
  0
VERTEX
  8
LAYER-1
 10
2.749092
 20
0.138685
 30
0.000000
  0
VERTEX
  8
LAYER-1
 10
2.769925
 20
0.108303
 30
0.000000
  0
SEQEND
  8
LAYER-1
  0
POLYLINE
  8
LAYER-1
 66
  1
 70
  1
 62
  0
 10
1.509175
 20
0.107167
 30
0.000000
  0
VERTEX
  8
LAYER-1
 10
1.509175
 20
0.107167
 30
0.000000
  0
VERTEX
  8
LAYER-1
 10
1.489809
 20
0.119854
 30
0.000000
  0
VERTEX
  8
LAYER-1
 10
1.483800
 20
0.108502
 30
0.000000
  0
SEQEND
  8
LAYER-1
  0
POLYLINE
  8
LAYER-1
 66
  1
 70
  0
 62
  0
 10
1.569405
 20
0.095717
 30
0.000000
  0
VERTEX
  8
LAYER-1
 10
1.569405
 20
0.095717
 30
0.000000
  0
VERTEX
  8
LAYER-1
 10
1.569405
 20
0.100056
 30
0.000000
  0
VERTEX
  8
LAYER-1
 10
1.565064
 20
0.103529
 30
0.000000
  0
VERTEX
  8
LAYER-1
 10
1.559857
 20
0.104396
 30
0.000000
  0
VERTEX
  8
LAYER-1
 10
1.555516
 20
0.102661
 30
0.000000
  0
VERTEX
  8
LAYER-1
 10
1.553780
 20
0.098320
 30
0.000000
  0
VERTEX
  8
LAYER-1
 10
1.553780
 20
0.093980
 30
0.000000
  0
VERTEX
  8
LAYER-1
 10
1.557252
 20
0.089639
 30
0.000000
  0
VERTEX
  8
LAYER-1
 10
1.561593
 20
0.089639
 30
0.000000
  0
VERTEX
  8
LAYER-1
 10
1.565933
 20
0.090508
 30
0.000000
  0
VERTEX
  8
LAYER-1
 10
1.568536
 20
0.094849
 30
0.000000
  0
SEQEND
  8
LAYER-1
  0
POLYLINE
  8
LAYER-1
 66
  1
 70
  0
 62
  0
 10
2.689197
 20
0.115248
 30
0.000000
  0
VERTEX
  8
LAYER-1
 10
2.689197
 20
0.115248
 30
0.000000
  0
VERTEX
  8
LAYER-1
 10
2.689197
 20
0.119588
 30
0.000000
  0
VERTEX
  8
LAYER-1
 10
2.684856
 20
0.123060
 30
0.000000
  0
VERTEX
  8
LAYER-1
 10
2.679648
 20
0.123928
 30
0.000000
  0
VERTEX
  8
LAYER-1
 10
2.675308
 20
0.122192
 30
0.000000
  0
VERTEX
  8
LAYER-1
 10
2.673572
 20
0.117852
 30
0.000000
  0
VERTEX
  8
LAYER-1
 10
2.673572
 20
0.113512
 30
0.000000
  0
VERTEX
  8
LAYER-1
 10
2.677043
 20
0.109171
 30
0.000000
  0
VERTEX
  8
LAYER-1
 10
2.681384
 20
0.109171
 30
0.000000
  0
VERTEX
  8
LAYER-1
 10
2.685725
 20
0.110040
 30
0.000000
  0
VERTEX
  8
LAYER-1
 10
2.688328
 20
0.114380
 30
0.000000
  0
SEQEND
  8
LAYER-1
  0
POLYLINE
  8
LAYER-1
 66
  1
 70
  1
 62
  0
 10
2.881904
 20
0.116551
 30
0.000000
  0
VERTEX
  8
LAYER-1
 10
2.881904
 20
0.116551
 30
0.000000
  0
VERTEX
  8
LAYER-1
 10
2.874959
 20
0.142592
 30
0.000000
  0
VERTEX
  8
LAYER-1
 10
2.849786
 20
0.128704
 30
0.000000
  0
SEQEND
  8
LAYER-1
  0
POLYLINE
  8
LAYER-1
 66
  1
 70
  1
 62
  0
 10
2.328953
 20
0.103529
 30
0.000000
  0
VERTEX
  8
LAYER-1
 10
2.328953
 20
0.103529
 30
0.000000
  0
VERTEX
  8
LAYER-1
 10
2.306382
 20
0.116551
 30
0.000000
  0
VERTEX
  8
LAYER-1
 10
2.327215
 20
0.086168
 30
0.000000
  0
SEQEND
  8
LAYER-1
  0
POLYLINE
  8
LAYER-1
 66
  1
 70
  1
 62
  0
 10
3.106731
 20
0.127836
 30
0.000000
  0
VERTEX
  8
LAYER-1
 10
3.106731
 20
0.127836
 30
0.000000
  0
VERTEX
  8
LAYER-1
 10
3.123224
 20
0.153008
 30
0.000000
  0
VERTEX
  8
LAYER-1
 10
3.108467
 20
0.160821
 30
0.000000
  0
SEQEND
  8
LAYER-1
  0
POLYLINE
  8
LAYER-1
 66
  1
 70
  0
 62
  0
 10
3.242147
 20
0.095714
 30
0.000000
  0
VERTEX
  8
LAYER-1
 10
3.242147
 20
0.095714
 30
0.000000
  0
VERTEX
  8
LAYER-1
 10
3.246488
 20
0.095714
 30
0.000000
  0
VERTEX
  8
LAYER-1
 10
3.249959
 20
0.100055
 30
0.000000
  0
VERTEX
  8
LAYER-1
 10
3.250827
 20
0.105263
 30
0.000000
  0
VERTEX
  8
LAYER-1
 10
3.249091
 20
0.109603
 30
0.000000
  0
VERTEX
  8
LAYER-1
 10
3.244751
 20
0.111339
 30
0.000000
  0
VERTEX
  8
LAYER-1
 10
3.240411
 20
0.111339
 30
0.000000
  0
VERTEX
  8
LAYER-1
 10
3.236070
 20
0.107868
 30
0.000000
  0
VERTEX
  8
LAYER-1
 10
3.236070
 20
0.103527
 30
0.000000
  0
VERTEX
  8
LAYER-1
 10
3.236938
 20
0.099186
 30
0.000000
  0
VERTEX
  8
LAYER-1
 10
3.241279
 20
0.096581
 30
0.000000
  0
SEQEND
  8
LAYER-1
  0
POLYLINE
  8
LAYER-1
 66
  1
 70
  1
 62
  0
 10
2.894056
 20
0.153008
 30
0.000000
  0
VERTEX
  8
LAYER-1
 10
2.894056
 20
0.153008
 30
0.000000
  0
VERTEX
  8
LAYER-1
 10
2.907077
 20
0.175579
 30
0.000000
  0
VERTEX
  8
LAYER-1
 10
2.876695
 20
0.154746
 30
0.000000
  0
SEQEND
  8
LAYER-1
  0
POLYLINE
  8
LAYER-1
 66
  1
 70
  1
 62
  0
 10
3.147696
 20
0.103864
 30
0.000000
  0
VERTEX
  8
LAYER-1
 10
3.147696
 20
0.103864
 30
0.000000
  0
VERTEX
  8
LAYER-1
 10
3.160382
 20
0.123228
 30
0.000000
  0
VERTEX
  8
LAYER-1
 10
3.149032
 20
0.129239
 30
0.000000
  0
SEQEND
  8
LAYER-1
  0
POLYLINE
  8
LAYER-1
 66
  1
 70
  0
 62
  0
 10
2.468708
 20
0.163426
 30
0.000000
  0
VERTEX
  8
LAYER-1
 10
2.468708
 20
0.163426
 30
0.000000
  0
VERTEX
  8
LAYER-1
 10
2.468708
 20
0.167764
 30
0.000000
  0
VERTEX
  8
LAYER-1
 10
2.464368
 20
0.171238
 30
0.000000
  0
VERTEX
  8
LAYER-1
 10
2.459160
 20
0.172106
 30
0.000000
  0
VERTEX
  8
LAYER-1
 10
2.454819
 20
0.170369
 30
0.000000
  0
VERTEX
  8
LAYER-1
 10
2.453083
 20
0.166029
 30
0.000000
  0
VERTEX
  8
LAYER-1
 10
2.453083
 20
0.161688
 30
0.000000
  0
VERTEX
  8
LAYER-1
 10
2.456555
 20
0.157349
 30
0.000000
  0
VERTEX
  8
LAYER-1
 10
2.460896
 20
0.157349
 30
0.000000
  0
VERTEX
  8
LAYER-1
 10
2.465236
 20
0.158217
 30
0.000000
  0
VERTEX
  8
LAYER-1
 10
2.467841
 20
0.162557
 30
0.000000
  0
SEQEND
  8
LAYER-1
  0
POLYLINE
  8
LAYER-1
 66
  1
 70
  0
 62
  0
 10
3.054647
 20
0.133912
 30
0.000000
  0
VERTEX
  8
LAYER-1
 10
3.054647
 20
0.133912
 30
0.000000
  0
VERTEX
  8
LAYER-1
 10
3.058988
 20
0.133912
 30
0.000000
  0
VERTEX
  8
LAYER-1
 10
3.062460
 20
0.138252
 30
0.000000
  0
VERTEX
  8
LAYER-1
 10
3.063328
 20
0.143461
 30
0.000000
  0
VERTEX
  8
LAYER-1
 10
3.061592
 20
0.147801
 30
0.000000
  0
VERTEX
  8
LAYER-1
 10
3.057251
 20
0.149537
 30
0.000000
  0
VERTEX
  8
LAYER-1
 10
3.052911
 20
0.149537
 30
0.000000
  0
VERTEX
  8
LAYER-1
 10
3.048571
 20
0.146065
 30
0.000000
  0
VERTEX
  8
LAYER-1
 10
3.048571
 20
0.141724
 30
0.000000
  0
VERTEX
  8
LAYER-1
 10
3.049439
 20
0.137383
 30
0.000000
  0
VERTEX
  8
LAYER-1
 10
3.053779
 20
0.134779
 30
0.000000
  0
SEQEND
  8
LAYER-1
  0
POLYLINE
  8
LAYER-1
 66
  1
 70
  0
 62
  0
 10
3.218710
 20
0.141724
 30
0.000000
  0
VERTEX
  8
LAYER-1
 10
3.218710
 20
0.141724
 30
0.000000
  0
VERTEX
  8
LAYER-1
 10
3.223050
 20
0.141724
 30
0.000000
  0
VERTEX
  8
LAYER-1
 10
3.226522
 20
0.146065
 30
0.000000
  0
VERTEX
  8
LAYER-1
 10
3.227390
 20
0.151273
 30
0.000000
  0
VERTEX
  8
LAYER-1
 10
3.225654
 20
0.155613
 30
0.000000
  0
VERTEX
  8
LAYER-1
 10
3.221313
 20
0.157349
 30
0.000000
  0
VERTEX
  8
LAYER-1
 10
3.216974
 20
0.157349
 30
0.000000
  0
VERTEX
  8
LAYER-1
 10
3.212633
 20
0.153877
 30
0.000000
  0
VERTEX
  8
LAYER-1
 10
3.212633
 20
0.149537
 30
0.000000
  0
VERTEX
  8
LAYER-1
 10
3.213501
 20
0.145196
 30
0.000000
  0
VERTEX
  8
LAYER-1
 10
3.217842
 20
0.142592
 30
0.000000
  0
SEQEND
  8
LAYER-1
  0
POLYLINE
  8
LAYER-1
 66
  1
 70
  1
 62
  0
 10
3.625829
 20
0.139988
 30
0.000000
  0
VERTEX
  8
LAYER-1
 10
3.625829
 20
0.139988
 30
0.000000
  0
VERTEX
  8
LAYER-1
 10
3.632773
 20
0.113947
 30
0.000000
  0
VERTEX
  8
LAYER-1
 10
3.657946
 20
0.127836
 30
0.000000
  0
SEQEND
  8
LAYER-1
  0
POLYLINE
  8
LAYER-1
 66
  1
 70
  1
 62
  0
 10
3.792061
 20
0.093981
 30
0.000000
  0
VERTEX
  8
LAYER-1
 10
3.792061
 20
0.093981
 30
0.000000
  0
VERTEX
  8
LAYER-1
 10
3.779040
 20
0.071412
 30
0.000000
  0
VERTEX
  8
LAYER-1
 10
3.809423
 20
0.092244
 30
0.000000
  0
SEQEND
  8
LAYER-1
  0
POLYLINE
  8
LAYER-1
 66
  1
 70
  1
 62
  0
 10
3.677043
 20
0.184256
 30
0.000000
  0
VERTEX
  8
LAYER-1
 10
3.677043
 20
0.184256
 30
0.000000
  0
VERTEX
  8
LAYER-1
 10
3.660551
 20
0.159081
 30
0.000000
  0
VERTEX
  8
LAYER-1
 10
3.675307
 20
0.151269
 30
0.000000
  0
SEQEND
  8
LAYER-1
  0
POLYLINE
  8
LAYER-1
 66
  1
 70
  0
 62
  0
 10
3.591973
 20
0.171238
 30
0.000000
  0
VERTEX
  8
LAYER-1
 10
3.591973
 20
0.171238
 30
0.000000
  0
VERTEX
  8
LAYER-1
 10
3.587633
 20
0.171238
 30
0.000000
  0
VERTEX
  8
LAYER-1
 10
3.584160
 20
0.166898
 30
0.000000
  0
VERTEX
  8
LAYER-1
 10
3.583291
 20
0.161690
 30
0.000000
  0
VERTEX
  8
LAYER-1
 10
3.585028
 20
0.157349
 30
0.000000
  0
VERTEX
  8
LAYER-1
 10
3.589369
 20
0.155613
 30
0.000000
  0
VERTEX
  8
LAYER-1
 10
3.593708
 20
0.155613
 30
0.000000
  0
VERTEX
  8
LAYER-1
 10
3.598049
 20
0.159086
 30
0.000000
  0
VERTEX
  8
LAYER-1
 10
3.598049
 20
0.163426
 30
0.000000
  0
VERTEX
  8
LAYER-1
 10
3.597181
 20
0.167767
 30
0.000000
  0
VERTEX
  8
LAYER-1
 10
3.592841
 20
0.170370
 30
0.000000
  0
SEQEND
  8
LAYER-1
  0
POLYLINE
  8
LAYER-1
 66
  1
 70
  1
 62
  0
 10
3.575479
 20
0.111340
 30
0.000000
  0
VERTEX
  8
LAYER-1
 10
3.575479
 20
0.111340
 30
0.000000
  0
VERTEX
  8
LAYER-1
 10
3.562459
 20
0.088771
 30
0.000000
  0
VERTEX
  8
LAYER-1
 10
3.592841
 20
0.109603
 30
0.000000
  0
SEQEND
  8
LAYER-1
  0
POLYLINE
  8
LAYER-1
 66
  1
 70
  1
 62
  0
 10
3.630936
 20
0.209695
 30
0.000000
  0
VERTEX
  8
LAYER-1
 10
3.630936
 20
0.209695
 30
0.000000
  0
VERTEX
  8
LAYER-1
 10
3.650301
 20
0.197007
 30
0.000000
  0
VERTEX
  8
LAYER-1
 10
3.656311
 20
0.208359
 30
0.000000
  0
SEQEND
  8
LAYER-1
  0
POLYLINE
  8
LAYER-1
 66
  1
 70
  0
 62
  0
 10
3.515583
 20
0.160943
 30
0.000000
  0
VERTEX
  8
LAYER-1
 10
3.515583
 20
0.160943
 30
0.000000
  0
VERTEX
  8
LAYER-1
 10
3.511243
 20
0.160943
 30
0.000000
  0
VERTEX
  8
LAYER-1
 10
3.507771
 20
0.156603
 30
0.000000
  0
VERTEX
  8
LAYER-1
 10
3.506903
 20
0.151395
 30
0.000000
  0
VERTEX
  8
LAYER-1
 10
3.508639
 20
0.147054
 30
0.000000
  0
VERTEX
  8
LAYER-1
 10
3.512979
 20
0.145318
 30
0.000000
  0
VERTEX
  8
LAYER-1
 10
3.517320
 20
0.145318
 30
0.000000
  0
VERTEX
  8
LAYER-1
 10
3.521659
 20
0.148790
 30
0.000000
  0
VERTEX
  8
LAYER-1
 10
3.521659
 20
0.153130
 30
0.000000
  0
VERTEX
  8
LAYER-1
 10
3.520791
 20
0.157472
 30
0.000000
  0
VERTEX
  8
LAYER-1
 10
3.516452
 20
0.160075
 30
0.000000
  0
SEQEND
  8
LAYER-1
  0
POLYLINE
  8
LAYER-1
 66
  1
 70
  0
 62
  0
 10
3.892323
 20
0.133039
 30
0.000000
  0
VERTEX
  8
LAYER-1
 10
3.892323
 20
0.133039
 30
0.000000
  0
VERTEX
  8
LAYER-1
 10
3.887983
 20
0.133039
 30
0.000000
  0
VERTEX
  8
LAYER-1
 10
3.884510
 20
0.128699
 30
0.000000
  0
VERTEX
  8
LAYER-1
 10
3.883642
 20
0.123490
 30
0.000000
  0
VERTEX
  8
LAYER-1
 10
3.885379
 20
0.119150
 30
0.000000
  0
VERTEX
  8
LAYER-1
 10
3.889719
 20
0.117414
 30
0.000000
  0
VERTEX
  8
LAYER-1
 10
3.894059
 20
0.117414
 30
0.000000
  0
VERTEX
  8
LAYER-1
 10
3.898399
 20
0.120886
 30
0.000000
  0
VERTEX
  8
LAYER-1
 10
3.898399
 20
0.125226
 30
0.000000
  0
VERTEX
  8
LAYER-1
 10
3.897532
 20
0.129567
 30
0.000000
  0
VERTEX
  8
LAYER-1
 10
3.893191
 20
0.132171
 30
0.000000
  0
SEQEND
  8
LAYER-1
  0
POLYLINE
  8
LAYER-1
 66
  1
 70
  0
 62
  0
 10
3.624092
 20
0.104396
 30
0.000000
  0
VERTEX
  8
LAYER-1
 10
3.624092
 20
0.104396
 30
0.000000
  0
VERTEX
  8
LAYER-1
 10
3.619752
 20
0.104396
 30
0.000000
  0
VERTEX
  8
LAYER-1
 10
3.616280
 20
0.100055
 30
0.000000
  0
VERTEX
  8
LAYER-1
 10
3.615412
 20
0.094848
 30
0.000000
  0
VERTEX
  8
LAYER-1
 10
3.617148
 20
0.090507
 30
0.000000
  0
VERTEX
  8
LAYER-1
 10
3.621488
 20
0.088771
 30
0.000000
  0
VERTEX
  8
LAYER-1
 10
3.625828
 20
0.088771
 30
0.000000
  0
VERTEX
  8
LAYER-1
 10
3.630168
 20
0.092243
 30
0.000000
  0
VERTEX
  8
LAYER-1
 10
3.630168
 20
0.096583
 30
0.000000
  0
VERTEX
  8
LAYER-1
 10
3.629301
 20
0.100924
 30
0.000000
  0
VERTEX
  8
LAYER-1
 10
3.624960
 20
0.103527
 30
0.000000
  0
SEQEND
  8
LAYER-1
  0
POLYLINE
  8
LAYER-1
 66
  1
 70
  1
 62
  0
 10
3.422268
 20
0.163859
 30
0.000000
  0
VERTEX
  8
LAYER-1
 10
3.422268
 20
0.163859
 30
0.000000
  0
VERTEX
  8
LAYER-1
 10
3.396228
 20
0.156915
 30
0.000000
  0
VERTEX
  8
LAYER-1
 10
3.410115
 20
0.131742
 30
0.000000
  0
SEQEND
  8
LAYER-1
  0
POLYLINE
  8
LAYER-1
 66
  1
 70
  1
 62
  0
 10
3.329387
 20
0.112644
 30
0.000000
  0
VERTEX
  8
LAYER-1
 10
3.329387
 20
0.112644
 30
0.000000
  0
VERTEX
  8
LAYER-1
 10
3.306817
 20
0.125665
 30
0.000000
  0
VERTEX
  8
LAYER-1
 10
3.327649
 20
0.095283
 30
0.000000
  0
SEQEND
  8
LAYER-1
  0
POLYLINE
  8
LAYER-1
 66
  1
 70
  1
 62
  0
 10
3.292928
 20
0.157780
 30
0.000000
  0
VERTEX
  8
LAYER-1
 10
3.292928
 20
0.157780
 30
0.000000
  0
VERTEX
  8
LAYER-1
 10
3.267754
 20
0.174273
 30
0.000000
  0
VERTEX
  8
LAYER-1
 10
3.259942
 20
0.159515
 30
0.000000
  0
SEQEND
  8
LAYER-1
  0
POLYLINE
  8
LAYER-1
 66
  1
 70
  0
 62
  0
 10
3.453518
 20
0.213338
 30
0.000000
  0
VERTEX
  8
LAYER-1
 10
3.453518
 20
0.213338
 30
0.000000
  0
VERTEX
  8
LAYER-1
 10
3.453518
 20
0.217679
 30
0.000000
  0
VERTEX
  8
LAYER-1
 10
3.449178
 20
0.221151
 30
0.000000
  0
VERTEX
  8
LAYER-1
 10
3.443970
 20
0.222019
 30
0.000000
  0
VERTEX
  8
LAYER-1
 10
3.439629
 20
0.220283
 30
0.000000
  0
VERTEX
  8
LAYER-1
 10
3.437893
 20
0.215942
 30
0.000000
  0
VERTEX
  8
LAYER-1
 10
3.437893
 20
0.211602
 30
0.000000
  0
VERTEX
  8
LAYER-1
 10
3.441365
 20
0.207262
 30
0.000000
  0
VERTEX
  8
LAYER-1
 10
3.445706
 20
0.207262
 30
0.000000
  0
VERTEX
  8
LAYER-1
 10
3.450047
 20
0.208130
 30
0.000000
  0
VERTEX
  8
LAYER-1
 10
3.452651
 20
0.212470
 30
0.000000
  0
SEQEND
  8
LAYER-1
  0
POLYLINE
  8
LAYER-1
 66
  1
 70
  1
 62
  0
 10
3.385810
 20
0.176012
 30
0.000000
  0
VERTEX
  8
LAYER-1
 10
3.385810
 20
0.176012
 30
0.000000
  0
VERTEX
  8
LAYER-1
 10
3.363240
 20
0.189033
 30
0.000000
  0
VERTEX
  8
LAYER-1
 10
3.384073
 20
0.158651
 30
0.000000
  0
SEQEND
  8
LAYER-1
  0
POLYLINE
  8
LAYER-1
 66
  1
 70
  1
 62
  0
 10
3.337465
 20
0.183053
 30
0.000000
  0
VERTEX
  8
LAYER-1
 10
3.337465
 20
0.183053
 30
0.000000
  0
VERTEX
  8
LAYER-1
 10
3.324778
 20
0.163690
 30
0.000000
  0
VERTEX
  8
LAYER-1
 10
3.336128
 20
0.157678
 30
0.000000
  0
SEQEND
  8
LAYER-1
  0
POLYLINE
  8
LAYER-1
 66
  1
 70
  0
 62
  0
 10
3.455254
 20
0.085733
 30
0.000000
  0
VERTEX
  8
LAYER-1
 10
3.455254
 20
0.085733
 30
0.000000
  0
VERTEX
  8
LAYER-1
 10
3.455254
 20
0.090073
 30
0.000000
  0
VERTEX
  8
LAYER-1
 10
3.450913
 20
0.093546
 30
0.000000
  0
VERTEX
  8
LAYER-1
 10
3.445706
 20
0.094414
 30
0.000000
  0
VERTEX
  8
LAYER-1
 10
3.441365
 20
0.092678
 30
0.000000
  0
VERTEX
  8
LAYER-1
 10
3.439629
 20
0.088337
 30
0.000000
  0
VERTEX
  8
LAYER-1
 10
3.439629
 20
0.083996
 30
0.000000
  0
VERTEX
  8
LAYER-1
 10
3.443101
 20
0.079657
 30
0.000000
  0
VERTEX
  8
LAYER-1
 10
3.447442
 20
0.079657
 30
0.000000
  0
VERTEX
  8
LAYER-1
 10
3.451782
 20
0.080525
 30
0.000000
  0
VERTEX
  8
LAYER-1
 10
3.454387
 20
0.084865
 30
0.000000
  0
SEQEND
  8
LAYER-1
  0
POLYLINE
  8
LAYER-1
 66
  1
 70
  0
 62
  0
 10
3.373657
 20
0.086601
 30
0.000000
  0
VERTEX
  8
LAYER-1
 10
3.373657
 20
0.086601
 30
0.000000
  0
VERTEX
  8
LAYER-1
 10
3.373657
 20
0.090942
 30
0.000000
  0
VERTEX
  8
LAYER-1
 10
3.369316
 20
0.094414
 30
0.000000
  0
VERTEX
  8
LAYER-1
 10
3.364109
 20
0.095282
 30
0.000000
  0
VERTEX
  8
LAYER-1
 10
3.359768
 20
0.093546
 30
0.000000
  0
VERTEX
  8
LAYER-1
 10
3.358032
 20
0.089205
 30
0.000000
  0
VERTEX
  8
LAYER-1
 10
3.358032
 20
0.084865
 30
0.000000
  0
VERTEX
  8
LAYER-1
 10
3.361504
 20
0.080525
 30
0.000000
  0
VERTEX
  8
LAYER-1
 10
3.365844
 20
0.080525
 30
0.000000
  0
VERTEX
  8
LAYER-1
 10
3.370185
 20
0.081393
 30
0.000000
  0
VERTEX
  8
LAYER-1
 10
3.372790
 20
0.085733
 30
0.000000
  0
SEQEND
  8
LAYER-1
  0
POLYLINE
  8
LAYER-1
 66
  1
 70
  0
 62
  0
 10
3.303345
 20
0.196844
 30
0.000000
  0
VERTEX
  8
LAYER-1
 10
3.303345
 20
0.196844
 30
0.000000
  0
VERTEX
  8
LAYER-1
 10
3.303345
 20
0.201185
 30
0.000000
  0
VERTEX
  8
LAYER-1
 10
3.299004
 20
0.204657
 30
0.000000
  0
VERTEX
  8
LAYER-1
 10
3.293797
 20
0.205525
 30
0.000000
  0
VERTEX
  8
LAYER-1
 10
3.289456
 20
0.203789
 30
0.000000
  0
VERTEX
  8
LAYER-1
 10
3.287720
 20
0.199448
 30
0.000000
  0
VERTEX
  8
LAYER-1
 10
3.287720
 20
0.195108
 30
0.000000
  0
VERTEX
  8
LAYER-1
 10
3.291192
 20
0.190768
 30
0.000000
  0
VERTEX
  8
LAYER-1
 10
3.295532
 20
0.190768
 30
0.000000
  0
VERTEX
  8
LAYER-1
 10
3.299873
 20
0.191636
 30
0.000000
  0
VERTEX
  8
LAYER-1
 10
3.302478
 20
0.195976
 30
0.000000
  0
SEQEND
  8
LAYER-1
  0
POLYLINE
  8
LAYER-1
 66
  1
 70
  1
 62
  0
 10
4.085898
 20
0.186429
 30
0.000000
  0
VERTEX
  8
LAYER-1
 10
4.085898
 20
0.186429
 30
0.000000
  0
VERTEX
  8
LAYER-1
 10
4.092842
 20
0.160388
 30
0.000000
  0
VERTEX
  8
LAYER-1
 10
4.118016
 20
0.174276
 30
0.000000
  0
SEQEND
  8
LAYER-1
  0
POLYLINE
  8
LAYER-1
 66
  1
 70
  1
 62
  0
 10
4.248224
 20
0.215075
 30
0.000000
  0
VERTEX
  8
LAYER-1
 10
4.248224
 20
0.215075
 30
0.000000
  0
VERTEX
  8
LAYER-1
 10
4.235203
 20
0.192506
 30
0.000000
  0
VERTEX
  8
LAYER-1
 10
4.265585
 20
0.213338
 30
0.000000
  0
SEQEND
  8
LAYER-1
  0
POLYLINE
  8
LAYER-1
 66
  1
 70
  1
 62
  0
 10
4.227391
 20
0.130004
 30
0.000000
  0
VERTEX
  8
LAYER-1
 10
4.227391
 20
0.130004
 30
0.000000
  0
VERTEX
  8
LAYER-1
 10
4.210898
 20
0.104830
 30
0.000000
  0
VERTEX
  8
LAYER-1
 10
4.225655
 20
0.097017
 30
0.000000
  0
SEQEND
  8
LAYER-1
  0
POLYLINE
  8
LAYER-1
 66
  1
 70
  0
 62
  0
 10
4.036419
 20
0.217679
 30
0.000000
  0
VERTEX
  8
LAYER-1
 10
4.036419
 20
0.217679
 30
0.000000
  0
VERTEX
  8
LAYER-1
 10
4.032078
 20
0.217679
 30
0.000000
  0
VERTEX
  8
LAYER-1
 10
4.028606
 20
0.213338
 30
0.000000
  0
VERTEX
  8
LAYER-1
 10
4.027738
 20
0.208131
 30
0.000000
  0
VERTEX
  8
LAYER-1
 10
4.029474
 20
0.203790
 30
0.000000
  0
VERTEX
  8
LAYER-1
 10
4.033815
 20
0.202054
 30
0.000000
  0
VERTEX
  8
LAYER-1
 10
4.038155
 20
0.202054
 30
0.000000
  0
VERTEX
  8
LAYER-1
 10
4.042495
 20
0.205526
 30
0.000000
  0
VERTEX
  8
LAYER-1
 10
4.042495
 20
0.209867
 30
0.000000
  0
VERTEX
  8
LAYER-1
 10
4.041627
 20
0.214207
 30
0.000000
  0
VERTEX
  8
LAYER-1
 10
4.037287
 20
0.216811
 30
0.000000
  0
SEQEND
  8
LAYER-1
  0
POLYLINE
  8
LAYER-1
 66
  1
 70
  1
 62
  0
 10
4.057685
 20
0.149535
 30
0.000000
  0
VERTEX
  8
LAYER-1
 10
4.057685
 20
0.149535
 30
0.000000
  0
VERTEX
  8
LAYER-1
 10
4.080254
 20
0.136514
 30
0.000000
  0
VERTEX
  8
LAYER-1
 10
4.059422
 20
0.166896
 30
0.000000
  0
SEQEND
  8
LAYER-1
  0
POLYLINE
  8
LAYER-1
 66
  1
 70
  1
 62
  0
 10
4.174339
 20
0.141555
 30
0.000000
  0
VERTEX
  8
LAYER-1
 10
4.174339
 20
0.141555
 30
0.000000
  0
VERTEX
  8
LAYER-1
 10
4.193704
 20
0.128867
 30
0.000000
  0
VERTEX
  8
LAYER-1
 10
4.199714
 20
0.140219
 30
0.000000
  0
SEQEND
  8
LAYER-1
  0
POLYLINE
  8
LAYER-1
 66
  1
 70
  0
 62
  0
 10
4.188328
 20
0.219415
 30
0.000000
  0
VERTEX
  8
LAYER-1
 10
4.188328
 20
0.219415
 30
0.000000
  0
VERTEX
  8
LAYER-1
 10
4.183988
 20
0.219415
 30
0.000000
  0
VERTEX
  8
LAYER-1
 10
4.180516
 20
0.215074
 30
0.000000
  0
VERTEX
  8
LAYER-1
 10
4.179648
 20
0.209867
 30
0.000000
  0
VERTEX
  8
LAYER-1
 10
4.181383
 20
0.205526
 30
0.000000
  0
VERTEX
  8
LAYER-1
 10
4.185724
 20
0.203790
 30
0.000000
  0
VERTEX
  8
LAYER-1
 10
4.190065
 20
0.203790
 30
0.000000
  0
VERTEX
  8
LAYER-1
 10
4.194405
 20
0.207262
 30
0.000000
  0
VERTEX
  8
LAYER-1
 10
4.194405
 20
0.211602
 30
0.000000
  0
VERTEX
  8
LAYER-1
 10
4.193537
 20
0.215943
 30
0.000000
  0
VERTEX
  8
LAYER-1
 10
4.189196
 20
0.218547
 30
0.000000
  0
SEQEND
  8
LAYER-1
  0
POLYLINE
  8
LAYER-1
 66
  1
 70
  0
 62
  0
 10
4.272530
 20
0.092677
 30
0.000000
  0
VERTEX
  8
LAYER-1
 10
4.272530
 20
0.092677
 30
0.000000
  0
VERTEX
  8
LAYER-1
 10
4.268189
 20
0.092677
 30
0.000000
  0
VERTEX
  8
LAYER-1
 10
4.264718
 20
0.088337
 30
0.000000
  0
VERTEX
  8
LAYER-1
 10
4.263849
 20
0.083129
 30
0.000000
  0
VERTEX
  8
LAYER-1
 10
4.265586
 20
0.078788
 30
0.000000
  0
VERTEX
  8
LAYER-1
 10
4.269925
 20
0.077052
 30
0.000000
  0
VERTEX
  8
LAYER-1
 10
4.274266
 20
0.077052
 30
0.000000
  0
VERTEX
  8
LAYER-1
 10
4.278607
 20
0.080524
 30
0.000000
  0
VERTEX
  8
LAYER-1
 10
4.278607
 20
0.084864
 30
0.000000
  0
VERTEX
  8
LAYER-1
 10
4.277738
 20
0.089205
 30
0.000000
  0
VERTEX
  8
LAYER-1
 10
4.273398
 20
0.091809
 30
0.000000
  0
SEQEND
  8
LAYER-1
  0
POLYLINE
  8
LAYER-1
 66
  1
 70
  0
 62
  0
 10
4.118885
 20
0.147363
 30
0.000000
  0
VERTEX
  8
LAYER-1
 10
4.118885
 20
0.147363
 30
0.000000
  0
VERTEX
  8
LAYER-1
 10
4.114544
 20
0.147363
 30
0.000000
  0
VERTEX
  8
LAYER-1
 10
4.111072
 20
0.143021
 30
0.000000
  0
VERTEX
  8
LAYER-1
 10
4.110204
 20
0.137814
 30
0.000000
  0
VERTEX
  8
LAYER-1
 10
4.111940
 20
0.133474
 30
0.000000
  0
VERTEX
  8
LAYER-1
 10
4.116280
 20
0.131738
 30
0.000000
  0
VERTEX
  8
LAYER-1
 10
4.120620
 20
0.131738
 30
0.000000
  0
VERTEX
  8
LAYER-1
 10
4.124961
 20
0.135209
 30
0.000000
  0
VERTEX
  8
LAYER-1
 10
4.124961
 20
0.139550
 30
0.000000
  0
VERTEX
  8
LAYER-1
 10
4.124092
 20
0.143890
 30
0.000000
  0
VERTEX
  8
LAYER-1
 10
4.119752
 20
0.146495
 30
0.000000
  0
SEQEND
  8
LAYER-1
  0
POLYLINE
  8
LAYER-1
 66
  1
 70
  1
 62
  0
 10
3.953955
 20
0.156044
 30
0.000000
  0
VERTEX
  8
LAYER-1
 10
3.953955
 20
0.156044
 30
0.000000
  0
VERTEX
  8
LAYER-1
 10
3.947010
 20
0.182084
 30
0.000000
  0
VERTEX
  8
LAYER-1
 10
3.921836
 20
0.168197
 30
0.000000
  0
SEQEND
  8
LAYER-1
  0
POLYLINE
  8
LAYER-1
 66
  1
 70
  1
 62
  0
 10
3.542929
 20
0.187727
 30
0.000000
  0
VERTEX
  8
LAYER-1
 10
3.542929
 20
0.187727
 30
0.000000
  0
VERTEX
  8
LAYER-1
 10
3.555949
 20
0.210298
 30
0.000000
  0
VERTEX
  8
LAYER-1
 10
3.525568
 20
0.189465
 30
0.000000
  0
SEQEND
  8
LAYER-1
  0
POLYLINE
  8
LAYER-1
 66
  1
 70
  1
 62
  0
 10
3.840238
 20
0.181219
 30
0.000000
  0
VERTEX
  8
LAYER-1
 10
3.840238
 20
0.181219
 30
0.000000
  0
VERTEX
  8
LAYER-1
 10
3.856732
 20
0.206393
 30
0.000000
  0
VERTEX
  8
LAYER-1
 10
3.841974
 20
0.214205
 30
0.000000
  0
SEQEND
  8
LAYER-1
  0
POLYLINE
  8
LAYER-1
 66
  1
 70
  0
 62
  0
 10
4.003433
 20
0.124794
 30
0.000000
  0
VERTEX
  8
LAYER-1
 10
4.003433
 20
0.124794
 30
0.000000
  0
VERTEX
  8
LAYER-1
 10
4.007774
 20
0.124794
 30
0.000000
  0
VERTEX
  8
LAYER-1
 10
4.011245
 20
0.129134
 30
0.000000
  0
VERTEX
  8
LAYER-1
 10
4.012114
 20
0.134343
 30
0.000000
  0
VERTEX
  8
LAYER-1
 10
4.010379
 20
0.138683
 30
0.000000
  0
VERTEX
  8
LAYER-1
 10
4.006038
 20
0.140419
 30
0.000000
  0
VERTEX
  8
LAYER-1
 10
4.001697
 20
0.140419
 30
0.000000
  0
VERTEX
  8
LAYER-1
 10
3.997356
 20
0.136947
 30
0.000000
  0
VERTEX
  8
LAYER-1
 10
3.997356
 20
0.132607
 30
0.000000
  0
VERTEX
  8
LAYER-1
 10
3.998225
 20
0.128265
 30
0.000000
  0
VERTEX
  8
LAYER-1
 10
4.002566
 20
0.125661
 30
0.000000
  0
SEQEND
  8
LAYER-1
  0
POLYLINE
  8
LAYER-1
 66
  1
 70
  1
 62
  0
 10
3.957426
 20
0.121323
 30
0.000000
  0
VERTEX
  8
LAYER-1
 10
3.957426
 20
0.121323
 30
0.000000
  0
VERTEX
  8
LAYER-1
 10
3.970447
 20
0.143894
 30
0.000000
  0
VERTEX
  8
LAYER-1
 10
3.940065
 20
0.123061
 30
0.000000
  0
SEQEND
  8
LAYER-1
  0
POLYLINE
  8
LAYER-1
 66
  1
 70
  1
 62
  0
 10
3.902839
 20
0.162724
 30
0.000000
  0
VERTEX
  8
LAYER-1
 10
3.902839
 20
0.162724
 30
0.000000
  0
VERTEX
  8
LAYER-1
 10
3.883475
 20
0.175412
 30
0.000000
  0
VERTEX
  8
LAYER-1
 10
3.877464
 20
0.164060
 30
0.000000
  0
SEQEND
  8
LAYER-1
  0
POLYLINE
  8
LAYER-1
 66
  1
 70
  0
 62
  0
 10
3.879733
 20
0.059380
 30
0.000000
  0
VERTEX
  8
LAYER-1
 10
3.879733
 20
0.059380
 30
0.000000
  0
VERTEX
  8
LAYER-1
 10
3.884073
 20
0.059380
 30
0.000000
  0
VERTEX
  8
LAYER-1
 10
3.887545
 20
0.063721
 30
0.000000
  0
VERTEX
  8
LAYER-1
 10
3.888414
 20
0.068928
 30
0.000000
  0
VERTEX
  8
LAYER-1
 10
3.886678
 20
0.073268
 30
0.000000
  0
VERTEX
  8
LAYER-1
 10
3.882338
 20
0.075005
 30
0.000000
  0
VERTEX
  8
LAYER-1
 10
3.877997
 20
0.075005
 30
0.000000
  0
VERTEX
  8
LAYER-1
 10
3.873656
 20
0.071533
 30
0.000000
  0
VERTEX
  8
LAYER-1
 10
3.873656
 20
0.067192
 30
0.000000
  0
VERTEX
  8
LAYER-1
 10
3.874525
 20
0.062852
 30
0.000000
  0
VERTEX
  8
LAYER-1
 10
3.878866
 20
0.060247
 30
0.000000
  0
SEQEND
  8
LAYER-1
  0
POLYLINE
  8
LAYER-1
 66
  1
 70
  0
 62
  0
 10
3.789890
 20
0.202175
 30
0.000000
  0
VERTEX
  8
LAYER-1
 10
3.789890
 20
0.202175
 30
0.000000
  0
VERTEX
  8
LAYER-1
 10
3.794231
 20
0.202175
 30
0.000000
  0
VERTEX
  8
LAYER-1
 10
3.797703
 20
0.206516
 30
0.000000
  0
VERTEX
  8
LAYER-1
 10
3.798570
 20
0.211723
 30
0.000000
  0
VERTEX
  8
LAYER-1
 10
3.796834
 20
0.216064
 30
0.000000
  0
VERTEX
  8
LAYER-1
 10
3.792493
 20
0.217800
 30
0.000000
  0
VERTEX
  8
LAYER-1
 10
3.788155
 20
0.217800
 30
0.000000
  0
VERTEX
  8
LAYER-1
 10
3.783814
 20
0.214328
 30
0.000000
  0
VERTEX
  8
LAYER-1
 10
3.783814
 20
0.209987
 30
0.000000
  0
VERTEX
  8
LAYER-1
 10
3.784681
 20
0.205647
 30
0.000000
  0
VERTEX
  8
LAYER-1
 10
3.789021
 20
0.203042
 30
0.000000
  0
SEQEND
  8
LAYER-1
  0
POLYLINE
  8
LAYER-1
 66
  1
 70
  0
 62
  0
 10
3.952218
 20
0.195108
 30
0.000000
  0
VERTEX
  8
LAYER-1
 10
3.952218
 20
0.195108
 30
0.000000
  0
VERTEX
  8
LAYER-1
 10
3.956559
 20
0.195108
 30
0.000000
  0
VERTEX
  8
LAYER-1
 10
3.960030
 20
0.199449
 30
0.000000
  0
VERTEX
  8
LAYER-1
 10
3.960898
 20
0.204657
 30
0.000000
  0
VERTEX
  8
LAYER-1
 10
3.959162
 20
0.208998
 30
0.000000
  0
VERTEX
  8
LAYER-1
 10
3.954821
 20
0.210733
 30
0.000000
  0
VERTEX
  8
LAYER-1
 10
3.950482
 20
0.210733
 30
0.000000
  0
VERTEX
  8
LAYER-1
 10
3.946142
 20
0.207262
 30
0.000000
  0
VERTEX
  8
LAYER-1
 10
3.946142
 20
0.202921
 30
0.000000
  0
VERTEX
  8
LAYER-1
 10
3.947008
 20
0.198580
 30
0.000000
  0
VERTEX
  8
LAYER-1
 10
3.951349
 20
0.195975
 30
0.000000
  0
SEQEND
  8
LAYER-1
  0
POLYLINE
  8
LAYER-1
 66
  1
 70
  1
 62
  0
 10
4.708293
 20
0.164294
 30
0.000000
  0
VERTEX
  8
LAYER-1
 10
4.708293
 20
0.164294
 30
0.000000
  0
VERTEX
  8
LAYER-1
 10
4.715238
 20
0.138252
 30
0.000000
  0
VERTEX
  8
LAYER-1
 10
4.740411
 20
0.152140
 30
0.000000
  0
SEQEND
  8
LAYER-1
  0
POLYLINE
  8
LAYER-1
 66
  1
 70
  1
 62
  0
 10
4.835027
 20
0.199884
 30
0.000000
  0
VERTEX
  8
LAYER-1
 10
4.835027
 20
0.199884
 30
0.000000
  0
VERTEX
  8
LAYER-1
 10
4.822007
 20
0.177315
 30
0.000000
  0
VERTEX
  8
LAYER-1
 10
4.852389
 20
0.198148
 30
0.000000
  0
SEQEND
  8
LAYER-1
  0
POLYLINE
  8
LAYER-1
 66
  1
 70
  1
 62
  0
 10
4.510377
 20
0.188600
 30
0.000000
  0
VERTEX
  8
LAYER-1
 10
4.510377
 20
0.188600
 30
0.000000
  0
VERTEX
  8
LAYER-1
 10
4.493885
 20
0.163426
 30
0.000000
  0
VERTEX
  8
LAYER-1
 10
4.508642
 20
0.155613
 30
0.000000
  0
SEQEND
  8
LAYER-1
  0
POLYLINE
  8
LAYER-1
 66
  1
 70
  0
 62
  0
 10
4.620619
 20
0.180790
 30
0.000000
  0
VERTEX
  8
LAYER-1
 10
4.620619
 20
0.180790
 30
0.000000
  0
VERTEX
  8
LAYER-1
 10
4.616279
 20
0.180790
 30
0.000000
  0
VERTEX
  8
LAYER-1
 10
4.612807
 20
0.176449
 30
0.000000
  0
VERTEX
  8
LAYER-1
 10
4.611938
 20
0.171241
 30
0.000000
  0
VERTEX
  8
LAYER-1
 10
4.613674
 20
0.166901
 30
0.000000
  0
VERTEX
  8
LAYER-1
 10
4.618014
 20
0.165165
 30
0.000000
  0
VERTEX
  8
LAYER-1
 10
4.622355
 20
0.165165
 30
0.000000
  0
VERTEX
  8
LAYER-1
 10
4.626695
 20
0.168637
 30
0.000000
  0
VERTEX
  8
LAYER-1
 10
4.626695
 20
0.172977
 30
0.000000
  0
VERTEX
  8
LAYER-1
 10
4.625827
 20
0.177318
 30
0.000000
  0
VERTEX
  8
LAYER-1
 10
4.621486
 20
0.179921
 30
0.000000
  0
SEQEND
  8
LAYER-1
  0
POLYLINE
  8
LAYER-1
 66
  1
 70
  1
 62
  0
 10
4.650133
 20
0.134780
 30
0.000000
  0
VERTEX
  8
LAYER-1
 10
4.650133
 20
0.134780
 30
0.000000
  0
VERTEX
  8
LAYER-1
 10
4.637113
 20
0.112211
 30
0.000000
  0
VERTEX
  8
LAYER-1
 10
4.667494
 20
0.133043
 30
0.000000
  0
SEQEND
  8
LAYER-1
  0
POLYLINE
  8
LAYER-1
 66
  1
 70
  1
 62
  0
 10
4.857431
 20
0.135312
 30
0.000000
  0
VERTEX
  8
LAYER-1
 10
4.857431
 20
0.135312
 30
0.000000
  0
VERTEX
  8
LAYER-1
 10
4.844744
 20
0.115946
 30
0.000000
  0
VERTEX
  8
LAYER-1
 10
4.856096
 20
0.109936
 30
0.000000
  0
SEQEND
  8
LAYER-1
  0
POLYLINE
  8
LAYER-1
 66
  1
 70
  0
 62
  0
 10
4.764715
 20
0.204224
 30
0.000000
  0
VERTEX
  8
LAYER-1
 10
4.764715
 20
0.204224
 30
0.000000
  0
VERTEX
  8
LAYER-1
 10
4.760375
 20
0.204224
 30
0.000000
  0
VERTEX
  8
LAYER-1
 10
4.756903
 20
0.199883
 30
0.000000
  0
VERTEX
  8
LAYER-1
 10
4.756035
 20
0.194676
 30
0.000000
  0
VERTEX
  8
LAYER-1
 10
4.757771
 20
0.190336
 30
0.000000
  0
VERTEX
  8
LAYER-1
 10
4.762110
 20
0.188599
 30
0.000000
  0
VERTEX
  8
LAYER-1
 10
4.766451
 20
0.188599
 30
0.000000
  0
VERTEX
  8
LAYER-1
 10
4.770792
 20
0.192071
 30
0.000000
  0
VERTEX
  8
LAYER-1
 10
4.770792
 20
0.196412
 30
0.000000
  0
VERTEX
  8
LAYER-1
 10
4.769923
 20
0.200752
 30
0.000000
  0
VERTEX
  8
LAYER-1
 10
4.765583
 20
0.203356
 30
0.000000
  0
SEQEND
  8
LAYER-1
  0
POLYLINE
  8
LAYER-1
 66
  1
 70
  0
 62
  0
 10
4.552044
 20
0.194675
 30
0.000000
  0
VERTEX
  8
LAYER-1
 10
4.552044
 20
0.194675
 30
0.000000
  0
VERTEX
  8
LAYER-1
 10
4.547704
 20
0.194675
 30
0.000000
  0
VERTEX
  8
LAYER-1
 10
4.544231
 20
0.190334
 30
0.000000
  0
VERTEX
  8
LAYER-1
 10
4.543363
 20
0.185126
 30
0.000000
  0
VERTEX
  8
LAYER-1
 10
4.545100
 20
0.180786
 30
0.000000
  0
VERTEX
  8
LAYER-1
 10
4.549440
 20
0.179050
 30
0.000000
  0
VERTEX
  8
LAYER-1
 10
4.553780
 20
0.179050
 30
0.000000
  0
VERTEX
  8
LAYER-1
 10
4.558120
 20
0.182521
 30
0.000000
  0
VERTEX
  8
LAYER-1
 10
4.558120
 20
0.186863
 30
0.000000
  0
VERTEX
  8
LAYER-1
 10
4.557252
 20
0.191203
 30
0.000000
  0
VERTEX
  8
LAYER-1
 10
4.552913
 20
0.193807
 30
0.000000
  0
SEQEND
  8
LAYER-1
  0
POLYLINE
  8
LAYER-1
 66
  1
 70
  0
 62
  0
 10
4.799439
 20
0.166895
 30
0.000000
  0
VERTEX
  8
LAYER-1
 10
4.799439
 20
0.166895
 30
0.000000
  0
VERTEX
  8
LAYER-1
 10
4.795099
 20
0.166895
 30
0.000000
  0
VERTEX
  8
LAYER-1
 10
4.791627
 20
0.162554
 30
0.000000
  0
VERTEX
  8
LAYER-1
 10
4.790760
 20
0.157346
 30
0.000000
  0
VERTEX
  8
LAYER-1
 10
4.792496
 20
0.153006
 30
0.000000
  0
VERTEX
  8
LAYER-1
 10
4.796836
 20
0.151270
 30
0.000000
  0
VERTEX
  8
LAYER-1
 10
4.801176
 20
0.151270
 30
0.000000
  0
VERTEX
  8
LAYER-1
 10
4.805516
 20
0.154742
 30
0.000000
  0
VERTEX
  8
LAYER-1
 10
4.805516
 20
0.159082
 30
0.000000
  0
VERTEX
  8
LAYER-1
 10
4.804649
 20
0.163423
 30
0.000000
  0
VERTEX
  8
LAYER-1
 10
4.800308
 20
0.166027
 30
0.000000
  0
SEQEND
  8
LAYER-1
  0
POLYLINE
  8
LAYER-1
 66
  1
 70
  1
 62
  0
 10
4.414023
 20
0.113511
 30
0.000000
  0
VERTEX
  8
LAYER-1
 10
4.414023
 20
0.113511
 30
0.000000
  0
VERTEX
  8
LAYER-1
 10
4.407078
 20
0.139551
 30
0.000000
  0
VERTEX
  8
LAYER-1
 10
4.381905
 20
0.125664
 30
0.000000
  0
SEQEND
  8
LAYER-1
  0
POLYLINE
  8
LAYER-1
 66
  1
 70
  1
 62
  0
 10
4.262113
 20
0.154307
 30
0.000000
  0
VERTEX
  8
LAYER-1
 10
4.262113
 20
0.154307
 30
0.000000
  0
VERTEX
  8
LAYER-1
 10
4.275134
 20
0.176877
 30
0.000000
  0
VERTEX
  8
LAYER-1
 10
4.244752
 20
0.156045
 30
0.000000
  0
SEQEND
  8
LAYER-1
  0
POLYLINE
  8
LAYER-1
 66
  1
 70
  1
 62
  0
 10
4.345447
 20
0.114382
 30
0.000000
  0
VERTEX
  8
LAYER-1
 10
4.345447
 20
0.114382
 30
0.000000
  0
VERTEX
  8
LAYER-1
 10
4.361940
 20
0.139555
 30
0.000000
  0
VERTEX
  8
LAYER-1
 10
4.347183
 20
0.147368
 30
0.000000
  0
SEQEND
  8
LAYER-1
  0
POLYLINE
  8
LAYER-1
 66
  1
 70
  0
 62
  0
 10
4.519927
 20
0.116119
 30
0.000000
  0
VERTEX
  8
LAYER-1
 10
4.519927
 20
0.116119
 30
0.000000
  0
VERTEX
  8
LAYER-1
 10
4.524267
 20
0.116119
 30
0.000000
  0
VERTEX
  8
LAYER-1
 10
4.527739
 20
0.120459
 30
0.000000
  0
VERTEX
  8
LAYER-1
 10
4.528607
 20
0.125667
 30
0.000000
  0
VERTEX
  8
LAYER-1
 10
4.526871
 20
0.130007
 30
0.000000
  0
VERTEX
  8
LAYER-1
 10
4.522530
 20
0.131744
 30
0.000000
  0
VERTEX
  8
LAYER-1
 10
4.518191
 20
0.131744
 30
0.000000
  0
VERTEX
  8
LAYER-1
 10
4.513850
 20
0.128271
 30
0.000000
  0
VERTEX
  8
LAYER-1
 10
4.513850
 20
0.123931
 30
0.000000
  0
VERTEX
  8
LAYER-1
 10
4.514718
 20
0.119590
 30
0.000000
  0
VERTEX
  8
LAYER-1
 10
4.519059
 20
0.116986
 30
0.000000
  0
SEQEND
  8
LAYER-1
  0
POLYLINE
  8
LAYER-1
 66
  1
 70
  1
 62
  0
 10
4.471314
 20
0.130874
 30
0.000000
  0
VERTEX
  8
LAYER-1
 10
4.471314
 20
0.130874
 30
0.000000
  0
VERTEX
  8
LAYER-1
 10
4.484335
 20
0.153444
 30
0.000000
  0
VERTEX
  8
LAYER-1
 10
4.453953
 20
0.132612
 30
0.000000
  0
SEQEND
  8
LAYER-1
  0
POLYLINE
  8
LAYER-1
 66
  1
 70
  1
 62
  0
 10
4.360370
 20
0.166799
 30
0.000000
  0
VERTEX
  8
LAYER-1
 10
4.360370
 20
0.166799
 30
0.000000
  0
VERTEX
  8
LAYER-1
 10
4.373057
 20
0.186162
 30
0.000000
  0
VERTEX
  8
LAYER-1
 10
4.361706
 20
0.192174
 30
0.000000
  0
SEQEND
  8
LAYER-1
  0
POLYLINE
  8
LAYER-1
 66
  1
 70
  0
 62
  0
 10
4.316018
 20
0.198270
 30
0.000000
  0
VERTEX
  8
LAYER-1
 10
4.316018
 20
0.198270
 30
0.000000
  0
VERTEX
  8
LAYER-1
 10
4.320357
 20
0.198270
 30
0.000000
  0
VERTEX
  8
LAYER-1
 10
4.323830
 20
0.202610
 30
0.000000
  0
VERTEX
  8
LAYER-1
 10
4.324698
 20
0.207818
 30
0.000000
  0
VERTEX
  8
LAYER-1
 10
4.322962
 20
0.212159
 30
0.000000
  0
VERTEX
  8
LAYER-1
 10
4.318622
 20
0.213895
 30
0.000000
  0
VERTEX
  8
LAYER-1
 10
4.314281
 20
0.213895
 30
0.000000
  0
VERTEX
  8
LAYER-1
 10
4.309941
 20
0.210423
 30
0.000000
  0
VERTEX
  8
LAYER-1
 10
4.309941
 20
0.206083
 30
0.000000
  0
VERTEX
  8
LAYER-1
 10
4.310809
 20
0.201742
 30
0.000000
  0
VERTEX
  8
LAYER-1
 10
4.315150
 20
0.199137
 30
0.000000
  0
SEQEND
  8
LAYER-1
  0
POLYLINE
  8
LAYER-1
 66
  1
 70
  0
 62
  0
 10
4.293363
 20
0.120458
 30
0.000000
  0
VERTEX
  8
LAYER-1
 10
4.293363
 20
0.120458
 30
0.000000
  0
VERTEX
  8
LAYER-1
 10
4.297704
 20
0.120458
 30
0.000000
  0
VERTEX
  8
LAYER-1
 10
4.301176
 20
0.124799
 30
0.000000
  0
VERTEX
  8
LAYER-1
 10
4.302044
 20
0.130007
 30
0.000000
  0
VERTEX
  8
LAYER-1
 10
4.300308
 20
0.134347
 30
0.000000
  0
VERTEX
  8
LAYER-1
 10
4.295967
 20
0.136083
 30
0.000000
  0
VERTEX
  8
LAYER-1
 10
4.291627
 20
0.136083
 30
0.000000
  0
VERTEX
  8
LAYER-1
 10
4.287287
 20
0.132612
 30
0.000000
  0
VERTEX
  8
LAYER-1
 10
4.287287
 20
0.128270
 30
0.000000
  0
VERTEX
  8
LAYER-1
 10
4.288155
 20
0.123930
 30
0.000000
  0
VERTEX
  8
LAYER-1
 10
4.292495
 20
0.121325
 30
0.000000
  0
SEQEND
  8
LAYER-1
  0
POLYLINE
  8
LAYER-1
 66
  1
 70
  0
 62
  0
 10
4.457426
 20
0.197714
 30
0.000000
  0
VERTEX
  8
LAYER-1
 10
4.457426
 20
0.197714
 30
0.000000
  0
VERTEX
  8
LAYER-1
 10
4.461767
 20
0.197714
 30
0.000000
  0
VERTEX
  8
LAYER-1
 10
4.465238
 20
0.202055
 30
0.000000
  0
VERTEX
  8
LAYER-1
 10
4.466106
 20
0.207263
 30
0.000000
  0
VERTEX
  8
LAYER-1
 10
4.464370
 20
0.211603
 30
0.000000
  0
VERTEX
  8
LAYER-1
 10
4.460030
 20
0.213339
 30
0.000000
  0
VERTEX
  8
LAYER-1
 10
4.455690
 20
0.213339
 30
0.000000
  0
VERTEX
  8
LAYER-1
 10
4.451349
 20
0.209868
 30
0.000000
  0
VERTEX
  8
LAYER-1
 10
4.451349
 20
0.205527
 30
0.000000
  0
VERTEX
  8
LAYER-1
 10
4.452217
 20
0.201186
 30
0.000000
  0
VERTEX
  8
LAYER-1
 10
4.456558
 20
0.198581
 30
0.000000
  0
SEQEND
  8
LAYER-1
  0
POLYLINE
  8
LAYER-1
 66
  1
 70
  1
 62
  0
 10
4.909243
 20
0.154310
 30
0.000000
  0
VERTEX
  8
LAYER-1
 10
4.909243
 20
0.154310
 30
0.000000
  0
VERTEX
  8
LAYER-1
 10
4.935285
 20
0.161255
 30
0.000000
  0
VERTEX
  8
LAYER-1
 10
4.921396
 20
0.186428
 30
0.000000
  0
SEQEND
  8
LAYER-1
  0
POLYLINE
  8
LAYER-1
 66
  1
 70
  1
 62
  0
 10
4.591539
 20
0.207263
 30
0.000000
  0
VERTEX
  8
LAYER-1
 10
4.591539
 20
0.207263
 30
0.000000
  0
VERTEX
  8
LAYER-1
 10
4.614108
 20
0.194242
 30
0.000000
  0
VERTEX
  8
LAYER-1
 10
4.593276
 20
0.224624
 30
0.000000
  0
SEQEND
  8
LAYER-1
  0
POLYLINE
  8
LAYER-1
 66
  1
 70
  1
 62
  0
 10
5.528168
 20
0.112640
 30
0.000000
  0
VERTEX
  8
LAYER-1
 10
5.528168
 20
0.112640
 30
0.000000
  0
VERTEX
  8
LAYER-1
 10
5.553342
 20
0.096146
 30
0.000000
  0
VERTEX
  8
LAYER-1
 10
5.561155
 20
0.110904
 30
0.000000
  0
SEQEND
  8
LAYER-1
  0
POLYLINE
  8
LAYER-1
 66
  1
 70
  0
 62
  0
 10
5.349348
 20
0.121322
 30
0.000000
  0
VERTEX
  8
LAYER-1
 10
5.349348
 20
0.121322
 30
0.000000
  0
VERTEX
  8
LAYER-1
 10
5.349348
 20
0.116982
 30
0.000000
  0
VERTEX
  8
LAYER-1
 10
5.353689
 20
0.113509
 30
0.000000
  0
VERTEX
  8
LAYER-1
 10
5.358896
 20
0.112643
 30
0.000000
  0
VERTEX
  8
LAYER-1
 10
5.363237
 20
0.114379
 30
0.000000
  0
VERTEX
  8
LAYER-1
 10
5.364973
 20
0.118718
 30
0.000000
  0
VERTEX
  8
LAYER-1
 10
5.364973
 20
0.123059
 30
0.000000
  0
VERTEX
  8
LAYER-1
 10
5.361501
 20
0.127399
 30
0.000000
  0
VERTEX
  8
LAYER-1
 10
5.357160
 20
0.127399
 30
0.000000
  0
VERTEX
  8
LAYER-1
 10
5.352820
 20
0.126531
 30
0.000000
  0
VERTEX
  8
LAYER-1
 10
5.350216
 20
0.122192
 30
0.000000
  0
SEQEND
  8
LAYER-1
  0
POLYLINE
  8
LAYER-1
 66
  1
 70
  1
 62
  0
 10
4.979557
 20
0.141288
 30
0.000000
  0
VERTEX
  8
LAYER-1
 10
4.979557
 20
0.141288
 30
0.000000
  0
VERTEX
  8
LAYER-1
 10
5.002126
 20
0.128268
 30
0.000000
  0
VERTEX
  8
LAYER-1
 10
4.981294
 20
0.158649
 30
0.000000
  0
SEQEND
  8
LAYER-1
  0
POLYLINE
  8
LAYER-1
 66
  1
 70
  1
 62
  0
 10
4.942565
 20
0.212303
 30
0.000000
  0
VERTEX
  8
LAYER-1
 10
4.942565
 20
0.212303
 30
0.000000
  0
VERTEX
  8
LAYER-1
 10
4.961929
 20
0.199616
 30
0.000000
  0
VERTEX
  8
LAYER-1
 10
4.967940
 20
0.210968
 30
0.000000
  0
SEQEND
  8
LAYER-1
  0
POLYLINE
  8
LAYER-1
 66
  1
 70
  0
 62
  0
 10
4.587200
 20
0.147367
 30
0.000000
  0
VERTEX
  8
LAYER-1
 10
4.587200
 20
0.147367
 30
0.000000
  0
VERTEX
  8
LAYER-1
 10
4.587200
 20
0.143027
 30
0.000000
  0
VERTEX
  8
LAYER-1
 10
4.591540
 20
0.139554
 30
0.000000
  0
VERTEX
  8
LAYER-1
 10
4.596748
 20
0.138686
 30
0.000000
  0
VERTEX
  8
LAYER-1
 10
4.601088
 20
0.140422
 30
0.000000
  0
VERTEX
  8
LAYER-1
 10
4.602824
 20
0.144763
 30
0.000000
  0
VERTEX
  8
LAYER-1
 10
4.602824
 20
0.149102
 30
0.000000
  0
VERTEX
  8
LAYER-1
 10
4.599352
 20
0.153443
 30
0.000000
  0
VERTEX
  8
LAYER-1
 10
4.595011
 20
0.153443
 30
0.000000
  0
VERTEX
  8
LAYER-1
 10
4.590671
 20
0.152575
 30
0.000000
  0
VERTEX
  8
LAYER-1
 10
4.588067
 20
0.148234
 30
0.000000
  0
SEQEND
  8
LAYER-1
  0
POLYLINE
  8
LAYER-1
 66
  1
 70
  0
 62
  0
 10
4.993445
 20
0.109171
 30
0.000000
  0
VERTEX
  8
LAYER-1
 10
4.993445
 20
0.109171
 30
0.000000
  0
VERTEX
  8
LAYER-1
 10
4.993445
 20
0.104830
 30
0.000000
  0
VERTEX
  8
LAYER-1
 10
4.997785
 20
0.101358
 30
0.000000
  0
VERTEX
  8
LAYER-1
 10
5.002993
 20
0.100489
 30
0.000000
  0
VERTEX
  8
LAYER-1
 10
5.007334
 20
0.102226
 30
0.000000
  0
VERTEX
  8
LAYER-1
 10
5.009070
 20
0.106567
 30
0.000000
  0
VERTEX
  8
LAYER-1
 10
5.009070
 20
0.110907
 30
0.000000
  0
VERTEX
  8
LAYER-1
 10
5.005598
 20
0.115248
 30
0.000000
  0
VERTEX
  8
LAYER-1
 10
5.001257
 20
0.115248
 30
0.000000
  0
VERTEX
  8
LAYER-1
 10
4.996916
 20
0.114379
 30
0.000000
  0
VERTEX
  8
LAYER-1
 10
4.994313
 20
0.110039
 30
0.000000
  0
SEQEND
  8
LAYER-1
  0
POLYLINE
  8
LAYER-1
 66
  1
 70
  0
 62
  0
 10
5.062021
 20
0.144762
 30
0.000000
  0
VERTEX
  8
LAYER-1
 10
5.062021
 20
0.144762
 30
0.000000
  0
VERTEX
  8
LAYER-1
 10
5.062021
 20
0.140421
 30
0.000000
  0
VERTEX
  8
LAYER-1
 10
5.066362
 20
0.136949
 30
0.000000
  0
VERTEX
  8
LAYER-1
 10
5.071570
 20
0.136080
 30
0.000000
  0
VERTEX
  8
LAYER-1
 10
5.075910
 20
0.137817
 30
0.000000
  0
VERTEX
  8
LAYER-1
 10
5.077646
 20
0.142157
 30
0.000000
  0
VERTEX
  8
LAYER-1
 10
5.077646
 20
0.146498
 30
0.000000
  0
VERTEX
  8
LAYER-1
 10
5.074175
 20
0.150838
 30
0.000000
  0
VERTEX
  8
LAYER-1
 10
5.069834
 20
0.150838
 30
0.000000
  0
VERTEX
  8
LAYER-1
 10
5.065493
 20
0.149969
 30
0.000000
  0
VERTEX
  8
LAYER-1
 10
5.062889
 20
0.145630
 30
0.000000
  0
SEQEND
  8
LAYER-1
  0
POLYLINE
  8
LAYER-1
 66
  1
 70
  1
 62
  0
 10
5.101432
 20
0.166029
 30
0.000000
  0
VERTEX
  8
LAYER-1
 10
5.101432
 20
0.166029
 30
0.000000
  0
VERTEX
  8
LAYER-1
 10
5.108376
 20
0.139988
 30
0.000000
  0
VERTEX
  8
LAYER-1
 10
5.133550
 20
0.153876
 30
0.000000
  0
SEQEND
  8
LAYER-1
  0
POLYLINE
  8
LAYER-1
 66
  1
 70
  1
 62
  0
 10
5.262977
 20
0.194676
 30
0.000000
  0
VERTEX
  8
LAYER-1
 10
5.262977
 20
0.194676
 30
0.000000
  0
VERTEX
  8
LAYER-1
 10
5.249956
 20
0.172106
 30
0.000000
  0
VERTEX
  8
LAYER-1
 10
5.280338
 20
0.192938
 30
0.000000
  0
SEQEND
  8
LAYER-1
  0
POLYLINE
  8
LAYER-1
 66
  1
 70
  1
 62
  0
 10
5.655338
 20
0.165157
 30
0.000000
  0
VERTEX
  8
LAYER-1
 10
5.655338
 20
0.165157
 30
0.000000
  0
VERTEX
  8
LAYER-1
 10
5.638845
 20
0.139983
 30
0.000000
  0
VERTEX
  8
LAYER-1
 10
5.653603
 20
0.132171
 30
0.000000
  0
SEQEND
  8
LAYER-1
  0
POLYLINE
  8
LAYER-1
 66
  1
 70
  0
 62
  0
 10
5.051172
 20
0.197279
 30
0.000000
  0
VERTEX
  8
LAYER-1
 10
5.051172
 20
0.197279
 30
0.000000
  0
VERTEX
  8
LAYER-1
 10
5.046831
 20
0.197279
 30
0.000000
  0
VERTEX
  8
LAYER-1
 10
5.043359
 20
0.192938
 30
0.000000
  0
VERTEX
  8
LAYER-1
 10
5.042491
 20
0.187731
 30
0.000000
  0
VERTEX
  8
LAYER-1
 10
5.044227
 20
0.183389
 30
0.000000
  0
VERTEX
  8
LAYER-1
 10
5.048567
 20
0.181654
 30
0.000000
  0
VERTEX
  8
LAYER-1
 10
5.052907
 20
0.181654
 30
0.000000
  0
VERTEX
  8
LAYER-1
 10
5.057248
 20
0.185126
 30
0.000000
  0
VERTEX
  8
LAYER-1
 10
5.057248
 20
0.189467
 30
0.000000
  0
VERTEX
  8
LAYER-1
 10
5.056380
 20
0.193807
 30
0.000000
  0
VERTEX
  8
LAYER-1
 10
5.052039
 20
0.196412
 30
0.000000
  0
SEQEND
  8
LAYER-1
  0
POLYLINE
  8
LAYER-1
 66
  1
 70
  1
 62
  0
 10
5.114541
 20
0.120889
 30
0.000000
  0
VERTEX
  8
LAYER-1
 10
5.114541
 20
0.120889
 30
0.000000
  0
VERTEX
  8
LAYER-1
 10
5.101519
 20
0.098319
 30
0.000000
  0
VERTEX
  8
LAYER-1
 10
5.131901
 20
0.119152
 30
0.000000
  0
SEQEND
  8
LAYER-1
  0
POLYLINE
  8
LAYER-1
 66
  1
 70
  1
 62
  0
 10
5.183283
 20
0.098651
 30
0.000000
  0
VERTEX
  8
LAYER-1
 10
5.183283
 20
0.098651
 30
0.000000
  0
VERTEX
  8
LAYER-1
 10
5.195971
 20
0.118016
 30
0.000000
  0
VERTEX
  8
LAYER-1
 10
5.184619
 20
0.124027
 30
0.000000
  0
SEQEND
  8
LAYER-1
  0
POLYLINE
  8
LAYER-1
 66
  1
 70
  0
 62
  0
 10
5.203081
 20
0.199014
 30
0.000000
  0
VERTEX
  8
LAYER-1
 10
5.203081
 20
0.199014
 30
0.000000
  0
VERTEX
  8
LAYER-1
 10
5.198741
 20
0.199014
 30
0.000000
  0
VERTEX
  8
LAYER-1
 10
5.195268
 20
0.194674
 30
0.000000
  0
VERTEX
  8
LAYER-1
 10
5.194400
 20
0.189467
 30
0.000000
  0
VERTEX
  8
LAYER-1
 10
5.196136
 20
0.185126
 30
0.000000
  0
VERTEX
  8
LAYER-1
 10
5.200477
 20
0.183389
 30
0.000000
  0
VERTEX
  8
LAYER-1
 10
5.204817
 20
0.183389
 30
0.000000
  0
VERTEX
  8
LAYER-1
 10
5.209157
 20
0.186862
 30
0.000000
  0
VERTEX
  8
LAYER-1
 10
5.209157
 20
0.191202
 30
0.000000
  0
VERTEX
  8
LAYER-1
 10
5.208289
 20
0.195543
 30
0.000000
  0
VERTEX
  8
LAYER-1
 10
5.203949
 20
0.198148
 30
0.000000
  0
SEQEND
  8
LAYER-1
  0
POLYLINE
  8
LAYER-1
 66
  1
 70
  0
 62
  0
 10
5.707422
 20
0.159081
 30
0.000000
  0
VERTEX
  8
LAYER-1
 10
5.707422
 20
0.159081
 30
0.000000
  0
VERTEX
  8
LAYER-1
 10
5.703081
 20
0.159081
 30
0.000000
  0
VERTEX
  8
LAYER-1
 10
5.699610
 20
0.154739
 30
0.000000
  0
VERTEX
  8
LAYER-1
 10
5.698741
 20
0.149532
 30
0.000000
  0
VERTEX
  8
LAYER-1
 10
5.700478
 20
0.145192
 30
0.000000
  0
VERTEX
  8
LAYER-1
 10
5.704818
 20
0.143456
 30
0.000000
  0
VERTEX
  8
LAYER-1
 10
5.709158
 20
0.143456
 30
0.000000
  0
VERTEX
  8
LAYER-1
 10
5.713498
 20
0.146927
 30
0.000000
  0
VERTEX
  8
LAYER-1
 10
5.713498
 20
0.151268
 30
0.000000
  0
VERTEX
  8
LAYER-1
 10
5.712631
 20
0.155608
 30
0.000000
  0
VERTEX
  8
LAYER-1
 10
5.708290
 20
0.158213
 30
0.000000
  0
SEQEND
  8
LAYER-1
  0
POLYLINE
  8
LAYER-1
 66
  1
 70
  0
 62
  0
 10
5.616277
 20
0.126962
 30
0.000000
  0
VERTEX
  8
LAYER-1
 10
5.616277
 20
0.126962
 30
0.000000
  0
VERTEX
  8
LAYER-1
 10
5.611936
 20
0.126962
 30
0.000000
  0
VERTEX
  8
LAYER-1
 10
5.608464
 20
0.122621
 30
0.000000
  0
VERTEX
  8
LAYER-1
 10
5.607597
 20
0.117414
 30
0.000000
  0
VERTEX
  8
LAYER-1
 10
5.609332
 20
0.113074
 30
0.000000
  0
VERTEX
  8
LAYER-1
 10
5.613673
 20
0.111337
 30
0.000000
  0
VERTEX
  8
LAYER-1
 10
5.618013
 20
0.111337
 30
0.000000
  0
VERTEX
  8
LAYER-1
 10
5.622353
 20
0.114809
 30
0.000000
  0
VERTEX
  8
LAYER-1
 10
5.622353
 20
0.119150
 30
0.000000
  0
VERTEX
  8
LAYER-1
 10
5.621485
 20
0.123490
 30
0.000000
  0
VERTEX
  8
LAYER-1
 10
5.617145
 20
0.126095
 30
0.000000
  0
SEQEND
  8
LAYER-1
  0
POLYLINE
  8
LAYER-1
 66
  1
 70
  1
 62
  0
 10
5.301172
 20
0.181221
 30
0.000000
  0
VERTEX
  8
LAYER-1
 10
5.301172
 20
0.181221
 30
0.000000
  0
VERTEX
  8
LAYER-1
 10
5.327212
 20
0.188165
 30
0.000000
  0
VERTEX
  8
LAYER-1
 10
5.313325
 20
0.213339
 30
0.000000
  0
SEQEND
  8
LAYER-1
  0
POLYLINE
  8
LAYER-1
 66
  1
 70
  0
 62
  0
 10
5.269922
 20
0.131742
 30
0.000000
  0
VERTEX
  8
LAYER-1
 10
5.269922
 20
0.131742
 30
0.000000
  0
VERTEX
  8
LAYER-1
 10
5.269922
 20
0.127402
 30
0.000000
  0
VERTEX
  8
LAYER-1
 10
5.274262
 20
0.123929
 30
0.000000
  0
VERTEX
  8
LAYER-1
 10
5.279470
 20
0.123062
 30
0.000000
  0
VERTEX
  8
LAYER-1
 10
5.283811
 20
0.124798
 30
0.000000
  0
VERTEX
  8
LAYER-1
 10
5.285547
 20
0.129138
 30
0.000000
  0
VERTEX
  8
LAYER-1
 10
5.285547
 20
0.133478
 30
0.000000
  0
VERTEX
  8
LAYER-1
 10
5.282075
 20
0.137818
 30
0.000000
  0
VERTEX
  8
LAYER-1
 10
5.277734
 20
0.137818
 30
0.000000
  0
VERTEX
  8
LAYER-1
 10
5.273393
 20
0.136950
 30
0.000000
  0
VERTEX
  8
LAYER-1
 10
5.270788
 20
0.132611
 30
0.000000
  0
SEQEND
  8
LAYER-1
  0
POLYLINE
  8
LAYER-1
 66
  1
 70
  1
 62
  0
 10
5.364974
 20
0.145196
 30
0.000000
  0
VERTEX
  8
LAYER-1
 10
5.364974
 20
0.145196
 30
0.000000
  0
VERTEX
  8
LAYER-1
 10
5.377994
 20
0.167767
 30
0.000000
  0
VERTEX
  8
LAYER-1
 10
5.347613
 20
0.146934
 30
0.000000
  0
SEQEND
  8
LAYER-1
  0
POLYLINE
  8
LAYER-1
 66
  1
 70
  0
 62
  0
 10
5.420095
 20
0.179486
 30
0.000000
  0
VERTEX
  8
LAYER-1
 10
5.420095
 20
0.179486
 30
0.000000
  0
VERTEX
  8
LAYER-1
 10
5.420095
 20
0.175145
 30
0.000000
  0
VERTEX
  8
LAYER-1
 10
5.424436
 20
0.171673
 30
0.000000
  0
VERTEX
  8
LAYER-1
 10
5.429643
 20
0.170804
 30
0.000000
  0
VERTEX
  8
LAYER-1
 10
5.433984
 20
0.172540
 30
0.000000
  0
VERTEX
  8
LAYER-1
 10
5.435720
 20
0.176881
 30
0.000000
  0
VERTEX
  8
LAYER-1
 10
5.435720
 20
0.181221
 30
0.000000
  0
VERTEX
  8
LAYER-1
 10
5.432248
 20
0.185562
 30
0.000000
  0
VERTEX
  8
LAYER-1
 10
5.427907
 20
0.185562
 30
0.000000
  0
VERTEX
  8
LAYER-1
 10
5.423567
 20
0.184693
 30
0.000000
  0
VERTEX
  8
LAYER-1
 10
5.420962
 20
0.180353
 30
0.000000
  0
SEQEND
  8
LAYER-1
  0
POLYLINE
  8
LAYER-1
 66
  1
 70
  1
 62
  0
 10
6.166020
 20
0.195890
 30
0.000000
  0
VERTEX
  8
LAYER-1
 10
6.166020
 20
0.195890
 30
0.000000
  0
VERTEX
  8
LAYER-1
 10
6.159075
 20
0.221931
 30
0.000000
  0
VERTEX
  8
LAYER-1
 10
6.133901
 20
0.208043
 30
0.000000
  0
SEQEND
  8
LAYER-1
  0
POLYLINE
  8
LAYER-1
 66
  1
 70
  0
 62
  0
 10
6.206558
 20
0.069674
 30
0.000000
  0
VERTEX
  8
LAYER-1
 10
6.206558
 20
0.069674
 30
0.000000
  0
VERTEX
  8
LAYER-1
 10
6.210898
 20
0.069674
 30
0.000000
  0
VERTEX
  8
LAYER-1
 10
6.214371
 20
0.074014
 30
0.000000
  0
VERTEX
  8
LAYER-1
 10
6.215238
 20
0.079223
 30
0.000000
  0
VERTEX
  8
LAYER-1
 10
6.213502
 20
0.083563
 30
0.000000
  0
VERTEX
  8
LAYER-1
 10
6.209162
 20
0.085299
 30
0.000000
  0
VERTEX
  8
LAYER-1
 10
6.204822
 20
0.085299
 30
0.000000
  0
VERTEX
  8
LAYER-1
 10
6.200482
 20
0.081827
 30
0.000000
  0
VERTEX
  8
LAYER-1
 10
6.200482
 20
0.077487
 30
0.000000
  0
VERTEX
  8
LAYER-1
 10
6.201350
 20
0.073146
 30
0.000000
  0
VERTEX
  8
LAYER-1
 10
6.205689
 20
0.070542
 30
0.000000
  0
SEQEND
  8
LAYER-1
  0
POLYLINE
  8
LAYER-1
 66
  1
 70
  1
 62
  0
 10
5.502994
 20
0.102661
 30
0.000000
  0
VERTEX
  8
LAYER-1
 10
5.502994
 20
0.102661
 30
0.000000
  0
VERTEX
  8
LAYER-1
 10
5.516014
 20
0.125231
 30
0.000000
  0
VERTEX
  8
LAYER-1
 10
5.485633
 20
0.104398
 30
0.000000
  0
SEQEND
  8
LAYER-1
  0
POLYLINE
  8
LAYER-1
 66
  1
 70
  0
 62
  0
 10
5.546746
 20
0.180995
 30
0.000000
  0
VERTEX
  8
LAYER-1
 10
5.546746
 20
0.180995
 30
0.000000
  0
VERTEX
  8
LAYER-1
 10
5.551087
 20
0.180995
 30
0.000000
  0
VERTEX
  8
LAYER-1
 10
5.554559
 20
0.185335
 30
0.000000
  0
VERTEX
  8
LAYER-1
 10
5.555428
 20
0.190542
 30
0.000000
  0
VERTEX
  8
LAYER-1
 10
5.553691
 20
0.194884
 30
0.000000
  0
VERTEX
  8
LAYER-1
 10
5.549351
 20
0.196620
 30
0.000000
  0
VERTEX
  8
LAYER-1
 10
5.545010
 20
0.196620
 30
0.000000
  0
VERTEX
  8
LAYER-1
 10
5.540670
 20
0.193147
 30
0.000000
  0
VERTEX
  8
LAYER-1
 10
5.540670
 20
0.188807
 30
0.000000
  0
VERTEX
  8
LAYER-1
 10
5.541539
 20
0.184466
 30
0.000000
  0
VERTEX
  8
LAYER-1
 10
5.545878
 20
0.181863
 30
0.000000
  0
SEQEND
  8
LAYER-1
  0
POLYLINE
  8
LAYER-1
 66
  1
 70
  1
 62
  0
 10
6.086333
 20
0.111777
 30
0.000000
  0
VERTEX
  8
LAYER-1
 10
6.086333
 20
0.111777
 30
0.000000
  0
VERTEX
  8
LAYER-1
 10
6.060291
 20
0.104831
 30
0.000000
  0
VERTEX
  8
LAYER-1
 10
6.074179
 20
0.079658
 30
0.000000
  0
SEQEND
  8
LAYER-1
  0
POLYLINE
  8
LAYER-1
 66
  1
 70
  0
 62
  0
 10
5.451345
 20
0.126534
 30
0.000000
  0
VERTEX
  8
LAYER-1
 10
5.451345
 20
0.126534
 30
0.000000
  0
VERTEX
  8
LAYER-1
 10
5.451345
 20
0.130874
 30
0.000000
  0
VERTEX
  8
LAYER-1
 10
5.447004
 20
0.134347
 30
0.000000
  0
VERTEX
  8
LAYER-1
 10
5.441797
 20
0.135214
 30
0.000000
  0
VERTEX
  8
LAYER-1
 10
5.437456
 20
0.133478
 30
0.000000
  0
VERTEX
  8
LAYER-1
 10
5.435720
 20
0.129138
 30
0.000000
  0
VERTEX
  8
LAYER-1
 10
5.435720
 20
0.124797
 30
0.000000
  0
VERTEX
  8
LAYER-1
 10
5.439192
 20
0.120458
 30
0.000000
  0
VERTEX
  8
LAYER-1
 10
5.443532
 20
0.120458
 30
0.000000
  0
VERTEX
  8
LAYER-1
 10
5.447873
 20
0.121325
 30
0.000000
  0
VERTEX
  8
LAYER-1
 10
5.450477
 20
0.125665
 30
0.000000
  0
SEQEND
  8
LAYER-1
  0
POLYLINE
  8
LAYER-1
 66
  1
 70
  1
 62
  0
 10
6.035117
 20
0.101361
 30
0.000000
  0
VERTEX
  8
LAYER-1
 10
6.035117
 20
0.101361
 30
0.000000
  0
VERTEX
  8
LAYER-1
 10
6.007339
 20
0.117852
 30
0.000000
  0
VERTEX
  8
LAYER-1
 10
6.028172
 20
0.087471
 30
0.000000
  0
SEQEND
  8
LAYER-1
  0
POLYLINE
  8
LAYER-1
 66
  1
 70
  0
 62
  0
 10
5.745616
 20
0.182953
 30
0.000000
  0
VERTEX
  8
LAYER-1
 10
5.745616
 20
0.182953
 30
0.000000
  0
VERTEX
  8
LAYER-1
 10
5.745616
 20
0.187294
 30
0.000000
  0
VERTEX
  8
LAYER-1
 10
5.741276
 20
0.190765
 30
0.000000
  0
VERTEX
  8
LAYER-1
 10
5.736068
 20
0.191635
 30
0.000000
  0
VERTEX
  8
LAYER-1
 10
5.731728
 20
0.189896
 30
0.000000
  0
VERTEX
  8
LAYER-1
 10
5.729991
 20
0.185558
 30
0.000000
  0
VERTEX
  8
LAYER-1
 10
5.729991
 20
0.181218
 30
0.000000
  0
VERTEX
  8
LAYER-1
 10
5.733463
 20
0.176876
 30
0.000000
  0
VERTEX
  8
LAYER-1
 10
5.737804
 20
0.176876
 30
0.000000
  0
VERTEX
  8
LAYER-1
 10
5.742145
 20
0.177745
 30
0.000000
  0
VERTEX
  8
LAYER-1
 10
5.744748
 20
0.182084
 30
0.000000
  0
SEQEND
  8
LAYER-1
  0
POLYLINE
  8
LAYER-1
 66
  1
 70
  1
 62
  0
 10
6.316281
 20
0.089467
 30
0.000000
  0
VERTEX
  8
LAYER-1
 10
6.316281
 20
0.089467
 30
0.000000
  0
VERTEX
  8
LAYER-1
 10
6.309335
 20
0.115509
 30
0.000000
  0
VERTEX
  8
LAYER-1
 10
6.284162
 20
0.101621
 30
0.000000
  0
SEQEND
  8
LAYER-1
  0
POLYLINE
  8
LAYER-1
 66
  1
 70
  0
 62
  0
 10
6.406125
 20
0.189728
 30
0.000000
  0
VERTEX
  8
LAYER-1
 10
6.406125
 20
0.189728
 30
0.000000
  0
VERTEX
  8
LAYER-1
 10
6.410466
 20
0.189728
 30
0.000000
  0
VERTEX
  8
LAYER-1
 10
6.413937
 20
0.194068
 30
0.000000
  0
VERTEX
  8
LAYER-1
 10
6.414805
 20
0.199276
 30
0.000000
  0
VERTEX
  8
LAYER-1
 10
6.413069
 20
0.203617
 30
0.000000
  0
VERTEX
  8
LAYER-1
 10
6.408730
 20
0.205353
 30
0.000000
  0
VERTEX
  8
LAYER-1
 10
6.404389
 20
0.205353
 30
0.000000
  0
VERTEX
  8
LAYER-1
 10
6.400049
 20
0.201881
 30
0.000000
  0
VERTEX
  8
LAYER-1
 10
6.400049
 20
0.197540
 30
0.000000
  0
VERTEX
  8
LAYER-1
 10
6.400917
 20
0.193199
 30
0.000000
  0
VERTEX
  8
LAYER-1
 10
6.405256
 20
0.190596
 30
0.000000
  0
SEQEND
  8
LAYER-1
  0
POLYLINE
  8
LAYER-1
 66
  1
 70
  1
 62
  0
 10
6.391367
 20
0.224884
 30
0.000000
  0
VERTEX
  8
LAYER-1
 10
6.391367
 20
0.224884
 30
0.000000
  0
VERTEX
  8
LAYER-1
 10
6.365325
 20
0.217940
 30
0.000000
  0
VERTEX
  8
LAYER-1
 10
6.379214
 20
0.192766
 30
0.000000
  0
SEQEND
  8
LAYER-1
  0
POLYLINE
  8
LAYER-1
 66
  1
 70
  1
 62
  0
 10
5.640147
 20
0.083567
 30
0.000000
  0
VERTEX
  8
LAYER-1
 10
5.640147
 20
0.083567
 30
0.000000
  0
VERTEX
  8
LAYER-1
 10
5.653167
 20
0.106137
 30
0.000000
  0
VERTEX
  8
LAYER-1
 10
5.622787
 20
0.085303
 30
0.000000
  0
SEQEND
  8
LAYER-1
  0
POLYLINE
  8
LAYER-1
 66
  1
 70
  0
 62
  0
 10
5.636675
 20
0.190336
 30
0.000000
  0
VERTEX
  8
LAYER-1
 10
5.636675
 20
0.190336
 30
0.000000
  0
VERTEX
  8
LAYER-1
 10
5.641015
 20
0.190336
 30
0.000000
  0
VERTEX
  8
LAYER-1
 10
5.644487
 20
0.194677
 30
0.000000
  0
VERTEX
  8
LAYER-1
 10
5.645356
 20
0.199884
 30
0.000000
  0
VERTEX
  8
LAYER-1
 10
5.643620
 20
0.204225
 30
0.000000
  0
VERTEX
  8
LAYER-1
 10
5.639279
 20
0.205961
 30
0.000000
  0
VERTEX
  8
LAYER-1
 10
5.634939
 20
0.205961
 30
0.000000
  0
VERTEX
  8
LAYER-1
 10
5.630598
 20
0.202489
 30
0.000000
  0
VERTEX
  8
LAYER-1
 10
5.630598
 20
0.198149
 30
0.000000
  0
VERTEX
  8
LAYER-1
 10
5.631467
 20
0.193808
 30
0.000000
  0
VERTEX
  8
LAYER-1
 10
5.635807
 20
0.191204
 30
0.000000
  0
SEQEND
  8
LAYER-1
  0
POLYLINE
  8
LAYER-1
 66
  1
 70
  1
 62
  0
 10
5.589365
 20
0.169067
 30
0.000000
  0
VERTEX
  8
LAYER-1
 10
5.589365
 20
0.169067
 30
0.000000
  0
VERTEX
  8
LAYER-1
 10
5.614541
 20
0.152574
 30
0.000000
  0
VERTEX
  8
LAYER-1
 10
5.622353
 20
0.167331
 30
0.000000
  0
SEQEND
  8
LAYER-1
  0
POLYLINE
  8
LAYER-1
 66
  1
 70
  1
 62
  0
 10
5.576013
 20
0.141455
 30
0.000000
  0
VERTEX
  8
LAYER-1
 10
5.576013
 20
0.141455
 30
0.000000
  0
VERTEX
  8
LAYER-1
 10
5.556648
 20
0.154143
 30
0.000000
  0
VERTEX
  8
LAYER-1
 10
5.550637
 20
0.142791
 30
0.000000
  0
SEQEND
  8
LAYER-1
  0
POLYLINE
  8
LAYER-1
 66
  1
 70
  1
 62
  0
 10
1.353257
 20
0.200317
 30
0.000000
  0
VERTEX
  8
LAYER-1
 10
1.353257
 20
0.200317
 30
0.000000
  0
VERTEX
  8
LAYER-1
 10
1.340236
 20
0.177748
 30
0.000000
  0
VERTEX
  8
LAYER-1
 10
1.370618
 20
0.198580
 30
0.000000
  0
SEQEND
  8
LAYER-1
  0
POLYLINE
  8
LAYER-1
 66
  1
 70
  1
 62
  0
 10
5.902738
 20
0.127402
 30
0.000000
  0
VERTEX
  8
LAYER-1
 10
5.902738
 20
0.127402
 30
0.000000
  0
VERTEX
  8
LAYER-1
 10
5.925307
 20
0.114382
 30
0.000000
  0
VERTEX
  8
LAYER-1
 10
5.904474
 20
0.144764
 30
0.000000
  0
SEQEND
  8
LAYER-1
  0
POLYLINE
  8
LAYER-1
 66
  1
 70
  0
 62
  0
 10
5.830689
 20
0.174275
 30
0.000000
  0
VERTEX
  8
LAYER-1
 10
5.830689
 20
0.174275
 30
0.000000
  0
VERTEX
  8
LAYER-1
 10
5.830689
 20
0.169934
 30
0.000000
  0
VERTEX
  8
LAYER-1
 10
5.835030
 20
0.166462
 30
0.000000
  0
VERTEX
  8
LAYER-1
 10
5.840238
 20
0.165594
 30
0.000000
  0
VERTEX
  8
LAYER-1
 10
5.844578
 20
0.167330
 30
0.000000
  0
VERTEX
  8
LAYER-1
 10
5.846314
 20
0.171671
 30
0.000000
  0
VERTEX
  8
LAYER-1
 10
5.846314
 20
0.176011
 30
0.000000
  0
VERTEX
  8
LAYER-1
 10
5.842842
 20
0.180351
 30
0.000000
  0
VERTEX
  8
LAYER-1
 10
5.838501
 20
0.180351
 30
0.000000
  0
VERTEX
  8
LAYER-1
 10
5.834161
 20
0.179483
 30
0.000000
  0
VERTEX
  8
LAYER-1
 10
5.831557
 20
0.175143
 30
0.000000
  0
SEQEND
  8
LAYER-1
  0
POLYLINE
  8
LAYER-1
 66
  1
 70
  1
 62
  0
 10
5.780341
 20
0.185561
 30
0.000000
  0
VERTEX
  8
LAYER-1
 10
5.780341
 20
0.185561
 30
0.000000
  0
VERTEX
  8
LAYER-1
 10
5.802911
 20
0.172540
 30
0.000000
  0
VERTEX
  8
LAYER-1
 10
5.782078
 20
0.202922
 30
0.000000
  0
SEQEND
  8
LAYER-1
  0
POLYLINE
  8
LAYER-1
 66
  1
 70
  0
 62
  0
 10
6.042494
 20
0.127402
 30
0.000000
  0
VERTEX
  8
LAYER-1
 10
6.042494
 20
0.127402
 30
0.000000
  0
VERTEX
  8
LAYER-1
 10
6.042494
 20
0.123062
 30
0.000000
  0
VERTEX
  8
LAYER-1
 10
6.046835
 20
0.119590
 30
0.000000
  0
VERTEX
  8
LAYER-1
 10
6.052043
 20
0.118722
 30
0.000000
  0
VERTEX
  8
LAYER-1
 10
6.056383
 20
0.120458
 30
0.000000
  0
VERTEX
  8
LAYER-1
 10
6.058119
 20
0.124798
 30
0.000000
  0
VERTEX
  8
LAYER-1
 10
6.058119
 20
0.129139
 30
0.000000
  0
VERTEX
  8
LAYER-1
 10
6.054648
 20
0.133480
 30
0.000000
  0
VERTEX
  8
LAYER-1
 10
6.050307
 20
0.133480
 30
0.000000
  0
VERTEX
  8
LAYER-1
 10
6.045966
 20
0.132611
 30
0.000000
  0
VERTEX
  8
LAYER-1
 10
6.043363
 20
0.128270
 30
0.000000
  0
SEQEND
  8
LAYER-1
  0
POLYLINE
  8
LAYER-1
 66
  1
 70
  0
 62
  0
 10
5.876696
 20
0.182090
 30
0.000000
  0
VERTEX
  8
LAYER-1
 10
5.876696
 20
0.182090
 30
0.000000
  0
VERTEX
  8
LAYER-1
 10
5.876696
 20
0.177750
 30
0.000000
  0
VERTEX
  8
LAYER-1
 10
5.881037
 20
0.174277
 30
0.000000
  0
VERTEX
  8
LAYER-1
 10
5.886244
 20
0.173409
 30
0.000000
  0
VERTEX
  8
LAYER-1
 10
5.890585
 20
0.175145
 30
0.000000
  0
VERTEX
  8
LAYER-1
 10
5.892321
 20
0.179486
 30
0.000000
  0
VERTEX
  8
LAYER-1
 10
5.892321
 20
0.183826
 30
0.000000
  0
VERTEX
  8
LAYER-1
 10
5.888849
 20
0.188167
 30
0.000000
  0
VERTEX
  8
LAYER-1
 10
5.884508
 20
0.188167
 30
0.000000
  0
VERTEX
  8
LAYER-1
 10
5.880168
 20
0.187298
 30
0.000000
  0
VERTEX
  8
LAYER-1
 10
5.877563
 20
0.182958
 30
0.000000
  0
SEQEND
  8
LAYER-1
  0
POLYLINE
  8
LAYER-1
 66
  1
 70
  1
 62
  0
 10
5.801176
 20
0.117420
 30
0.000000
  0
VERTEX
  8
LAYER-1
 10
5.801176
 20
0.117420
 30
0.000000
  0
VERTEX
  8
LAYER-1
 10
5.788155
 20
0.094849
 30
0.000000
  0
VERTEX
  8
LAYER-1
 10
5.818537
 20
0.115682
 30
0.000000
  0
SEQEND
  8
LAYER-1
  0
POLYLINE
  8
LAYER-1
 66
  1
 70
  0
 62
  0
 10
5.727475
 20
0.109555
 30
0.000000
  0
VERTEX
  8
LAYER-1
 10
5.727475
 20
0.109555
 30
0.000000
  0
VERTEX
  8
LAYER-1
 10
5.723136
 20
0.109555
 30
0.000000
  0
VERTEX
  8
LAYER-1
 10
5.719663
 20
0.105214
 30
0.000000
  0
VERTEX
  8
LAYER-1
 10
5.718795
 20
0.100006
 30
0.000000
  0
VERTEX
  8
LAYER-1
 10
5.720531
 20
0.095665
 30
0.000000
  0
VERTEX
  8
LAYER-1
 10
5.724871
 20
0.093930
 30
0.000000
  0
VERTEX
  8
LAYER-1
 10
5.729212
 20
0.093930
 30
0.000000
  0
VERTEX
  8
LAYER-1
 10
5.733552
 20
0.097401
 30
0.000000
  0
VERTEX
  8
LAYER-1
 10
5.733552
 20
0.101742
 30
0.000000
  0
VERTEX
  8
LAYER-1
 10
5.732684
 20
0.106082
 30
0.000000
  0
VERTEX
  8
LAYER-1
 10
5.728343
 20
0.108688
 30
0.000000
  0
SEQEND
  8
LAYER-1
  0
POLYLINE
  8
LAYER-1
 66
  1
 70
  0
 62
  0
 10
5.801176
 20
0.147800
 30
0.000000
  0
VERTEX
  8
LAYER-1
 10
5.801176
 20
0.147800
 30
0.000000
  0
VERTEX
  8
LAYER-1
 10
5.796835
 20
0.147800
 30
0.000000
  0
VERTEX
  8
LAYER-1
 10
5.793363
 20
0.143459
 30
0.000000
  0
VERTEX
  8
LAYER-1
 10
5.792495
 20
0.138251
 30
0.000000
  0
VERTEX
  8
LAYER-1
 10
5.794231
 20
0.133911
 30
0.000000
  0
VERTEX
  8
LAYER-1
 10
5.798572
 20
0.132175
 30
0.000000
  0
VERTEX
  8
LAYER-1
 10
5.802912
 20
0.132175
 30
0.000000
  0
VERTEX
  8
LAYER-1
 10
5.807252
 20
0.135646
 30
0.000000
  0
VERTEX
  8
LAYER-1
 10
5.807252
 20
0.139988
 30
0.000000
  0
VERTEX
  8
LAYER-1
 10
5.806385
 20
0.144328
 30
0.000000
  0
VERTEX
  8
LAYER-1
 10
5.802044
 20
0.146933
 30
0.000000
  0
SEQEND
  8
LAYER-1
  0
POLYLINE
  8
LAYER-1
 66
  1
 70
  1
 62
  0
 10
6.108467
 20
0.164294
 30
0.000000
  0
VERTEX
  8
LAYER-1
 10
6.108467
 20
0.164294
 30
0.000000
  0
VERTEX
  8
LAYER-1
 10
6.115412
 20
0.138252
 30
0.000000
  0
VERTEX
  8
LAYER-1
 10
6.140585
 20
0.152140
 30
0.000000
  0
SEQEND
  8
LAYER-1
  0
POLYLINE
  8
LAYER-1
 66
  1
 70
  1
 62
  0
 10
6.270794
 20
0.192940
 30
0.000000
  0
VERTEX
  8
LAYER-1
 10
6.270794
 20
0.192940
 30
0.000000
  0
VERTEX
  8
LAYER-1
 10
6.257773
 20
0.170370
 30
0.000000
  0
VERTEX
  8
LAYER-1
 10
6.288155
 20
0.191203
 30
0.000000
  0
SEQEND
  8
LAYER-1
  0
POLYLINE
  8
LAYER-1
 66
  1
 70
  0
 62
  0
 10
6.058988
 20
0.195544
 30
0.000000
  0
VERTEX
  8
LAYER-1
 10
6.058988
 20
0.195544
 30
0.000000
  0
VERTEX
  8
LAYER-1
 10
6.054648
 20
0.195544
 30
0.000000
  0
VERTEX
  8
LAYER-1
 10
6.051176
 20
0.191203
 30
0.000000
  0
VERTEX
  8
LAYER-1
 10
6.050307
 20
0.185995
 30
0.000000
  0
VERTEX
  8
LAYER-1
 10
6.052044
 20
0.181655
 30
0.000000
  0
VERTEX
  8
LAYER-1
 10
6.056383
 20
0.179919
 30
0.000000
  0
VERTEX
  8
LAYER-1
 10
6.060724
 20
0.179919
 30
0.000000
  0
VERTEX
  8
LAYER-1
 10
6.065065
 20
0.183390
 30
0.000000
  0
VERTEX
  8
LAYER-1
 10
6.065065
 20
0.187731
 30
0.000000
  0
VERTEX
  8
LAYER-1
 10
6.064196
 20
0.192072
 30
0.000000
  0
VERTEX
  8
LAYER-1
 10
6.059856
 20
0.194676
 30
0.000000
  0
SEQEND
  8
LAYER-1
  0
POLYLINE
  8
LAYER-1
 66
  1
 70
  1
 62
  0
 10
6.169233
 20
0.127836
 30
0.000000
  0
VERTEX
  8
LAYER-1
 10
6.169233
 20
0.127836
 30
0.000000
  0
VERTEX
  8
LAYER-1
 10
6.156211
 20
0.105265
 30
0.000000
  0
VERTEX
  8
LAYER-1
 10
6.186594
 20
0.126099
 30
0.000000
  0
SEQEND
  8
LAYER-1
  0
POLYLINE
  8
LAYER-1
 66
  1
 70
  0
 62
  0
 10
6.210898
 20
0.197280
 30
0.000000
  0
VERTEX
  8
LAYER-1
 10
6.210898
 20
0.197280
 30
0.000000
  0
VERTEX
  8
LAYER-1
 10
6.206557
 20
0.197280
 30
0.000000
  0
VERTEX
  8
LAYER-1
 10
6.203085
 20
0.192939
 30
0.000000
  0
VERTEX
  8
LAYER-1
 10
6.202217
 20
0.187731
 30
0.000000
  0
VERTEX
  8
LAYER-1
 10
6.203953
 20
0.183390
 30
0.000000
  0
VERTEX
  8
LAYER-1
 10
6.208294
 20
0.181655
 30
0.000000
  0
VERTEX
  8
LAYER-1
 10
6.212634
 20
0.181655
 30
0.000000
  0
VERTEX
  8
LAYER-1
 10
6.216974
 20
0.185126
 30
0.000000
  0
VERTEX
  8
LAYER-1
 10
6.216974
 20
0.189468
 30
0.000000
  0
VERTEX
  8
LAYER-1
 10
6.216106
 20
0.193808
 30
0.000000
  0
VERTEX
  8
LAYER-1
 10
6.211766
 20
0.196412
 30
0.000000
  0
SEQEND
  8
LAYER-1
  0
POLYLINE
  8
LAYER-1
 66
  1
 70
  1
 62
  0
 10
6.550307
 20
0.188599
 30
0.000000
  0
VERTEX
  8
LAYER-1
 10
6.550307
 20
0.188599
 30
0.000000
  0
VERTEX
  8
LAYER-1
 10
6.557251
 20
0.162559
 30
0.000000
  0
VERTEX
  8
LAYER-1
 10
6.582425
 20
0.176446
 30
0.000000
  0
SEQEND
  8
LAYER-1
  0
POLYLINE
  8
LAYER-1
 66
  1
 70
  1
 62
  0
 10
6.712634
 20
0.217246
 30
0.000000
  0
VERTEX
  8
LAYER-1
 10
6.712634
 20
0.217246
 30
0.000000
  0
VERTEX
  8
LAYER-1
 10
6.699612
 20
0.194676
 30
0.000000
  0
VERTEX
  8
LAYER-1
 10
6.729995
 20
0.215508
 30
0.000000
  0
SEQEND
  8
LAYER-1
  0
POLYLINE
  8
LAYER-1
 66
  1
 70
  1
 62
  0
 10
5.940932
 20
0.153009
 30
0.000000
  0
VERTEX
  8
LAYER-1
 10
5.940932
 20
0.153009
 30
0.000000
  0
VERTEX
  8
LAYER-1
 10
5.966106
 20
0.136515
 30
0.000000
  0
VERTEX
  8
LAYER-1
 10
5.973918
 20
0.151274
 30
0.000000
  0
SEQEND
  8
LAYER-1
  0
POLYLINE
  8
LAYER-1
 66
  1
 70
  0
 62
  0
 10
6.511244
 20
0.209434
 30
0.000000
  0
VERTEX
  8
LAYER-1
 10
6.511244
 20
0.209434
 30
0.000000
  0
VERTEX
  8
LAYER-1
 10
6.506904
 20
0.209434
 30
0.000000
  0
VERTEX
  8
LAYER-1
 10
6.503432
 20
0.205093
 30
0.000000
  0
VERTEX
  8
LAYER-1
 10
6.502564
 20
0.199886
 30
0.000000
  0
VERTEX
  8
LAYER-1
 10
6.504300
 20
0.195545
 30
0.000000
  0
VERTEX
  8
LAYER-1
 10
6.508641
 20
0.193809
 30
0.000000
  0
VERTEX
  8
LAYER-1
 10
6.512981
 20
0.193809
 30
0.000000
  0
VERTEX
  8
LAYER-1
 10
6.517321
 20
0.197281
 30
0.000000
  0
VERTEX
  8
LAYER-1
 10
6.517321
 20
0.201621
 30
0.000000
  0
VERTEX
  8
LAYER-1
 10
6.516453
 20
0.205962
 30
0.000000
  0
VERTEX
  8
LAYER-1
 10
6.512113
 20
0.208567
 30
0.000000
  0
SEQEND
  8
LAYER-1
  0
POLYLINE
  8
LAYER-1
 66
  1
 70
  1
 62
  0
 10
6.526870
 20
0.120892
 30
0.000000
  0
VERTEX
  8
LAYER-1
 10
6.526870
 20
0.120892
 30
0.000000
  0
VERTEX
  8
LAYER-1
 10
6.513849
 20
0.098321
 30
0.000000
  0
VERTEX
  8
LAYER-1
 10
6.544231
 20
0.119154
 30
0.000000
  0
SEQEND
  8
LAYER-1
  0
POLYLINE
  8
LAYER-1
 66
  1
 70
  1
 62
  0
 10
6.621321
 20
0.135309
 30
0.000000
  0
VERTEX
  8
LAYER-1
 10
6.621321
 20
0.135309
 30
0.000000
  0
VERTEX
  8
LAYER-1
 10
6.608634
 20
0.115946
 30
0.000000
  0
VERTEX
  8
LAYER-1
 10
6.619985
 20
0.109934
 30
0.000000
  0
SEQEND
  8
LAYER-1
  0
POLYLINE
  8
LAYER-1
 66
  1
 70
  0
 62
  0
 10
6.652738
 20
0.213774
 30
0.000000
  0
VERTEX
  8
LAYER-1
 10
6.652738
 20
0.213774
 30
0.000000
  0
VERTEX
  8
LAYER-1
 10
6.648398
 20
0.213774
 30
0.000000
  0
VERTEX
  8
LAYER-1
 10
6.644925
 20
0.209433
 30
0.000000
  0
VERTEX
  8
LAYER-1
 10
6.644057
 20
0.204225
 30
0.000000
  0
VERTEX
  8
LAYER-1
 10
6.645793
 20
0.199884
 30
0.000000
  0
VERTEX
  8
LAYER-1
 10
6.650134
 20
0.198149
 30
0.000000
  0
VERTEX
  8
LAYER-1
 10
6.654474
 20
0.198149
 30
0.000000
  0
VERTEX
  8
LAYER-1
 10
6.658814
 20
0.201620
 30
0.000000
  0
VERTEX
  8
LAYER-1
 10
6.658814
 20
0.205961
 30
0.000000
  0
VERTEX
  8
LAYER-1
 10
6.657946
 20
0.210302
 30
0.000000
  0
VERTEX
  8
LAYER-1
 10
6.653606
 20
0.212907
 30
0.000000
  0
SEQEND
  8
LAYER-1
  0
POLYLINE
  8
LAYER-1
 66
  1
 70
  0
 62
  0
 10
5.929648
 20
0.205961
 30
0.000000
  0
VERTEX
  8
LAYER-1
 10
5.929648
 20
0.205961
 30
0.000000
  0
VERTEX
  8
LAYER-1
 10
5.929648
 20
0.201620
 30
0.000000
  0
VERTEX
  8
LAYER-1
 10
5.933989
 20
0.198149
 30
0.000000
  0
VERTEX
  8
LAYER-1
 10
5.939197
 20
0.197280
 30
0.000000
  0
VERTEX
  8
LAYER-1
 10
5.943537
 20
0.199015
 30
0.000000
  0
VERTEX
  8
LAYER-1
 10
5.945273
 20
0.203356
 30
0.000000
  0
VERTEX
  8
LAYER-1
 10
5.945273
 20
0.207697
 30
0.000000
  0
VERTEX
  8
LAYER-1
 10
5.941801
 20
0.212038
 30
0.000000
  0
VERTEX
  8
LAYER-1
 10
5.937461
 20
0.212038
 30
0.000000
  0
VERTEX
  8
LAYER-1
 10
5.933120
 20
0.211169
 30
0.000000
  0
VERTEX
  8
LAYER-1
 10
5.930515
 20
0.206828
 30
0.000000
  0
SEQEND
  8
LAYER-1
  0
POLYLINE
  8
LAYER-1
 66
  1
 70
  0
 62
  0
 10
6.493015
 20
0.121758
 30
0.000000
  0
VERTEX
  8
LAYER-1
 10
6.493015
 20
0.121758
 30
0.000000
  0
VERTEX
  8
LAYER-1
 10
6.488674
 20
0.121758
 30
0.000000
  0
VERTEX
  8
LAYER-1
 10
6.485202
 20
0.117417
 30
0.000000
  0
VERTEX
  8
LAYER-1
 10
6.484334
 20
0.112209
 30
0.000000
  0
VERTEX
  8
LAYER-1
 10
6.486070
 20
0.107869
 30
0.000000
  0
VERTEX
  8
LAYER-1
 10
6.490411
 20
0.106133
 30
0.000000
  0
VERTEX
  8
LAYER-1
 10
6.494751
 20
0.106133
 30
0.000000
  0
VERTEX
  8
LAYER-1
 10
6.499091
 20
0.109605
 30
0.000000
  0
VERTEX
  8
LAYER-1
 10
6.499091
 20
0.113945
 30
0.000000
  0
VERTEX
  8
LAYER-1
 10
6.498223
 20
0.118286
 30
0.000000
  0
VERTEX
  8
LAYER-1
 10
6.493882
 20
0.120890
 30
0.000000
  0
SEQEND
  8
LAYER-1
  0
POLYLINE
  8
LAYER-1
 66
  1
 70
  0
 62
  0
 10
6.391454
 20
0.159520
 30
0.000000
  0
VERTEX
  8
LAYER-1
 10
6.391454
 20
0.159520
 30
0.000000
  0
VERTEX
  8
LAYER-1
 10
6.391454
 20
0.163861
 30
0.000000
  0
VERTEX
  8
LAYER-1
 10
6.387113
 20
0.167332
 30
0.000000
  0
VERTEX
  8
LAYER-1
 10
6.381906
 20
0.168200
 30
0.000000
  0
VERTEX
  8
LAYER-1
 10
6.377565
 20
0.166464
 30
0.000000
  0
VERTEX
  8
LAYER-1
 10
6.375829
 20
0.162124
 30
0.000000
  0
VERTEX
  8
LAYER-1
 10
6.375829
 20
0.157784
 30
0.000000
  0
VERTEX
  8
LAYER-1
 10
6.379301
 20
0.153444
 30
0.000000
  0
VERTEX
  8
LAYER-1
 10
6.383642
 20
0.153444
 30
0.000000
  0
VERTEX
  8
LAYER-1
 10
6.387982
 20
0.154311
 30
0.000000
  0
VERTEX
  8
LAYER-1
 10
6.390585
 20
0.158652
 30
0.000000
  0
SEQEND
  8
LAYER-1
  0
POLYLINE
  8
LAYER-1
 66
  1
 70
  1
 62
  0
 10
6.323744
 20
0.146499
 30
0.000000
  0
VERTEX
  8
LAYER-1
 10
6.323744
 20
0.146499
 30
0.000000
  0
VERTEX
  8
LAYER-1
 10
6.301176
 20
0.159519
 30
0.000000
  0
VERTEX
  8
LAYER-1
 10
6.322009
 20
0.129137
 30
0.000000
  0
SEQEND
  8
LAYER-1
  0
POLYLINE
  8
LAYER-1
 66
  1
 70
  0
 62
  0
 10
6.241281
 20
0.111777
 30
0.000000
  0
VERTEX
  8
LAYER-1
 10
6.241281
 20
0.111777
 30
0.000000
  0
VERTEX
  8
LAYER-1
 10
6.241281
 20
0.116118
 30
0.000000
  0
VERTEX
  8
LAYER-1
 10
6.236940
 20
0.119589
 30
0.000000
  0
VERTEX
  8
LAYER-1
 10
6.231732
 20
0.120457
 30
0.000000
  0
VERTEX
  8
LAYER-1
 10
6.227392
 20
0.118721
 30
0.000000
  0
VERTEX
  8
LAYER-1
 10
6.225656
 20
0.114382
 30
0.000000
  0
VERTEX
  8
LAYER-1
 10
6.225656
 20
0.110040
 30
0.000000
  0
VERTEX
  8
LAYER-1
 10
6.229128
 20
0.105700
 30
0.000000
  0
VERTEX
  8
LAYER-1
 10
6.233468
 20
0.105700
 30
0.000000
  0
VERTEX
  8
LAYER-1
 10
6.237809
 20
0.106569
 30
0.000000
  0
VERTEX
  8
LAYER-1
 10
6.240412
 20
0.110909
 30
0.000000
  0
SEQEND
  8
LAYER-1
  0
POLYLINE
  8
LAYER-1
 66
  1
 70
  1
 62
  0
 10
6.431558
 20
0.102055
 30
0.000000
  0
VERTEX
  8
LAYER-1
 10
6.431558
 20
0.102055
 30
0.000000
  0
VERTEX
  8
LAYER-1
 10
6.424614
 20
0.128096
 30
0.000000
  0
VERTEX
  8
LAYER-1
 10
6.399440
 20
0.114209
 30
0.000000
  0
SEQEND
  8
LAYER-1
  0
POLYLINE
  8
LAYER-1
 66
  1
 70
  1
 62
  0
 10
6.453085
 20
0.156481
 30
0.000000
  0
VERTEX
  8
LAYER-1
 10
6.453085
 20
0.156481
 30
0.000000
  0
VERTEX
  8
LAYER-1
 10
6.466106
 20
0.179052
 30
0.000000
  0
VERTEX
  8
LAYER-1
 10
6.435724
 20
0.158219
 30
0.000000
  0
SEQEND
  8
LAYER-1
  0
POLYLINE
  8
LAYER-1
 66
  1
 70
  1
 62
  0
 10
5.881037
 20
0.100058
 30
0.000000
  0
VERTEX
  8
LAYER-1
 10
5.881037
 20
0.100058
 30
0.000000
  0
VERTEX
  8
LAYER-1
 10
5.858466
 20
0.113080
 30
0.000000
  0
VERTEX
  8
LAYER-1
 10
5.879299
 20
0.082697
 30
0.000000
  0
SEQEND
  8
LAYER-1
  0
POLYLINE
  8
LAYER-1
 66
  1
 70
  1
 62
  0
 10
6.658815
 20
0.124364
 30
0.000000
  0
VERTEX
  8
LAYER-1
 10
6.658815
 20
0.124364
 30
0.000000
  0
VERTEX
  8
LAYER-1
 10
6.675308
 20
0.149538
 30
0.000000
  0
VERTEX
  8
LAYER-1
 10
6.660551
 20
0.157350
 30
0.000000
  0
SEQEND
  8
LAYER-1
  0
POLYLINE
  8
LAYER-1
 66
  1
 70
  0
 62
  0
 10
6.689715
 20
0.050961
 30
0.000000
  0
VERTEX
  8
LAYER-1
 10
6.689715
 20
0.050961
 30
0.000000
  0
VERTEX
  8
LAYER-1
 10
6.694056
 20
0.050961
 30
0.000000
  0
VERTEX
  8
LAYER-1
 10
6.697528
 20
0.055301
 30
0.000000
  0
VERTEX
  8
LAYER-1
 10
6.698396
 20
0.060509
 30
0.000000
  0
VERTEX
  8
LAYER-1
 10
6.696660
 20
0.064850
 30
0.000000
  0
VERTEX
  8
LAYER-1
 10
6.692319
 20
0.066586
 30
0.000000
  0
VERTEX
  8
LAYER-1
 10
6.687979
 20
0.066586
 30
0.000000
  0
VERTEX
  8
LAYER-1
 10
6.683639
 20
0.063114
 30
0.000000
  0
VERTEX
  8
LAYER-1
 10
6.683639
 20
0.058773
 30
0.000000
  0
VERTEX
  8
LAYER-1
 10
6.684507
 20
0.054432
 30
0.000000
  0
VERTEX
  8
LAYER-1
 10
6.688847
 20
0.051827
 30
0.000000
  0
SEQEND
  8
LAYER-1
  0
POLYLINE
  8
LAYER-1
 66
  1
 70
  0
 62
  0
 10
6.666278
 20
0.076140
 30
0.000000
  0
VERTEX
  8
LAYER-1
 10
6.666278
 20
0.076140
 30
0.000000
  0
VERTEX
  8
LAYER-1
 10
6.670619
 20
0.076140
 30
0.000000
  0
VERTEX
  8
LAYER-1
 10
6.674091
 20
0.080481
 30
0.000000
  0
VERTEX
  8
LAYER-1
 10
6.674959
 20
0.085688
 30
0.000000
  0
VERTEX
  8
LAYER-1
 10
6.673223
 20
0.090029
 30
0.000000
  0
VERTEX
  8
LAYER-1
 10
6.668882
 20
0.091765
 30
0.000000
  0
VERTEX
  8
LAYER-1
 10
6.664542
 20
0.091765
 30
0.000000
  0
VERTEX
  8
LAYER-1
 10
6.660202
 20
0.088293
 30
0.000000
  0
VERTEX
  8
LAYER-1
 10
6.660202
 20
0.083952
 30
0.000000
  0
VERTEX
  8
LAYER-1
 10
6.661070
 20
0.079612
 30
0.000000
  0
VERTEX
  8
LAYER-1
 10
6.665410
 20
0.077007
 30
0.000000
  0
SEQEND
  8
LAYER-1
  0
POLYLINE
  8
LAYER-1
 66
  1
 70
  1
 62
  0
 10
6.740496
 20
0.092195
 30
0.000000
  0
VERTEX
  8
LAYER-1
 10
6.740496
 20
0.092195
 30
0.000000
  0
VERTEX
  8
LAYER-1
 10
6.715323
 20
0.108688
 30
0.000000
  0
VERTEX
  8
LAYER-1
 10
6.707510
 20
0.093931
 30
0.000000
  0
SEQEND
  8
LAYER-1
  0
POLYLINE
  8
LAYER-1
 66
  1
 70
  0
 62
  0
 10
6.750913
 20
0.131259
 30
0.000000
  0
VERTEX
  8
LAYER-1
 10
6.750913
 20
0.131259
 30
0.000000
  0
VERTEX
  8
LAYER-1
 10
6.750913
 20
0.135601
 30
0.000000
  0
VERTEX
  8
LAYER-1
 10
6.746573
 20
0.139072
 30
0.000000
  0
VERTEX
  8
LAYER-1
 10
6.741365
 20
0.139940
 30
0.000000
  0
VERTEX
  8
LAYER-1
 10
6.737024
 20
0.138205
 30
0.000000
  0
VERTEX
  8
LAYER-1
 10
6.735288
 20
0.133864
 30
0.000000
  0
VERTEX
  8
LAYER-1
 10
6.735288
 20
0.129524
 30
0.000000
  0
VERTEX
  8
LAYER-1
 10
6.738760
 20
0.125183
 30
0.000000
  0
VERTEX
  8
LAYER-1
 10
6.743100
 20
0.125183
 30
0.000000
  0
VERTEX
  8
LAYER-1
 10
6.747442
 20
0.126051
 30
0.000000
  0
VERTEX
  8
LAYER-1
 10
6.750047
 20
0.130392
 30
0.000000
  0
SEQEND
  8
LAYER-1
  0
POLYLINE
  8
LAYER-1
 66
  1
 70
  1
 62
  0
 10
6.697436
 20
0.137111
 30
0.000000
  0
VERTEX
  8
LAYER-1
 10
6.697436
 20
0.137111
 30
0.000000
  0
VERTEX
  8
LAYER-1
 10
6.710123
 20
0.156475
 30
0.000000
  0
VERTEX
  8
LAYER-1
 10
6.698772
 20
0.162487
 30
0.000000
  0
SEQEND
  8
LAYER-1
  0
POLYLINE
  8
LAYER-1
 66
  1
 70
  0
 62
  0
 10
6.020792
 20
0.166899
 30
0.000000
  0
VERTEX
  8
LAYER-1
 10
6.020792
 20
0.166899
 30
0.000000
  0
VERTEX
  8
LAYER-1
 10
6.020792
 20
0.171238
 30
0.000000
  0
VERTEX
  8
LAYER-1
 10
6.016452
 20
0.174711
 30
0.000000
  0
VERTEX
  8
LAYER-1
 10
6.011244
 20
0.175578
 30
0.000000
  0
VERTEX
  8
LAYER-1
 10
6.006903
 20
0.173843
 30
0.000000
  0
VERTEX
  8
LAYER-1
 10
6.005167
 20
0.169501
 30
0.000000
  0
VERTEX
  8
LAYER-1
 10
6.005167
 20
0.165161
 30
0.000000
  0
VERTEX
  8
LAYER-1
 10
6.008639
 20
0.160822
 30
0.000000
  0
VERTEX
  8
LAYER-1
 10
6.012980
 20
0.160822
 30
0.000000
  0
VERTEX
  8
LAYER-1
 10
6.017320
 20
0.161689
 30
0.000000
  0
VERTEX
  8
LAYER-1
 10
6.019925
 20
0.166030
 30
0.000000
  0
SEQEND
  8
LAYER-1
  0
POLYLINE
  8
LAYER-1
 66
  1
 70
  0
 62
  0
 10
6.606731
 20
0.130441
 30
0.000000
  0
VERTEX
  8
LAYER-1
 10
6.606731
 20
0.130441
 30
0.000000
  0
VERTEX
  8
LAYER-1
 10
6.611072
 20
0.130441
 30
0.000000
  0
VERTEX
  8
LAYER-1
 10
6.614544
 20
0.134782
 30
0.000000
  0
VERTEX
  8
LAYER-1
 10
6.615412
 20
0.139989
 30
0.000000
  0
VERTEX
  8
LAYER-1
 10
6.613676
 20
0.144330
 30
0.000000
  0
VERTEX
  8
LAYER-1
 10
6.609335
 20
0.146066
 30
0.000000
  0
VERTEX
  8
LAYER-1
 10
6.604995
 20
0.146066
 30
0.000000
  0
VERTEX
  8
LAYER-1
 10
6.600655
 20
0.142594
 30
0.000000
  0
VERTEX
  8
LAYER-1
 10
6.600655
 20
0.138253
 30
0.000000
  0
VERTEX
  8
LAYER-1
 10
6.601523
 20
0.133913
 30
0.000000
  0
VERTEX
  8
LAYER-1
 10
6.605863
 20
0.131308
 30
0.000000
  0
SEQEND
  8
LAYER-1
  0
POLYLINE
  8
LAYER-1
 66
  1
 70
  1
 62
  0
 10
0.864366
 20
0.134122
 30
0.000000
  0
VERTEX
  8
LAYER-1
 10
0.864366
 20
0.134122
 30
0.000000
  0
VERTEX
  8
LAYER-1
 10
0.841796
 20
0.147142
 30
0.000000
  0
VERTEX
  8
LAYER-1
 10
0.862628
 20
0.116761
 30
0.000000
  0
SEQEND
  8
LAYER-1
  0
POLYLINE
  8
LAYER-1
 66
  1
 70
  0
 62
  0
 10
0.853082
 20
0.067282
 30
0.000000
  0
VERTEX
  8
LAYER-1
 10
0.853082
 20
0.067282
 30
0.000000
  0
VERTEX
  8
LAYER-1
 10
0.853082
 20
0.071621
 30
0.000000
  0
VERTEX
  8
LAYER-1
 10
0.848741
 20
0.075094
 30
0.000000
  0
VERTEX
  8
LAYER-1
 10
0.843534
 20
0.075961
 30
0.000000
  0
VERTEX
  8
LAYER-1
 10
0.839193
 20
0.074226
 30
0.000000
  0
VERTEX
  8
LAYER-1
 10
0.837457
 20
0.069884
 30
0.000000
  0
VERTEX
  8
LAYER-1
 10
0.837457
 20
0.065544
 30
0.000000
  0
VERTEX
  8
LAYER-1
 10
0.840929
 20
0.061205
 30
0.000000
  0
VERTEX
  8
LAYER-1
 10
0.845269
 20
0.061205
 30
0.000000
  0
VERTEX
  8
LAYER-1
 10
0.849610
 20
0.062072
 30
0.000000
  0
VERTEX
  8
LAYER-1
 10
0.852215
 20
0.066413
 30
0.000000
  0
SEQEND
  8
LAYER-1
  0
POLYLINE
  8
LAYER-1
 66
  1
 70
  1
 62
  0
 10
1.131121
 20
0.056081
 30
0.000000
  0
VERTEX
  8
LAYER-1
 10
1.131121
 20
0.056081
 30
0.000000
  0
VERTEX
  8
LAYER-1
 10
1.147614
 20
0.081256
 30
0.000000
  0
VERTEX
  8
LAYER-1
 10
1.132857
 20
0.089068
 30
0.000000
  0
SEQEND
  8
LAYER-1
  0
POLYLINE
  8
LAYER-1
 66
  1
 70
  1
 62
  0
 10
1.179031
 20
0.071175
 30
0.000000
  0
VERTEX
  8
LAYER-1
 10
1.179031
 20
0.071175
 30
0.000000
  0
VERTEX
  8
LAYER-1
 10
1.191718
 20
0.090541
 30
0.000000
  0
VERTEX
  8
LAYER-1
 10
1.180367
 20
0.096551
 30
0.000000
  0
SEQEND
  8
LAYER-1
  0
POLYLINE
  8
LAYER-1
 66
  1
 70
  0
 62
  0
 10
1.243100
 20
0.047403
 30
0.000000
  0
VERTEX
  8
LAYER-1
 10
1.243100
 20
0.047403
 30
0.000000
  0
VERTEX
  8
LAYER-1
 10
1.247441
 20
0.047403
 30
0.000000
  0
VERTEX
  8
LAYER-1
 10
1.250913
 20
0.051744
 30
0.000000
  0
VERTEX
  8
LAYER-1
 10
1.251781
 20
0.056952
 30
0.000000
  0
VERTEX
  8
LAYER-1
 10
1.250045
 20
0.061293
 30
0.000000
  0
VERTEX
  8
LAYER-1
 10
1.245704
 20
0.063028
 30
0.000000
  0
VERTEX
  8
LAYER-1
 10
1.241364
 20
0.063028
 30
0.000000
  0
VERTEX
  8
LAYER-1
 10
1.237024
 20
0.059557
 30
0.000000
  0
VERTEX
  8
LAYER-1
 10
1.237024
 20
0.055216
 30
0.000000
  0
VERTEX
  8
LAYER-1
 10
1.237892
 20
0.050875
 30
0.000000
  0
VERTEX
  8
LAYER-1
 10
1.242232
 20
0.048271
 30
0.000000
  0
SEQEND
  8
LAYER-1
  0
POLYLINE
  8
LAYER-1
 66
  1
 70
  1
 62
  0
 10
1.276954
 20
0.110335
 30
0.000000
  0
VERTEX
  8
LAYER-1
 10
1.276954
 20
0.110335
 30
0.000000
  0
VERTEX
  8
LAYER-1
 10
1.250913
 20
0.103391
 30
0.000000
  0
VERTEX
  8
LAYER-1
 10
1.264801
 20
0.078218
 30
0.000000
  0
SEQEND
  8
LAYER-1
  0
POLYLINE
  8
LAYER-1
 66
  1
 70
  0
 62
  0
 10
2.644837
 20
0.078043
 30
0.000000
  0
VERTEX
  8
LAYER-1
 10
2.644837
 20
0.078043
 30
0.000000
  0
VERTEX
  8
LAYER-1
 10
2.644837
 20
0.082384
 30
0.000000
  0
VERTEX
  8
LAYER-1
 10
2.640496
 20
0.085855
 30
0.000000
  0
VERTEX
  8
LAYER-1
 10
2.635288
 20
0.086723
 30
0.000000
  0
VERTEX
  8
LAYER-1
 10
2.630948
 20
0.084987
 30
0.000000
  0
VERTEX
  8
LAYER-1
 10
2.629212
 20
0.080648
 30
0.000000
  0
VERTEX
  8
LAYER-1
 10
2.629212
 20
0.076308
 30
0.000000
  0
VERTEX
  8
LAYER-1
 10
2.632683
 20
0.071966
 30
0.000000
  0
VERTEX
  8
LAYER-1
 10
2.637024
 20
0.071966
 30
0.000000
  0
VERTEX
  8
LAYER-1
 10
2.641365
 20
0.072835
 30
0.000000
  0
VERTEX
  8
LAYER-1
 10
2.643969
 20
0.077175
 30
0.000000
  0
SEQEND
  8
LAYER-1
  0
POLYLINE
  8
LAYER-1
 66
  1
 70
  1
 62
  0
 10
2.578864
 20
0.041152
 30
0.000000
  0
VERTEX
  8
LAYER-1
 10
2.578864
 20
0.041152
 30
0.000000
  0
VERTEX
  8
LAYER-1
 10
2.571919
 20
0.067193
 30
0.000000
  0
VERTEX
  8
LAYER-1
 10
2.546746
 20
0.053305
 30
0.000000
  0
SEQEND
  8
LAYER-1
  0
POLYLINE
  8
LAYER-1
 66
  1
 70
  1
 62
  0
 10
2.591016
 20
0.077610
 30
0.000000
  0
VERTEX
  8
LAYER-1
 10
2.591016
 20
0.077610
 30
0.000000
  0
VERTEX
  8
LAYER-1
 10
2.604037
 20
0.100180
 30
0.000000
  0
VERTEX
  8
LAYER-1
 10
2.573655
 20
0.079347
 30
0.000000
  0
SEQEND
  8
LAYER-1
  0
POLYLINE
  8
LAYER-1
 66
  1
 70
  0
 62
  0
 10
2.427215
 20
0.088460
 30
0.000000
  0
VERTEX
  8
LAYER-1
 10
2.427215
 20
0.088460
 30
0.000000
  0
VERTEX
  8
LAYER-1
 10
2.422874
 20
0.088460
 30
0.000000
  0
VERTEX
  8
LAYER-1
 10
2.419402
 20
0.084120
 30
0.000000
  0
VERTEX
  8
LAYER-1
 10
2.418535
 20
0.078912
 30
0.000000
  0
VERTEX
  8
LAYER-1
 10
2.420270
 20
0.074571
 30
0.000000
  0
VERTEX
  8
LAYER-1
 10
2.424611
 20
0.072835
 30
0.000000
  0
VERTEX
  8
LAYER-1
 10
2.428951
 20
0.072835
 30
0.000000
  0
VERTEX
  8
LAYER-1
 10
2.433292
 20
0.076308
 30
0.000000
  0
VERTEX
  8
LAYER-1
 10
2.433292
 20
0.080648
 30
0.000000
  0
VERTEX
  8
LAYER-1
 10
2.432424
 20
0.084989
 30
0.000000
  0
VERTEX
  8
LAYER-1
 10
2.428083
 20
0.087593
 30
0.000000
  0
SEQEND
  8
LAYER-1
  0
POLYLINE
  8
LAYER-1
 66
  1
 70
  1
 62
  0
 10
2.507076
 20
0.051134
 30
0.000000
  0
VERTEX
  8
LAYER-1
 10
2.507076
 20
0.051134
 30
0.000000
  0
VERTEX
  8
LAYER-1
 10
2.484505
 20
0.064156
 30
0.000000
  0
VERTEX
  8
LAYER-1
 10
2.505338
 20
0.033773
 30
0.000000
  0
SEQEND
  8
LAYER-1
  0
POLYLINE
  8
LAYER-1
 66
  1
 70
  1
 62
  0
 10
3.102047
 20
0.051984
 30
0.000000
  0
VERTEX
  8
LAYER-1
 10
3.102047
 20
0.051984
 30
0.000000
  0
VERTEX
  8
LAYER-1
 10
3.115068
 20
0.074554
 30
0.000000
  0
VERTEX
  8
LAYER-1
 10
3.084686
 20
0.053722
 30
0.000000
  0
SEQEND
  8
LAYER-1
  0
POLYLINE
  8
LAYER-1
 66
  1
 70
  1
 62
  0
 10
3.007597
 20
0.058397
 30
0.000000
  0
VERTEX
  8
LAYER-1
 10
3.007597
 20
0.058397
 30
0.000000
  0
VERTEX
  8
LAYER-1
 10
3.020284
 20
0.077761
 30
0.000000
  0
VERTEX
  8
LAYER-1
 10
3.008933
 20
0.083772
 30
0.000000
  0
SEQEND
  8
LAYER-1
  0
POLYLINE
  8
LAYER-1
 66
  1
 70
  0
 62
  0
 10
3.135902
 20
0.051117
 30
0.000000
  0
VERTEX
  8
LAYER-1
 10
3.135902
 20
0.051117
 30
0.000000
  0
VERTEX
  8
LAYER-1
 10
3.140243
 20
0.051117
 30
0.000000
  0
VERTEX
  8
LAYER-1
 10
3.143715
 20
0.055458
 30
0.000000
  0
VERTEX
  8
LAYER-1
 10
3.144583
 20
0.060666
 30
0.000000
  0
VERTEX
  8
LAYER-1
 10
3.142847
 20
0.065007
 30
0.000000
  0
VERTEX
  8
LAYER-1
 10
3.138506
 20
0.066742
 30
0.000000
  0
VERTEX
  8
LAYER-1
 10
3.134166
 20
0.066742
 30
0.000000
  0
VERTEX
  8
LAYER-1
 10
3.129826
 20
0.063271
 30
0.000000
  0
VERTEX
  8
LAYER-1
 10
3.129826
 20
0.058929
 30
0.000000
  0
VERTEX
  8
LAYER-1
 10
3.130694
 20
0.054589
 30
0.000000
  0
VERTEX
  8
LAYER-1
 10
3.135034
 20
0.051984
 30
0.000000
  0
SEQEND
  8
LAYER-1
  0
POLYLINE
  8
LAYER-1
 66
  1
 70
  0
 62
  0
 10
3.022186
 20
0.042434
 30
0.000000
  0
VERTEX
  8
LAYER-1
 10
3.022186
 20
0.042434
 30
0.000000
  0
VERTEX
  8
LAYER-1
 10
3.017845
 20
0.042434
 30
0.000000
  0
VERTEX
  8
LAYER-1
 10
3.014373
 20
0.038094
 30
0.000000
  0
VERTEX
  8
LAYER-1
 10
3.013505
 20
0.032885
 30
0.000000
  0
VERTEX
  8
LAYER-1
 10
3.015241
 20
0.028545
 30
0.000000
  0
VERTEX
  8
LAYER-1
 10
3.019582
 20
0.026809
 30
0.000000
  0
VERTEX
  8
LAYER-1
 10
3.023922
 20
0.026809
 30
0.000000
  0
VERTEX
  8
LAYER-1
 10
3.028262
 20
0.030281
 30
0.000000
  0
VERTEX
  8
LAYER-1
 10
3.028262
 20
0.034621
 30
0.000000
  0
VERTEX
  8
LAYER-1
 10
3.027394
 20
0.038962
 30
0.000000
  0
VERTEX
  8
LAYER-1
 10
3.023054
 20
0.041567
 30
0.000000
  0
SEQEND
  8
LAYER-1
  0
POLYLINE
  8
LAYER-1
 66
  1
 70
  1
 62
  0
 10
2.863239
 20
0.055735
 30
0.000000
  0
VERTEX
  8
LAYER-1
 10
2.863239
 20
0.055735
 30
0.000000
  0
VERTEX
  8
LAYER-1
 10
2.876260
 20
0.078306
 30
0.000000
  0
VERTEX
  8
LAYER-1
 10
2.845878
 20
0.057473
 30
0.000000
  0
SEQEND
  8
LAYER-1
  0
POLYLINE
  8
LAYER-1
 66
  1
 70
  0
 62
  0
 10
2.897095
 20
0.054868
 30
0.000000
  0
VERTEX
  8
LAYER-1
 10
2.897095
 20
0.054868
 30
0.000000
  0
VERTEX
  8
LAYER-1
 10
2.901436
 20
0.054868
 30
0.000000
  0
VERTEX
  8
LAYER-1
 10
2.904907
 20
0.059208
 30
0.000000
  0
VERTEX
  8
LAYER-1
 10
2.905775
 20
0.064417
 30
0.000000
  0
VERTEX
  8
LAYER-1
 10
2.904039
 20
0.068757
 30
0.000000
  0
VERTEX
  8
LAYER-1
 10
2.899699
 20
0.070493
 30
0.000000
  0
VERTEX
  8
LAYER-1
 10
2.895359
 20
0.070493
 30
0.000000
  0
VERTEX
  8
LAYER-1
 10
2.891018
 20
0.067021
 30
0.000000
  0
VERTEX
  8
LAYER-1
 10
2.891018
 20
0.062681
 30
0.000000
  0
VERTEX
  8
LAYER-1
 10
2.891886
 20
0.058339
 30
0.000000
  0
VERTEX
  8
LAYER-1
 10
2.896227
 20
0.055735
 30
0.000000
  0
SEQEND
  8
LAYER-1
  0
POLYLINE
  8
LAYER-1
 66
  1
 70
  1
 62
  0
 10
3.495357
 20
0.090806
 30
0.000000
  0
VERTEX
  8
LAYER-1
 10
3.495357
 20
0.090806
 30
0.000000
  0
VERTEX
  8
LAYER-1
 10
3.517927
 20
0.077784
 30
0.000000
  0
VERTEX
  8
LAYER-1
 10
3.497094
 20
0.108166
 30
0.000000
  0
SEQEND
  8
LAYER-1
  0
POLYLINE
  8
LAYER-1
 66
  1
 70
  0
 62
  0
 10
3.494490
 20
0.056950
 30
0.000000
  0
VERTEX
  8
LAYER-1
 10
3.494490
 20
0.056950
 30
0.000000
  0
VERTEX
  8
LAYER-1
 10
3.494490
 20
0.052609
 30
0.000000
  0
VERTEX
  8
LAYER-1
 10
3.498831
 20
0.049138
 30
0.000000
  0
VERTEX
  8
LAYER-1
 10
3.504038
 20
0.048269
 30
0.000000
  0
VERTEX
  8
LAYER-1
 10
3.508379
 20
0.050006
 30
0.000000
  0
VERTEX
  8
LAYER-1
 10
3.510115
 20
0.054346
 30
0.000000
  0
VERTEX
  8
LAYER-1
 10
3.510115
 20
0.058685
 30
0.000000
  0
VERTEX
  8
LAYER-1
 10
3.506643
 20
0.063026
 30
0.000000
  0
VERTEX
  8
LAYER-1
 10
3.502302
 20
0.063026
 30
0.000000
  0
VERTEX
  8
LAYER-1
 10
3.497962
 20
0.062158
 30
0.000000
  0
VERTEX
  8
LAYER-1
 10
3.495357
 20
0.057818
 30
0.000000
  0
SEQEND
  8
LAYER-1
  0
POLYLINE
  8
LAYER-1
 66
  1
 70
  1
 62
  0
 10
4.044836
 20
0.122835
 30
0.000000
  0
VERTEX
  8
LAYER-1
 10
4.044836
 20
0.122835
 30
0.000000
  0
VERTEX
  8
LAYER-1
 10
4.051781
 20
0.096794
 30
0.000000
  0
VERTEX
  8
LAYER-1
 10
4.076954
 20
0.110682
 30
0.000000
  0
SEQEND
  8
LAYER-1
  0
POLYLINE
  8
LAYER-1
 66
  1
 70
  1
 62
  0
 10
4.016624
 20
0.085941
 30
0.000000
  0
VERTEX
  8
LAYER-1
 10
4.016624
 20
0.085941
 30
0.000000
  0
VERTEX
  8
LAYER-1
 10
4.039193
 20
0.072921
 30
0.000000
  0
VERTEX
  8
LAYER-1
 10
4.018361
 20
0.103302
 30
0.000000
  0
SEQEND
  8
LAYER-1
  0
POLYLINE
  8
LAYER-1
 66
  1
 70
  1
 62
  0
 10
4.133277
 20
0.077961
 30
0.000000
  0
VERTEX
  8
LAYER-1
 10
4.133277
 20
0.077961
 30
0.000000
  0
VERTEX
  8
LAYER-1
 10
4.152643
 20
0.065274
 30
0.000000
  0
VERTEX
  8
LAYER-1
 10
4.158653
 20
0.076625
 30
0.000000
  0
SEQEND
  8
LAYER-1
  0
POLYLINE
  8
LAYER-1
 66
  1
 70
  0
 62
  0
 10
4.077823
 20
0.083769
 30
0.000000
  0
VERTEX
  8
LAYER-1
 10
4.077823
 20
0.083769
 30
0.000000
  0
VERTEX
  8
LAYER-1
 10
4.073483
 20
0.083769
 30
0.000000
  0
VERTEX
  8
LAYER-1
 10
4.070011
 20
0.079428
 30
0.000000
  0
VERTEX
  8
LAYER-1
 10
4.069143
 20
0.074220
 30
0.000000
  0
VERTEX
  8
LAYER-1
 10
4.070879
 20
0.069879
 30
0.000000
  0
VERTEX
  8
LAYER-1
 10
4.075218
 20
0.068144
 30
0.000000
  0
VERTEX
  8
LAYER-1
 10
4.079559
 20
0.068144
 30
0.000000
  0
VERTEX
  8
LAYER-1
 10
4.083900
 20
0.071615
 30
0.000000
  0
VERTEX
  8
LAYER-1
 10
4.083900
 20
0.075957
 30
0.000000
  0
VERTEX
  8
LAYER-1
 10
4.083031
 20
0.080297
 30
0.000000
  0
VERTEX
  8
LAYER-1
 10
4.078691
 20
0.082901
 30
0.000000
  0
SEQEND
  8
LAYER-1
  0
POLYLINE
  8
LAYER-1
 66
  1
 70
  0
 62
  0
 10
3.962371
 20
0.061200
 30
0.000000
  0
VERTEX
  8
LAYER-1
 10
3.962371
 20
0.061200
 30
0.000000
  0
VERTEX
  8
LAYER-1
 10
3.966712
 20
0.061200
 30
0.000000
  0
VERTEX
  8
LAYER-1
 10
3.970184
 20
0.065541
 30
0.000000
  0
VERTEX
  8
LAYER-1
 10
3.971053
 20
0.070748
 30
0.000000
  0
VERTEX
  8
LAYER-1
 10
3.969317
 20
0.075089
 30
0.000000
  0
VERTEX
  8
LAYER-1
 10
3.964976
 20
0.076825
 30
0.000000
  0
VERTEX
  8
LAYER-1
 10
3.960636
 20
0.076825
 30
0.000000
  0
VERTEX
  8
LAYER-1
 10
3.956295
 20
0.073353
 30
0.000000
  0
VERTEX
  8
LAYER-1
 10
3.956295
 20
0.069013
 30
0.000000
  0
VERTEX
  8
LAYER-1
 10
3.957164
 20
0.064672
 30
0.000000
  0
VERTEX
  8
LAYER-1
 10
3.961505
 20
0.062067
 30
0.000000
  0
SEQEND
  8
LAYER-1
  0
POLYLINE
  8
LAYER-1
 66
  1
 70
  1
 62
  0
 10
4.449018
 20
0.031513
 30
0.000000
  0
VERTEX
  8
LAYER-1
 10
4.449018
 20
0.031513
 30
0.000000
  0
VERTEX
  8
LAYER-1
 10
4.442073
 20
0.057554
 30
0.000000
  0
VERTEX
  8
LAYER-1
 10
4.416900
 20
0.043666
 30
0.000000
  0
SEQEND
  8
LAYER-1
  0
POLYLINE
  8
LAYER-1
 66
  1
 70
  1
 62
  0
 10
4.477230
 20
0.068407
 30
0.000000
  0
VERTEX
  8
LAYER-1
 10
4.477230
 20
0.068407
 30
0.000000
  0
VERTEX
  8
LAYER-1
 10
4.454661
 20
0.081428
 30
0.000000
  0
VERTEX
  8
LAYER-1
 10
4.475494
 20
0.051047
 30
0.000000
  0
SEQEND
  8
LAYER-1
  0
POLYLINE
  8
LAYER-1
 66
  1
 70
  1
 62
  0
 10
4.360577
 20
0.076387
 30
0.000000
  0
VERTEX
  8
LAYER-1
 10
4.360577
 20
0.076387
 30
0.000000
  0
VERTEX
  8
LAYER-1
 10
4.341212
 20
0.089075
 30
0.000000
  0
VERTEX
  8
LAYER-1
 10
4.335201
 20
0.077723
 30
0.000000
  0
SEQEND
  8
LAYER-1
  0
POLYLINE
  8
LAYER-1
 66
  1
 70
  0
 62
  0
 10
4.416031
 20
0.070580
 30
0.000000
  0
VERTEX
  8
LAYER-1
 10
4.416031
 20
0.070580
 30
0.000000
  0
VERTEX
  8
LAYER-1
 10
4.420372
 20
0.070580
 30
0.000000
  0
VERTEX
  8
LAYER-1
 10
4.423843
 20
0.074920
 30
0.000000
  0
VERTEX
  8
LAYER-1
 10
4.424711
 20
0.080128
 30
0.000000
  0
VERTEX
  8
LAYER-1
 10
4.422975
 20
0.084468
 30
0.000000
  0
VERTEX
  8
LAYER-1
 10
4.418636
 20
0.086205
 30
0.000000
  0
VERTEX
  8
LAYER-1
 10
4.414295
 20
0.086205
 30
0.000000
  0
VERTEX
  8
LAYER-1
 10
4.409954
 20
0.082732
 30
0.000000
  0
VERTEX
  8
LAYER-1
 10
4.409954
 20
0.078392
 30
0.000000
  0
VERTEX
  8
LAYER-1
 10
4.410823
 20
0.074051
 30
0.000000
  0
VERTEX
  8
LAYER-1
 10
4.415163
 20
0.071448
 30
0.000000
  0
SEQEND
  8
LAYER-1
  0
POLYLINE
  8
LAYER-1
 66
  1
 70
  0
 62
  0
 10
4.531483
 20
0.093148
 30
0.000000
  0
VERTEX
  8
LAYER-1
 10
4.531483
 20
0.093148
 30
0.000000
  0
VERTEX
  8
LAYER-1
 10
4.527142
 20
0.093148
 30
0.000000
  0
VERTEX
  8
LAYER-1
 10
4.523670
 20
0.088807
 30
0.000000
  0
VERTEX
  8
LAYER-1
 10
4.522801
 20
0.083600
 30
0.000000
  0
VERTEX
  8
LAYER-1
 10
4.524537
 20
0.079259
 30
0.000000
  0
VERTEX
  8
LAYER-1
 10
4.528878
 20
0.077523
 30
0.000000
  0
VERTEX
  8
LAYER-1
 10
4.533218
 20
0.077523
 30
0.000000
  0
VERTEX
  8
LAYER-1
 10
4.537559
 20
0.080995
 30
0.000000
  0
VERTEX
  8
LAYER-1
 10
4.537559
 20
0.085336
 30
0.000000
  0
VERTEX
  8
LAYER-1
 10
4.536690
 20
0.089676
 30
0.000000
  0
VERTEX
  8
LAYER-1
 10
4.532349
 20
0.092281
 30
0.000000
  0
SEQEND
  8
LAYER-1
  0
POLYLINE
  8
LAYER-1
 66
  1
 70
  1
 62
  0
 10
4.701362
 20
0.015106
 30
0.000000
  0
VERTEX
  8
LAYER-1
 10
4.701362
 20
0.015106
 30
0.000000
  0
VERTEX
  8
LAYER-1
 10
4.694417
 20
0.041148
 30
0.000000
  0
VERTEX
  8
LAYER-1
 10
4.669244
 20
0.027260
 30
0.000000
  0
SEQEND
  8
LAYER-1
  0
POLYLINE
  8
LAYER-1
 66
  1
 70
  1
 62
  0
 10
4.729574
 20
0.052001
 30
0.000000
  0
VERTEX
  8
LAYER-1
 10
4.729574
 20
0.052001
 30
0.000000
  0
VERTEX
  8
LAYER-1
 10
4.707005
 20
0.065021
 30
0.000000
  0
VERTEX
  8
LAYER-1
 10
4.727837
 20
0.034640
 30
0.000000
  0
SEQEND
  8
LAYER-1
  0
POLYLINE
  8
LAYER-1
 66
  1
 70
  1
 62
  0
 10
4.612920
 20
0.059981
 30
0.000000
  0
VERTEX
  8
LAYER-1
 10
4.612920
 20
0.059981
 30
0.000000
  0
VERTEX
  8
LAYER-1
 10
4.593555
 20
0.072668
 30
0.000000
  0
VERTEX
  8
LAYER-1
 10
4.587545
 20
0.061317
 30
0.000000
  0
SEQEND
  8
LAYER-1
  0
POLYLINE
  8
LAYER-1
 66
  1
 70
  0
 62
  0
 10
4.668375
 20
0.054173
 30
0.000000
  0
VERTEX
  8
LAYER-1
 10
4.668375
 20
0.054173
 30
0.000000
  0
VERTEX
  8
LAYER-1
 10
4.672716
 20
0.054173
 30
0.000000
  0
VERTEX
  8
LAYER-1
 10
4.676187
 20
0.058514
 30
0.000000
  0
VERTEX
  8
LAYER-1
 10
4.677055
 20
0.063722
 30
0.000000
  0
VERTEX
  8
LAYER-1
 10
4.675319
 20
0.068062
 30
0.000000
  0
VERTEX
  8
LAYER-1
 10
4.670980
 20
0.069798
 30
0.000000
  0
VERTEX
  8
LAYER-1
 10
4.666639
 20
0.069798
 30
0.000000
  0
VERTEX
  8
LAYER-1
 10
4.662298
 20
0.066327
 30
0.000000
  0
VERTEX
  8
LAYER-1
 10
4.662298
 20
0.061985
 30
0.000000
  0
VERTEX
  8
LAYER-1
 10
4.663167
 20
0.057645
 30
0.000000
  0
VERTEX
  8
LAYER-1
 10
4.667507
 20
0.055041
 30
0.000000
  0
SEQEND
  8
LAYER-1
  0
POLYLINE
  8
LAYER-1
 66
  1
 70
  0
 62
  0
 10
4.783827
 20
0.076742
 30
0.000000
  0
VERTEX
  8
LAYER-1
 10
4.783827
 20
0.076742
 30
0.000000
  0
VERTEX
  8
LAYER-1
 10
4.779486
 20
0.076742
 30
0.000000
  0
VERTEX
  8
LAYER-1
 10
4.776014
 20
0.072401
 30
0.000000
  0
VERTEX
  8
LAYER-1
 10
4.775145
 20
0.067193
 30
0.000000
  0
VERTEX
  8
LAYER-1
 10
4.776881
 20
0.062853
 30
0.000000
  0
VERTEX
  8
LAYER-1
 10
4.781222
 20
0.061117
 30
0.000000
  0
VERTEX
  8
LAYER-1
 10
4.785562
 20
0.061117
 30
0.000000
  0
VERTEX
  8
LAYER-1
 10
4.789903
 20
0.064589
 30
0.000000
  0
VERTEX
  8
LAYER-1
 10
4.789903
 20
0.068929
 30
0.000000
  0
VERTEX
  8
LAYER-1
 10
4.789034
 20
0.073270
 30
0.000000
  0
VERTEX
  8
LAYER-1
 10
4.784693
 20
0.075874
 30
0.000000
  0
SEQEND
  8
LAYER-1
  0
POLYLINE
  8
LAYER-1
 66
  1
 70
  1
 62
  0
 10
4.921921
 20
0.114155
 30
0.000000
  0
VERTEX
  8
LAYER-1
 10
4.921921
 20
0.114155
 30
0.000000
  0
VERTEX
  8
LAYER-1
 10
4.928865
 20
0.088114
 30
0.000000
  0
VERTEX
  8
LAYER-1
 10
4.954038
 20
0.102002
 30
0.000000
  0
SEQEND
  8
LAYER-1
  0
POLYLINE
  8
LAYER-1
 66
  1
 70
  1
 62
  0
 10
4.893708
 20
0.077261
 30
0.000000
  0
VERTEX
  8
LAYER-1
 10
4.893708
 20
0.077261
 30
0.000000
  0
VERTEX
  8
LAYER-1
 10
4.916278
 20
0.064241
 30
0.000000
  0
VERTEX
  8
LAYER-1
 10
4.895445
 20
0.094622
 30
0.000000
  0
SEQEND
  8
LAYER-1
  0
POLYLINE
  8
LAYER-1
 66
  1
 70
  0
 62
  0
 10
4.839456
 20
0.052521
 30
0.000000
  0
VERTEX
  8
LAYER-1
 10
4.839456
 20
0.052521
 30
0.000000
  0
VERTEX
  8
LAYER-1
 10
4.843797
 20
0.052521
 30
0.000000
  0
VERTEX
  8
LAYER-1
 10
4.847268
 20
0.056861
 30
0.000000
  0
VERTEX
  8
LAYER-1
 10
4.848137
 20
0.062069
 30
0.000000
  0
VERTEX
  8
LAYER-1
 10
4.846401
 20
0.066410
 30
0.000000
  0
VERTEX
  8
LAYER-1
 10
4.842061
 20
0.068146
 30
0.000000
  0
VERTEX
  8
LAYER-1
 10
4.837720
 20
0.068146
 30
0.000000
  0
VERTEX
  8
LAYER-1
 10
4.833379
 20
0.064674
 30
0.000000
  0
VERTEX
  8
LAYER-1
 10
4.833379
 20
0.060333
 30
0.000000
  0
VERTEX
  8
LAYER-1
 10
4.834248
 20
0.055992
 30
0.000000
  0
VERTEX
  8
LAYER-1
 10
4.838589
 20
0.053388
 30
0.000000
  0
SEQEND
  8
LAYER-1
  0
POLYLINE
  8
LAYER-1
 66
  1
 70
  1
 62
  0
 10
5.475043
 20
0.226273
 30
0.000000
  0
VERTEX
  8
LAYER-1
 10
5.475043
 20
0.226273
 30
0.000000
  0
VERTEX
  8
LAYER-1
 10
5.481988
 20
0.200233
 30
0.000000
  0
VERTEX
  8
LAYER-1
 10
5.507161
 20
0.214120
 30
0.000000
  0
SEQEND
  8
LAYER-1
  0
POLYLINE
  8
LAYER-1
 66
  1
 70
  1
 62
  0
 10
5.488152
 20
0.181134
 30
0.000000
  0
VERTEX
  8
LAYER-1
 10
5.488152
 20
0.181134
 30
0.000000
  0
VERTEX
  8
LAYER-1
 10
5.475131
 20
0.158563
 30
0.000000
  0
VERTEX
  8
LAYER-1
 10
5.505513
 20
0.179396
 30
0.000000
  0
SEQEND
  8
LAYER-1
  0
POLYLINE
  8
LAYER-1
 66
  1
 70
  1
 62
  0
 10
5.179645
 20
0.149657
 30
0.000000
  0
VERTEX
  8
LAYER-1
 10
5.179645
 20
0.149657
 30
0.000000
  0
VERTEX
  8
LAYER-1
 10
5.172702
 20
0.175697
 30
0.000000
  0
VERTEX
  8
LAYER-1
 10
5.147528
 20
0.161810
 30
0.000000
  0
SEQEND
  8
LAYER-1
  0
POLYLINE
  8
LAYER-1
 66
  1
 70
  1
 62
  0
 10
5.166537
 20
0.194796
 30
0.000000
  0
VERTEX
  8
LAYER-1
 10
5.166537
 20
0.194796
 30
0.000000
  0
VERTEX
  8
LAYER-1
 10
5.179559
 20
0.217367
 30
0.000000
  0
VERTEX
  8
LAYER-1
 10
5.149176
 20
0.196534
 30
0.000000
  0
SEQEND
  8
LAYER-1
  0
POLYLINE
  8
LAYER-1
 66
  1
 70
  1
 62
  0
 10
5.684419
 20
0.051827
 30
0.000000
  0
VERTEX
  8
LAYER-1
 10
5.684419
 20
0.051827
 30
0.000000
  0
VERTEX
  8
LAYER-1
 10
5.710459
 20
0.058773
 30
0.000000
  0
VERTEX
  8
LAYER-1
 10
5.696572
 20
0.083946
 30
0.000000
  0
SEQEND
  8
LAYER-1
  0
POLYLINE
  8
LAYER-1
 66
  1
 70
  1
 62
  0
 10
5.729558
 20
0.064936
 30
0.000000
  0
VERTEX
  8
LAYER-1
 10
5.729558
 20
0.064936
 30
0.000000
  0
VERTEX
  8
LAYER-1
 10
5.752129
 20
0.051916
 30
0.000000
  0
VERTEX
  8
LAYER-1
 10
5.731296
 20
0.082297
 30
0.000000
  0
SEQEND
  8
LAYER-1
  0
ARC
  8
LAYER-1
 62
  0
 10
5.469802
 20
8.925407
 30
0.000000
 40
0.254425
 50
270.000000
 51
90.000000
  0
POLYLINE
  8
LAYER-1
 66
  1
 70
  0
 62
  0
 10
5.469802
 20
9.179832
 30
0.000000
  0
VERTEX
  8
LAYER-1
 10
5.469802
 20
9.179832
 30
0.000000
  0
VERTEX
  8
LAYER-1
 10
1.804880
 20
9.179832
 30
0.000000
  0
SEQEND
  8
LAYER-1
  0
POLYLINE
  8
LAYER-1
 66
  1
 70
  0
 62
  0
 10
1.804880
 20
9.179832
 30
0.000000
  0
VERTEX
  8
LAYER-1
 10
1.804880
 20
9.179832
 30
0.000000
  0
VERTEX
  8
LAYER-1
 10
1.804880
 20
8.670982
 30
0.000000
  0
SEQEND
  8
LAYER-1
  0
POLYLINE
  8
LAYER-1
 66
  1
 70
  0
 62
  0
 10
5.469802
 20
8.670982
 30
0.000000
  0
VERTEX
  8
LAYER-1
 10
5.469802
 20
8.670982
 30
0.000000
  0
VERTEX
  8
LAYER-1
 10
1.804880
 20
8.670982
 30
0.000000
  0
SEQEND
  8
LAYER-1
  0
TEXT
  8
LAYER-1
 62
  0
 10
3.615411
 20
9.461170
 30
0.000000
 40
0.333333
  1
MobilFlex
 72
  5
 11
5.768189
 21
9.461170
 31
0.000000
  0
POLYLINE
  8
LAYER-1
 66
  1
 70
  1
 62
  0
  0
VERTEX
  8
LAYER-1
 10
1.806384
 20
9.981144
 30
0.000000
  0
VERTEX
  8
LAYER-1
 10
2.044231
 20
9.981144
 30
0.000000
  0
VERTEX
  8
LAYER-1
 10
2.044231
 20
9.464199
 30
0.000000
  0
VERTEX
  8
LAYER-1
 10
1.806384
 20
9.464199
 30
0.000000
  0
SEQEND
  8
LAYER-1
  0
POLYLINE
  8
LAYER-1
 66
  1
 70
  1
 62
  0
  0
VERTEX
  8
LAYER-1
 10
2.118884
 20
9.981144
 30
0.000000
  0
VERTEX
  8
LAYER-1
 10
2.356731
 20
9.981144
 30
0.000000
  0
VERTEX
  8
LAYER-1
 10
2.356731
 20
9.464199
 30
0.000000
  0
VERTEX
  8
LAYER-1
 10
2.118884
 20
9.464199
 30
0.000000
  0
SEQEND
  8
LAYER-1
  0
POLYLINE
  8
LAYER-1
 66
  1
 70
  1
 62
  0
  0
VERTEX
  8
LAYER-1
 10
2.419231
 20
9.981144
 30
0.000000
  0
VERTEX
  8
LAYER-1
 10
2.657078
 20
9.981144
 30
0.000000
  0
VERTEX
  8
LAYER-1
 10
2.657078
 20
9.464199
 30
0.000000
  0
VERTEX
  8
LAYER-1
 10
2.419231
 20
9.464199
 30
0.000000
  0
SEQEND
  8
LAYER-1
  0
POLYLINE
  8
LAYER-1
 66
  1
 70
  1
 62
  0
  0
VERTEX
  8
LAYER-1
 10
2.723050
 20
9.981144
 30
0.000000
  0
VERTEX
  8
LAYER-1
 10
2.960897
 20
9.981144
 30
0.000000
  0
VERTEX
  8
LAYER-1
 10
2.960897
 20
9.464199
 30
0.000000
  0
VERTEX
  8
LAYER-1
 10
2.723050
 20
9.464199
 30
0.000000
  0
SEQEND
  8
LAYER-1
  0
POLYLINE
  8
LAYER-1
 66
  1
 70
  1
 62
  0
  0
VERTEX
  8
LAYER-1
 10
3.039891
 20
9.977229
 30
0.000000
  0
VERTEX
  8
LAYER-1
 10
3.415325
 20
9.977229
 30
0.000000
  0
VERTEX
  8
LAYER-1
 10
3.415325
 20
9.839208
 30
0.000000
  0
VERTEX
  8
LAYER-1
 10
3.039891
 20
9.839208
 30
0.000000
  0
SEQEND
  8
LAYER-1
  0
POLYLINE
  8
LAYER-1
 66
  1
 70
  1
 62
  0
  0
VERTEX
  8
LAYER-1
 10
3.039457
 20
9.749798
 30
0.000000
  0
VERTEX
  8
LAYER-1
 10
3.347616
 20
9.749798
 30
0.000000
  0
VERTEX
  8
LAYER-1
 10
3.347616
 20
9.615684
 30
0.000000
  0
VERTEX
  8
LAYER-1
 10
3.039457
 20
9.615684
 30
0.000000
  0
SEQEND
  8
LAYER-1
  0
POLYLINE
  8
LAYER-1
 66
  1
 70
  1
 62
  0
  0
VERTEX
  8
LAYER-1
 10
1.806384
 20
9.379573
 30
0.000000
  0
VERTEX
  8
LAYER-1
 10
5.724787
 20
9.379573
 30
0.000000
  0
VERTEX
  8
LAYER-1
 10
5.724787
 20
9.336170
 30
0.000000
  0
VERTEX
  8
LAYER-1
 10
1.806384
 20
9.336170
 30
0.000000
  0
SEQEND
  8
LAYER-1
  0
POLYLINE
  8
LAYER-1
 66
  1
 70
  0
 62
  0
 10
5.777370
 20
7.423724
 30
0.000000
  0
VERTEX
  8
LAYER-1
 10
5.777370
 20
7.423724
 30
0.000000
  0
VERTEX
  8
LAYER-1
 10
1.758507
 20
7.423860
 30
0.000000
  0
VERTEX
  8
LAYER-1
 10
1.758507
 20
0.356647
 30
0.000000
  0
VERTEX
  8
LAYER-1
 10
5.777370
 20
0.356647
 30
0.000000
  0
VERTEX
  8
LAYER-1
 10
5.777370
 20
7.423860
 30
0.000000
  0
SEQEND
  8
LAYER-1
  0
POLYLINE
  8
LAYER-1
 66
  1
 70
  1
 62
  0
  0
VERTEX
  8
LAYER-1
 10
3.793519
 20
7.490284
 30
0.000000
  0
VERTEX
  8
LAYER-1
 10
3.818614
 20
7.490284
 30
0.000000
  0
VERTEX
  8
LAYER-1
 10
3.818614
 20
7.423965
 30
0.000000
  0
VERTEX
  8
LAYER-1
 10
3.793519
 20
7.423965
 30
0.000000
  0
SEQEND
  8
LAYER-1
  0
POLYLINE
  8
LAYER-1
 66
  1
 70
  1
 62
  0
  0
VERTEX
  8
LAYER-1
 10
1.831183
 20
0.670400
 30
0.000000
  0
VERTEX
  8
LAYER-1
 10
2.155815
 20
0.670400
 30
0.000000
  0
VERTEX
  8
LAYER-1
 10
2.155815
 20
0.356974
 30
0.000000
  0
VERTEX
  8
LAYER-1
 10
1.831183
 20
0.356974
 30
0.000000
  0
SEQEND
  8
LAYER-1
  0
POLYLINE
  8
LAYER-1
 66
  1
 70
  1
 62
  0
  0
VERTEX
  8
LAYER-1
 10
2.241245
 20
0.670400
 30
0.000000
  0
VERTEX
  8
LAYER-1
 10
2.565877
 20
0.670400
 30
0.000000
  0
VERTEX
  8
LAYER-1
 10
2.565877
 20
0.356974
 30
0.000000
  0
VERTEX
  8
LAYER-1
 10
2.241245
 20
0.356974
 30
0.000000
  0
SEQEND
  8
LAYER-1
  0
POLYLINE
  8
LAYER-1
 66
  1
 70
  1
 62
  0
  0
VERTEX
  8
LAYER-1
 10
2.651307
 20
0.670400
 30
0.000000
  0
VERTEX
  8
LAYER-1
 10
2.975936
 20
0.670400
 30
0.000000
  0
VERTEX
  8
LAYER-1
 10
2.975936
 20
0.356974
 30
0.000000
  0
VERTEX
  8
LAYER-1
 10
2.651307
 20
0.356974
 30
0.000000
  0
SEQEND
  8
LAYER-1
  0
POLYLINE
  8
LAYER-1
 66
  1
 70
  1
 62
  0
  0
VERTEX
  8
LAYER-1
 10
3.061367
 20
0.670400
 30
0.000000
  0
VERTEX
  8
LAYER-1
 10
3.385998
 20
0.670400
 30
0.000000
  0
VERTEX
  8
LAYER-1
 10
3.385998
 20
0.356974
 30
0.000000
  0
VERTEX
  8
LAYER-1
 10
3.061367
 20
0.356974
 30
0.000000
  0
SEQEND
  8
LAYER-1
  0
POLYLINE
  8
LAYER-1
 66
  1
 70
  1
 62
  0
  0
VERTEX
  8
LAYER-1
 10
5.380062
 20
0.670400
 30
0.000000
  0
VERTEX
  8
LAYER-1
 10
5.704693
 20
0.670400
 30
0.000000
  0
VERTEX
  8
LAYER-1
 10
5.704693
 20
0.356974
 30
0.000000
  0
VERTEX
  8
LAYER-1
 10
5.380062
 20
0.356974
 30
0.000000
  0
SEQEND
  8
LAYER-1
  0
POLYLINE
  8
LAYER-1
 66
  1
 70
  1
 62
  0
  0
VERTEX
  8
LAYER-1
 10
4.969999
 20
0.670400
 30
0.000000
  0
VERTEX
  8
LAYER-1
 10
5.294631
 20
0.670400
 30
0.000000
  0
VERTEX
  8
LAYER-1
 10
5.294631
 20
0.356974
 30
0.000000
  0
VERTEX
  8
LAYER-1
 10
4.969999
 20
0.356974
 30
0.000000
  0
SEQEND
  8
LAYER-1
  0
POLYLINE
  8
LAYER-1
 66
  1
 70
  1
 62
  0
  0
VERTEX
  8
LAYER-1
 10
4.559937
 20
0.670400
 30
0.000000
  0
VERTEX
  8
LAYER-1
 10
4.884569
 20
0.670400
 30
0.000000
  0
VERTEX
  8
LAYER-1
 10
4.884569
 20
0.356974
 30
0.000000
  0
VERTEX
  8
LAYER-1
 10
4.559937
 20
0.356974
 30
0.000000
  0
SEQEND
  8
LAYER-1
  0
POLYLINE
  8
LAYER-1
 66
  1
 70
  1
 62
  0
  0
VERTEX
  8
LAYER-1
 10
4.149875
 20
0.670400
 30
0.000000
  0
VERTEX
  8
LAYER-1
 10
4.474506
 20
0.670400
 30
0.000000
  0
VERTEX
  8
LAYER-1
 10
4.474506
 20
0.356974
 30
0.000000
  0
VERTEX
  8
LAYER-1
 10
4.149875
 20
0.356974
 30
0.000000
  0
SEQEND
  8
LAYER-1
  0
POLYLINE
  8
LAYER-1
 66
  1
 70
  1
 62
  0
  0
VERTEX
  8
LAYER-1
 10
1.831183
 20
7.423871
 30
0.000000
  0
VERTEX
  8
LAYER-1
 10
2.155815
 20
7.423871
 30
0.000000
  0
VERTEX
  8
LAYER-1
 10
2.155815
 20
7.153872
 30
0.000000
  0
VERTEX
  8
LAYER-1
 10
1.831183
 20
7.153872
 30
0.000000
  0
SEQEND
  8
LAYER-1
  0
POLYLINE
  8
LAYER-1
 66
  1
 70
  1
 62
  0
  0
VERTEX
  8
LAYER-1
 10
2.241245
 20
7.423871
 30
0.000000
  0
VERTEX
  8
LAYER-1
 10
2.565877
 20
7.423871
 30
0.000000
  0
VERTEX
  8
LAYER-1
 10
2.565877
 20
7.153872
 30
0.000000
  0
VERTEX
  8
LAYER-1
 10
2.241245
 20
7.153872
 30
0.000000
  0
SEQEND
  8
LAYER-1
  0
POLYLINE
  8
LAYER-1
 66
  1
 70
  1
 62
  0
  0
VERTEX
  8
LAYER-1
 10
2.651307
 20
7.423871
 30
0.000000
  0
VERTEX
  8
LAYER-1
 10
2.975936
 20
7.423871
 30
0.000000
  0
VERTEX
  8
LAYER-1
 10
2.975936
 20
7.153872
 30
0.000000
  0
VERTEX
  8
LAYER-1
 10
2.651307
 20
7.153872
 30
0.000000
  0
SEQEND
  8
LAYER-1
  0
POLYLINE
  8
LAYER-1
 66
  1
 70
  1
 62
  0
  0
VERTEX
  8
LAYER-1
 10
3.061367
 20
7.423871
 30
0.000000
  0
VERTEX
  8
LAYER-1
 10
3.385998
 20
7.423871
 30
0.000000
  0
VERTEX
  8
LAYER-1
 10
3.385998
 20
7.153872
 30
0.000000
  0
VERTEX
  8
LAYER-1
 10
3.061367
 20
7.153872
 30
0.000000
  0
SEQEND
  8
LAYER-1
  0
POLYLINE
  8
LAYER-1
 66
  1
 70
  0
 62
  0
 10
2.798198
 20
7.423946
 30
0.000000
  0
VERTEX
  8
LAYER-1
 10
2.798198
 20
7.423946
 30
0.000000
  0
VERTEX
  8
LAYER-1
 10
2.798198
 20
7.154416
 30
0.000000
  0
SEQEND
  8
LAYER-1
  0
POLYLINE
  8
LAYER-1
 66
  1
 70
  0
 62
  0
 10
2.835278
 20
7.423946
 30
0.000000
  0
VERTEX
  8
LAYER-1
 10
2.835278
 20
7.423946
 30
0.000000
  0
VERTEX
  8
LAYER-1
 10
2.835278
 20
7.154416
 30
0.000000
  0
SEQEND
  8
LAYER-1
  0
POLYLINE
  8
LAYER-1
 66
  1
 70
  0
 62
  0
 10
1.976532
 20
7.423946
 30
0.000000
  0
VERTEX
  8
LAYER-1
 10
1.976532
 20
7.423946
 30
0.000000
  0
VERTEX
  8
LAYER-1
 10
1.976532
 20
7.154416
 30
0.000000
  0
SEQEND
  8
LAYER-1
  0
POLYLINE
  8
LAYER-1
 66
  1
 70
  0
 62
  0
 10
2.015094
 20
7.423946
 30
0.000000
  0
VERTEX
  8
LAYER-1
 10
2.015094
 20
7.423946
 30
0.000000
  0
VERTEX
  8
LAYER-1
 10
2.015094
 20
7.154416
 30
0.000000
  0
SEQEND
  8
LAYER-1
  0
POLYLINE
  8
LAYER-1
 66
  1
 70
  1
 62
  0
  0
VERTEX
  8
LAYER-1
 10
2.172309
 20
7.429806
 30
0.000000
  0
VERTEX
  8
LAYER-1
 10
2.227185
 20
7.429806
 30
0.000000
  0
VERTEX
  8
LAYER-1
 10
2.227185
 20
7.423946
 30
0.000000
  0
VERTEX
  8
LAYER-1
 10
2.172309
 20
7.423946
 30
0.000000
  0
SEQEND
  8
LAYER-1
  0
POLYLINE
  8
LAYER-1
 66
  1
 70
  0
 62
  0
 10
2.181207
 20
7.356563
 30
0.000000
  0
VERTEX
  8
LAYER-1
 10
2.181207
 20
7.356563
 30
0.000000
  0
VERTEX
  8
LAYER-1
 10
2.216803
 20
7.356563
 30
0.000000
  0
SEQEND
  8
LAYER-1
  0
POLYLINE
  8
LAYER-1
 66
  1
 70
  0
 62
  0
 10
2.181207
 20
7.227658
 30
0.000000
  0
VERTEX
  8
LAYER-1
 10
2.181207
 20
7.227658
 30
0.000000
  0
VERTEX
  8
LAYER-1
 10
2.216803
 20
7.227658
 30
0.000000
  0
SEQEND
  8
LAYER-1
  0
POLYLINE
  8
LAYER-1
 66
  1
 70
  1
 62
  0
  0
VERTEX
  8
LAYER-1
 10
2.989523
 20
7.429806
 30
0.000000
  0
VERTEX
  8
LAYER-1
 10
3.044398
 20
7.429806
 30
0.000000
  0
VERTEX
  8
LAYER-1
 10
3.044398
 20
7.423946
 30
0.000000
  0
VERTEX
  8
LAYER-1
 10
2.989523
 20
7.423946
 30
0.000000
  0
SEQEND
  8
LAYER-1
  0
POLYLINE
  8
LAYER-1
 66
  1
 70
  0
 62
  0
 10
2.999906
 20
7.356563
 30
0.000000
  0
VERTEX
  8
LAYER-1
 10
2.999906
 20
7.356563
 30
0.000000
  0
VERTEX
  8
LAYER-1
 10
3.035500
 20
7.356563
 30
0.000000
  0
SEQEND
  8
LAYER-1
  0
POLYLINE
  8
LAYER-1
 66
  1
 70
  0
 62
  0
 10
2.999906
 20
7.227657
 30
0.000000
  0
VERTEX
  8
LAYER-1
 10
2.999906
 20
7.227657
 30
0.000000
  0
VERTEX
  8
LAYER-1
 10
3.035500
 20
7.227657
 30
0.000000
  0
SEQEND
  8
LAYER-1
  0
POLYLINE
  8
LAYER-1
 66
  1
 70
  0
 62
  0
 10
1.831183
 20
7.423871
 30
0.000000
  0
VERTEX
  8
LAYER-1
 10
1.831183
 20
7.423871
 30
0.000000
  0
VERTEX
  8
LAYER-1
 10
1.831183
 20
0.357080
 30
0.000000
  0
SEQEND
  8
LAYER-1
  0
POLYLINE
  8
LAYER-1
 66
  1
 70
  0
 62
  0
 10
2.155815
 20
7.423871
 30
0.000000
  0
VERTEX
  8
LAYER-1
 10
2.155815
 20
7.423871
 30
0.000000
  0
VERTEX
  8
LAYER-1
 10
2.155815
 20
0.357080
 30
0.000000
  0
SEQEND
  8
LAYER-1
  0
POLYLINE
  8
LAYER-1
 66
  1
 70
  0
 62
  0
 10
2.241245
 20
7.423871
 30
0.000000
  0
VERTEX
  8
LAYER-1
 10
2.241245
 20
7.423871
 30
0.000000
  0
VERTEX
  8
LAYER-1
 10
2.241245
 20
0.357080
 30
0.000000
  0
SEQEND
  8
LAYER-1
  0
POLYLINE
  8
LAYER-1
 66
  1
 70
  0
 62
  0
 10
2.181207
 20
7.423871
 30
0.000000
  0
VERTEX
  8
LAYER-1
 10
2.181207
 20
7.423871
 30
0.000000
  0
VERTEX
  8
LAYER-1
 10
2.181207
 20
0.357080
 30
0.000000
  0
SEQEND
  8
LAYER-1
  0
POLYLINE
  8
LAYER-1
 66
  1
 70
  0
 62
  0
 10
2.216803
 20
7.423871
 30
0.000000
  0
VERTEX
  8
LAYER-1
 10
2.216803
 20
7.423871
 30
0.000000
  0
VERTEX
  8
LAYER-1
 10
2.216803
 20
0.357080
 30
0.000000
  0
SEQEND
  8
LAYER-1
  0
POLYLINE
  8
LAYER-1
 66
  1
 70
  1
 62
  0
  0
VERTEX
  8
LAYER-1
 10
2.170824
 20
0.357156
 30
0.000000
  0
VERTEX
  8
LAYER-1
 10
2.225700
 20
0.357156
 30
0.000000
  0
VERTEX
  8
LAYER-1
 10
2.225700
 20
0.351296
 30
0.000000
  0
VERTEX
  8
LAYER-1
 10
2.170824
 20
0.351296
 30
0.000000
  0
SEQEND
  8
LAYER-1
  0
POLYLINE
  8
LAYER-1
 66
  1
 70
  0
 62
  0
 10
2.216803
 20
0.430398
 30
0.000000
  0
VERTEX
  8
LAYER-1
 10
2.216803
 20
0.430398
 30
0.000000
  0
VERTEX
  8
LAYER-1
 10
2.181207
 20
0.430398
 30
0.000000
  0
SEQEND
  8
LAYER-1
  0
POLYLINE
  8
LAYER-1
 66
  1
 70
  0
 62
  0
 10
2.216803
 20
0.559304
 30
0.000000
  0
VERTEX
  8
LAYER-1
 10
2.216803
 20
0.559304
 30
0.000000
  0
VERTEX
  8
LAYER-1
 10
2.181207
 20
0.559304
 30
0.000000
  0
SEQEND
  8
LAYER-1
  0
POLYLINE
  8
LAYER-1
 66
  1
 70
  0
 62
  0
 10
2.181207
 20
0.634288
 30
0.000000
  0
VERTEX
  8
LAYER-1
 10
2.181207
 20
0.634288
 30
0.000000
  0
VERTEX
  8
LAYER-1
 10
2.216803
 20
0.634288
 30
0.000000
  0
SEQEND
  8
LAYER-1
  0
POLYLINE
  8
LAYER-1
 66
  1
 70
  0
 62
  0
 10
2.181207
 20
1.480968
 30
0.000000
  0
VERTEX
  8
LAYER-1
 10
2.181207
 20
1.480968
 30
0.000000
  0
VERTEX
  8
LAYER-1
 10
2.216803
 20
1.480968
 30
0.000000
  0
SEQEND
  8
LAYER-1
  0
POLYLINE
  8
LAYER-1
 66
  1
 70
  0
 62
  0
 10
2.181207
 20
2.318857
 30
0.000000
  0
VERTEX
  8
LAYER-1
 10
2.181207
 20
2.318857
 30
0.000000
  0
VERTEX
  8
LAYER-1
 10
2.216803
 20
2.318857
 30
0.000000
  0
SEQEND
  8
LAYER-1
  0
POLYLINE
  8
LAYER-1
 66
  1
 70
  0
 62
  0
 10
2.181207
 20
3.168460
 30
0.000000
  0
VERTEX
  8
LAYER-1
 10
2.181207
 20
3.168460
 30
0.000000
  0
VERTEX
  8
LAYER-1
 10
2.216803
 20
3.168460
 30
0.000000
  0
SEQEND
  8
LAYER-1
  0
POLYLINE
  8
LAYER-1
 66
  1
 70
  0
 62
  0
 10
2.216803
 20
4.010746
 30
0.000000
  0
VERTEX
  8
LAYER-1
 10
2.216803
 20
4.010746
 30
0.000000
  0
VERTEX
  8
LAYER-1
 10
2.181207
 20
4.010746
 30
0.000000
  0
SEQEND
  8
LAYER-1
  0
POLYLINE
  8
LAYER-1
 66
  1
 70
  1
 62
  0
  0
VERTEX
  8
LAYER-1
 10
1.831183
 20
3.949100
 30
0.000000
  0
VERTEX
  8
LAYER-1
 10
2.155993
 20
3.949100
 30
0.000000
  0
VERTEX
  8
LAYER-1
 10
2.155993
 20
3.872929
 30
0.000000
  0
VERTEX
  8
LAYER-1
 10
1.831183
 20
3.872929
 30
0.000000
  0
SEQEND
  8
LAYER-1
  0
POLYLINE
  8
LAYER-1
 66
  1
 70
  1
 62
  0
  0
VERTEX
  8
LAYER-1
 10
2.241245
 20
3.949100
 30
0.000000
  0
VERTEX
  8
LAYER-1
 10
2.566055
 20
3.949100
 30
0.000000
  0
VERTEX
  8
LAYER-1
 10
2.566055
 20
3.872929
 30
0.000000
  0
VERTEX
  8
LAYER-1
 10
2.241245
 20
3.872929
 30
0.000000
  0
SEQEND
  8
LAYER-1
  0
POLYLINE
  8
LAYER-1
 66
  1
 70
  1
 62
  0
  0
VERTEX
  8
LAYER-1
 10
2.651307
 20
3.949100
 30
0.000000
  0
VERTEX
  8
LAYER-1
 10
2.976113
 20
3.949100
 30
0.000000
  0
VERTEX
  8
LAYER-1
 10
2.976113
 20
3.872929
 30
0.000000
  0
VERTEX
  8
LAYER-1
 10
2.651307
 20
3.872929
 30
0.000000
  0
SEQEND
  8
LAYER-1
  0
POLYLINE
  8
LAYER-1
 66
  1
 70
  1
 62
  0
  0
VERTEX
  8
LAYER-1
 10
3.061367
 20
3.949100
 30
0.000000
  0
VERTEX
  8
LAYER-1
 10
3.386175
 20
3.949100
 30
0.000000
  0
VERTEX
  8
LAYER-1
 10
3.386175
 20
3.872929
 30
0.000000
  0
VERTEX
  8
LAYER-1
 10
3.061367
 20
3.872929
 30
0.000000
  0
SEQEND
  8
LAYER-1
  0
POLYLINE
  8
LAYER-1
 66
  1
 70
  1
 62
  0
  0
VERTEX
  8
LAYER-1
 10
5.379884
 20
3.949100
 30
0.000000
  0
VERTEX
  8
LAYER-1
 10
5.704693
 20
3.949100
 30
0.000000
  0
VERTEX
  8
LAYER-1
 10
5.704693
 20
3.872929
 30
0.000000
  0
VERTEX
  8
LAYER-1
 10
5.379884
 20
3.872929
 30
0.000000
  0
SEQEND
  8
LAYER-1
  0
POLYLINE
  8
LAYER-1
 66
  1
 70
  1
 62
  0
  0
VERTEX
  8
LAYER-1
 10
4.969822
 20
3.949100
 30
0.000000
  0
VERTEX
  8
LAYER-1
 10
5.294631
 20
3.949100
 30
0.000000
  0
VERTEX
  8
LAYER-1
 10
5.294631
 20
3.872929
 30
0.000000
  0
VERTEX
  8
LAYER-1
 10
4.969822
 20
3.872929
 30
0.000000
  0
SEQEND
  8
LAYER-1
  0
POLYLINE
  8
LAYER-1
 66
  1
 70
  1
 62
  0
  0
VERTEX
  8
LAYER-1
 10
4.559760
 20
3.949100
 30
0.000000
  0
VERTEX
  8
LAYER-1
 10
4.884569
 20
3.949100
 30
0.000000
  0
VERTEX
  8
LAYER-1
 10
4.884569
 20
3.872929
 30
0.000000
  0
VERTEX
  8
LAYER-1
 10
4.559760
 20
3.872929
 30
0.000000
  0
SEQEND
  8
LAYER-1
  0
POLYLINE
  8
LAYER-1
 66
  1
 70
  1
 62
  0
  0
VERTEX
  8
LAYER-1
 10
4.149698
 20
3.949100
 30
0.000000
  0
VERTEX
  8
LAYER-1
 10
4.474506
 20
3.949100
 30
0.000000
  0
VERTEX
  8
LAYER-1
 10
4.474506
 20
3.872929
 30
0.000000
  0
VERTEX
  8
LAYER-1
 10
4.149698
 20
3.872929
 30
0.000000
  0
SEQEND
  8
LAYER-1
  0
POLYLINE
  8
LAYER-1
 66
  1
 70
  1
 62
  0
  0
VERTEX
  8
LAYER-1
 10
1.831123
 20
7.136246
 30
0.000000
  0
VERTEX
  8
LAYER-1
 10
2.155809
 20
7.136246
 30
0.000000
  0
VERTEX
  8
LAYER-1
 10
2.155809
 20
3.968114
 30
0.000000
  0
VERTEX
  8
LAYER-1
 10
1.831123
 20
3.968114
 30
0.000000
  0
SEQEND
  8
LAYER-1
  0
POLYLINE
  8
LAYER-1
 66
  1
 70
  1
 62
  0
  0
VERTEX
  8
LAYER-1
 10
2.241280
 20
7.136246
 30
0.000000
  0
VERTEX
  8
LAYER-1
 10
2.565872
 20
7.136246
 30
0.000000
  0
VERTEX
  8
LAYER-1
 10
2.565872
 20
3.967680
 30
0.000000
  0
VERTEX
  8
LAYER-1
 10
2.241280
 20
3.967680
 30
0.000000
  0
SEQEND
  8
LAYER-1
  0
POLYLINE
  8
LAYER-1
 66
  1
 70
  1
 62
  0
  0
VERTEX
  8
LAYER-1
 10
2.651436
 20
7.136246
 30
0.000000
  0
VERTEX
  8
LAYER-1
 10
2.975930
 20
7.136246
 30
0.000000
  0
VERTEX
  8
LAYER-1
 10
2.975930
 20
3.968114
 30
0.000000
  0
VERTEX
  8
LAYER-1
 10
2.651436
 20
3.968114
 30
0.000000
  0
SEQEND
  8
LAYER-1
  0
POLYLINE
  8
LAYER-1
 66
  1
 70
  1
 62
  0
  0
VERTEX
  8
LAYER-1
 10
3.061158
 20
7.136246
 30
0.000000
  0
VERTEX
  8
LAYER-1
 10
3.385992
 20
7.136246
 30
0.000000
  0
VERTEX
  8
LAYER-1
 10
3.385992
 20
3.968114
 30
0.000000
  0
VERTEX
  8
LAYER-1
 10
3.061158
 20
3.968114
 30
0.000000
  0
SEQEND
  8
LAYER-1
  0
POLYLINE
  8
LAYER-1
 66
  1
 70
  1
 62
  0
  0
VERTEX
  8
LAYER-1
 10
5.380067
 20
7.136245
 30
0.000000
  0
VERTEX
  8
LAYER-1
 10
5.704259
 20
7.136245
 30
0.000000
  0
VERTEX
  8
LAYER-1
 10
5.704259
 20
3.967936
 30
0.000000
  0
VERTEX
  8
LAYER-1
 10
5.380067
 20
3.967936
 30
0.000000
  0
SEQEND
  8
LAYER-1
  0
POLYLINE
  8
LAYER-1
 66
  1
 70
  1
 62
  0
  0
VERTEX
  8
LAYER-1
 10
4.970005
 20
7.136245
 30
0.000000
  0
VERTEX
  8
LAYER-1
 10
5.294196
 20
7.136245
 30
0.000000
  0
VERTEX
  8
LAYER-1
 10
5.294196
 20
3.967936
 30
0.000000
  0
VERTEX
  8
LAYER-1
 10
4.970005
 20
3.967936
 30
0.000000
  0
SEQEND
  8
LAYER-1
  0
POLYLINE
  8
LAYER-1
 66
  1
 70
  1
 62
  0
  0
VERTEX
  8
LAYER-1
 10
4.559942
 20
7.136245
 30
0.000000
  0
VERTEX
  8
LAYER-1
 10
4.884134
 20
7.136245
 30
0.000000
  0
VERTEX
  8
LAYER-1
 10
4.884134
 20
3.967936
 30
0.000000
  0
VERTEX
  8
LAYER-1
 10
4.559942
 20
3.967936
 30
0.000000
  0
SEQEND
  8
LAYER-1
  0
POLYLINE
  8
LAYER-1
 66
  1
 70
  1
 62
  0
  0
VERTEX
  8
LAYER-1
 10
4.149881
 20
7.136245
 30
0.000000
  0
VERTEX
  8
LAYER-1
 10
4.474072
 20
7.136245
 30
0.000000
  0
VERTEX
  8
LAYER-1
 10
4.474072
 20
3.967936
 30
0.000000
  0
VERTEX
  8
LAYER-1
 10
4.149881
 20
3.967936
 30
0.000000
  0
SEQEND
  8
LAYER-1
  0
POLYLINE
  8
LAYER-1
 66
  1
 70
  1
 62
  0
  0
VERTEX
  8
LAYER-1
 10
1.831183
 20
3.854994
 30
0.000000
  0
VERTEX
  8
LAYER-1
 10
2.155809
 20
3.854994
 30
0.000000
  0
VERTEX
  8
LAYER-1
 10
2.155809
 20
0.687970
 30
0.000000
  0
VERTEX
  8
LAYER-1
 10
1.831183
 20
0.687970
 30
0.000000
  0
SEQEND
  8
LAYER-1
  0
POLYLINE
  8
LAYER-1
 66
  1
 70
  1
 62
  0
  0
VERTEX
  8
LAYER-1
 10
2.241183
 20
3.854994
 30
0.000000
  0
VERTEX
  8
LAYER-1
 10
2.565809
 20
3.854994
 30
0.000000
  0
VERTEX
  8
LAYER-1
 10
2.565809
 20
0.687970
 30
0.000000
  0
VERTEX
  8
LAYER-1
 10
2.241183
 20
0.687970
 30
0.000000
  0
SEQEND
  8
LAYER-1
  0
POLYLINE
  8
LAYER-1
 66
  1
 70
  1
 62
  0
  0
VERTEX
  8
LAYER-1
 10
2.651183
 20
3.854994
 30
0.000000
  0
VERTEX
  8
LAYER-1
 10
2.975810
 20
3.854994
 30
0.000000
  0
VERTEX
  8
LAYER-1
 10
2.975810
 20
0.688405
 30
0.000000
  0
VERTEX
  8
LAYER-1
 10
2.651183
 20
0.688405
 30
0.000000
  0
SEQEND
  8
LAYER-1
  0
POLYLINE
  8
LAYER-1
 66
  1
 70
  1
 62
  0
  0
VERTEX
  8
LAYER-1
 10
3.061183
 20
3.854994
 30
0.000000
  0
VERTEX
  8
LAYER-1
 10
3.385810
 20
3.854994
 30
0.000000
  0
VERTEX
  8
LAYER-1
 10
3.385810
 20
0.687970
 30
0.000000
  0
VERTEX
  8
LAYER-1
 10
3.061183
 20
0.687970
 30
0.000000
  0
SEQEND
  8
LAYER-1
  0
LINE
  8
LAYER-1
 62
  0
 10
1.904080
 20
4.307436
 30
0.000000
 11
2.040170
 21
4.545171
 31
0.000000
  0
LINE
  8
LAYER-1
 62
  0
 10
1.960715
 20
4.275016
 30
0.000000
 11
2.096805
 21
4.512750
 31
0.000000
  0
LINE
  8
LAYER-1
 62
  0
 10
2.314142
 20
4.307436
 30
0.000000
 11
2.450232
 21
4.545171
 31
0.000000
  0
LINE
  8
LAYER-1
 62
  0
 10
2.370777
 20
4.275016
 30
0.000000
 11
2.506868
 21
4.512750
 31
0.000000
  0
LINE
  8
LAYER-1
 62
  0
 10
2.724206
 20
4.307436
 30
0.000000
 11
2.860291
 21
4.545171
 31
0.000000
  0
LINE
  8
LAYER-1
 62
  0
 10
2.780841
 20
4.275016
 30
0.000000
 11
2.916927
 21
4.512751
 31
0.000000
  0
LINE
  8
LAYER-1
 62
  0
 10
3.134265
 20
4.307436
 30
0.000000
 11
3.270352
 21
4.545171
 31
0.000000
  0
LINE
  8
LAYER-1
 62
  0
 10
3.190901
 20
4.275016
 30
0.000000
 11
3.326988
 21
4.512751
 31
0.000000
  0
LINE
  8
LAYER-1
 62
  0
 10
1.902235
 20
3.277610
 30
0.000000
 11
2.038326
 21
3.515347
 31
0.000000
  0
LINE
  8
LAYER-1
 62
  0
 10
1.958871
 20
3.245189
 30
0.000000
 11
2.094961
 21
3.482926
 31
0.000000
  0
LINE
  8
LAYER-1
 62
  0
 10
2.312298
 20
3.277610
 30
0.000000
 11
2.448387
 21
3.515347
 31
0.000000
  0
LINE
  8
LAYER-1
 62
  0
 10
2.368933
 20
3.245189
 30
0.000000
 11
2.505023
 21
3.482926
 31
0.000000
  0
LINE
  8
LAYER-1
 62
  0
 10
2.722360
 20
3.277610
 30
0.000000
 11
2.858447
 21
3.515346
 31
0.000000
  0
LINE
  8
LAYER-1
 62
  0
 10
2.778996
 20
3.245190
 30
0.000000
 11
2.915083
 21
3.482926
 31
0.000000
  0
LINE
  8
LAYER-1
 62
  0
 10
3.132419
 20
3.277610
 30
0.000000
 11
3.268508
 21
3.515347
 31
0.000000
  0
LINE
  8
LAYER-1
 62
  0
 10
3.189055
 20
3.245189
 30
0.000000
 11
3.325144
 21
3.482926
 31
0.000000
  0
LINE
  8
LAYER-1
 62
  0
 10
1.903720
 20
6.694551
 30
0.000000
 11
2.039808
 21
6.932286
 31
0.000000
  0
LINE
  8
LAYER-1
 62
  0
 10
1.960356
 20
6.662131
 30
0.000000
 11
2.096444
 21
6.899865
 31
0.000000
  0
LINE
  8
LAYER-1
 62
  0
 10
2.313782
 20
6.694551
 30
0.000000
 11
2.449871
 21
6.932286
 31
0.000000
  0
LINE
  8
LAYER-1
 62
  0
 10
2.370418
 20
6.662131
 30
0.000000
 11
2.506506
 21
6.899865
 31
0.000000
  0
LINE
  8
LAYER-1
 62
  0
 10
2.723844
 20
6.694551
 30
0.000000
 11
2.859930
 21
6.932286
 31
0.000000
  0
LINE
  8
LAYER-1
 62
  0
 10
2.780480
 20
6.662131
 30
0.000000
 11
2.916566
 21
6.899866
 31
0.000000
  0
LINE
  8
LAYER-1
 62
  0
 10
3.133904
 20
6.694551
 30
0.000000
 11
3.269991
 21
6.932286
 31
0.000000
  0
LINE
  8
LAYER-1
 62
  0
 10
3.190539
 20
6.662131
 30
0.000000
 11
3.326626
 21
6.899865
 31
0.000000
  0
LINE
  8
LAYER-1
 62
  0
 10
1.901876
 20
1.053762
 30
0.000000
 11
2.037964
 21
1.291496
 31
0.000000
  0
LINE
  8
LAYER-1
 62
  0
 10
1.958511
 20
1.021341
 30
0.000000
 11
2.094599
 21
1.259076
 31
0.000000
  0
LINE
  8
LAYER-1
 62
  0
 10
2.311938
 20
1.053762
 30
0.000000
 11
2.448026
 21
1.291496
 31
0.000000
  0
LINE
  8
LAYER-1
 62
  0
 10
2.368573
 20
1.021341
 30
0.000000
 11
2.504662
 21
1.259076
 31
0.000000
  0
LINE
  8
LAYER-1
 62
  0
 10
2.722000
 20
1.053762
 30
0.000000
 11
2.858087
 21
1.291496
 31
0.000000
  0
LINE
  8
LAYER-1
 62
  0
 10
2.778636
 20
1.021341
 30
0.000000
 11
2.914723
 21
1.259076
 31
0.000000
  0
LINE
  8
LAYER-1
 62
  0
 10
3.132060
 20
1.053762
 30
0.000000
 11
3.268149
 21
1.291496
 31
0.000000
  0
LINE
  8
LAYER-1
 62
  0
 10
3.188695
 20
1.021341
 30
0.000000
 11
3.324784
 21
1.259076
 31
0.000000
  0
POLYLINE
  8
LAYER-1
 66
  1
 70
  0
 62
  0
 10
2.565877
 20
7.423871
 30
0.000000
  0
VERTEX
  8
LAYER-1
 10
2.565877
 20
7.423871
 30
0.000000
  0
VERTEX
  8
LAYER-1
 10
2.565877
 20
0.357080
 30
0.000000
  0
SEQEND
  8
LAYER-1
  0
POLYLINE
  8
LAYER-1
 66
  1
 70
  0
 62
  0
 10
2.651307
 20
7.423871
 30
0.000000
  0
VERTEX
  8
LAYER-1
 10
2.651307
 20
7.423871
 30
0.000000
  0
VERTEX
  8
LAYER-1
 10
2.651307
 20
0.357080
 30
0.000000
  0
SEQEND
  8
LAYER-1
  0
POLYLINE
  8
LAYER-1
 66
  1
 70
  0
 62
  0
 10
2.975936
 20
7.423871
 30
0.000000
  0
VERTEX
  8
LAYER-1
 10
2.975936
 20
7.423871
 30
0.000000
  0
VERTEX
  8
LAYER-1
 10
2.975936
 20
0.357080
 30
0.000000
  0
SEQEND
  8
LAYER-1
  0
POLYLINE
  8
LAYER-1
 66
  1
 70
  0
 62
  0
 10
3.061367
 20
7.423871
 30
0.000000
  0
VERTEX
  8
LAYER-1
 10
3.061367
 20
7.423871
 30
0.000000
  0
VERTEX
  8
LAYER-1
 10
3.061367
 20
0.357080
 30
0.000000
  0
SEQEND
  8
LAYER-1
  0
POLYLINE
  8
LAYER-1
 66
  1
 70
  0
 62
  0
 10
3.385998
 20
7.423871
 30
0.000000
  0
VERTEX
  8
LAYER-1
 10
3.385998
 20
7.423871
 30
0.000000
  0
VERTEX
  8
LAYER-1
 10
3.385998
 20
0.357080
 30
0.000000
  0
SEQEND
  8
LAYER-1
  0
POLYLINE
  8
LAYER-1
 66
  1
 70
  0
 62
  0
 10
3.468579
 20
7.423871
 30
0.000000
  0
VERTEX
  8
LAYER-1
 10
3.468579
 20
7.423871
 30
0.000000
  0
VERTEX
  8
LAYER-1
 10
3.468579
 20
0.357080
 30
0.000000
  0
SEQEND
  8
LAYER-1
  0
POLYLINE
  8
LAYER-1
 66
  1
 70
  0
 62
  0
 10
1.795588
 20
7.423871
 30
0.000000
  0
VERTEX
  8
LAYER-1
 10
1.795588
 20
7.423871
 30
0.000000
  0
VERTEX
  8
LAYER-1
 10
1.795588
 20
0.357080
 30
0.000000
  0
SEQEND
  8
LAYER-1
  0
POLYLINE
  8
LAYER-1
 66
  1
 70
  0
 62
  0
 10
2.608355
 20
7.423871
 30
0.000000
  0
VERTEX
  8
LAYER-1
 10
2.608355
 20
7.423871
 30
0.000000
  0
VERTEX
  8
LAYER-1
 10
2.608355
 20
0.357080
 30
0.000000
  0
SEQEND
  8
LAYER-1
  0
POLYLINE
  8
LAYER-1
 66
  1
 70
  0
 62
  0
 10
2.999906
 20
7.423871
 30
0.000000
  0
VERTEX
  8
LAYER-1
 10
2.999906
 20
7.423871
 30
0.000000
  0
VERTEX
  8
LAYER-1
 10
2.999906
 20
0.357080
 30
0.000000
  0
SEQEND
  8
LAYER-1
  0
POLYLINE
  8
LAYER-1
 66
  1
 70
  0
 62
  0
 10
3.035500
 20
7.423871
 30
0.000000
  0
VERTEX
  8
LAYER-1
 10
3.035500
 20
7.423871
 30
0.000000
  0
VERTEX
  8
LAYER-1
 10
3.035500
 20
0.357080
 30
0.000000
  0
SEQEND
  8
LAYER-1
  0
POLYLINE
  8
LAYER-1
 66
  1
 70
  0
 62
  0
 10
3.427052
 20
7.423871
 30
0.000000
  0
VERTEX
  8
LAYER-1
 10
3.427052
 20
7.423871
 30
0.000000
  0
VERTEX
  8
LAYER-1
 10
3.427052
 20
0.357080
 30
0.000000
  0
SEQEND
  8
LAYER-1
  0
POLYLINE
  8
LAYER-1
 66
  1
 70
  1
 62
  0
  0
VERTEX
  8
LAYER-1
 10
2.988038
 20
0.357156
 30
0.000000
  0
VERTEX
  8
LAYER-1
 10
3.042915
 20
0.357156
 30
0.000000
  0
VERTEX
  8
LAYER-1
 10
3.042915
 20
0.351296
 30
0.000000
  0
VERTEX
  8
LAYER-1
 10
2.988038
 20
0.351296
 30
0.000000
  0
SEQEND
  8
LAYER-1
  0
POLYLINE
  8
LAYER-1
 66
  1
 70
  0
 62
  0
 10
3.035500
 20
0.430398
 30
0.000000
  0
VERTEX
  8
LAYER-1
 10
3.035500
 20
0.430398
 30
0.000000
  0
VERTEX
  8
LAYER-1
 10
2.999906
 20
0.430398
 30
0.000000
  0
SEQEND
  8
LAYER-1
  0
POLYLINE
  8
LAYER-1
 66
  1
 70
  0
 62
  0
 10
3.035500
 20
0.559304
 30
0.000000
  0
VERTEX
  8
LAYER-1
 10
3.035500
 20
0.559304
 30
0.000000
  0
VERTEX
  8
LAYER-1
 10
2.999906
 20
0.559304
 30
0.000000
  0
SEQEND
  8
LAYER-1
  0
POLYLINE
  8
LAYER-1
 66
  1
 70
  0
 62
  0
 10
2.999906
 20
0.634288
 30
0.000000
  0
VERTEX
  8
LAYER-1
 10
2.999906
 20
0.634288
 30
0.000000
  0
VERTEX
  8
LAYER-1
 10
3.035500
 20
0.634288
 30
0.000000
  0
SEQEND
  8
LAYER-1
  0
POLYLINE
  8
LAYER-1
 66
  1
 70
  0
 62
  0
 10
2.999906
 20
1.480968
 30
0.000000
  0
VERTEX
  8
LAYER-1
 10
2.999906
 20
1.480968
 30
0.000000
  0
VERTEX
  8
LAYER-1
 10
3.035500
 20
1.480968
 30
0.000000
  0
SEQEND
  8
LAYER-1
  0
POLYLINE
  8
LAYER-1
 66
  1
 70
  0
 62
  0
 10
2.999906
 20
2.318857
 30
0.000000
  0
VERTEX
  8
LAYER-1
 10
2.999906
 20
2.318857
 30
0.000000
  0
VERTEX
  8
LAYER-1
 10
3.035500
 20
2.318857
 30
0.000000
  0
SEQEND
  8
LAYER-1
  0
POLYLINE
  8
LAYER-1
 66
  1
 70
  0
 62
  0
 10
2.999906
 20
3.168460
 30
0.000000
  0
VERTEX
  8
LAYER-1
 10
2.999906
 20
3.168460
 30
0.000000
  0
VERTEX
  8
LAYER-1
 10
3.035500
 20
3.168460
 30
0.000000
  0
SEQEND
  8
LAYER-1
  0
POLYLINE
  8
LAYER-1
 66
  1
 70
  0
 62
  0
 10
3.035500
 20
4.010746
 30
0.000000
  0
VERTEX
  8
LAYER-1
 10
3.035500
 20
4.010746
 30
0.000000
  0
VERTEX
  8
LAYER-1
 10
2.999906
 20
4.010746
 30
0.000000
  0
SEQEND
  8
LAYER-1
  0
POLYLINE
  8
LAYER-1
 66
  1
 70
  0
 62
  0
 10
2.181858
 20
4.861746
 30
0.000000
  0
VERTEX
  8
LAYER-1
 10
2.181858
 20
4.861746
 30
0.000000
  0
VERTEX
  8
LAYER-1
 10
2.217455
 20
4.861746
 30
0.000000
  0
SEQEND
  8
LAYER-1
  0
POLYLINE
  8
LAYER-1
 66
  1
 70
  0
 62
  0
 10
2.181858
 20
5.705495
 30
0.000000
  0
VERTEX
  8
LAYER-1
 10
2.181858
 20
5.705495
 30
0.000000
  0
VERTEX
  8
LAYER-1
 10
2.217455
 20
5.705495
 30
0.000000
  0
SEQEND
  8
LAYER-1
  0
POLYLINE
  8
LAYER-1
 66
  1
 70
  0
 62
  0
 10
2.181858
 20
6.550714
 30
0.000000
  0
VERTEX
  8
LAYER-1
 10
2.181858
 20
6.550714
 30
0.000000
  0
VERTEX
  8
LAYER-1
 10
2.217455
 20
6.550714
 30
0.000000
  0
SEQEND
  8
LAYER-1
  0
POLYLINE
  8
LAYER-1
 66
  1
 70
  0
 62
  0
 10
2.999729
 20
6.550714
 30
0.000000
  0
VERTEX
  8
LAYER-1
 10
2.999729
 20
6.550714
 30
0.000000
  0
VERTEX
  8
LAYER-1
 10
3.035323
 20
6.550714
 30
0.000000
  0
SEQEND
  8
LAYER-1
  0
POLYLINE
  8
LAYER-1
 66
  1
 70
  0
 62
  0
 10
3.647862
 20
6.550638
 30
0.000000
  0
VERTEX
  8
LAYER-1
 10
3.647862
 20
6.550638
 30
0.000000
  0
VERTEX
  8
LAYER-1
 10
3.683457
 20
6.550638
 30
0.000000
  0
SEQEND
  8
LAYER-1
  0
POLYLINE
  8
LAYER-1
 66
  1
 70
  0
 62
  0
 10
5.354019
 20
6.550714
 30
0.000000
  0
VERTEX
  8
LAYER-1
 10
5.354019
 20
6.550714
 30
0.000000
  0
VERTEX
  8
LAYER-1
 10
5.318424
 20
6.550714
 30
0.000000
  0
SEQEND
  8
LAYER-1
  0
POLYLINE
  8
LAYER-1
 66
  1
 70
  0
 62
  0
 10
4.536144
 20
6.550714
 30
0.000000
  0
VERTEX
  8
LAYER-1
 10
4.536144
 20
6.550714
 30
0.000000
  0
VERTEX
  8
LAYER-1
 10
4.500553
 20
6.550714
 30
0.000000
  0
SEQEND
  8
LAYER-1
  0
POLYLINE
  8
LAYER-1
 66
  1
 70
  0
 62
  0
 10
3.888006
 20
6.550638
 30
0.000000
  0
VERTEX
  8
LAYER-1
 10
3.888006
 20
6.550638
 30
0.000000
  0
VERTEX
  8
LAYER-1
 10
3.852414
 20
6.550638
 30
0.000000
  0
SEQEND
  8
LAYER-1
  0
POLYLINE
  8
LAYER-1
 66
  1
 70
  0
 62
  0
 10
2.999729
 20
4.861746
 30
0.000000
  0
VERTEX
  8
LAYER-1
 10
2.999729
 20
4.861746
 30
0.000000
  0
VERTEX
  8
LAYER-1
 10
3.035323
 20
4.861746
 30
0.000000
  0
SEQEND
  8
LAYER-1
  0
POLYLINE
  8
LAYER-1
 66
  1
 70
  0
 62
  0
 10
2.999729
 20
5.705495
 30
0.000000
  0
VERTEX
  8
LAYER-1
 10
2.999729
 20
5.705495
 30
0.000000
  0
VERTEX
  8
LAYER-1
 10
3.035323
 20
5.705495
 30
0.000000
  0
SEQEND
  8
LAYER-1
  0
POLYLINE
  8
LAYER-1
 66
  1
 70
  1
 62
  0
  0
VERTEX
  8
LAYER-1
 10
3.637657
 20
7.429730
 30
0.000000
  0
VERTEX
  8
LAYER-1
 10
3.692534
 20
7.429730
 30
0.000000
  0
VERTEX
  8
LAYER-1
 10
3.692534
 20
7.423870
 30
0.000000
  0
VERTEX
  8
LAYER-1
 10
3.637657
 20
7.423870
 30
0.000000
  0
SEQEND
  8
LAYER-1
  0
POLYLINE
  8
LAYER-1
 66
  1
 70
  0
 62
  0
 10
3.648040
 20
7.356487
 30
0.000000
  0
VERTEX
  8
LAYER-1
 10
3.648040
 20
7.356487
 30
0.000000
  0
VERTEX
  8
LAYER-1
 10
3.683634
 20
7.356487
 30
0.000000
  0
SEQEND
  8
LAYER-1
  0
POLYLINE
  8
LAYER-1
 66
  1
 70
  0
 62
  0
 10
3.648040
 20
7.227580
 30
0.000000
  0
VERTEX
  8
LAYER-1
 10
3.648040
 20
7.227580
 30
0.000000
  0
VERTEX
  8
LAYER-1
 10
3.683634
 20
7.227580
 30
0.000000
  0
SEQEND
  8
LAYER-1
  0
POLYLINE
  8
LAYER-1
 66
  1
 70
  0
 62
  0
 10
3.648040
 20
7.423795
 30
0.000000
  0
VERTEX
  8
LAYER-1
 10
3.648040
 20
7.423795
 30
0.000000
  0
VERTEX
  8
LAYER-1
 10
3.648040
 20
0.357080
 30
0.000000
  0
SEQEND
  8
LAYER-1
  0
POLYLINE
  8
LAYER-1
 66
  1
 70
  0
 62
  0
 10
3.683634
 20
0.430321
 30
0.000000
  0
VERTEX
  8
LAYER-1
 10
3.683634
 20
0.430321
 30
0.000000
  0
VERTEX
  8
LAYER-1
 10
3.648040
 20
0.430321
 30
0.000000
  0
SEQEND
  8
LAYER-1
  0
POLYLINE
  8
LAYER-1
 66
  1
 70
  0
 62
  0
 10
3.683634
 20
0.559227
 30
0.000000
  0
VERTEX
  8
LAYER-1
 10
3.683634
 20
0.559227
 30
0.000000
  0
VERTEX
  8
LAYER-1
 10
3.648040
 20
0.559227
 30
0.000000
  0
SEQEND
  8
LAYER-1
  0
POLYLINE
  8
LAYER-1
 66
  1
 70
  0
 62
  0
 10
3.648040
 20
0.634210
 30
0.000000
  0
VERTEX
  8
LAYER-1
 10
3.648040
 20
0.634210
 30
0.000000
  0
VERTEX
  8
LAYER-1
 10
3.683636
 20
0.634210
 30
0.000000
  0
SEQEND
  8
LAYER-1
  0
POLYLINE
  8
LAYER-1
 66
  1
 70
  0
 62
  0
 10
3.648040
 20
1.480892
 30
0.000000
  0
VERTEX
  8
LAYER-1
 10
3.648040
 20
1.480892
 30
0.000000
  0
VERTEX
  8
LAYER-1
 10
3.683636
 20
1.480892
 30
0.000000
  0
SEQEND
  8
LAYER-1
  0
POLYLINE
  8
LAYER-1
 66
  1
 70
  0
 62
  0
 10
3.648040
 20
2.318780
 30
0.000000
  0
VERTEX
  8
LAYER-1
 10
3.648040
 20
2.318780
 30
0.000000
  0
VERTEX
  8
LAYER-1
 10
3.683636
 20
2.318780
 30
0.000000
  0
SEQEND
  8
LAYER-1
  0
POLYLINE
  8
LAYER-1
 66
  1
 70
  0
 62
  0
 10
3.648040
 20
3.168384
 30
0.000000
  0
VERTEX
  8
LAYER-1
 10
3.648040
 20
3.168384
 30
0.000000
  0
VERTEX
  8
LAYER-1
 10
3.683636
 20
3.168384
 30
0.000000
  0
SEQEND
  8
LAYER-1
  0
POLYLINE
  8
LAYER-1
 66
  1
 70
  0
 62
  0
 10
3.683636
 20
4.010669
 30
0.000000
  0
VERTEX
  8
LAYER-1
 10
3.683636
 20
4.010669
 30
0.000000
  0
VERTEX
  8
LAYER-1
 10
3.648040
 20
4.010669
 30
0.000000
  0
SEQEND
  8
LAYER-1
  0
POLYLINE
  8
LAYER-1
 66
  1
 70
  0
 62
  0
 10
3.647862
 20
4.861670
 30
0.000000
  0
VERTEX
  8
LAYER-1
 10
3.647862
 20
4.861670
 30
0.000000
  0
VERTEX
  8
LAYER-1
 10
3.683457
 20
4.861670
 30
0.000000
  0
SEQEND
  8
LAYER-1
  0
POLYLINE
  8
LAYER-1
 66
  1
 70
  0
 62
  0
 10
3.647862
 20
5.705419
 30
0.000000
  0
VERTEX
  8
LAYER-1
 10
3.647862
 20
5.705419
 30
0.000000
  0
VERTEX
  8
LAYER-1
 10
3.683457
 20
5.705419
 30
0.000000
  0
SEQEND
  8
LAYER-1
  0
POLYLINE
  8
LAYER-1
 66
  1
 70
  1
 62
  0
  0
VERTEX
  8
LAYER-1
 10
3.636176
 20
0.357080
 30
0.000000
  0
VERTEX
  8
LAYER-1
 10
3.691051
 20
0.357080
 30
0.000000
  0
VERTEX
  8
LAYER-1
 10
3.691051
 20
0.351221
 30
0.000000
  0
VERTEX
  8
LAYER-1
 10
3.636176
 20
0.351221
 30
0.000000
  0
SEQEND
  8
LAYER-1
  0
POLYLINE
  8
LAYER-1
 66
  1
 70
  1
 62
  0
  0
VERTEX
  8
LAYER-1
 10
3.682567
 20
7.423871
 30
0.000000
  0
VERTEX
  8
LAYER-1
 10
3.852240
 20
7.423871
 30
0.000000
  0
VERTEX
  8
LAYER-1
 10
3.852240
 20
0.356888
 30
0.000000
  0
VERTEX
  8
LAYER-1
 10
3.682567
 20
0.356888
 30
0.000000
  0
SEQEND
  8
LAYER-1
  0
POLYLINE
  8
LAYER-1
 66
  1
 70
  1
 62
  0
  0
VERTEX
  8
LAYER-1
 10
5.380062
 20
7.423871
 30
0.000000
  0
VERTEX
  8
LAYER-1
 10
5.704693
 20
7.423871
 30
0.000000
  0
VERTEX
  8
LAYER-1
 10
5.704693
 20
7.153871
 30
0.000000
  0
VERTEX
  8
LAYER-1
 10
5.380062
 20
7.153871
 30
0.000000
  0
SEQEND
  8
LAYER-1
  0
POLYLINE
  8
LAYER-1
 66
  1
 70
  1
 62
  0
  0
VERTEX
  8
LAYER-1
 10
4.969999
 20
7.423871
 30
0.000000
  0
VERTEX
  8
LAYER-1
 10
5.294631
 20
7.423871
 30
0.000000
  0
VERTEX
  8
LAYER-1
 10
5.294631
 20
7.153871
 30
0.000000
  0
VERTEX
  8
LAYER-1
 10
4.969999
 20
7.153871
 30
0.000000
  0
SEQEND
  8
LAYER-1
  0
POLYLINE
  8
LAYER-1
 66
  1
 70
  1
 62
  0
  0
VERTEX
  8
LAYER-1
 10
4.559937
 20
7.423871
 30
0.000000
  0
VERTEX
  8
LAYER-1
 10
4.884569
 20
7.423871
 30
0.000000
  0
VERTEX
  8
LAYER-1
 10
4.884569
 20
7.153871
 30
0.000000
  0
VERTEX
  8
LAYER-1
 10
4.559937
 20
7.153871
 30
0.000000
  0
SEQEND
  8
LAYER-1
  0
POLYLINE
  8
LAYER-1
 66
  1
 70
  1
 62
  0
  0
VERTEX
  8
LAYER-1
 10
4.149875
 20
7.423871
 30
0.000000
  0
VERTEX
  8
LAYER-1
 10
4.474506
 20
7.423871
 30
0.000000
  0
VERTEX
  8
LAYER-1
 10
4.474506
 20
7.153871
 30
0.000000
  0
VERTEX
  8
LAYER-1
 10
4.149875
 20
7.153871
 30
0.000000
  0
SEQEND
  8
LAYER-1
  0
POLYLINE
  8
LAYER-1
 66
  1
 70
  0
 62
  0
 10
4.737678
 20
7.423945
 30
0.000000
  0
VERTEX
  8
LAYER-1
 10
4.737678
 20
7.423945
 30
0.000000
  0
VERTEX
  8
LAYER-1
 10
4.737678
 20
7.154415
 30
0.000000
  0
SEQEND
  8
LAYER-1
  0
POLYLINE
  8
LAYER-1
 66
  1
 70
  0
 62
  0
 10
4.700601
 20
7.423945
 30
0.000000
  0
VERTEX
  8
LAYER-1
 10
4.700601
 20
7.423945
 30
0.000000
  0
VERTEX
  8
LAYER-1
 10
4.700601
 20
7.154415
 30
0.000000
  0
SEQEND
  8
LAYER-1
  0
POLYLINE
  8
LAYER-1
 66
  1
 70
  0
 62
  0
 10
5.559345
 20
7.423945
 30
0.000000
  0
VERTEX
  8
LAYER-1
 10
5.559345
 20
7.423945
 30
0.000000
  0
VERTEX
  8
LAYER-1
 10
5.559345
 20
7.154415
 30
0.000000
  0
SEQEND
  8
LAYER-1
  0
POLYLINE
  8
LAYER-1
 66
  1
 70
  0
 62
  0
 10
5.520785
 20
7.423945
 30
0.000000
  0
VERTEX
  8
LAYER-1
 10
5.520785
 20
7.423945
 30
0.000000
  0
VERTEX
  8
LAYER-1
 10
5.520785
 20
7.154415
 30
0.000000
  0
SEQEND
  8
LAYER-1
  0
POLYLINE
  8
LAYER-1
 66
  1
 70
  1
 62
  0
  0
VERTEX
  8
LAYER-1
 10
5.308692
 20
7.429806
 30
0.000000
  0
VERTEX
  8
LAYER-1
 10
5.363567
 20
7.429806
 30
0.000000
  0
VERTEX
  8
LAYER-1
 10
5.363567
 20
7.423945
 30
0.000000
  0
VERTEX
  8
LAYER-1
 10
5.308692
 20
7.423945
 30
0.000000
  0
SEQEND
  8
LAYER-1
  0
POLYLINE
  8
LAYER-1
 66
  1
 70
  0
 62
  0
 10
5.354672
 20
7.356563
 30
0.000000
  0
VERTEX
  8
LAYER-1
 10
5.354672
 20
7.356563
 30
0.000000
  0
VERTEX
  8
LAYER-1
 10
5.319074
 20
7.356563
 30
0.000000
  0
SEQEND
  8
LAYER-1
  0
POLYLINE
  8
LAYER-1
 66
  1
 70
  0
 62
  0
 10
5.354672
 20
7.227658
 30
0.000000
  0
VERTEX
  8
LAYER-1
 10
5.354672
 20
7.227658
 30
0.000000
  0
VERTEX
  8
LAYER-1
 10
5.319074
 20
7.227658
 30
0.000000
  0
SEQEND
  8
LAYER-1
  0
POLYLINE
  8
LAYER-1
 66
  1
 70
  1
 62
  0
  0
VERTEX
  8
LAYER-1
 10
4.491474
 20
7.429806
 30
0.000000
  0
VERTEX
  8
LAYER-1
 10
4.546352
 20
7.429806
 30
0.000000
  0
VERTEX
  8
LAYER-1
 10
4.546352
 20
7.423945
 30
0.000000
  0
VERTEX
  8
LAYER-1
 10
4.491474
 20
7.423945
 30
0.000000
  0
SEQEND
  8
LAYER-1
  0
POLYLINE
  8
LAYER-1
 66
  1
 70
  0
 62
  0
 10
4.535967
 20
7.356563
 30
0.000000
  0
VERTEX
  8
LAYER-1
 10
4.535967
 20
7.356563
 30
0.000000
  0
VERTEX
  8
LAYER-1
 10
4.500376
 20
7.356563
 30
0.000000
  0
SEQEND
  8
LAYER-1
  0
POLYLINE
  8
LAYER-1
 66
  1
 70
  0
 62
  0
 10
4.535967
 20
7.227656
 30
0.000000
  0
VERTEX
  8
LAYER-1
 10
4.535967
 20
7.227656
 30
0.000000
  0
VERTEX
  8
LAYER-1
 10
4.500376
 20
7.227656
 30
0.000000
  0
SEQEND
  8
LAYER-1
  0
POLYLINE
  8
LAYER-1
 66
  1
 70
  0
 62
  0
 10
5.704693
 20
7.423871
 30
0.000000
  0
VERTEX
  8
LAYER-1
 10
5.704693
 20
7.423871
 30
0.000000
  0
VERTEX
  8
LAYER-1
 10
5.704693
 20
0.357080
 30
0.000000
  0
SEQEND
  8
LAYER-1
  0
POLYLINE
  8
LAYER-1
 66
  1
 70
  0
 62
  0
 10
5.380062
 20
7.423871
 30
0.000000
  0
VERTEX
  8
LAYER-1
 10
5.380062
 20
7.423871
 30
0.000000
  0
VERTEX
  8
LAYER-1
 10
5.380062
 20
0.357080
 30
0.000000
  0
SEQEND
  8
LAYER-1
  0
POLYLINE
  8
LAYER-1
 66
  1
 70
  0
 62
  0
 10
5.294631
 20
7.423871
 30
0.000000
  0
VERTEX
  8
LAYER-1
 10
5.294631
 20
7.423871
 30
0.000000
  0
VERTEX
  8
LAYER-1
 10
5.294631
 20
0.357080
 30
0.000000
  0
SEQEND
  8
LAYER-1
  0
POLYLINE
  8
LAYER-1
 66
  1
 70
  0
 62
  0
 10
5.354672
 20
7.423871
 30
0.000000
  0
VERTEX
  8
LAYER-1
 10
5.354672
 20
7.423871
 30
0.000000
  0
VERTEX
  8
LAYER-1
 10
5.354672
 20
0.357080
 30
0.000000
  0
SEQEND
  8
LAYER-1
  0
POLYLINE
  8
LAYER-1
 66
  1
 70
  0
 62
  0
 10
5.319074
 20
7.423871
 30
0.000000
  0
VERTEX
  8
LAYER-1
 10
5.319074
 20
7.423871
 30
0.000000
  0
VERTEX
  8
LAYER-1
 10
5.319074
 20
0.357080
 30
0.000000
  0
SEQEND
  8
LAYER-1
  0
POLYLINE
  8
LAYER-1
 66
  1
 70
  1
 62
  0
  0
VERTEX
  8
LAYER-1
 10
5.310176
 20
0.357156
 30
0.000000
  0
VERTEX
  8
LAYER-1
 10
5.365052
 20
0.357156
 30
0.000000
  0
VERTEX
  8
LAYER-1
 10
5.365052
 20
0.351296
 30
0.000000
  0
VERTEX
  8
LAYER-1
 10
5.310176
 20
0.351296
 30
0.000000
  0
SEQEND
  8
LAYER-1
  0
POLYLINE
  8
LAYER-1
 66
  1
 70
  0
 62
  0
 10
5.319074
 20
0.430398
 30
0.000000
  0
VERTEX
  8
LAYER-1
 10
5.319074
 20
0.430398
 30
0.000000
  0
VERTEX
  8
LAYER-1
 10
5.354672
 20
0.430398
 30
0.000000
  0
SEQEND
  8
LAYER-1
  0
POLYLINE
  8
LAYER-1
 66
  1
 70
  0
 62
  0
 10
5.319074
 20
0.559304
 30
0.000000
  0
VERTEX
  8
LAYER-1
 10
5.319074
 20
0.559304
 30
0.000000
  0
VERTEX
  8
LAYER-1
 10
5.354672
 20
0.559304
 30
0.000000
  0
SEQEND
  8
LAYER-1
  0
POLYLINE
  8
LAYER-1
 66
  1
 70
  0
 62
  0
 10
5.354672
 20
0.634288
 30
0.000000
  0
VERTEX
  8
LAYER-1
 10
5.354672
 20
0.634288
 30
0.000000
  0
VERTEX
  8
LAYER-1
 10
5.319074
 20
0.634288
 30
0.000000
  0
SEQEND
  8
LAYER-1
  0
POLYLINE
  8
LAYER-1
 66
  1
 70
  0
 62
  0
 10
5.354672
 20
1.480968
 30
0.000000
  0
VERTEX
  8
LAYER-1
 10
5.354672
 20
1.480968
 30
0.000000
  0
VERTEX
  8
LAYER-1
 10
5.319074
 20
1.480968
 30
0.000000
  0
SEQEND
  8
LAYER-1
  0
POLYLINE
  8
LAYER-1
 66
  1
 70
  0
 62
  0
 10
5.354672
 20
2.318857
 30
0.000000
  0
VERTEX
  8
LAYER-1
 10
5.354672
 20
2.318857
 30
0.000000
  0
VERTEX
  8
LAYER-1
 10
5.319074
 20
2.318857
 30
0.000000
  0
SEQEND
  8
LAYER-1
  0
POLYLINE
  8
LAYER-1
 66
  1
 70
  0
 62
  0
 10
5.354672
 20
3.168460
 30
0.000000
  0
VERTEX
  8
LAYER-1
 10
5.354672
 20
3.168460
 30
0.000000
  0
VERTEX
  8
LAYER-1
 10
5.319074
 20
3.168460
 30
0.000000
  0
SEQEND
  8
LAYER-1
  0
POLYLINE
  8
LAYER-1
 66
  1
 70
  0
 62
  0
 10
5.319074
 20
4.010746
 30
0.000000
  0
VERTEX
  8
LAYER-1
 10
5.319074
 20
4.010746
 30
0.000000
  0
VERTEX
  8
LAYER-1
 10
5.354672
 20
4.010746
 30
0.000000
  0
SEQEND
  8
LAYER-1
  0
POLYLINE
  8
LAYER-1
 66
  1
 70
  1
 62
  0
  0
VERTEX
  8
LAYER-1
 10
5.380002
 20
3.854994
 30
0.000000
  0
VERTEX
  8
LAYER-1
 10
5.704629
 20
3.854994
 30
0.000000
  0
VERTEX
  8
LAYER-1
 10
5.704629
 20
0.688405
 30
0.000000
  0
VERTEX
  8
LAYER-1
 10
5.380002
 20
0.688405
 30
0.000000
  0
SEQEND
  8
LAYER-1
  0
POLYLINE
  8
LAYER-1
 66
  1
 70
  1
 62
  0
  0
VERTEX
  8
LAYER-1
 10
4.970002
 20
3.854994
 30
0.000000
  0
VERTEX
  8
LAYER-1
 10
5.294629
 20
3.854994
 30
0.000000
  0
VERTEX
  8
LAYER-1
 10
5.294629
 20
0.688405
 30
0.000000
  0
VERTEX
  8
LAYER-1
 10
4.970002
 20
0.688405
 30
0.000000
  0
SEQEND
  8
LAYER-1
  0
POLYLINE
  8
LAYER-1
 66
  1
 70
  1
 62
  0
  0
VERTEX
  8
LAYER-1
 10
4.560002
 20
3.854994
 30
0.000000
  0
VERTEX
  8
LAYER-1
 10
4.884629
 20
3.854994
 30
0.000000
  0
VERTEX
  8
LAYER-1
 10
4.884629
 20
0.688405
 30
0.000000
  0
VERTEX
  8
LAYER-1
 10
4.560002
 20
0.688405
 30
0.000000
  0
SEQEND
  8
LAYER-1
  0
POLYLINE
  8
LAYER-1
 66
  1
 70
  1
 62
  0
  0
VERTEX
  8
LAYER-1
 10
4.150003
 20
3.854994
 30
0.000000
  0
VERTEX
  8
LAYER-1
 10
4.474628
 20
3.854994
 30
0.000000
  0
VERTEX
  8
LAYER-1
 10
4.474628
 20
0.688405
 30
0.000000
  0
VERTEX
  8
LAYER-1
 10
4.150003
 20
0.688405
 30
0.000000
  0
SEQEND
  8
LAYER-1
  0
LINE
  8
LAYER-1
 62
  0
 10
4.622463
 20
4.307436
 30
0.000000
 11
4.758552
 21
4.545171
 31
0.000000
  0
LINE
  8
LAYER-1
 62
  0
 10
4.679099
 20
4.275016
 30
0.000000
 11
4.815188
 21
4.512750
 31
0.000000
  0
LINE
  8
LAYER-1
 62
  0
 10
5.032525
 20
4.307436
 30
0.000000
 11
5.168614
 21
4.545171
 31
0.000000
  0
LINE
  8
LAYER-1
 62
  0
 10
5.089161
 20
4.275016
 30
0.000000
 11
5.225250
 21
4.512750
 31
0.000000
  0
LINE
  8
LAYER-1
 62
  0
 10
5.442591
 20
4.307436
 30
0.000000
 11
5.578677
 21
4.545171
 31
0.000000
  0
LINE
  8
LAYER-1
 62
  0
 10
5.499227
 20
4.275016
 30
0.000000
 11
5.635312
 21
4.512751
 31
0.000000
  0
LINE
  8
LAYER-1
 62
  0
 10
4.217562
 20
4.307436
 30
0.000000
 11
4.353653
 21
4.545171
 31
0.000000
  0
LINE
  8
LAYER-1
 62
  0
 10
4.274196
 20
4.275016
 30
0.000000
 11
4.410288
 21
4.512750
 31
0.000000
  0
LINE
  8
LAYER-1
 62
  0
 10
4.620621
 20
3.277610
 30
0.000000
 11
4.756710
 21
3.515346
 31
0.000000
  0
LINE
  8
LAYER-1
 62
  0
 10
4.677257
 20
3.245190
 30
0.000000
 11
4.813345
 21
3.482926
 31
0.000000
  0
LINE
  8
LAYER-1
 62
  0
 10
5.030683
 20
3.277610
 30
0.000000
 11
5.166772
 21
3.515346
 31
0.000000
  0
LINE
  8
LAYER-1
 62
  0
 10
5.087319
 20
3.245190
 30
0.000000
 11
5.223407
 21
3.482926
 31
0.000000
  0
LINE
  8
LAYER-1
 62
  0
 10
5.440745
 20
3.277610
 30
0.000000
 11
5.576834
 21
3.515347
 31
0.000000
  0
LINE
  8
LAYER-1
 62
  0
 10
5.497381
 20
3.245189
 30
0.000000
 11
5.633470
 21
3.482926
 31
0.000000
  0
LINE
  8
LAYER-1
 62
  0
 10
4.215719
 20
3.277612
 30
0.000000
 11
4.351807
 21
3.515347
 31
0.000000
  0
LINE
  8
LAYER-1
 62
  0
 10
4.272354
 20
3.245192
 30
0.000000
 11
4.408443
 21
3.482927
 31
0.000000
  0
LINE
  8
LAYER-1
 62
  0
 10
4.622105
 20
6.694551
 30
0.000000
 11
4.758190
 21
6.932285
 31
0.000000
  0
LINE
  8
LAYER-1
 62
  0
 10
4.678741
 20
6.662131
 30
0.000000
 11
4.814826
 21
6.899865
 31
0.000000
  0
LINE
  8
LAYER-1
 62
  0
 10
5.032168
 20
6.694551
 30
0.000000
 11
5.168253
 21
6.932285
 31
0.000000
  0
LINE
  8
LAYER-1
 62
  0
 10
5.088804
 20
6.662131
 30
0.000000
 11
5.224889
 21
6.899865
 31
0.000000
  0
LINE
  8
LAYER-1
 62
  0
 10
5.442229
 20
6.694551
 30
0.000000
 11
5.578315
 21
6.932285
 31
0.000000
  0
LINE
  8
LAYER-1
 62
  0
 10
5.498865
 20
6.662131
 30
0.000000
 11
5.634951
 21
6.899865
 31
0.000000
  0
LINE
  8
LAYER-1
 62
  0
 10
4.217203
 20
6.694551
 30
0.000000
 11
4.353292
 21
6.932285
 31
0.000000
  0
LINE
  8
LAYER-1
 62
  0
 10
4.273839
 20
6.662131
 30
0.000000
 11
4.409928
 21
6.899865
 31
0.000000
  0
LINE
  8
LAYER-1
 62
  0
 10
4.620260
 20
1.053762
 30
0.000000
 11
4.756348
 21
1.291496
 31
0.000000
  0
LINE
  8
LAYER-1
 62
  0
 10
4.676896
 20
1.021341
 30
0.000000
 11
4.812984
 21
1.259076
 31
0.000000
  0
LINE
  8
LAYER-1
 62
  0
 10
5.030321
 20
1.053762
 30
0.000000
 11
5.166410
 21
1.291496
 31
0.000000
  0
LINE
  8
LAYER-1
 62
  0
 10
5.086957
 20
1.021341
 30
0.000000
 11
5.223046
 21
1.259076
 31
0.000000
  0
LINE
  8
LAYER-1
 62
  0
 10
5.440385
 20
1.053762
 30
0.000000
 11
5.576476
 21
1.291496
 31
0.000000
  0
LINE
  8
LAYER-1
 62
  0
 10
5.497020
 20
1.021341
 30
0.000000
 11
5.633111
 21
1.259076
 31
0.000000
  0
LINE
  8
LAYER-1
 62
  0
 10
4.215360
 20
1.053762
 30
0.000000
 11
4.351446
 21
1.291496
 31
0.000000
  0
LINE
  8
LAYER-1
 62
  0
 10
4.271996
 20
1.021341
 30
0.000000
 11
4.408081
 21
1.259076
 31
0.000000
  0
POLYLINE
  8
LAYER-1
 66
  1
 70
  0
 62
  0
 10
4.969999
 20
7.423871
 30
0.000000
  0
VERTEX
  8
LAYER-1
 10
4.969999
 20
7.423871
 30
0.000000
  0
VERTEX
  8
LAYER-1
 10
4.969999
 20
0.357080
 30
0.000000
  0
SEQEND
  8
LAYER-1
  0
POLYLINE
  8
LAYER-1
 66
  1
 70
  0
 62
  0
 10
4.884569
 20
7.423871
 30
0.000000
  0
VERTEX
  8
LAYER-1
 10
4.884569
 20
7.423871
 30
0.000000
  0
VERTEX
  8
LAYER-1
 10
4.884569
 20
0.357080
 30
0.000000
  0
SEQEND
  8
LAYER-1
  0
POLYLINE
  8
LAYER-1
 66
  1
 70
  0
 62
  0
 10
4.559937
 20
7.423871
 30
0.000000
  0
VERTEX
  8
LAYER-1
 10
4.559937
 20
7.423871
 30
0.000000
  0
VERTEX
  8
LAYER-1
 10
4.559937
 20
0.357080
 30
0.000000
  0
SEQEND
  8
LAYER-1
  0
POLYLINE
  8
LAYER-1
 66
  1
 70
  0
 62
  0
 10
4.474506
 20
7.423871
 30
0.000000
  0
VERTEX
  8
LAYER-1
 10
4.474506
 20
7.423871
 30
0.000000
  0
VERTEX
  8
LAYER-1
 10
4.474506
 20
0.357080
 30
0.000000
  0
SEQEND
  8
LAYER-1
  0
POLYLINE
  8
LAYER-1
 66
  1
 70
  0
 62
  0
 10
4.149875
 20
7.423871
 30
0.000000
  0
VERTEX
  8
LAYER-1
 10
4.149875
 20
7.423871
 30
0.000000
  0
VERTEX
  8
LAYER-1
 10
4.149875
 20
0.357080
 30
0.000000
  0
SEQEND
  8
LAYER-1
  0
POLYLINE
  8
LAYER-1
 66
  1
 70
  0
 62
  0
 10
4.067292
 20
7.423871
 30
0.000000
  0
VERTEX
  8
LAYER-1
 10
4.067292
 20
7.423871
 30
0.000000
  0
VERTEX
  8
LAYER-1
 10
4.067292
 20
0.357080
 30
0.000000
  0
SEQEND
  8
LAYER-1
  0
POLYLINE
  8
LAYER-1
 66
  1
 70
  0
 62
  0
 10
5.740291
 20
7.423871
 30
0.000000
  0
VERTEX
  8
LAYER-1
 10
5.740291
 20
7.423871
 30
0.000000
  0
VERTEX
  8
LAYER-1
 10
5.740291
 20
0.357080
 30
0.000000
  0
SEQEND
  8
LAYER-1
  0
POLYLINE
  8
LAYER-1
 66
  1
 70
  0
 62
  0
 10
4.927524
 20
7.423871
 30
0.000000
  0
VERTEX
  8
LAYER-1
 10
4.927524
 20
7.423871
 30
0.000000
  0
VERTEX
  8
LAYER-1
 10
4.927524
 20
0.357080
 30
0.000000
  0
SEQEND
  8
LAYER-1
  0
POLYLINE
  8
LAYER-1
 66
  1
 70
  0
 62
  0
 10
4.535967
 20
7.423871
 30
0.000000
  0
VERTEX
  8
LAYER-1
 10
4.535967
 20
7.423871
 30
0.000000
  0
VERTEX
  8
LAYER-1
 10
4.535967
 20
0.357080
 30
0.000000
  0
SEQEND
  8
LAYER-1
  0
POLYLINE
  8
LAYER-1
 66
  1
 70
  0
 62
  0
 10
4.500376
 20
7.423871
 30
0.000000
  0
VERTEX
  8
LAYER-1
 10
4.500376
 20
7.423871
 30
0.000000
  0
VERTEX
  8
LAYER-1
 10
4.500376
 20
0.357080
 30
0.000000
  0
SEQEND
  8
LAYER-1
  0
POLYLINE
  8
LAYER-1
 66
  1
 70
  0
 62
  0
 10
4.108818
 20
7.423871
 30
0.000000
  0
VERTEX
  8
LAYER-1
 10
4.108818
 20
7.423871
 30
0.000000
  0
VERTEX
  8
LAYER-1
 10
4.108818
 20
0.357080
 30
0.000000
  0
SEQEND
  8
LAYER-1
  0
POLYLINE
  8
LAYER-1
 66
  1
 70
  1
 62
  0
  0
VERTEX
  8
LAYER-1
 10
4.492959
 20
0.357156
 30
0.000000
  0
VERTEX
  8
LAYER-1
 10
4.547837
 20
0.357156
 30
0.000000
  0
VERTEX
  8
LAYER-1
 10
4.547837
 20
0.351296
 30
0.000000
  0
VERTEX
  8
LAYER-1
 10
4.492959
 20
0.351296
 30
0.000000
  0
SEQEND
  8
LAYER-1
  0
POLYLINE
  8
LAYER-1
 66
  1
 70
  0
 62
  0
 10
4.500376
 20
0.430398
 30
0.000000
  0
VERTEX
  8
LAYER-1
 10
4.500376
 20
0.430398
 30
0.000000
  0
VERTEX
  8
LAYER-1
 10
4.535967
 20
0.430398
 30
0.000000
  0
SEQEND
  8
LAYER-1
  0
POLYLINE
  8
LAYER-1
 66
  1
 70
  0
 62
  0
 10
4.500376
 20
0.559304
 30
0.000000
  0
VERTEX
  8
LAYER-1
 10
4.500376
 20
0.559304
 30
0.000000
  0
VERTEX
  8
LAYER-1
 10
4.535967
 20
0.559304
 30
0.000000
  0
SEQEND
  8
LAYER-1
  0
POLYLINE
  8
LAYER-1
 66
  1
 70
  0
 62
  0
 10
4.535967
 20
0.634288
 30
0.000000
  0
VERTEX
  8
LAYER-1
 10
4.535967
 20
0.634288
 30
0.000000
  0
VERTEX
  8
LAYER-1
 10
4.500376
 20
0.634288
 30
0.000000
  0
SEQEND
  8
LAYER-1
  0
POLYLINE
  8
LAYER-1
 66
  1
 70
  0
 62
  0
 10
4.535967
 20
1.480968
 30
0.000000
  0
VERTEX
  8
LAYER-1
 10
4.535967
 20
1.480968
 30
0.000000
  0
VERTEX
  8
LAYER-1
 10
4.500376
 20
1.480968
 30
0.000000
  0
SEQEND
  8
LAYER-1
  0
POLYLINE
  8
LAYER-1
 66
  1
 70
  0
 62
  0
 10
4.535967
 20
2.318857
 30
0.000000
  0
VERTEX
  8
LAYER-1
 10
4.535967
 20
2.318857
 30
0.000000
  0
VERTEX
  8
LAYER-1
 10
4.500376
 20
2.318857
 30
0.000000
  0
SEQEND
  8
LAYER-1
  0
POLYLINE
  8
LAYER-1
 66
  1
 70
  0
 62
  0
 10
4.535967
 20
3.168460
 30
0.000000
  0
VERTEX
  8
LAYER-1
 10
4.535967
 20
3.168460
 30
0.000000
  0
VERTEX
  8
LAYER-1
 10
4.500376
 20
3.168460
 30
0.000000
  0
SEQEND
  8
LAYER-1
  0
POLYLINE
  8
LAYER-1
 66
  1
 70
  0
 62
  0
 10
4.500376
 20
4.010746
 30
0.000000
  0
VERTEX
  8
LAYER-1
 10
4.500376
 20
4.010746
 30
0.000000
  0
VERTEX
  8
LAYER-1
 10
4.535967
 20
4.010746
 30
0.000000
  0
SEQEND
  8
LAYER-1
  0
POLYLINE
  8
LAYER-1
 66
  1
 70
  0
 62
  0
 10
5.354019
 20
4.861746
 30
0.000000
  0
VERTEX
  8
LAYER-1
 10
5.354019
 20
4.861746
 30
0.000000
  0
VERTEX
  8
LAYER-1
 10
5.318424
 20
4.861746
 30
0.000000
  0
SEQEND
  8
LAYER-1
  0
POLYLINE
  8
LAYER-1
 66
  1
 70
  0
 62
  0
 10
5.354019
 20
5.705495
 30
0.000000
  0
VERTEX
  8
LAYER-1
 10
5.354019
 20
5.705495
 30
0.000000
  0
VERTEX
  8
LAYER-1
 10
5.318424
 20
5.705495
 30
0.000000
  0
SEQEND
  8
LAYER-1
  0
POLYLINE
  8
LAYER-1
 66
  1
 70
  0
 62
  0
 10
4.536144
 20
4.861746
 30
0.000000
  0
VERTEX
  8
LAYER-1
 10
4.536144
 20
4.861746
 30
0.000000
  0
VERTEX
  8
LAYER-1
 10
4.500553
 20
4.861746
 30
0.000000
  0
SEQEND
  8
LAYER-1
  0
POLYLINE
  8
LAYER-1
 66
  1
 70
  0
 62
  0
 10
4.536144
 20
5.705495
 30
0.000000
  0
VERTEX
  8
LAYER-1
 10
4.536144
 20
5.705495
 30
0.000000
  0
VERTEX
  8
LAYER-1
 10
4.500553
 20
5.705495
 30
0.000000
  0
SEQEND
  8
LAYER-1
  0
POLYLINE
  8
LAYER-1
 66
  1
 70
  1
 62
  0
  0
VERTEX
  8
LAYER-1
 10
3.843335
 20
7.429730
 30
0.000000
  0
VERTEX
  8
LAYER-1
 10
3.898213
 20
7.429730
 30
0.000000
  0
VERTEX
  8
LAYER-1
 10
3.898213
 20
7.423869
 30
0.000000
  0
VERTEX
  8
LAYER-1
 10
3.843335
 20
7.423869
 30
0.000000
  0
SEQEND
  8
LAYER-1
  0
POLYLINE
  8
LAYER-1
 66
  1
 70
  0
 62
  0
 10
3.887828
 20
7.356486
 30
0.000000
  0
VERTEX
  8
LAYER-1
 10
3.887828
 20
7.356486
 30
0.000000
  0
VERTEX
  8
LAYER-1
 10
3.852236
 20
7.356486
 30
0.000000
  0
SEQEND
  8
LAYER-1
  0
POLYLINE
  8
LAYER-1
 66
  1
 70
  0
 62
  0
 10
3.887828
 20
7.227580
 30
0.000000
  0
VERTEX
  8
LAYER-1
 10
3.887828
 20
7.227580
 30
0.000000
  0
VERTEX
  8
LAYER-1
 10
3.852236
 20
7.227580
 30
0.000000
  0
SEQEND
  8
LAYER-1
  0
POLYLINE
  8
LAYER-1
 66
  1
 70
  0
 62
  0
 10
3.887828
 20
7.423794
 30
0.000000
  0
VERTEX
  8
LAYER-1
 10
3.887828
 20
7.423794
 30
0.000000
  0
VERTEX
  8
LAYER-1
 10
3.887828
 20
0.357080
 30
0.000000
  0
SEQEND
  8
LAYER-1
  0
POLYLINE
  8
LAYER-1
 66
  1
 70
  0
 62
  0
 10
3.852236
 20
0.430321
 30
0.000000
  0
VERTEX
  8
LAYER-1
 10
3.852236
 20
0.430321
 30
0.000000
  0
VERTEX
  8
LAYER-1
 10
3.887828
 20
0.430321
 30
0.000000
  0
SEQEND
  8
LAYER-1
  0
POLYLINE
  8
LAYER-1
 66
  1
 70
  0
 62
  0
 10
3.852236
 20
0.559227
 30
0.000000
  0
VERTEX
  8
LAYER-1
 10
3.852236
 20
0.559227
 30
0.000000
  0
VERTEX
  8
LAYER-1
 10
3.887828
 20
0.559227
 30
0.000000
  0
SEQEND
  8
LAYER-1
  0
POLYLINE
  8
LAYER-1
 66
  1
 70
  0
 62
  0
 10
3.887828
 20
0.634210
 30
0.000000
  0
VERTEX
  8
LAYER-1
 10
3.887828
 20
0.634210
 30
0.000000
  0
VERTEX
  8
LAYER-1
 10
3.852233
 20
0.634210
 30
0.000000
  0
SEQEND
  8
LAYER-1
  0
POLYLINE
  8
LAYER-1
 66
  1
 70
  0
 62
  0
 10
3.887828
 20
1.480892
 30
0.000000
  0
VERTEX
  8
LAYER-1
 10
3.887828
 20
1.480892
 30
0.000000
  0
VERTEX
  8
LAYER-1
 10
3.852233
 20
1.480892
 30
0.000000
  0
SEQEND
  8
LAYER-1
  0
POLYLINE
  8
LAYER-1
 66
  1
 70
  0
 62
  0
 10
3.887828
 20
2.318780
 30
0.000000
  0
VERTEX
  8
LAYER-1
 10
3.887828
 20
2.318780
 30
0.000000
  0
VERTEX
  8
LAYER-1
 10
3.852233
 20
2.318780
 30
0.000000
  0
SEQEND
  8
LAYER-1
  0
POLYLINE
  8
LAYER-1
 66
  1
 70
  0
 62
  0
 10
3.887828
 20
3.168384
 30
0.000000
  0
VERTEX
  8
LAYER-1
 10
3.887828
 20
3.168384
 30
0.000000
  0
VERTEX
  8
LAYER-1
 10
3.852233
 20
3.168384
 30
0.000000
  0
SEQEND
  8
LAYER-1
  0
POLYLINE
  8
LAYER-1
 66
  1
 70
  0
 62
  0
 10
3.852233
 20
4.010669
 30
0.000000
  0
VERTEX
  8
LAYER-1
 10
3.852233
 20
4.010669
 30
0.000000
  0
VERTEX
  8
LAYER-1
 10
3.887828
 20
4.010669
 30
0.000000
  0
SEQEND
  8
LAYER-1
  0
POLYLINE
  8
LAYER-1
 66
  1
 70
  0
 62
  0
 10
3.888006
 20
4.861670
 30
0.000000
  0
VERTEX
  8
LAYER-1
 10
3.888006
 20
4.861670
 30
0.000000
  0
VERTEX
  8
LAYER-1
 10
3.852414
 20
4.861670
 30
0.000000
  0
SEQEND
  8
LAYER-1
  0
POLYLINE
  8
LAYER-1
 66
  1
 70
  0
 62
  0
 10
3.888006
 20
5.705419
 30
0.000000
  0
VERTEX
  8
LAYER-1
 10
3.888006
 20
5.705419
 30
0.000000
  0
VERTEX
  8
LAYER-1
 10
3.852414
 20
5.705419
 30
0.000000
  0
SEQEND
  8
LAYER-1
  0
POLYLINE
  8
LAYER-1
 66
  1
 70
  1
 62
  0
  0
VERTEX
  8
LAYER-1
 10
3.844819
 20
0.357080
 30
0.000000
  0
VERTEX
  8
LAYER-1
 10
3.899691
 20
0.357080
 30
0.000000
  0
VERTEX
  8
LAYER-1
 10
3.899691
 20
0.351221
 30
0.000000
  0
VERTEX
  8
LAYER-1
 10
3.844819
 20
0.351221
 30
0.000000
  0
SEQEND
  8
LAYER-1
  0
TEXT
  8
LAYER-1
 62
  7
 10
2.004300
 20
8.794503
 30
0.000000
 40
0.187500
  1
Elevaci—n modelo Impact 1/16
 72
  5
 11
5.629300
 21
8.794503
 31
0.000000
  0
LINE
  8
LAYER-1
 62
  0
 10
6.768189
 20
7.489504
 30
0.000000
 11
0.771661
 21
7.489504
 31
0.000000
  0
LINE
  8
LAYER-1
 62
  0
 10
6.768189
 20
7.599503
 30
0.000000
 11
0.771661
 21
7.599503
 31
0.000000
  0
LINE
  8
LAYER-1
 62
  0
 10
1.331559
 20
7.491009
 30
0.000000
 11
1.331559
 21
7.600988
 31
0.000000
  0
LINE
  8
LAYER-1
 62
  0
 10
1.272190
 20
7.491009
 30
0.000000
 11
1.456559
 21
7.491009
 31
0.000000
  0
LINE
  8
LAYER-1
 62
  0
 10
1.272530
 20
7.600988
 30
0.000000
 11
1.456559
 21
7.600988
 31
0.000000
  0
LINE
  8
LAYER-1
 62
  0
 10
1.331559
 20
7.600988
 30
0.000000
 11
1.331559
 21
7.235474
 31
0.000000
  0
LINE
  8
LAYER-1
 62
  0
 10
1.302096
 20
7.520472
 30
0.000000
 11
1.361021
 21
7.461546
 31
0.000000
  0
LINE
  8
LAYER-1
 62
  0
 10
1.302096
 20
7.630451
 30
0.000000
 11
1.361021
 21
7.571525
 31
0.000000
  0
TEXT
  8
LAYER-1
 62
  0
 10
1.319698
 20
7.107058
 30
0.000000
 40
0.125000
  1
 
  0
TEXT
  8
LAYER-1
 62
  0
 10
1.073745
 20
6.863948
 30
0.000000
 40
0.125000
  1
1-
 72
  5
 11
1.295967
 21
6.863948
 31
0.000000
  0
TEXT
  8
LAYER-1
 62
  0
 10
1.295967
 20
6.863948
 30
0.000000
 40
0.104167
  1
9/16
 72
  5
 11
1.657078
 21
6.863948
 31
0.000000
  0
TEXT
  8
LAYER-1
 62
  0
 10
1.657078
 20
6.863948
 30
0.000000
 40
0.125000
  1
"
 72
  5
 11
1.782078
 21
6.863948
 31
0.000000
  0
TEXT
  8
LAYER-1
 62
  0
 10
1.073745
 20
6.669503
 30
0.000000
 40
0.125000
  1
40mm
 72
  5
 11
1.643189
 21
6.669503
 31
0.000000
  0
TEXT
  8
LAYER-1
 62
  0
 10
2.295967
 20
7.919503
 30
0.000000
 40
0.125000
  1
Componente
 72
  5
 11
3.365411
 21
7.919503
 31
0.000000
  0
TEXT
  8
LAYER-1
 62
  0
 10
2.295967
 20
7.725059
 30
0.000000
 40
0.125000
  1
intermediario #4
 72
  5
 11
3.615411
 21
7.725059
 31
0.000000
  0
POLYLINE
  8
LAYER-1
 66
  1
 70
  0
 62
  0
 10
3.519057
 20
7.756307
 30
0.000000
  0
VERTEX
  8
LAYER-1
 10
3.519057
 20
7.756307
 30
0.000000
  0
VERTEX
  8
LAYER-1
 10
3.760133
 20
7.441212
 30
0.000000
  0
SEQEND
  8
LAYER-1
  0
POLYLINE
  8
LAYER-1
 66
  1
 70
  1
 62
  0
  0
VERTEX
  8
LAYER-1
 10
3.772095
 20
7.425578
 30
0.000000
  0
VERTEX
  8
LAYER-1
 10
3.696805
 20
7.455413
 30
0.000000
  0
VERTEX
  8
LAYER-1
 10
3.729897
 20
7.480732
 30
0.000000
  0
VERTEX
  8
LAYER-1
 10
3.762989
 20
7.506050
 30
0.000000
  0
VERTEX
  8
LAYER-1
 10
3.772095
 20
7.425578
 30
0.000000
  0
SEQEND
  8
LAYER-1
  0
POLYLINE
  8
LAYER-1
 66
  1
 70
  0
 62
  0
 40
0.027778
 41
0.027778
 10
3.684575
 20
0.251111
 30
0.000000
  0
VERTEX
  8
LAYER-1
 10
3.684575
 20
0.251111
 30
0.000000
  0
VERTEX
  8
LAYER-1
 10
0.775134
 20
0.251111
 30
0.000000
  0
SEQEND
  8
LAYER-1
  0
POLYLINE
  8
LAYER-1
 66
  1
 70
  0
 62
  0
 40
0.027778
 41
0.027778
 10
3.778192
 20
0.251111
 30
0.000000
  0
VERTEX
  8
LAYER-1
 10
3.778192
 20
0.251111
 30
0.000000
  0
VERTEX
  8
LAYER-1
 10
6.740412
 20
0.251111
 30
0.000000
  0
SEQEND
  8
LAYER-1
  0
POLYLINE
  8
LAYER-1
 66
  1
 70
  1
 62
  0
  0
VERTEX
  8
LAYER-1
 10
0.031375
 20
3.551135
 30
0.000000
  0
VERTEX
  8
LAYER-1
 10
0.145716
 20
3.551135
 30
0.000000
  0
VERTEX
  8
LAYER-1
 10
0.145716
 20
3.447481
 30
0.000000
  0
VERTEX
  8
LAYER-1
 10
0.031375
 20
3.447481
 30
0.000000
  0
SEQEND
  8
LAYER-1
  0
POLYLINE
  8
LAYER-1
 66
  1
 70
  1
 62
  0
  0
VERTEX
  8
LAYER-1
 10
0.179704
 20
3.551135
 30
0.000000
  0
VERTEX
  8
LAYER-1
 10
0.294334
 20
3.551135
 30
0.000000
  0
VERTEX
  8
LAYER-1
 10
0.294334
 20
3.447481
 30
0.000000
  0
VERTEX
  8
LAYER-1
 10
0.179704
 20
3.447481
 30
0.000000
  0
SEQEND
  8
LAYER-1
  0
POLYLINE
  8
LAYER-1
 66
  1
 70
  1
 62
  0
  0
VERTEX
  8
LAYER-1
 10
0.328176
 20
3.551135
 30
0.000000
  0
VERTEX
  8
LAYER-1
 10
0.442515
 20
3.551135
 30
0.000000
  0
VERTEX
  8
LAYER-1
 10
0.442515
 20
3.447481
 30
0.000000
  0
VERTEX
  8
LAYER-1
 10
0.328176
 20
3.447481
 30
0.000000
  0
SEQEND
  8
LAYER-1
  0
POLYLINE
  8
LAYER-1
 66
  1
 70
  1
 62
  0
  0
VERTEX
  8
LAYER-1
 10
0.476503
 20
3.551135
 30
0.000000
  0
VERTEX
  8
LAYER-1
 10
0.590987
 20
3.551135
 30
0.000000
  0
VERTEX
  8
LAYER-1
 10
0.590987
 20
3.447481
 30
0.000000
  0
VERTEX
  8
LAYER-1
 10
0.476503
 20
3.447481
 30
0.000000
  0
SEQEND
  8
LAYER-1
  0
POLYLINE
  8
LAYER-1
 66
  1
 70
  1
 62
  0
  0
VERTEX
  8
LAYER-1
 10
0.624975
 20
3.551135
 30
0.000000
  0
VERTEX
  8
LAYER-1
 10
0.739314
 20
3.551135
 30
0.000000
  0
VERTEX
  8
LAYER-1
 10
0.739314
 20
3.447481
 30
0.000000
  0
VERTEX
  8
LAYER-1
 10
0.624975
 20
3.447481
 30
0.000000
  0
SEQEND
  8
LAYER-1
  0
POLYLINE
  8
LAYER-1
 66
  1
 70
  1
 62
  0
  0
VERTEX
  8
LAYER-1
 10
0.773447
 20
3.551135
 30
0.000000
  0
VERTEX
  8
LAYER-1
 10
0.887788
 20
3.551135
 30
0.000000
  0
VERTEX
  8
LAYER-1
 10
0.887788
 20
3.447481
 30
0.000000
  0
VERTEX
  8
LAYER-1
 10
0.773447
 20
3.447481
 30
0.000000
  0
SEQEND
  8
LAYER-1
  0
POLYLINE
  8
LAYER-1
 66
  1
 70
  1
 62
  0
  0
VERTEX
  8
LAYER-1
 10
0.921774
 20
3.551135
 30
0.000000
  0
VERTEX
  8
LAYER-1
 10
1.036261
 20
3.551135
 30
0.000000
  0
VERTEX
  8
LAYER-1
 10
1.036261
 20
3.447481
 30
0.000000
  0
VERTEX
  8
LAYER-1
 10
0.921774
 20
3.447481
 30
0.000000
  0
SEQEND
  8
LAYER-1
  0
POLYLINE
  8
LAYER-1
 66
  1
 70
  1
 62
  0
  0
VERTEX
  8
LAYER-1
 10
0.031297
 20
5.146317
 30
0.000000
  0
VERTEX
  8
LAYER-1
 10
0.145784
 20
5.146317
 30
0.000000
  0
VERTEX
  8
LAYER-1
 10
0.145784
 20
5.042663
 30
0.000000
  0
VERTEX
  8
LAYER-1
 10
0.031297
 20
5.042663
 30
0.000000
  0
SEQEND
  8
LAYER-1
  0
POLYLINE
  8
LAYER-1
 66
  1
 70
  1
 62
  0
  0
VERTEX
  8
LAYER-1
 10
0.179623
 20
5.146317
 30
0.000000
  0
VERTEX
  8
LAYER-1
 10
0.294257
 20
5.146317
 30
0.000000
  0
VERTEX
  8
LAYER-1
 10
0.294257
 20
5.042663
 30
0.000000
  0
VERTEX
  8
LAYER-1
 10
0.179623
 20
5.042663
 30
0.000000
  0
SEQEND
  8
LAYER-1
  0
POLYLINE
  8
LAYER-1
 66
  1
 70
  1
 62
  0
  0
VERTEX
  8
LAYER-1
 10
0.328096
 20
5.146317
 30
0.000000
  0
VERTEX
  8
LAYER-1
 10
0.442583
 20
5.146317
 30
0.000000
  0
VERTEX
  8
LAYER-1
 10
0.442583
 20
5.042663
 30
0.000000
  0
VERTEX
  8
LAYER-1
 10
0.328096
 20
5.042663
 30
0.000000
  0
SEQEND
  8
LAYER-1
  0
POLYLINE
  8
LAYER-1
 66
  1
 70
  1
 62
  0
  0
VERTEX
  8
LAYER-1
 10
0.476422
 20
5.146317
 30
0.000000
  0
VERTEX
  8
LAYER-1
 10
0.590910
 20
5.146317
 30
0.000000
  0
VERTEX
  8
LAYER-1
 10
0.590910
 20
5.042663
 30
0.000000
  0
VERTEX
  8
LAYER-1
 10
0.476422
 20
5.042663
 30
0.000000
  0
SEQEND
  8
LAYER-1
  0
POLYLINE
  8
LAYER-1
 66
  1
 70
  1
 62
  0
  0
VERTEX
  8
LAYER-1
 10
0.623452
 20
5.146317
 30
0.000000
  0
VERTEX
  8
LAYER-1
 10
0.739382
 20
5.146317
 30
0.000000
  0
VERTEX
  8
LAYER-1
 10
0.739382
 20
5.042663
 30
0.000000
  0
VERTEX
  8
LAYER-1
 10
0.623452
 20
5.042663
 30
0.000000
  0
SEQEND
  8
LAYER-1
  0
POLYLINE
  8
LAYER-1
 66
  1
 70
  1
 62
  0
  0
VERTEX
  8
LAYER-1
 10
0.773369
 20
5.146317
 30
0.000000
  0
VERTEX
  8
LAYER-1
 10
0.887854
 20
5.146317
 30
0.000000
  0
VERTEX
  8
LAYER-1
 10
0.887854
 20
5.042663
 30
0.000000
  0
VERTEX
  8
LAYER-1
 10
0.773369
 20
5.042663
 30
0.000000
  0
SEQEND
  8
LAYER-1
  0
POLYLINE
  8
LAYER-1
 66
  1
 70
  1
 62
  0
  0
VERTEX
  8
LAYER-1
 10
0.921047
 20
5.146317
 30
0.000000
  0
VERTEX
  8
LAYER-1
 10
1.036183
 20
5.146317
 30
0.000000
  0
VERTEX
  8
LAYER-1
 10
1.036183
 20
5.042663
 30
0.000000
  0
VERTEX
  8
LAYER-1
 10
0.921047
 20
5.042663
 30
0.000000
  0
SEQEND
  8
LAYER-1
  0
POLYLINE
  8
LAYER-1
 66
  1
 70
  1
 62
  0
  0
VERTEX
  8
LAYER-1
 10
0.294257
 20
5.146317
 30
0.000000
  0
VERTEX
  8
LAYER-1
 10
0.310707
 20
5.146317
 30
0.000000
  0
VERTEX
  8
LAYER-1
 10
0.310707
 20
3.447525
 30
0.000000
  0
VERTEX
  8
LAYER-1
 10
0.294257
 20
3.447525
 30
0.000000
  0
SEQEND
  8
LAYER-1
  0
POLYLINE
  8
LAYER-1
 66
  1
 70
  1
 62
  0
  0
VERTEX
  8
LAYER-1
 10
0.310707
 20
5.146317
 30
0.000000
  0
VERTEX
  8
LAYER-1
 10
0.328176
 20
5.146317
 30
0.000000
  0
VERTEX
  8
LAYER-1
 10
0.328176
 20
3.447481
 30
0.000000
  0
VERTEX
  8
LAYER-1
 10
0.310707
 20
3.447481
 30
0.000000
  0
SEQEND
  8
LAYER-1
  0
POLYLINE
  8
LAYER-1
 66
  1
 70
  1
 62
  0
  0
VERTEX
  8
LAYER-1
 10
0.442583
 20
5.146317
 30
0.000000
  0
VERTEX
  8
LAYER-1
 10
0.459116
 20
5.146317
 30
0.000000
  0
VERTEX
  8
LAYER-1
 10
0.459116
 20
3.447525
 30
0.000000
  0
VERTEX
  8
LAYER-1
 10
0.442583
 20
3.447525
 30
0.000000
  0
SEQEND
  8
LAYER-1
  0
POLYLINE
  8
LAYER-1
 66
  1
 70
  1
 62
  0
  0
VERTEX
  8
LAYER-1
 10
0.459116
 20
5.146317
 30
0.000000
  0
VERTEX
  8
LAYER-1
 10
0.476503
 20
5.146317
 30
0.000000
  0
VERTEX
  8
LAYER-1
 10
0.476503
 20
3.447481
 30
0.000000
  0
VERTEX
  8
LAYER-1
 10
0.459116
 20
3.447481
 30
0.000000
  0
SEQEND
  8
LAYER-1
  0
POLYLINE
  8
LAYER-1
 66
  1
 70
  1
 62
  0
  0
VERTEX
  8
LAYER-1
 10
0.590910
 20
5.146317
 30
0.000000
  0
VERTEX
  8
LAYER-1
 10
0.607526
 20
5.146317
 30
0.000000
  0
VERTEX
  8
LAYER-1
 10
0.607526
 20
3.447525
 30
0.000000
  0
VERTEX
  8
LAYER-1
 10
0.590910
 20
3.447525
 30
0.000000
  0
SEQEND
  8
LAYER-1
  0
POLYLINE
  8
LAYER-1
 66
  1
 70
  1
 62
  0
  0
VERTEX
  8
LAYER-1
 10
0.607526
 20
5.146317
 30
0.000000
  0
VERTEX
  8
LAYER-1
 10
0.624975
 20
5.146317
 30
0.000000
  0
VERTEX
  8
LAYER-1
 10
0.624975
 20
3.447481
 30
0.000000
  0
VERTEX
  8
LAYER-1
 10
0.607526
 20
3.447481
 30
0.000000
  0
SEQEND
  8
LAYER-1
  0
POLYLINE
  8
LAYER-1
 66
  1
 70
  1
 62
  0
  0
VERTEX
  8
LAYER-1
 10
0.739382
 20
5.146317
 30
0.000000
  0
VERTEX
  8
LAYER-1
 10
0.755934
 20
5.146317
 30
0.000000
  0
VERTEX
  8
LAYER-1
 10
0.755934
 20
3.447525
 30
0.000000
  0
VERTEX
  8
LAYER-1
 10
0.739382
 20
3.447525
 30
0.000000
  0
SEQEND
  8
LAYER-1
  0
POLYLINE
  8
LAYER-1
 66
  1
 70
  1
 62
  0
  0
VERTEX
  8
LAYER-1
 10
0.755934
 20
5.146317
 30
0.000000
  0
VERTEX
  8
LAYER-1
 10
0.773447
 20
5.146317
 30
0.000000
  0
VERTEX
  8
LAYER-1
 10
0.773447
 20
3.447481
 30
0.000000
  0
VERTEX
  8
LAYER-1
 10
0.755934
 20
3.447481
 30
0.000000
  0
SEQEND
  8
LAYER-1
  0
POLYLINE
  8
LAYER-1
 66
  1
 70
  1
 62
  0
  0
VERTEX
  8
LAYER-1
 10
0.887854
 20
5.146317
 30
0.000000
  0
VERTEX
  8
LAYER-1
 10
0.904344
 20
5.146317
 30
0.000000
  0
VERTEX
  8
LAYER-1
 10
0.904344
 20
3.447525
 30
0.000000
  0
VERTEX
  8
LAYER-1
 10
0.887854
 20
3.447525
 30
0.000000
  0
SEQEND
  8
LAYER-1
  0
POLYLINE
  8
LAYER-1
 66
  1
 70
  1
 62
  0
  0
VERTEX
  8
LAYER-1
 10
0.904344
 20
5.146317
 30
0.000000
  0
VERTEX
  8
LAYER-1
 10
0.921774
 20
5.146317
 30
0.000000
  0
VERTEX
  8
LAYER-1
 10
0.921774
 20
3.447481
 30
0.000000
  0
VERTEX
  8
LAYER-1
 10
0.904344
 20
3.447481
 30
0.000000
  0
SEQEND
  8
LAYER-1
  0
POLYLINE
  8
LAYER-1
 66
  1
 70
  1
 62
  0
  0
VERTEX
  8
LAYER-1
 10
0.145784
 20
5.146317
 30
0.000000
  0
VERTEX
  8
LAYER-1
 10
0.162300
 20
5.146317
 30
0.000000
  0
VERTEX
  8
LAYER-1
 10
0.162300
 20
3.447525
 30
0.000000
  0
VERTEX
  8
LAYER-1
 10
0.145784
 20
3.447525
 30
0.000000
  0
SEQEND
  8
LAYER-1
  0
POLYLINE
  8
LAYER-1
 66
  1
 70
  1
 62
  0
  0
VERTEX
  8
LAYER-1
 10
0.162300
 20
5.146317
 30
0.000000
  0
VERTEX
  8
LAYER-1
 10
0.179704
 20
5.146317
 30
0.000000
  0
VERTEX
  8
LAYER-1
 10
0.179704
 20
3.447481
 30
0.000000
  0
VERTEX
  8
LAYER-1
 10
0.162300
 20
3.447481
 30
0.000000
  0
SEQEND
  8
LAYER-1
  0
LINE
  8
LAYER-1
 62
  0
 10
0.049162
 20
4.391995
 30
0.000000
 11
0.111328
 21
4.524745
 31
0.000000
  0
LINE
  8
LAYER-1
 62
  0
 10
0.070970
 20
4.381783
 30
0.000000
 11
0.133135
 21
4.514532
 31
0.000000
  0
LINE
  8
LAYER-1
 62
  0
 10
0.049162
 20
4.841342
 30
0.000000
 11
0.111328
 21
4.974089
 31
0.000000
  0
LINE
  8
LAYER-1
 62
  0
 10
0.070970
 20
4.831130
 30
0.000000
 11
0.133135
 21
4.963877
 31
0.000000
  0
LINE
  8
LAYER-1
 62
  0
 10
0.197572
 20
4.391995
 30
0.000000
 11
0.259738
 21
4.524745
 31
0.000000
  0
LINE
  8
LAYER-1
 62
  0
 10
0.219380
 20
4.381783
 30
0.000000
 11
0.281545
 21
4.514532
 31
0.000000
  0
LINE
  8
LAYER-1
 62
  0
 10
0.197572
 20
4.841342
 30
0.000000
 11
0.259738
 21
4.974089
 31
0.000000
  0
LINE
  8
LAYER-1
 62
  0
 10
0.219380
 20
4.831130
 30
0.000000
 11
0.281545
 21
4.963877
 31
0.000000
  0
LINE
  8
LAYER-1
 62
  0
 10
0.345979
 20
4.391995
 30
0.000000
 11
0.408145
 21
4.524745
 31
0.000000
  0
LINE
  8
LAYER-1
 62
  0
 10
0.367786
 20
4.381783
 30
0.000000
 11
0.429953
 21
4.514532
 31
0.000000
  0
LINE
  8
LAYER-1
 62
  0
 10
0.345979
 20
4.841342
 30
0.000000
 11
0.408145
 21
4.974089
 31
0.000000
  0
LINE
  8
LAYER-1
 62
  0
 10
0.367786
 20
4.831130
 30
0.000000
 11
0.429953
 21
4.963877
 31
0.000000
  0
LINE
  8
LAYER-1
 62
  0
 10
0.494388
 20
4.391995
 30
0.000000
 11
0.556554
 21
4.524745
 31
0.000000
  0
LINE
  8
LAYER-1
 62
  0
 10
0.516196
 20
4.381783
 30
0.000000
 11
0.578361
 21
4.514532
 31
0.000000
  0
LINE
  8
LAYER-1
 62
  0
 10
0.494388
 20
4.841342
 30
0.000000
 11
0.556554
 21
4.974089
 31
0.000000
  0
LINE
  8
LAYER-1
 62
  0
 10
0.516196
 20
4.831130
 30
0.000000
 11
0.578361
 21
4.963877
 31
0.000000
  0
LINE
  8
LAYER-1
 62
  0
 10
0.642797
 20
4.391995
 30
0.000000
 11
0.704964
 21
4.524745
 31
0.000000
  0
LINE
  8
LAYER-1
 62
  0
 10
0.664605
 20
4.381783
 30
0.000000
 11
0.726771
 21
4.514532
 31
0.000000
  0
LINE
  8
LAYER-1
 62
  0
 10
0.642797
 20
4.841342
 30
0.000000
 11
0.704964
 21
4.974089
 31
0.000000
  0
LINE
  8
LAYER-1
 62
  0
 10
0.664605
 20
4.831130
 30
0.000000
 11
0.726771
 21
4.963877
 31
0.000000
  0
LINE
  8
LAYER-1
 62
  0
 10
0.791207
 20
4.391995
 30
0.000000
 11
0.853372
 21
4.524745
 31
0.000000
  0
LINE
  8
LAYER-1
 62
  0
 10
0.813014
 20
4.381783
 30
0.000000
 11
0.875180
 21
4.514532
 31
0.000000
  0
LINE
  8
LAYER-1
 62
  0
 10
0.791207
 20
4.841342
 30
0.000000
 11
0.853372
 21
4.974089
 31
0.000000
  0
LINE
  8
LAYER-1
 62
  0
 10
0.813014
 20
4.831130
 30
0.000000
 11
0.875180
 21
4.963877
 31
0.000000
  0
LINE
  8
LAYER-1
 62
  0
 10
0.939615
 20
4.391995
 30
0.000000
 11
1.001780
 21
4.524745
 31
0.000000
  0
LINE
  8
LAYER-1
 62
  0
 10
0.961422
 20
4.381783
 30
0.000000
 11
1.023587
 21
4.514532
 31
0.000000
  0
LINE
  8
LAYER-1
 62
  0
 10
0.939615
 20
4.841342
 30
0.000000
 11
1.001780
 21
4.974089
 31
0.000000
  0
LINE
  8
LAYER-1
 62
  0
 10
0.961422
 20
4.831130
 30
0.000000
 11
1.023587
 21
4.963877
 31
0.000000
  0
LINE
  8
LAYER-1
 62
  0
 10
0.049162
 20
4.066114
 30
0.000000
 11
0.111328
 21
4.198861
 31
0.000000
  0
LINE
  8
LAYER-1
 62
  0
 10
0.070970
 20
4.055901
 30
0.000000
 11
0.133135
 21
4.188649
 31
0.000000
  0
LINE
  8
LAYER-1
 62
  0
 10
0.046770
 20
3.631077
 30
0.000000
 11
0.108938
 21
3.763827
 31
0.000000
  0
LINE
  8
LAYER-1
 62
  0
 10
0.068577
 20
3.620864
 30
0.000000
 11
0.130745
 21
3.753614
 31
0.000000
  0
LINE
  8
LAYER-1
 62
  0
 10
0.197572
 20
4.066114
 30
0.000000
 11
0.259738
 21
4.198861
 31
0.000000
  0
LINE
  8
LAYER-1
 62
  0
 10
0.219380
 20
4.055901
 30
0.000000
 11
0.281545
 21
4.188649
 31
0.000000
  0
LINE
  8
LAYER-1
 62
  0
 10
0.195181
 20
3.631077
 30
0.000000
 11
0.257345
 21
3.763827
 31
0.000000
  0
LINE
  8
LAYER-1
 62
  0
 10
0.216988
 20
3.620864
 30
0.000000
 11
0.279153
 21
3.753614
 31
0.000000
  0
LINE
  8
LAYER-1
 62
  0
 10
0.345979
 20
4.066114
 30
0.000000
 11
0.408145
 21
4.198861
 31
0.000000
  0
LINE
  8
LAYER-1
 62
  0
 10
0.367786
 20
4.055901
 30
0.000000
 11
0.429953
 21
4.188649
 31
0.000000
  0
LINE
  8
LAYER-1
 62
  0
 10
0.343588
 20
3.631077
 30
0.000000
 11
0.405756
 21
3.763827
 31
0.000000
  0
LINE
  8
LAYER-1
 62
  0
 10
0.365396
 20
3.620864
 30
0.000000
 11
0.427563
 21
3.753614
 31
0.000000
  0
LINE
  8
LAYER-1
 62
  0
 10
0.494388
 20
4.066114
 30
0.000000
 11
0.556554
 21
4.198861
 31
0.000000
  0
LINE
  8
LAYER-1
 62
  0
 10
0.516196
 20
4.055901
 30
0.000000
 11
0.578361
 21
4.188649
 31
0.000000
  0
LINE
  8
LAYER-1
 62
  0
 10
0.491998
 20
3.631077
 30
0.000000
 11
0.554164
 21
3.763827
 31
0.000000
  0
LINE
  8
LAYER-1
 62
  0
 10
0.513805
 20
3.620864
 30
0.000000
 11
0.575971
 21
3.753614
 31
0.000000
  0
LINE
  8
LAYER-1
 62
  0
 10
0.642797
 20
4.066114
 30
0.000000
 11
0.704964
 21
4.198861
 31
0.000000
  0
LINE
  8
LAYER-1
 62
  0
 10
0.664605
 20
4.055901
 30
0.000000
 11
0.726771
 21
4.188649
 31
0.000000
  0
LINE
  8
LAYER-1
 62
  0
 10
0.640407
 20
3.631077
 30
0.000000
 11
0.702572
 21
3.763827
 31
0.000000
  0
LINE
  8
LAYER-1
 62
  0
 10
0.662214
 20
3.620864
 30
0.000000
 11
0.724380
 21
3.753614
 31
0.000000
  0
LINE
  8
LAYER-1
 62
  0
 10
0.791207
 20
4.066114
 30
0.000000
 11
0.853372
 21
4.198861
 31
0.000000
  0
LINE
  8
LAYER-1
 62
  0
 10
0.813014
 20
4.055901
 30
0.000000
 11
0.875180
 21
4.188649
 31
0.000000
  0
LINE
  8
LAYER-1
 62
  0
 10
0.788814
 20
3.631077
 30
0.000000
 11
0.850980
 21
3.763827
 31
0.000000
  0
LINE
  8
LAYER-1
 62
  0
 10
0.810622
 20
3.620864
 30
0.000000
 11
0.872787
 21
3.753614
 31
0.000000
  0
LINE
  8
LAYER-1
 62
  0
 10
0.939615
 20
4.066114
 30
0.000000
 11
1.001780
 21
4.198861
 31
0.000000
  0
LINE
  8
LAYER-1
 62
  0
 10
0.961422
 20
4.055901
 30
0.000000
 11
1.023587
 21
4.188649
 31
0.000000
  0
LINE
  8
LAYER-1
 62
  0
 10
0.937225
 20
3.631077
 30
0.000000
 11
0.999390
 21
3.763827
 31
0.000000
  0
LINE
  8
LAYER-1
 62
  0
 10
0.959032
 20
3.620864
 30
0.000000
 11
1.021198
 21
3.753614
 31
0.000000
  0
TEXT
  8
LAYER-1
 62
  0
 10
0.212634
 20
3.238948
 30
0.000000
 40
0.104167
  1
IMPACT
 72
  5
 11
0.809856
 21
3.238948
 31
0.000000
  0
TEXT
  8
LAYER-1
 62
  0
 10
0.809856
 20
3.238948
 30
0.000000
 40
0.104167
  1
 
 72
  5
 11
0.920967
 21
3.238948
 31
0.000000
  0
TEXT
  8
LAYER-1
 62
  0
 10
0.143189
 20
3.155614
 30
0.000000
 40
0.083333
  1
(Policarbonato)
 72
  5
 11
0.934856
 21
3.155614
 31
0.000000
  0
POLYLINE
  8
LAYER-1
 66
  1
 70
  1
 62
  0
  0
VERTEX
  8
LAYER-1
 10
0.013889
 20
5.146317
 30
0.000000
  0
VERTEX
  8
LAYER-1
 10
0.031375
 20
5.146317
 30
0.000000
  0
VERTEX
  8
LAYER-1
 10
0.031375
 20
3.447481
 30
0.000000
  0
VERTEX
  8
LAYER-1
 10
0.013889
 20
3.447481
 30
0.000000
  0
SEQEND
  8
LAYER-1
  0
POLYLINE
  8
LAYER-1
 66
  1
 70
  1
 62
  0
  0
VERTEX
  8
LAYER-1
 10
1.036183
 20
5.146317
 30
0.000000
  0
VERTEX
  8
LAYER-1
 10
1.053577
 20
5.146317
 30
0.000000
  0
VERTEX
  8
LAYER-1
 10
1.053577
 20
3.447525
 30
0.000000
  0
VERTEX
  8
LAYER-1
 10
1.036183
 20
3.447525
 30
0.000000
  0
SEQEND
  8
LAYER-1
  0
POLYLINE
  8
LAYER-1
 66
  1
 70
  1
 62
  0
  0
VERTEX
  8
LAYER-1
 10
0.031297
 20
4.308392
 30
0.000000
  0
VERTEX
  8
LAYER-1
 10
0.145564
 20
4.308392
 30
0.000000
  0
VERTEX
  8
LAYER-1
 10
0.145564
 20
4.283611
 30
0.000000
  0
VERTEX
  8
LAYER-1
 10
0.031297
 20
4.283611
 30
0.000000
  0
SEQEND
  8
LAYER-1
  0
POLYLINE
  8
LAYER-1
 66
  1
 70
  1
 62
  0
  0
VERTEX
  8
LAYER-1
 10
0.179705
 20
4.308392
 30
0.000000
  0
VERTEX
  8
LAYER-1
 10
0.294769
 20
4.308392
 30
0.000000
  0
VERTEX
  8
LAYER-1
 10
0.294769
 20
4.283611
 30
0.000000
  0
VERTEX
  8
LAYER-1
 10
0.179705
 20
4.283611
 30
0.000000
  0
SEQEND
  8
LAYER-1
  0
POLYLINE
  8
LAYER-1
 66
  1
 70
  1
 62
  0
  0
VERTEX
  8
LAYER-1
 10
0.328115
 20
4.308392
 30
0.000000
  0
VERTEX
  8
LAYER-1
 10
0.442383
 20
4.308392
 30
0.000000
  0
VERTEX
  8
LAYER-1
 10
0.442383
 20
4.283611
 30
0.000000
  0
VERTEX
  8
LAYER-1
 10
0.328115
 20
4.283611
 30
0.000000
  0
SEQEND
  8
LAYER-1
  0
POLYLINE
  8
LAYER-1
 66
  1
 70
  1
 62
  0
  0
VERTEX
  8
LAYER-1
 10
0.476523
 20
4.308392
 30
0.000000
  0
VERTEX
  8
LAYER-1
 10
0.590791
 20
4.308392
 30
0.000000
  0
VERTEX
  8
LAYER-1
 10
0.590791
 20
4.283611
 30
0.000000
  0
VERTEX
  8
LAYER-1
 10
0.476523
 20
4.283611
 30
0.000000
  0
SEQEND
  8
LAYER-1
  0
POLYLINE
  8
LAYER-1
 66
  1
 70
  1
 62
  0
  0
VERTEX
  8
LAYER-1
 10
0.624934
 20
4.308392
 30
0.000000
  0
VERTEX
  8
LAYER-1
 10
0.739201
 20
4.308392
 30
0.000000
  0
VERTEX
  8
LAYER-1
 10
0.739201
 20
4.283611
 30
0.000000
  0
VERTEX
  8
LAYER-1
 10
0.624934
 20
4.283611
 30
0.000000
  0
SEQEND
  8
LAYER-1
  0
POLYLINE
  8
LAYER-1
 66
  1
 70
  1
 62
  0
  0
VERTEX
  8
LAYER-1
 10
0.773341
 20
4.308392
 30
0.000000
  0
VERTEX
  8
LAYER-1
 10
0.888406
 20
4.308392
 30
0.000000
  0
VERTEX
  8
LAYER-1
 10
0.888406
 20
4.283611
 30
0.000000
  0
VERTEX
  8
LAYER-1
 10
0.773341
 20
4.283611
 30
0.000000
  0
SEQEND
  8
LAYER-1
  0
POLYLINE
  8
LAYER-1
 66
  1
 70
  1
 62
  0
  0
VERTEX
  8
LAYER-1
 10
0.921750
 20
4.308392
 30
0.000000
  0
VERTEX
  8
LAYER-1
 10
1.036017
 20
4.308392
 30
0.000000
  0
VERTEX
  8
LAYER-1
 10
1.036017
 20
4.283611
 30
0.000000
  0
VERTEX
  8
LAYER-1
 10
0.921750
 20
4.283611
 30
0.000000
  0
SEQEND
  8
LAYER-1
  0
POLYLINE
  8
LAYER-1
 66
  1
 70
  0
 62
  7
 10
0.031375
 20
5.146317
 30
0.000000
  0
VERTEX
  8
LAYER-1
 10
0.031375
 20
5.146317
 30
0.000000
  0
VERTEX
  8
LAYER-1
 10
0.031375
 20
5.042663
 30
0.000000
  0
SEQEND
  8
LAYER-1
  0
POLYLINE
  8
LAYER-1
 66
  1
 70
  0
 62
  7
 10
0.145784
 20
5.146317
 30
0.000000
  0
VERTEX
  8
LAYER-1
 10
0.145784
 20
5.146317
 30
0.000000
  0
VERTEX
  8
LAYER-1
 10
0.145784
 20
5.042663
 30
0.000000
  0
SEQEND
  8
LAYER-1
  0
POLYLINE
  8
LAYER-1
 66
  1
 70
  0
 62
  7
 10
0.179704
 20
5.146317
 30
0.000000
  0
VERTEX
  8
LAYER-1
 10
0.179704
 20
5.146317
 30
0.000000
  0
VERTEX
  8
LAYER-1
 10
0.179704
 20
5.042663
 30
0.000000
  0
SEQEND
  8
LAYER-1
  0
POLYLINE
  8
LAYER-1
 66
  1
 70
  0
 62
  7
 10
0.294257
 20
5.146317
 30
0.000000
  0
VERTEX
  8
LAYER-1
 10
0.294257
 20
5.146317
 30
0.000000
  0
VERTEX
  8
LAYER-1
 10
0.294257
 20
5.042663
 30
0.000000
  0
SEQEND
  8
LAYER-1
  0
POLYLINE
  8
LAYER-1
 66
  1
 70
  0
 62
  7
 10
0.328176
 20
5.146317
 30
0.000000
  0
VERTEX
  8
LAYER-1
 10
0.328176
 20
5.146317
 30
0.000000
  0
VERTEX
  8
LAYER-1
 10
0.328176
 20
5.042663
 30
0.000000
  0
SEQEND
  8
LAYER-1
  0
POLYLINE
  8
LAYER-1
 66
  1
 70
  0
 62
  7
 10
0.442583
 20
5.146317
 30
0.000000
  0
VERTEX
  8
LAYER-1
 10
0.442583
 20
5.146317
 30
0.000000
  0
VERTEX
  8
LAYER-1
 10
0.442583
 20
5.042663
 30
0.000000
  0
SEQEND
  8
LAYER-1
  0
POLYLINE
  8
LAYER-1
 66
  1
 70
  0
 62
  7
 10
0.476503
 20
5.146317
 30
0.000000
  0
VERTEX
  8
LAYER-1
 10
0.476503
 20
5.146317
 30
0.000000
  0
VERTEX
  8
LAYER-1
 10
0.476503
 20
5.042663
 30
0.000000
  0
SEQEND
  8
LAYER-1
  0
POLYLINE
  8
LAYER-1
 66
  1
 70
  0
 62
  7
 10
0.590910
 20
5.146317
 30
0.000000
  0
VERTEX
  8
LAYER-1
 10
0.590910
 20
5.146317
 30
0.000000
  0
VERTEX
  8
LAYER-1
 10
0.590910
 20
5.042663
 30
0.000000
  0
SEQEND
  8
LAYER-1
  0
POLYLINE
  8
LAYER-1
 66
  1
 70
  0
 62
  7
 10
0.624975
 20
5.146317
 30
0.000000
  0
VERTEX
  8
LAYER-1
 10
0.624975
 20
5.146317
 30
0.000000
  0
VERTEX
  8
LAYER-1
 10
0.624975
 20
5.042663
 30
0.000000
  0
SEQEND
  8
LAYER-1
  0
POLYLINE
  8
LAYER-1
 66
  1
 70
  0
 62
  7
 10
0.739382
 20
5.146317
 30
0.000000
  0
VERTEX
  8
LAYER-1
 10
0.739382
 20
5.146317
 30
0.000000
  0
VERTEX
  8
LAYER-1
 10
0.739382
 20
5.042663
 30
0.000000
  0
SEQEND
  8
LAYER-1
  0
POLYLINE
  8
LAYER-1
 66
  1
 70
  0
 62
  7
 10
0.773447
 20
5.146317
 30
0.000000
  0
VERTEX
  8
LAYER-1
 10
0.773447
 20
5.146317
 30
0.000000
  0
VERTEX
  8
LAYER-1
 10
0.773447
 20
5.042663
 30
0.000000
  0
SEQEND
  8
LAYER-1
  0
POLYLINE
  8
LAYER-1
 66
  1
 70
  0
 62
  7
 10
0.887854
 20
5.146317
 30
0.000000
  0
VERTEX
  8
LAYER-1
 10
0.887854
 20
5.146317
 30
0.000000
  0
VERTEX
  8
LAYER-1
 10
0.887854
 20
5.042663
 30
0.000000
  0
SEQEND
  8
LAYER-1
  0
POLYLINE
  8
LAYER-1
 66
  1
 70
  0
 62
  7
 10
0.921047
 20
5.146317
 30
0.000000
  0
VERTEX
  8
LAYER-1
 10
0.921047
 20
5.146317
 30
0.000000
  0
VERTEX
  8
LAYER-1
 10
0.921047
 20
5.042663
 30
0.000000
  0
SEQEND
  8
LAYER-1
  0
POLYLINE
  8
LAYER-1
 66
  1
 70
  0
 62
  7
 10
1.036183
 20
5.146317
 30
0.000000
  0
VERTEX
  8
LAYER-1
 10
1.036183
 20
5.146317
 30
0.000000
  0
VERTEX
  8
LAYER-1
 10
1.036183
 20
5.042663
 30
0.000000
  0
SEQEND
  8
LAYER-1
  0
POLYLINE
  8
LAYER-1
 66
  1
 70
  0
 62
  7
 10
0.031297
 20
4.308392
 30
0.000000
  0
VERTEX
  8
LAYER-1
 10
0.031297
 20
4.308392
 30
0.000000
  0
VERTEX
  8
LAYER-1
 10
0.031297
 20
4.283611
 30
0.000000
  0
SEQEND
  8
LAYER-1
  0
POLYLINE
  8
LAYER-1
 66
  1
 70
  0
 62
  7
 10
0.145564
 20
4.308392
 30
0.000000
  0
VERTEX
  8
LAYER-1
 10
0.145564
 20
4.308392
 30
0.000000
  0
VERTEX
  8
LAYER-1
 10
0.145564
 20
4.283611
 30
0.000000
  0
SEQEND
  8
LAYER-1
  0
POLYLINE
  8
LAYER-1
 66
  1
 70
  0
 62
  7
 10
0.179705
 20
4.308392
 30
0.000000
  0
VERTEX
  8
LAYER-1
 10
0.179705
 20
4.308392
 30
0.000000
  0
VERTEX
  8
LAYER-1
 10
0.179705
 20
4.283611
 30
0.000000
  0
SEQEND
  8
LAYER-1
  0
POLYLINE
  8
LAYER-1
 66
  1
 70
  0
 62
  7
 10
0.294769
 20
4.308392
 30
0.000000
  0
VERTEX
  8
LAYER-1
 10
0.294769
 20
4.308392
 30
0.000000
  0
VERTEX
  8
LAYER-1
 10
0.294769
 20
4.283611
 30
0.000000
  0
SEQEND
  8
LAYER-1
  0
POLYLINE
  8
LAYER-1
 66
  1
 70
  0
 62
  7
 10
0.328115
 20
4.308392
 30
0.000000
  0
VERTEX
  8
LAYER-1
 10
0.328115
 20
4.308392
 30
0.000000
  0
VERTEX
  8
LAYER-1
 10
0.328115
 20
4.283611
 30
0.000000
  0
SEQEND
  8
LAYER-1
  0
POLYLINE
  8
LAYER-1
 66
  1
 70
  0
 62
  7
 10
0.442383
 20
4.308392
 30
0.000000
  0
VERTEX
  8
LAYER-1
 10
0.442383
 20
4.308392
 30
0.000000
  0
VERTEX
  8
LAYER-1
 10
0.442383
 20
4.283611
 30
0.000000
  0
SEQEND
  8
LAYER-1
  0
POLYLINE
  8
LAYER-1
 66
  1
 70
  0
 62
  7
 10
0.476523
 20
4.308392
 30
0.000000
  0
VERTEX
  8
LAYER-1
 10
0.476523
 20
4.308392
 30
0.000000
  0
VERTEX
  8
LAYER-1
 10
0.476523
 20
4.283611
 30
0.000000
  0
SEQEND
  8
LAYER-1
  0
POLYLINE
  8
LAYER-1
 66
  1
 70
  0
 62
  7
 10
0.590791
 20
4.308392
 30
0.000000
  0
VERTEX
  8
LAYER-1
 10
0.590791
 20
4.308392
 30
0.000000
  0
VERTEX
  8
LAYER-1
 10
0.590791
 20
4.283611
 30
0.000000
  0
SEQEND
  8
LAYER-1
  0
POLYLINE
  8
LAYER-1
 66
  1
 70
  0
 62
  7
 10
0.624934
 20
4.308392
 30
0.000000
  0
VERTEX
  8
LAYER-1
 10
0.624934
 20
4.308392
 30
0.000000
  0
VERTEX
  8
LAYER-1
 10
0.624934
 20
4.283611
 30
0.000000
  0
SEQEND
  8
LAYER-1
  0
POLYLINE
  8
LAYER-1
 66
  1
 70
  0
 62
  7
 10
0.739201
 20
4.308392
 30
0.000000
  0
VERTEX
  8
LAYER-1
 10
0.739201
 20
4.308392
 30
0.000000
  0
VERTEX
  8
LAYER-1
 10
0.739201
 20
4.283611
 30
0.000000
  0
SEQEND
  8
LAYER-1
  0
POLYLINE
  8
LAYER-1
 66
  1
 70
  0
 62
  7
 10
0.773341
 20
4.308392
 30
0.000000
  0
VERTEX
  8
LAYER-1
 10
0.773341
 20
4.308392
 30
0.000000
  0
VERTEX
  8
LAYER-1
 10
0.773341
 20
4.283611
 30
0.000000
  0
SEQEND
  8
LAYER-1
  0
POLYLINE
  8
LAYER-1
 66
  1
 70
  0
 62
  7
 10
0.888406
 20
4.308392
 30
0.000000
  0
VERTEX
  8
LAYER-1
 10
0.888406
 20
4.308392
 30
0.000000
  0
VERTEX
  8
LAYER-1
 10
0.888406
 20
4.283611
 30
0.000000
  0
SEQEND
  8
LAYER-1
  0
POLYLINE
  8
LAYER-1
 66
  1
 70
  0
 62
  7
 10
0.921750
 20
4.308392
 30
0.000000
  0
VERTEX
  8
LAYER-1
 10
0.921750
 20
4.308392
 30
0.000000
  0
VERTEX
  8
LAYER-1
 10
0.921750
 20
4.283611
 30
0.000000
  0
SEQEND
  8
LAYER-1
  0
POLYLINE
  8
LAYER-1
 66
  1
 70
  0
 62
  7
 10
1.036017
 20
4.308392
 30
0.000000
  0
VERTEX
  8
LAYER-1
 10
1.036017
 20
4.308392
 30
0.000000
  0
VERTEX
  8
LAYER-1
 10
1.036017
 20
4.283611
 30
0.000000
  0
SEQEND
  8
LAYER-1
  0
POLYLINE
  8
LAYER-1
 66
  1
 70
  0
 62
  7
 10
0.031375
 20
3.551135
 30
0.000000
  0
VERTEX
  8
LAYER-1
 10
0.031375
 20
3.551135
 30
0.000000
  0
VERTEX
  8
LAYER-1
 10
0.031375
 20
3.447481
 30
0.000000
  0
SEQEND
  8
LAYER-1
  0
POLYLINE
  8
LAYER-1
 66
  1
 70
  0
 62
  7
 10
0.145716
 20
3.551135
 30
0.000000
  0
VERTEX
  8
LAYER-1
 10
0.145716
 20
3.551135
 30
0.000000
  0
VERTEX
  8
LAYER-1
 10
0.145716
 20
3.447525
 30
0.000000
  0
SEQEND
  8
LAYER-1
  0
POLYLINE
  8
LAYER-1
 66
  1
 70
  0
 62
  7
 10
0.179704
 20
3.551135
 30
0.000000
  0
VERTEX
  8
LAYER-1
 10
0.179704
 20
3.551135
 30
0.000000
  0
VERTEX
  8
LAYER-1
 10
0.179704
 20
3.447481
 30
0.000000
  0
SEQEND
  8
LAYER-1
  0
POLYLINE
  8
LAYER-1
 66
  1
 70
  0
 62
  7
 10
0.294334
 20
3.551135
 30
0.000000
  0
VERTEX
  8
LAYER-1
 10
0.294334
 20
3.551135
 30
0.000000
  0
VERTEX
  8
LAYER-1
 10
0.294334
 20
3.447525
 30
0.000000
  0
SEQEND
  8
LAYER-1
  0
POLYLINE
  8
LAYER-1
 66
  1
 70
  0
 62
  7
 10
0.328176
 20
3.551135
 30
0.000000
  0
VERTEX
  8
LAYER-1
 10
0.328176
 20
3.551135
 30
0.000000
  0
VERTEX
  8
LAYER-1
 10
0.328176
 20
3.447803
 30
0.000000
  0
SEQEND
  8
LAYER-1
  0
POLYLINE
  8
LAYER-1
 66
  1
 70
  0
 62
  7
 10
0.442515
 20
3.551135
 30
0.000000
  0
VERTEX
  8
LAYER-1
 10
0.442515
 20
3.551135
 30
0.000000
  0
VERTEX
  8
LAYER-1
 10
0.442515
 20
3.447525
 30
0.000000
  0
SEQEND
  8
LAYER-1
  0
POLYLINE
  8
LAYER-1
 66
  1
 70
  0
 62
  7
 10
0.476503
 20
3.551135
 30
0.000000
  0
VERTEX
  8
LAYER-1
 10
0.476503
 20
3.551135
 30
0.000000
  0
VERTEX
  8
LAYER-1
 10
0.476503
 20
3.447481
 30
0.000000
  0
SEQEND
  8
LAYER-1
  0
POLYLINE
  8
LAYER-1
 66
  1
 70
  0
 62
  7
 10
0.590987
 20
3.551135
 30
0.000000
  0
VERTEX
  8
LAYER-1
 10
0.590987
 20
3.551135
 30
0.000000
  0
VERTEX
  8
LAYER-1
 10
0.590987
 20
3.447525
 30
0.000000
  0
SEQEND
  8
LAYER-1
  0
POLYLINE
  8
LAYER-1
 66
  1
 70
  0
 62
  7
 10
0.624975
 20
3.551135
 30
0.000000
  0
VERTEX
  8
LAYER-1
 10
0.624975
 20
3.551135
 30
0.000000
  0
VERTEX
  8
LAYER-1
 10
0.624975
 20
3.447481
 30
0.000000
  0
SEQEND
  8
LAYER-1
  0
POLYLINE
  8
LAYER-1
 66
  1
 70
  0
 62
  7
 10
0.739314
 20
3.551135
 30
0.000000
  0
VERTEX
  8
LAYER-1
 10
0.739314
 20
3.551135
 30
0.000000
  0
VERTEX
  8
LAYER-1
 10
0.739314
 20
3.447803
 30
0.000000
  0
SEQEND
  8
LAYER-1
  0
POLYLINE
  8
LAYER-1
 66
  1
 70
  0
 62
  7
 10
0.773447
 20
3.551135
 30
0.000000
  0
VERTEX
  8
LAYER-1
 10
0.773447
 20
3.551135
 30
0.000000
  0
VERTEX
  8
LAYER-1
 10
0.773447
 20
3.447481
 30
0.000000
  0
SEQEND
  8
LAYER-1
  0
POLYLINE
  8
LAYER-1
 66
  1
 70
  0
 62
  7
 10
0.887788
 20
3.551135
 30
0.000000
  0
VERTEX
  8
LAYER-1
 10
0.887788
 20
3.551135
 30
0.000000
  0
VERTEX
  8
LAYER-1
 10
0.887788
 20
3.447525
 30
0.000000
  0
SEQEND
  8
LAYER-1
  0
POLYLINE
  8
LAYER-1
 66
  1
 70
  0
 62
  7
 10
0.921774
 20
3.551135
 30
0.000000
  0
VERTEX
  8
LAYER-1
 10
0.921774
 20
3.551135
 30
0.000000
  0
VERTEX
  8
LAYER-1
 10
0.921774
 20
3.447481
 30
0.000000
  0
SEQEND
  8
LAYER-1
  0
POLYLINE
  8
LAYER-1
 66
  1
 70
  0
 62
  7
 10
1.036261
 20
3.551135
 30
0.000000
  0
VERTEX
  8
LAYER-1
 10
1.036261
 20
3.551135
 30
0.000000
  0
VERTEX
  8
LAYER-1
 10
1.036261
 20
3.447525
 30
0.000000
  0
SEQEND
  8
LAYER-1
  0
POLYLINE
  8
LAYER-1
 66
  1
 70
  0
 62
  7
 10
0.162300
 20
5.146317
 30
0.000000
  0
VERTEX
  8
LAYER-1
 10
0.162300
 20
5.146317
 30
0.000000
  0
VERTEX
  8
LAYER-1
 10
0.162300
 20
3.447481
 30
0.000000
  0
SEQEND
  8
LAYER-1
  0
POLYLINE
  8
LAYER-1
 66
  1
 70
  0
 62
  7
 10
0.310707
 20
5.146317
 30
0.000000
  0
VERTEX
  8
LAYER-1
 10
0.310707
 20
5.146317
 30
0.000000
  0
VERTEX
  8
LAYER-1
 10
0.310707
 20
3.447481
 30
0.000000
  0
SEQEND
  8
LAYER-1
  0
POLYLINE
  8
LAYER-1
 66
  1
 70
  0
 62
  7
 10
0.459116
 20
5.146317
 30
0.000000
  0
VERTEX
  8
LAYER-1
 10
0.459116
 20
5.146317
 30
0.000000
  0
VERTEX
  8
LAYER-1
 10
0.459116
 20
3.447481
 30
0.000000
  0
SEQEND
  8
LAYER-1
  0
POLYLINE
  8
LAYER-1
 66
  1
 70
  0
 62
  7
 10
0.607526
 20
5.146317
 30
0.000000
  0
VERTEX
  8
LAYER-1
 10
0.607526
 20
5.146317
 30
0.000000
  0
VERTEX
  8
LAYER-1
 10
0.607526
 20
3.447481
 30
0.000000
  0
SEQEND
  8
LAYER-1
  0
POLYLINE
  8
LAYER-1
 66
  1
 70
  0
 62
  7
 10
0.755934
 20
5.146317
 30
0.000000
  0
VERTEX
  8
LAYER-1
 10
0.755934
 20
5.146317
 30
0.000000
  0
VERTEX
  8
LAYER-1
 10
0.755934
 20
3.447481
 30
0.000000
  0
SEQEND
  8
LAYER-1
  0
POLYLINE
  8
LAYER-1
 66
  1
 70
  0
 62
  7
 10
0.904344
 20
5.146317
 30
0.000000
  0
VERTEX
  8
LAYER-1
 10
0.904344
 20
5.146317
 30
0.000000
  0
VERTEX
  8
LAYER-1
 10
0.904344
 20
3.447481
 30
0.000000
  0
SEQEND
  8
LAYER-1
  0
POLYLINE
  8
LAYER-1
 66
  1
 70
  0
 62
  0
 10
0.031375
 20
5.042663
 30
0.000000
  0
VERTEX
  8
LAYER-1
 10
0.031375
 20
5.042663
 30
0.000000
  0
VERTEX
  8
LAYER-1
 10
0.145784
 20
5.042663
 30
0.000000
  0
SEQEND
  8
LAYER-1
  0
POLYLINE
  8
LAYER-1
 66
  1
 70
  0
 62
  0
 10
0.179704
 20
5.042663
 30
0.000000
  0
VERTEX
  8
LAYER-1
 10
0.179704
 20
5.042663
 30
0.000000
  0
VERTEX
  8
LAYER-1
 10
0.294257
 20
5.042663
 30
0.000000
  0
SEQEND
  8
LAYER-1
  0
POLYLINE
  8
LAYER-1
 66
  1
 70
  0
 62
  0
 10
0.328176
 20
5.042663
 30
0.000000
  0
VERTEX
  8
LAYER-1
 10
0.328176
 20
5.042663
 30
0.000000
  0
VERTEX
  8
LAYER-1
 10
0.442583
 20
5.042663
 30
0.000000
  0
SEQEND
  8
LAYER-1
  0
POLYLINE
  8
LAYER-1
 66
  1
 70
  0
 62
  0
 10
0.476503
 20
5.042663
 30
0.000000
  0
VERTEX
  8
LAYER-1
 10
0.476503
 20
5.042663
 30
0.000000
  0
VERTEX
  8
LAYER-1
 10
0.590910
 20
5.042663
 30
0.000000
  0
SEQEND
  8
LAYER-1
  0
POLYLINE
  8
LAYER-1
 66
  1
 70
  0
 62
  0
 10
0.624975
 20
5.042663
 30
0.000000
  0
VERTEX
  8
LAYER-1
 10
0.624975
 20
5.042663
 30
0.000000
  0
VERTEX
  8
LAYER-1
 10
0.739382
 20
5.042663
 30
0.000000
  0
SEQEND
  8
LAYER-1
  0
POLYLINE
  8
LAYER-1
 66
  1
 70
  0
 62
  0
 10
0.773447
 20
5.042663
 30
0.000000
  0
VERTEX
  8
LAYER-1
 10
0.773447
 20
5.042663
 30
0.000000
  0
VERTEX
  8
LAYER-1
 10
0.887854
 20
5.042663
 30
0.000000
  0
SEQEND
  8
LAYER-1
  0
POLYLINE
  8
LAYER-1
 66
  1
 70
  0
 62
  0
 10
0.921047
 20
5.042663
 30
0.000000
  0
VERTEX
  8
LAYER-1
 10
0.921047
 20
5.042663
 30
0.000000
  0
VERTEX
  8
LAYER-1
 10
1.036183
 20
5.042663
 30
0.000000
  0
SEQEND
  8
LAYER-1
  0
POLYLINE
  8
LAYER-1
 66
  1
 70
  0
 62
  0
 10
0.031375
 20
3.551135
 30
0.000000
  0
VERTEX
  8
LAYER-1
 10
0.031375
 20
3.551135
 30
0.000000
  0
VERTEX
  8
LAYER-1
 10
0.145716
 20
3.551135
 30
0.000000
  0
SEQEND
  8
LAYER-1
  0
POLYLINE
  8
LAYER-1
 66
  1
 70
  0
 62
  0
 10
0.179704
 20
3.551135
 30
0.000000
  0
VERTEX
  8
LAYER-1
 10
0.179704
 20
3.551135
 30
0.000000
  0
VERTEX
  8
LAYER-1
 10
0.294334
 20
3.551135
 30
0.000000
  0
SEQEND
  8
LAYER-1
  0
POLYLINE
  8
LAYER-1
 66
  1
 70
  0
 62
  0
 10
0.328176
 20
3.551135
 30
0.000000
  0
VERTEX
  8
LAYER-1
 10
0.328176
 20
3.551135
 30
0.000000
  0
VERTEX
  8
LAYER-1
 10
0.442515
 20
3.551135
 30
0.000000
  0
SEQEND
  8
LAYER-1
  0
POLYLINE
  8
LAYER-1
 66
  1
 70
  0
 62
  0
 10
0.476503
 20
3.551135
 30
0.000000
  0
VERTEX
  8
LAYER-1
 10
0.476503
 20
3.551135
 30
0.000000
  0
VERTEX
  8
LAYER-1
 10
0.590987
 20
3.551135
 30
0.000000
  0
SEQEND
  8
LAYER-1
  0
POLYLINE
  8
LAYER-1
 66
  1
 70
  0
 62
  0
 10
0.624975
 20
3.551135
 30
0.000000
  0
VERTEX
  8
LAYER-1
 10
0.624975
 20
3.551135
 30
0.000000
  0
VERTEX
  8
LAYER-1
 10
0.739314
 20
3.551135
 30
0.000000
  0
SEQEND
  8
LAYER-1
  0
POLYLINE
  8
LAYER-1
 66
  1
 70
  0
 62
  0
 10
0.773447
 20
3.551135
 30
0.000000
  0
VERTEX
  8
LAYER-1
 10
0.773447
 20
3.551135
 30
0.000000
  0
VERTEX
  8
LAYER-1
 10
0.887788
 20
3.551135
 30
0.000000
  0
SEQEND
  8
LAYER-1
  0
POLYLINE
  8
LAYER-1
 66
  1
 70
  0
 62
  0
 10
0.921774
 20
3.551135
 30
0.000000
  0
VERTEX
  8
LAYER-1
 10
0.921774
 20
3.551135
 30
0.000000
  0
VERTEX
  8
LAYER-1
 10
1.036261
 20
3.551135
 30
0.000000
  0
SEQEND
  8
LAYER-1
  0
POLYLINE
  8
LAYER-1
 66
  1
 70
  0
 62
  0
 10
0.013889
 20
3.447481
 30
0.000000
  0
VERTEX
  8
LAYER-1
 10
0.013889
 20
3.447481
 30
0.000000
  0
VERTEX
  8
LAYER-1
 10
1.053577
 20
3.447525
 30
0.000000
  0
SEQEND
  8
LAYER-1
  0
POLYLINE
  8
LAYER-1
 66
  1
 70
  0
 62
  0
 10
0.013889
 20
5.146317
 30
0.000000
  0
VERTEX
  8
LAYER-1
 10
0.013889
 20
5.146317
 30
0.000000
  0
VERTEX
  8
LAYER-1
 10
1.053577
 20
5.146317
 30
0.000000
  0
SEQEND
  8
LAYER-1
  0
POLYLINE
  8
LAYER-1
 66
  1
 70
  0
 62
  7
 10
0.230864
 20
5.144396
 30
0.000000
  0
VERTEX
  8
LAYER-1
 10
0.230864
 20
5.144396
 30
0.000000
  0
VERTEX
  8
LAYER-1
 10
0.230864
 20
5.041089
 30
0.000000
  0
SEQEND
  8
LAYER-1
  0
POLYLINE
  8
LAYER-1
 66
  1
 70
  0
 62
  7
 10
0.242783
 20
5.144396
 30
0.000000
  0
VERTEX
  8
LAYER-1
 10
0.242783
 20
5.144396
 30
0.000000
  0
VERTEX
  8
LAYER-1
 10
0.242783
 20
5.041089
 30
0.000000
  0
SEQEND
  8
LAYER-1
  0
POLYLINE
  8
LAYER-1
 66
  1
 70
  0
 62
  7
 10
0.528859
 20
5.145984
 30
0.000000
  0
VERTEX
  8
LAYER-1
 10
0.528859
 20
5.145984
 30
0.000000
  0
VERTEX
  8
LAYER-1
 10
0.528859
 20
5.042678
 30
0.000000
  0
SEQEND
  8
LAYER-1
  0
POLYLINE
  8
LAYER-1
 66
  1
 70
  0
 62
  7
 10
0.540778
 20
5.145984
 30
0.000000
  0
VERTEX
  8
LAYER-1
 10
0.540778
 20
5.145984
 30
0.000000
  0
VERTEX
  8
LAYER-1
 10
0.540778
 20
5.042678
 30
0.000000
  0
SEQEND
  8
LAYER-1
  0
POLYLINE
  8
LAYER-1
 66
  1
 70
  0
 62
  7
 10
0.826061
 20
5.143601
 30
0.000000
  0
VERTEX
  8
LAYER-1
 10
0.826061
 20
5.143601
 30
0.000000
  0
VERTEX
  8
LAYER-1
 10
0.826061
 20
5.040295
 30
0.000000
  0
SEQEND
  8
LAYER-1
  0
POLYLINE
  8
LAYER-1
 66
  1
 70
  0
 62
  7
 10
0.837980
 20
5.143601
 30
0.000000
  0
VERTEX
  8
LAYER-1
 10
0.837980
 20
5.143601
 30
0.000000
  0
VERTEX
  8
LAYER-1
 10
0.837980
 20
5.040295
 30
0.000000
  0
SEQEND
  8
LAYER-1
  0
POLYLINE
  8
LAYER-1
 66
  1
 70
  1
 62
  0
  0
VERTEX
  8
LAYER-1
 10
3.714956
 20
0.356888
 30
0.000000
  0
VERTEX
  8
LAYER-1
 10
3.748514
 20
0.356888
 30
0.000000
  0
VERTEX
  8
LAYER-1
 10
3.748514
 20
0.261383
 30
0.000000
  0
VERTEX
  8
LAYER-1
 10
3.714956
 20
0.261383
 30
0.000000
  0
SEQEND
  8
LAYER-1
  0
POLYLINE
  8
LAYER-1
 66
  1
 70
  0
 62
  0
 10
3.734997
 20
2.467844
 30
0.000000
  0
VERTEX
  8
LAYER-1
 10
3.734997
 20
2.467844
 30
0.000000
  0
VERTEX
  8
LAYER-1
 10
3.734998
 20
2.467844
 30
0.000000
  0
SEQEND
  8
LAYER-1
  0
POLYLINE
  8
LAYER-1
 66
  1
 70
  0
 62
  0
 10
3.742963
 20
2.459880
 30
0.000000
  0
VERTEX
  8
LAYER-1
 10
3.742963
 20
2.459880
 30
0.000000
  0
VERTEX
  8
LAYER-1
 10
3.742963
 20
2.210336
 30
0.000000
  0
SEQEND
  8
LAYER-1
  0
POLYLINE
  8
LAYER-1
 66
  1
 70
  0
 62
  0
 10
3.734998
 20
2.202372
 30
0.000000
  0
VERTEX
  8
LAYER-1
 10
3.734998
 20
2.202372
 30
0.000000
  0
VERTEX
  8
LAYER-1
 10
3.734997
 20
2.202372
 30
0.000000
  0
SEQEND
  8
LAYER-1
  0
POLYLINE
  8
LAYER-1
 66
  1
 70
  0
 62
  0
 10
3.727033
 20
2.210336
 30
0.000000
  0
VERTEX
  8
LAYER-1
 10
3.727033
 20
2.210336
 30
0.000000
  0
VERTEX
  8
LAYER-1
 10
3.727033
 20
2.459880
 30
0.000000
  0
SEQEND
  8
LAYER-1
  0
ARC
  8
LAYER-1
 62
  0
 10
3.734997
 20
2.459880
 30
0.000000
 40
0.007964
 50
270.000000
 51
0.000000
  0
ARC
  8
LAYER-1
 62
  0
 10
3.734997
 20
2.210336
 30
0.000000
 40
0.007964
 50
0.000000
 51
90.000000
  0
ARC
  8
LAYER-1
 62
  0
 10
3.734998
 20
2.210336
 30
0.000000
 40
0.007964
 50
90.000000
 51
180.000000
  0
ARC
  8
LAYER-1
 62
  0
 10
3.734998
 20
2.459880
 30
0.000000
 40
0.007964
 50
180.000000
 51
270.000000
  0
CIRCLE
  8
LAYER-1
 62
  0
 10
3.735330
 20
2.205025
 30
0.000000
 40
0.022565
  0
CIRCLE
  8
LAYER-1
 62
  0
 10
3.735330
 20
2.205025
 30
0.000000
 40
0.016522
  0
CIRCLE
  8
LAYER-1
 62
  0
 10
3.735330
 20
2.205025
 30
0.000000
 40
0.013746
  0
CIRCLE
  8
LAYER-1
 62
  0
 10
3.735330
 20
2.205025
 30
0.000000
 40
0.008860
  0
POLYLINE
  8
LAYER-1
 66
  1
 70
  0
 62
  0
 10
3.685053
 20
0.253722
 30
0.000000
  0
VERTEX
  8
LAYER-1
 10
3.685053
 20
0.253722
 30
0.000000
  0
VERTEX
  8
LAYER-1
 10
3.697831
 20
0.261287
 30
0.000000
  0
SEQEND
  8
LAYER-1
  0
POLYLINE
  8
LAYER-1
 66
  1
 70
  0
 62
  0
 10
3.685053
 20
0.253722
 30
0.000000
  0
VERTEX
  8
LAYER-1
 10
3.685053
 20
0.253722
 30
0.000000
  0
VERTEX
  8
LAYER-1
 10
3.685053
 20
0.252157
 30
0.000000
  0
SEQEND
  8
LAYER-1
  0
POLYLINE
  8
LAYER-1
 66
  1
 70
  1
 62
  0
  0
VERTEX
  8
LAYER-1
 10
3.703496
 20
0.252144
 30
0.000000
  0
VERTEX
  8
LAYER-1
 10
3.760083
 20
0.252144
 30
0.000000
  0
VERTEX
  8
LAYER-1
 10
3.760083
 20
0.064481
 30
0.000000
  0
VERTEX
  8
LAYER-1
 10
3.703496
 20
0.064481
 30
0.000000
  0
SEQEND
  8
LAYER-1
  0
POLYLINE
  8
LAYER-1
  6
LTYPE01
 66
  1
 70
  1
 62
  0
  0
VERTEX
  8
LAYER-1
  6
LTYPE01
 10
3.708190
 20
0.261269
 30
0.000000
  0
VERTEX
  8
LAYER-1
  6
LTYPE01
 10
3.755130
 20
0.261269
 30
0.000000
  0
VERTEX
  8
LAYER-1
  6
LTYPE01
 10
3.755130
 20
0.074041
 30
0.000000
  0
VERTEX
  8
LAYER-1
  6
LTYPE01
 10
3.708190
 20
0.074041
 30
0.000000
  0
SEQEND
  8
LAYER-1
  0
POLYLINE
  8
LAYER-1
 66
  1
 70
  0
 62
  0
 10
3.685053
 20
0.252157
 30
0.000000
  0
VERTEX
  8
LAYER-1
 10
3.685053
 20
0.252157
 30
0.000000
  0
VERTEX
  8
LAYER-1
 10
3.778670
 20
0.252157
 30
0.000000
  0
SEQEND
  8
LAYER-1
  0
POLYLINE
  8
LAYER-1
 66
  1
 70
  0
 62
  0
 10
3.778670
 20
0.252157
 30
0.000000
  0
VERTEX
  8
LAYER-1
 10
3.778670
 20
0.252157
 30
0.000000
  0
VERTEX
  8
LAYER-1
 10
3.778670
 20
0.253722
 30
0.000000
  0
SEQEND
  8
LAYER-1
  0
POLYLINE
  8
LAYER-1
 66
  1
 70
  0
 62
  0
 10
3.778670
 20
0.253722
 30
0.000000
  0
VERTEX
  8
LAYER-1
 10
3.778670
 20
0.253722
 30
0.000000
  0
VERTEX
  8
LAYER-1
 10
3.765631
 20
0.261287
 30
0.000000
  0
SEQEND
  8
LAYER-1
  0
POLYLINE
  8
LAYER-1
  6
LTYPE02
 66
  1
 70
  0
 62
  0
  6
LTYPE02
 10
3.709435
 20
0.160499
 30
0.000000
  0
VERTEX
  8
LAYER-1
  6
LTYPE02
 10
3.709435
 20
0.160499
 30
0.000000
  0
VERTEX
  8
LAYER-1
  6
LTYPE02
 10
3.709435
 20
0.126600
 30
0.000000
  0
SEQEND
  8
LAYER-1
  0
POLYLINE
  8
LAYER-1
  6
LTYPE02
 66
  1
 70
  0
 62
  0
  6
LTYPE02
 10
3.713343
 20
0.160499
 30
0.000000
  0
VERTEX
  8
LAYER-1
  6
LTYPE02
 10
3.713343
 20
0.160499
 30
0.000000
  0
VERTEX
  8
LAYER-1
  6
LTYPE02
 10
3.709435
 20
0.160499
 30
0.000000
  0
SEQEND
  8
LAYER-1
  0
POLYLINE
  8
LAYER-1
  6
LTYPE02
 66
  1
 70
  0
 62
  0
  6
LTYPE02
 10
3.713343
 20
0.160499
 30
0.000000
  0
VERTEX
  8
LAYER-1
  6
LTYPE02
 10
3.713343
 20
0.160499
 30
0.000000
  0
VERTEX
  8
LAYER-1
  6
LTYPE02
 10
3.713343
 20
0.164932
 30
0.000000
  0
SEQEND
  8
LAYER-1
  0
POLYLINE
  8
LAYER-1
  6
LTYPE02
 66
  1
 70
  0
 62
  0
  6
LTYPE02
 10
3.713343
 20
0.164932
 30
0.000000
  0
VERTEX
  8
LAYER-1
  6
LTYPE02
 10
3.713343
 20
0.164932
 30
0.000000
  0
VERTEX
  8
LAYER-1
  6
LTYPE02
 10
3.750603
 20
0.164932
 30
0.000000
  0
SEQEND
  8
LAYER-1
  0
POLYLINE
  8
LAYER-1
  6
LTYPE02
 66
  1
 70
  0
 62
  0
  6
LTYPE02
 10
3.709435
 20
0.126600
 30
0.000000
  0
VERTEX
  8
LAYER-1
  6
LTYPE02
 10
3.709435
 20
0.126600
 30
0.000000
  0
VERTEX
  8
LAYER-1
  6
LTYPE02
 10
3.753767
 20
0.126600
 30
0.000000
  0
SEQEND
  8
LAYER-1
  0
POLYLINE
  8
LAYER-1
  6
LTYPE02
 66
  1
 70
  0
 62
  0
  6
LTYPE02
 10
3.753767
 20
0.126600
 30
0.000000
  0
VERTEX
  8
LAYER-1
  6
LTYPE02
 10
3.753767
 20
0.126600
 30
0.000000
  0
VERTEX
  8
LAYER-1
  6
LTYPE02
 10
3.753767
 20
0.160499
 30
0.000000
  0
SEQEND
  8
LAYER-1
  0
POLYLINE
  8
LAYER-1
  6
LTYPE02
 66
  1
 70
  0
 62
  0
  6
LTYPE02
 10
3.750603
 20
0.160499
 30
0.000000
  0
VERTEX
  8
LAYER-1
  6
LTYPE02
 10
3.750603
 20
0.160499
 30
0.000000
  0
VERTEX
  8
LAYER-1
  6
LTYPE02
 10
3.753767
 20
0.160499
 30
0.000000
  0
SEQEND
  8
LAYER-1
  0
POLYLINE
  8
LAYER-1
  6
LTYPE02
 66
  1
 70
  0
 62
  0
  6
LTYPE02
 10
3.750603
 20
0.164932
 30
0.000000
  0
VERTEX
  8
LAYER-1
  6
LTYPE02
 10
3.750603
 20
0.164932
 30
0.000000
  0
VERTEX
  8
LAYER-1
  6
LTYPE02
 10
3.750603
 20
0.160499
 30
0.000000
  0
SEQEND
  8
LAYER-1
  0
POLYLINE
  8
LAYER-1
  6
LTYPE01
 66
  1
 70
  1
 62
  0
  0
VERTEX
  8
LAYER-1
  6
LTYPE01
 10
3.714572
 20
0.126454
 30
0.000000
  0
VERTEX
  8
LAYER-1
  6
LTYPE01
 10
3.748994
 20
0.126454
 30
0.000000
  0
VERTEX
  8
LAYER-1
  6
LTYPE01
 10
3.748994
 20
0.074300
 30
0.000000
  0
VERTEX
  8
LAYER-1
  6
LTYPE01
 10
3.714572
 20
0.074300
 30
0.000000
  0
SEQEND
  8
LAYER-1
  0
POLYLINE
  8
LAYER-1
  6
LTYPE02
 66
  1
 70
  0
 62
  0
  6
LTYPE02
 10
3.748994
 20
0.126454
 30
0.000000
  0
VERTEX
  8
LAYER-1
  6
LTYPE02
 10
3.748994
 20
0.126454
 30
0.000000
  0
VERTEX
  8
LAYER-1
  6
LTYPE02
 10
3.714572
 20
0.123586
 30
0.000000
  0
SEQEND
  8
LAYER-1
  0
POLYLINE
  8
LAYER-1
  6
LTYPE02
 66
  1
 70
  0
 62
  0
  6
LTYPE02
 10
3.748994
 20
0.124889
 30
0.000000
  0
VERTEX
  8
LAYER-1
  6
LTYPE02
 10
3.748994
 20
0.124889
 30
0.000000
  0
VERTEX
  8
LAYER-1
  6
LTYPE02
 10
3.714572
 20
0.121762
 30
0.000000
  0
SEQEND
  8
LAYER-1
  0
POLYLINE
  8
LAYER-1
  6
LTYPE02
 66
  1
 70
  0
 62
  0
  6
LTYPE02
 10
3.748994
 20
0.121500
 30
0.000000
  0
VERTEX
  8
LAYER-1
  6
LTYPE02
 10
3.748994
 20
0.121500
 30
0.000000
  0
VERTEX
  8
LAYER-1
  6
LTYPE02
 10
3.714572
 20
0.118630
 30
0.000000
  0
SEQEND
  8
LAYER-1
  0
POLYLINE
  8
LAYER-1
  6
LTYPE02
 66
  1
 70
  0
 62
  0
  6
LTYPE02
 10
3.748994
 20
0.119935
 30
0.000000
  0
VERTEX
  8
LAYER-1
  6
LTYPE02
 10
3.748994
 20
0.119935
 30
0.000000
  0
VERTEX
  8
LAYER-1
  6
LTYPE02
 10
3.714572
 20
0.116805
 30
0.000000
  0
SEQEND
  8
LAYER-1
  0
POLYLINE
  8
LAYER-1
  6
LTYPE02
 66
  1
 70
  0
 62
  0
  6
LTYPE02
 10
3.748994
 20
0.116352
 30
0.000000
  0
VERTEX
  8
LAYER-1
  6
LTYPE02
 10
3.748994
 20
0.116352
 30
0.000000
  0
VERTEX
  8
LAYER-1
  6
LTYPE02
 10
3.714572
 20
0.113482
 30
0.000000
  0
SEQEND
  8
LAYER-1
  0
POLYLINE
  8
LAYER-1
  6
LTYPE02
 66
  1
 70
  0
 62
  0
  6
LTYPE02
 10
3.748994
 20
0.114787
 30
0.000000
  0
VERTEX
  8
LAYER-1
  6
LTYPE02
 10
3.748994
 20
0.114787
 30
0.000000
  0
VERTEX
  8
LAYER-1
  6
LTYPE02
 10
3.714572
 20
0.111658
 30
0.000000
  0
SEQEND
  8
LAYER-1
  0
POLYLINE
  8
LAYER-1
  6
LTYPE02
 66
  1
 70
  0
 62
  0
  6
LTYPE02
 10
3.748930
 20
0.111852
 30
0.000000
  0
VERTEX
  8
LAYER-1
  6
LTYPE02
 10
3.748930
 20
0.111852
 30
0.000000
  0
VERTEX
  8
LAYER-1
  6
LTYPE02
 10
3.714507
 20
0.108983
 30
0.000000
  0
SEQEND
  8
LAYER-1
  0
POLYLINE
  8
LAYER-1
  6
LTYPE02
 66
  1
 70
  0
 62
  0
  6
LTYPE02
 10
3.748930
 20
0.110289
 30
0.000000
  0
VERTEX
  8
LAYER-1
  6
LTYPE02
 10
3.748930
 20
0.110289
 30
0.000000
  0
VERTEX
  8
LAYER-1
  6
LTYPE02
 10
3.714507
 20
0.107159
 30
0.000000
  0
SEQEND
  8
LAYER-1
  0
POLYLINE
  8
LAYER-1
  6
LTYPE02
 66
  1
 70
  0
 62
  0
  6
LTYPE02
 10
3.748930
 20
0.107029
 30
0.000000
  0
VERTEX
  8
LAYER-1
  6
LTYPE02
 10
3.748930
 20
0.107029
 30
0.000000
  0
VERTEX
  8
LAYER-1
  6
LTYPE02
 10
3.714507
 20
0.104160
 30
0.000000
  0
SEQEND
  8
LAYER-1
  0
POLYLINE
  8
LAYER-1
  6
LTYPE02
 66
  1
 70
  0
 62
  0
  6
LTYPE02
 10
3.748930
 20
0.105464
 30
0.000000
  0
VERTEX
  8
LAYER-1
  6
LTYPE02
 10
3.748930
 20
0.105464
 30
0.000000
  0
VERTEX
  8
LAYER-1
  6
LTYPE02
 10
3.714507
 20
0.102334
 30
0.000000
  0
SEQEND
  8
LAYER-1
  0
POLYLINE
  8
LAYER-1
  6
LTYPE02
 66
  1
 70
  0
 62
  0
  6
LTYPE02
 10
3.748930
 20
0.102073
 30
0.000000
  0
VERTEX
  8
LAYER-1
  6
LTYPE02
 10
3.748930
 20
0.102073
 30
0.000000
  0
VERTEX
  8
LAYER-1
  6
LTYPE02
 10
3.714507
 20
0.099204
 30
0.000000
  0
SEQEND
  8
LAYER-1
  0
POLYLINE
  8
LAYER-1
  6
LTYPE02
 66
  1
 70
  0
 62
  0
  6
LTYPE02
 10
3.748930
 20
0.100510
 30
0.000000
  0
VERTEX
  8
LAYER-1
  6
LTYPE02
 10
3.748930
 20
0.100510
 30
0.000000
  0
VERTEX
  8
LAYER-1
  6
LTYPE02
 10
3.714507
 20
0.097378
 30
0.000000
  0
SEQEND
  8
LAYER-1
  0
POLYLINE
  8
LAYER-1
  6
LTYPE02
 66
  1
 70
  0
 62
  0
  6
LTYPE02
 10
3.748930
 20
0.096923
 30
0.000000
  0
VERTEX
  8
LAYER-1
  6
LTYPE02
 10
3.748930
 20
0.096923
 30
0.000000
  0
VERTEX
  8
LAYER-1
  6
LTYPE02
 10
3.714507
 20
0.094054
 30
0.000000
  0
SEQEND
  8
LAYER-1
  0
POLYLINE
  8
LAYER-1
  6
LTYPE02
 66
  1
 70
  0
 62
  0
  6
LTYPE02
 10
3.748930
 20
0.095358
 30
0.000000
  0
VERTEX
  8
LAYER-1
  6
LTYPE02
 10
3.748930
 20
0.095358
 30
0.000000
  0
VERTEX
  8
LAYER-1
  6
LTYPE02
 10
3.714507
 20
0.092230
 30
0.000000
  0
SEQEND
  8
LAYER-1
  0
POLYLINE
  8
LAYER-1
  6
LTYPE02
 66
  1
 70
  0
 62
  0
  6
LTYPE02
 10
3.748864
 20
0.092424
 30
0.000000
  0
VERTEX
  8
LAYER-1
  6
LTYPE02
 10
3.748864
 20
0.092424
 30
0.000000
  0
VERTEX
  8
LAYER-1
  6
LTYPE02
 10
3.714443
 20
0.089556
 30
0.000000
  0
SEQEND
  8
LAYER-1
  0
POLYLINE
  8
LAYER-1
  6
LTYPE02
 66
  1
 70
  0
 62
  0
  6
LTYPE02
 10
3.748864
 20
0.090861
 30
0.000000
  0
VERTEX
  8
LAYER-1
  6
LTYPE02
 10
3.748864
 20
0.090861
 30
0.000000
  0
VERTEX
  8
LAYER-1
  6
LTYPE02
 10
3.714443
 20
0.087732
 30
0.000000
  0
SEQEND
  8
LAYER-1
  0
POLYLINE
  8
LAYER-1
  6
LTYPE02
 66
  1
 70
  0
 62
  0
  6
LTYPE02
 10
3.748994
 20
0.088057
 30
0.000000
  0
VERTEX
  8
LAYER-1
  6
LTYPE02
 10
3.748994
 20
0.088057
 30
0.000000
  0
VERTEX
  8
LAYER-1
  6
LTYPE02
 10
3.714572
 20
0.085188
 30
0.000000
  0
SEQEND
  8
LAYER-1
  0
POLYLINE
  8
LAYER-1
  6
LTYPE02
 66
  1
 70
  0
 62
  0
  6
LTYPE02
 10
3.748994
 20
0.086492
 30
0.000000
  0
VERTEX
  8
LAYER-1
  6
LTYPE02
 10
3.748994
 20
0.086492
 30
0.000000
  0
VERTEX
  8
LAYER-1
  6
LTYPE02
 10
3.714572
 20
0.083364
 30
0.000000
  0
SEQEND
  8
LAYER-1
  0
POLYLINE
  8
LAYER-1
  6
LTYPE02
 66
  1
 70
  0
 62
  0
  6
LTYPE02
 10
3.748994
 20
0.083103
 30
0.000000
  0
VERTEX
  8
LAYER-1
  6
LTYPE02
 10
3.748994
 20
0.083103
 30
0.000000
  0
VERTEX
  8
LAYER-1
  6
LTYPE02
 10
3.714572
 20
0.080234
 30
0.000000
  0
SEQEND
  8
LAYER-1
  0
POLYLINE
  8
LAYER-1
  6
LTYPE02
 66
  1
 70
  0
 62
  0
  6
LTYPE02
 10
3.748994
 20
0.081538
 30
0.000000
  0
VERTEX
  8
LAYER-1
  6
LTYPE02
 10
3.748994
 20
0.081538
 30
0.000000
  0
VERTEX
  8
LAYER-1
  6
LTYPE02
 10
3.714572
 20
0.078408
 30
0.000000
  0
SEQEND
  8
LAYER-1
  0
POLYLINE
  8
LAYER-1
  6
LTYPE02
 66
  1
 70
  0
 62
  0
  6
LTYPE02
 10
3.748994
 20
0.077953
 30
0.000000
  0
VERTEX
  8
LAYER-1
  6
LTYPE02
 10
3.748994
 20
0.077953
 30
0.000000
  0
VERTEX
  8
LAYER-1
  6
LTYPE02
 10
3.714572
 20
0.075083
 30
0.000000
  0
SEQEND
  8
LAYER-1
  0
POLYLINE
  8
LAYER-1
  6
LTYPE02
 66
  1
 70
  0
 62
  0
  6
LTYPE02
 10
3.748994
 20
0.076388
 30
0.000000
  0
VERTEX
  8
LAYER-1
  6
LTYPE02
 10
3.748994
 20
0.076388
 30
0.000000
  0
VERTEX
  8
LAYER-1
  6
LTYPE02
 10
3.725981
 20
0.074300
 30
0.000000
  0
SEQEND
  8
LAYER-1
  0
POLYLINE
  8
LAYER-1
  6
LTYPE02
 66
  1
 70
  0
 62
  0
  6
LTYPE02
 10
3.715564
 20
0.185665
 30
0.000000
  0
VERTEX
  8
LAYER-1
  6
LTYPE02
 10
3.715564
 20
0.185665
 30
0.000000
  0
VERTEX
  8
LAYER-1
  6
LTYPE02
 10
3.715564
 20
0.261287
 30
0.000000
  0
SEQEND
  8
LAYER-1
  0
POLYLINE
  8
LAYER-1
  6
LTYPE02
 66
  1
 70
  0
 62
  0
  6
LTYPE02
 10
3.747898
 20
0.185665
 30
0.000000
  0
VERTEX
  8
LAYER-1
  6
LTYPE02
 10
3.747898
 20
0.185665
 30
0.000000
  0
VERTEX
  8
LAYER-1
  6
LTYPE02
 10
3.747898
 20
0.261287
 30
0.000000
  0
SEQEND
  8
LAYER-1
  0
POLYLINE
  8
LAYER-1
  6
LTYPE01
 66
  1
 70
  0
 62
  0
  6
LTYPE01
 10
3.715563
 20
0.185665
 30
0.000000
  0
VERTEX
  8
LAYER-1
  6
LTYPE01
 10
3.715563
 20
0.185665
 30
0.000000
  0
VERTEX
  8
LAYER-1
  6
LTYPE01
 10
3.718330
 20
0.176201
 30
0.000000
  0
VERTEX
  8
LAYER-1
  6
LTYPE01
 10
3.729763
 20
0.171466
 30
0.000000
  0
VERTEX
  8
LAYER-1
  6
LTYPE01
 10
3.741195
 20
0.176201
 30
0.000000
  0
VERTEX
  8
LAYER-1
  6
LTYPE01
 10
3.747899
 20
0.185665
 30
0.000000
  0
SEQEND
  8
LAYER-1
  0
POLYLINE
  8
LAYER-1
 66
  1
 70
  0
 62
  0
 10
3.697831
 20
0.261287
 30
0.000000
  0
VERTEX
  8
LAYER-1
 10
3.697831
 20
0.261287
 30
0.000000
  0
VERTEX
  8
LAYER-1
 10
3.765631
 20
0.261287
 30
0.000000
  0
SEQEND
  8
LAYER-1
  0
POLYLINE
  8
LAYER-1
 66
  1
 70
  1
 62
  0
  0
VERTEX
  8
LAYER-1
 10
2.804647
 20
7.490250
 30
0.000000
  0
VERTEX
  8
LAYER-1
 10
2.829743
 20
7.490250
 30
0.000000
  0
VERTEX
  8
LAYER-1
 10
2.829743
 20
7.423932
 30
0.000000
  0
VERTEX
  8
LAYER-1
 10
2.804647
 20
7.423932
 30
0.000000
  0
SEQEND
  8
LAYER-1
  0
POLYLINE
  8
LAYER-1
 66
  1
 70
  1
 62
  0
  0
VERTEX
  8
LAYER-1
 10
1.983467
 20
7.490250
 30
0.000000
  0
VERTEX
  8
LAYER-1
 10
2.008562
 20
7.490250
 30
0.000000
  0
VERTEX
  8
LAYER-1
 10
2.008562
 20
7.423932
 30
0.000000
  0
VERTEX
  8
LAYER-1
 10
1.983467
 20
7.423932
 30
0.000000
  0
SEQEND
  8
LAYER-1
  0
POLYLINE
  8
LAYER-1
 66
  1
 70
  1
 62
  0
  0
VERTEX
  8
LAYER-1
 10
4.706557
 20
7.490250
 30
0.000000
  0
VERTEX
  8
LAYER-1
 10
4.731652
 20
7.490250
 30
0.000000
  0
VERTEX
  8
LAYER-1
 10
4.731652
 20
7.423932
 30
0.000000
  0
VERTEX
  8
LAYER-1
 10
4.706557
 20
7.423932
 30
0.000000
  0
SEQEND
  8
LAYER-1
  0
POLYLINE
  8
LAYER-1
 66
  1
 70
  1
 62
  0
  0
VERTEX
  8
LAYER-1
 10
5.527738
 20
7.490250
 30
0.000000
  0
VERTEX
  8
LAYER-1
 10
5.552833
 20
7.490250
 30
0.000000
  0
VERTEX
  8
LAYER-1
 10
5.552833
 20
7.423932
 30
0.000000
  0
VERTEX
  8
LAYER-1
 10
5.527738
 20
7.423932
 30
0.000000
  0
SEQEND
  8
LAYER-1
  0
POLYLINE
  8
LAYER-1
 66
  1
 70
  0
 62
  0
 10
2.181858
 20
7.153926
 30
0.000000
  0
VERTEX
  8
LAYER-1
 10
2.181858
 20
7.153926
 30
0.000000
  0
VERTEX
  8
LAYER-1
 10
2.217455
 20
7.153926
 30
0.000000
  0
SEQEND
  8
LAYER-1
  0
POLYLINE
  8
LAYER-1
 66
  1
 70
  0
 62
  0
 10
2.999729
 20
7.153926
 30
0.000000
  0
VERTEX
  8
LAYER-1
 10
2.999729
 20
7.153926
 30
0.000000
  0
VERTEX
  8
LAYER-1
 10
3.035323
 20
7.153926
 30
0.000000
  0
SEQEND
  8
LAYER-1
  0
POLYLINE
  8
LAYER-1
 66
  1
 70
  0
 62
  0
 10
3.647862
 20
7.153850
 30
0.000000
  0
VERTEX
  8
LAYER-1
 10
3.647862
 20
7.153850
 30
0.000000
  0
VERTEX
  8
LAYER-1
 10
3.683457
 20
7.153850
 30
0.000000
  0
SEQEND
  8
LAYER-1
  0
POLYLINE
  8
LAYER-1
 66
  1
 70
  0
 62
  0
 10
5.354019
 20
7.153926
 30
0.000000
  0
VERTEX
  8
LAYER-1
 10
5.354019
 20
7.153926
 30
0.000000
  0
VERTEX
  8
LAYER-1
 10
5.318424
 20
7.153926
 30
0.000000
  0
SEQEND
  8
LAYER-1
  0
POLYLINE
  8
LAYER-1
 66
  1
 70
  0
 62
  0
 10
4.536144
 20
7.153926
 30
0.000000
  0
VERTEX
  8
LAYER-1
 10
4.536144
 20
7.153926
 30
0.000000
  0
VERTEX
  8
LAYER-1
 10
4.500553
 20
7.153926
 30
0.000000
  0
SEQEND
  8
LAYER-1
  0
POLYLINE
  8
LAYER-1
 66
  1
 70
  0
 62
  0
 10
3.888006
 20
7.153849
 30
0.000000
  0
VERTEX
  8
LAYER-1
 10
3.888006
 20
7.153849
 30
0.000000
  0
VERTEX
  8
LAYER-1
 10
3.852414
 20
7.153849
 30
0.000000
  0
SEQEND
  8
LAYER-1
  0
TEXT
  8
LAYER-1
 62
  0
 10
1.087634
 20
7.086170
 30
0.000000
 40
0.125000
  1
Rail
 72
  5
 11
1.462634
 21
7.086170
 31
0.000000
  0
TEXT
  8
LAYER-1
 62
  0
 10
5.865411
 20
5.363948
 30
0.000000
 40
0.125000
  1
Policarbonato
 72
  5
 11
6.990411
 21
5.363948
 31
0.000000
  0
TEXT
  8
LAYER-1
 62
  0
 10
5.865411
 20
5.169503
 30
0.000000
 40
0.104167
  1
1/16
 72
  5
 11
6.226523
 21
5.169503
 31
0.000000
  0
TEXT
  8
LAYER-1
 62
  0
 10
6.226523
 20
5.169503
 30
0.000000
 40
0.125000
  1
" (1,6mm)
 72
  5
 11
7.045967
 21
5.169503
 31
0.000000
  0
POLYLINE
  8
LAYER-1
 66
  1
 70
  0
 62
  0
 10
5.826783
 20
5.484607
 30
0.000000
  0
VERTEX
  8
LAYER-1
 10
5.826783
 20
5.484607
 30
0.000000
  0
VERTEX
  8
LAYER-1
 10
5.585707
 20
5.799702
 30
0.000000
  0
SEQEND
  8
LAYER-1
  0
POLYLINE
  8
LAYER-1
 66
  1
 70
  1
 62
  0
  0
VERTEX
  8
LAYER-1
 10
5.573745
 20
5.815336
 30
0.000000
  0
VERTEX
  8
LAYER-1
 10
5.649035
 20
5.785501
 30
0.000000
  0
VERTEX
  8
LAYER-1
 10
5.615943
 20
5.760182
 30
0.000000
  0
VERTEX
  8
LAYER-1
 10
5.582851
 20
5.734864
 30
0.000000
  0
VERTEX
  8
LAYER-1
 10
5.573745
 20
5.815336
 30
0.000000
  0
SEQEND
  8
LAYER-1
  0
POLYLINE
  8
LAYER-1
 66
  1
 70
  0
 62
  0
 10
0.768283
 20
0.037543
 30
0.000000
  0
VERTEX
  8
LAYER-1
 10
0.768283
 20
0.037543
 30
0.000000
  0
VERTEX
  8
LAYER-1
 10
0.794766
 20
0.034087
 30
0.000000
  0
VERTEX
  8
LAYER-1
 10
0.814102
 20
0.034087
 30
0.000000
  0
VERTEX
  8
LAYER-1
 10
0.833438
 20
0.037560
 30
0.000000
  0
VERTEX
  8
LAYER-1
 10
0.852774
 20
0.037560
 30
0.000000
  0
VERTEX
  8
LAYER-1
 10
0.899181
 20
0.044503
 30
0.000000
  0
VERTEX
  8
LAYER-1
 10
0.933986
 20
0.054921
 30
0.000000
  0
VERTEX
  8
LAYER-1
 10
0.956223
 20
0.059261
 30
0.000000
  0
VERTEX
  8
LAYER-1
 10
0.977976
 20
0.060997
 30
0.000000
  0
VERTEX
  8
LAYER-1
 10
1.007463
 20
0.058393
 30
0.000000
  0
VERTEX
  8
LAYER-1
 10
1.038401
 20
0.054921
 30
0.000000
  0
VERTEX
  8
LAYER-1
 10
1.065472
 20
0.047976
 30
0.000000
  0
VERTEX
  8
LAYER-1
 10
1.084808
 20
0.044503
 30
0.000000
  0
VERTEX
  8
LAYER-1
 10
1.115746
 20
0.041032
 30
0.000000
  0
VERTEX
  8
LAYER-1
 10
1.135082
 20
0.037560
 30
0.000000
  0
VERTEX
  8
LAYER-1
 10
1.158285
 20
0.034087
 30
0.000000
  0
VERTEX
  8
LAYER-1
 10
1.185356
 20
0.034087
 30
0.000000
  0
VERTEX
  8
LAYER-1
 10
1.212426
 20
0.034087
 30
0.000000
  0
VERTEX
  8
LAYER-1
 10
1.235630
 20
0.034087
 30
0.000000
  0
VERTEX
  8
LAYER-1
 10
1.258833
 20
0.030615
 30
0.000000
  0
VERTEX
  8
LAYER-1
 10
1.297505
 20
0.030615
 30
0.000000
  0
VERTEX
  8
LAYER-1
 10
1.328443
 20
0.030615
 30
0.000000
  0
VERTEX
  8
LAYER-1
 10
1.347779
 20
0.027143
 30
0.000000
  0
VERTEX
  8
LAYER-1
 10
1.378718
 20
0.023671
 30
0.000000
  0
VERTEX
  8
LAYER-1
 10
1.409655
 20
0.020198
 30
0.000000
  0
VERTEX
  8
LAYER-1
 10
1.448327
 20
0.020198
 30
0.000000
  0
VERTEX
  8
LAYER-1
 10
1.479265
 20
0.020198
 30
0.000000
  0
VERTEX
  8
LAYER-1
 10
1.517937
 20
0.020198
 30
0.000000
  0
VERTEX
  8
LAYER-1
 10
1.548875
 20
0.027143
 30
0.000000
  0
VERTEX
  8
LAYER-1
 10
1.572079
 20
0.027143
 30
0.000000
  0
VERTEX
  8
LAYER-1
 10
1.591414
 20
0.030615
 30
0.000000
  0
VERTEX
  8
LAYER-1
 10
1.614618
 20
0.030615
 30
0.000000
  0
VERTEX
  8
LAYER-1
 10
1.633954
 20
0.030615
 30
0.000000
  0
VERTEX
  8
LAYER-1
 10
1.676494
 20
0.030615
 30
0.000000
  0
VERTEX
  8
LAYER-1
 10
1.722900
 20
0.023671
 30
0.000000
  0
VERTEX
  8
LAYER-1
 10
1.765440
 20
0.020198
 30
0.000000
  0
VERTEX
  8
LAYER-1
 10
1.827316
 20
0.013253
 30
0.000000
  0
VERTEX
  8
LAYER-1
 10
1.885324
 20
0.006310
 30
0.000000
  0
VERTEX
  8
LAYER-1
 10
1.935598
 20
0.006310
 30
0.000000
  0
VERTEX
  8
LAYER-1
 10
1.962669
 20
0.006310
 30
0.000000
  0
VERTEX
  8
LAYER-1
 10
1.997474
 20
0.006310
 30
0.000000
  0
VERTEX
  8
LAYER-1
 10
2.017777
 20
0.007178
 30
0.000000
  0
VERTEX
  8
LAYER-1
 10
2.054999
 20
0.009347
 30
0.000000
  0
VERTEX
  8
LAYER-1
 10
2.101889
 20
0.020198
 30
0.000000
  0
VERTEX
  8
LAYER-1
 10
2.144428
 20
0.034087
 30
0.000000
  0
VERTEX
  8
LAYER-1
 10
2.179233
 20
0.044503
 30
0.000000
  0
VERTEX
  8
LAYER-1
 10
2.206304
 20
0.054921
 30
0.000000
  0
VERTEX
  8
LAYER-1
 10
2.229507
 20
0.061865
 30
0.000000
  0
VERTEX
  8
LAYER-1
 10
2.252710
 20
0.061865
 30
0.000000
  0
VERTEX
  8
LAYER-1
 10
2.275914
 20
0.061865
 30
0.000000
  0
VERTEX
  8
LAYER-1
 10
2.299117
 20
0.061865
 30
0.000000
  0
VERTEX
  8
LAYER-1
 10
2.333923
 20
0.054921
 30
0.000000
  0
VERTEX
  8
LAYER-1
 10
2.364860
 20
0.047976
 30
0.000000
  0
VERTEX
  8
LAYER-1
 10
2.388064
 20
0.041032
 30
0.000000
  0
VERTEX
  8
LAYER-1
 10
2.407400
 20
0.037560
 30
0.000000
  0
VERTEX
  8
LAYER-1
 10
2.430603
 20
0.030615
 30
0.000000
  0
VERTEX
  8
LAYER-1
 10
2.449940
 20
0.023671
 30
0.000000
  0
VERTEX
  8
LAYER-1
 10
2.473142
 20
0.020198
 30
0.000000
  0
VERTEX
  8
LAYER-1
 10
2.492479
 20
0.020198
 30
0.000000
  0
VERTEX
  8
LAYER-1
 10
2.523417
 20
0.016726
 30
0.000000
  0
VERTEX
  8
LAYER-1
 10
2.550487
 20
0.016726
 30
0.000000
  0
VERTEX
  8
LAYER-1
 10
2.585292
 20
0.016726
 30
0.000000
  0
VERTEX
  8
LAYER-1
 10
2.612363
 20
0.020198
 30
0.000000
  0
VERTEX
  8
LAYER-1
 10
2.647168
 20
0.030615
 30
0.000000
  0
VERTEX
  8
LAYER-1
 10
2.666504
 20
0.030615
 30
0.000000
  0
VERTEX
  8
LAYER-1
 10
2.689707
 20
0.030615
 30
0.000000
  0
VERTEX
  8
LAYER-1
 10
2.709044
 20
0.030615
 30
0.000000
  0
VERTEX
  8
LAYER-1
 10
2.732247
 20
0.034087
 30
0.000000
  0
VERTEX
  8
LAYER-1
 10
2.755450
 20
0.037560
 30
0.000000
  0
VERTEX
  8
LAYER-1
 10
2.786388
 20
0.037560
 30
0.000000
  0
VERTEX
  8
LAYER-1
 10
2.817326
 20
0.037560
 30
0.000000
  0
VERTEX
  8
LAYER-1
 10
2.840529
 20
0.037560
 30
0.000000
  0
VERTEX
  8
LAYER-1
 10
2.863733
 20
0.037560
 30
0.000000
  0
VERTEX
  8
LAYER-1
 10
2.883069
 20
0.034087
 30
0.000000
  0
VERTEX
  8
LAYER-1
 10
2.902405
 20
0.030615
 30
0.000000
  0
VERTEX
  8
LAYER-1
 10
2.921741
 20
0.027143
 30
0.000000
  0
VERTEX
  8
LAYER-1
 10
2.941077
 20
0.023671
 30
0.000000
  0
VERTEX
  8
LAYER-1
 10
2.972015
 20
0.016726
 30
0.000000
  0
VERTEX
  8
LAYER-1
 10
2.995218
 20
0.013253
 30
0.000000
  0
VERTEX
  8
LAYER-1
 10
3.018421
 20
0.013253
 30
0.000000
  0
VERTEX
  8
LAYER-1
 10
3.037758
 20
0.013253
 30
0.000000
  0
VERTEX
  8
LAYER-1
 10
3.064828
 20
0.013253
 30
0.000000
  0
VERTEX
  8
LAYER-1
 10
3.095766
 20
0.016726
 30
0.000000
  0
VERTEX
  8
LAYER-1
 10
3.149907
 20
0.027143
 30
0.000000
  0
VERTEX
  8
LAYER-1
 10
3.196314
 20
0.037560
 30
0.000000
  0
VERTEX
  8
LAYER-1
 10
3.238854
 20
0.044503
 30
0.000000
  0
VERTEX
  8
LAYER-1
 10
3.269791
 20
0.047976
 30
0.000000
  0
VERTEX
  8
LAYER-1
 10
3.308464
 20
0.051448
 30
0.000000
  0
VERTEX
  8
LAYER-1
 10
3.339402
 20
0.054921
 30
0.000000
  0
VERTEX
  8
LAYER-1
 10
3.365022
 20
0.055789
 30
0.000000
  0
VERTEX
  8
LAYER-1
 10
3.382424
 20
0.053619
 30
0.000000
  0
VERTEX
  8
LAYER-1
 10
3.403694
 20
0.048844
 30
0.000000
  0
VERTEX
  8
LAYER-1
 10
3.424481
 20
0.037560
 30
0.000000
  0
VERTEX
  8
LAYER-1
 10
3.447684
 20
0.034087
 30
0.000000
  0
VERTEX
  8
LAYER-1
 10
3.467020
 20
0.034087
 30
0.000000
  0
VERTEX
  8
LAYER-1
 10
3.486357
 20
0.034087
 30
0.000000
  0
VERTEX
  8
LAYER-1
 10
3.505693
 20
0.034087
 30
0.000000
  0
VERTEX
  8
LAYER-1
 10
3.536630
 20
0.034087
 30
0.000000
  0
VERTEX
  8
LAYER-1
 10
3.559834
 20
0.034087
 30
0.000000
  0
VERTEX
  8
LAYER-1
 10
3.583037
 20
0.034087
 30
0.000000
  0
VERTEX
  8
LAYER-1
 10
3.602373
 20
0.034087
 30
0.000000
  0
VERTEX
  8
LAYER-1
 10
3.625577
 20
0.034087
 30
0.000000
  0
VERTEX
  8
LAYER-1
 10
3.648780
 20
0.034087
 30
0.000000
  0
VERTEX
  8
LAYER-1
 10
3.668117
 20
0.034087
 30
0.000000
  0
VERTEX
  8
LAYER-1
 10
3.695187
 20
0.034087
 30
0.000000
  0
VERTEX
  8
LAYER-1
 10
3.718389
 20
0.030615
 30
0.000000
  0
VERTEX
  8
LAYER-1
 10
3.740626
 20
0.022803
 30
0.000000
  0
VERTEX
  8
LAYER-1
 10
3.781233
 20
0.020198
 30
0.000000
  0
VERTEX
  8
LAYER-1
 10
3.818938
 20
0.023671
 30
0.000000
  0
VERTEX
  8
LAYER-1
 10
3.838274
 20
0.030615
 30
0.000000
  0
VERTEX
  8
LAYER-1
 10
3.861477
 20
0.037560
 30
0.000000
  0
VERTEX
  8
LAYER-1
 10
3.881297
 20
0.041466
 30
0.000000
  0
VERTEX
  8
LAYER-1
 10
3.904017
 20
0.047976
 30
0.000000
  0
VERTEX
  8
LAYER-1
 10
3.927220
 20
0.047976
 30
0.000000
  0
VERTEX
  8
LAYER-1
 10
3.950423
 20
0.044503
 30
0.000000
  0
VERTEX
  8
LAYER-1
 10
3.973627
 20
0.044503
 30
0.000000
  0
VERTEX
  8
LAYER-1
 10
3.996830
 20
0.044503
 30
0.000000
  0
VERTEX
  8
LAYER-1
 10
4.016167
 20
0.041032
 30
0.000000
  0
VERTEX
  8
LAYER-1
 10
4.043237
 20
0.041032
 30
0.000000
  0
VERTEX
  8
LAYER-1
 10
4.074175
 20
0.041032
 30
0.000000
  0
VERTEX
  8
LAYER-1
 10
4.105113
 20
0.047976
 30
0.000000
  0
VERTEX
  8
LAYER-1
 10
4.124449
 20
0.051448
 30
0.000000
  0
VERTEX
  8
LAYER-1
 10
4.151519
 20
0.051448
 30
0.000000
  0
VERTEX
  8
LAYER-1
 10
4.174723
 20
0.054921
 30
0.000000
  0
VERTEX
  8
LAYER-1
 10
4.205661
 20
0.058393
 30
0.000000
  0
VERTEX
  8
LAYER-1
 10
4.228864
 20
0.058393
 30
0.000000
  0
VERTEX
  8
LAYER-1
 10
4.259803
 20
0.054921
 30
0.000000
  0
VERTEX
  8
LAYER-1
 10
4.302342
 20
0.044503
 30
0.000000
  0
VERTEX
  8
LAYER-1
 10
4.333280
 20
0.034087
 30
0.000000
  0
VERTEX
  8
LAYER-1
 10
4.368084
 20
0.023671
 30
0.000000
  0
VERTEX
  8
LAYER-1
 10
4.411108
 20
0.016725
 30
0.000000
  0
VERTEX
  8
LAYER-1
 10
4.458481
 20
0.017593
 30
0.000000
  0
VERTEX
  8
LAYER-1
 10
4.513589
 20
0.020197
 30
0.000000
  0
VERTEX
  8
LAYER-1
 10
4.580781
 20
0.020197
 30
0.000000
  0
VERTEX
  8
LAYER-1
 10
4.626222
 20
0.008913
 30
0.000000
  0
VERTEX
  8
LAYER-1
 10
4.656193
 20
0.002836
 30
0.000000
  0
VERTEX
  8
LAYER-1
 10
4.679397
 20
0.001968
 30
0.000000
  0
VERTEX
  8
LAYER-1
 10
4.714202
 20
0.001969
 30
0.000000
  0
VERTEX
  8
LAYER-1
 10
4.739338
 20
0.006310
 30
0.000000
  0
VERTEX
  8
LAYER-1
 10
4.766409
 20
0.016726
 30
0.000000
  0
VERTEX
  8
LAYER-1
 10
4.801214
 20
0.023671
 30
0.000000
  0
VERTEX
  8
LAYER-1
 10
4.828284
 20
0.030615
 30
0.000000
  0
VERTEX
  8
LAYER-1
 10
4.851488
 20
0.034087
 30
0.000000
  0
VERTEX
  8
LAYER-1
 10
4.874691
 20
0.037560
 30
0.000000
  0
VERTEX
  8
LAYER-1
 10
4.901761
 20
0.041032
 30
0.000000
  0
VERTEX
  8
LAYER-1
 10
4.928832
 20
0.047976
 30
0.000000
  0
VERTEX
  8
LAYER-1
 10
4.948168
 20
0.051448
 30
0.000000
  0
VERTEX
  8
LAYER-1
 10
4.979106
 20
0.054921
 30
0.000000
  0
VERTEX
  8
LAYER-1
 10
5.002310
 20
0.061865
 30
0.000000
  0
VERTEX
  8
LAYER-1
 10
5.025996
 20
0.072716
 30
0.000000
  0
VERTEX
  8
LAYER-1
 10
5.048716
 20
0.079226
 30
0.000000
  0
VERTEX
  8
LAYER-1
 10
5.071919
 20
0.079226
 30
0.000000
  0
VERTEX
  8
LAYER-1
 10
5.098989
 20
0.079226
 30
0.000000
  0
VERTEX
  8
LAYER-1
 10
5.126060
 20
0.079226
 30
0.000000
  0
VERTEX
  8
LAYER-1
 10
5.164733
 20
0.075753
 30
0.000000
  0
VERTEX
  8
LAYER-1
 10
5.218874
 20
0.072282
 30
0.000000
  0
VERTEX
  8
LAYER-1
 10
5.261414
 20
0.072282
 30
0.000000
  0
VERTEX
  8
LAYER-1
 10
5.292351
 20
0.072282
 30
0.000000
  0
VERTEX
  8
LAYER-1
 10
5.315555
 20
0.072282
 30
0.000000
  0
VERTEX
  8
LAYER-1
 10
5.338758
 20
0.072282
 30
0.000000
  0
VERTEX
  8
LAYER-1
 10
5.369696
 20
0.075753
 30
0.000000
  0
VERTEX
  8
LAYER-1
 10
5.408369
 20
0.075753
 30
0.000000
  0
VERTEX
  8
LAYER-1
 10
5.439306
 20
0.075753
 30
0.000000
  0
VERTEX
  8
LAYER-1
 10
5.462510
 20
0.079226
 30
0.000000
  0
VERTEX
  8
LAYER-1
 10
5.493447
 20
0.079226
 30
0.000000
  0
VERTEX
  8
LAYER-1
 10
5.512783
 20
0.079226
 30
0.000000
  0
VERTEX
  8
LAYER-1
 10
5.543722
 20
0.070546
 30
0.000000
  0
VERTEX
  8
LAYER-1
 10
5.570792
 20
0.058393
 30
0.000000
  0
VERTEX
  8
LAYER-1
 10
5.605596
 20
0.044503
 30
0.000000
  0
VERTEX
  8
LAYER-1
 10
5.632667
 20
0.037560
 30
0.000000
  0
VERTEX
  8
LAYER-1
 10
5.663606
 20
0.030615
 30
0.000000
  0
VERTEX
  8
LAYER-1
 10
5.691159
 20
0.028445
 30
0.000000
  0
VERTEX
  8
LAYER-1
 10
5.717747
 20
0.027143
 30
0.000000
  0
VERTEX
  8
LAYER-1
 10
5.740951
 20
0.030615
 30
0.000000
  0
VERTEX
  8
LAYER-1
 10
5.764153
 20
0.037560
 30
0.000000
  0
VERTEX
  8
LAYER-1
 10
5.791224
 20
0.041032
 30
0.000000
  0
VERTEX
  8
LAYER-1
 10
5.814427
 20
0.044503
 30
0.000000
  0
VERTEX
  8
LAYER-1
 10
5.837631
 20
0.047976
 30
0.000000
  0
VERTEX
  8
LAYER-1
 10
5.856966
 20
0.051448
 30
0.000000
  0
VERTEX
  8
LAYER-1
 10
5.880170
 20
0.051448
 30
0.000000
  0
VERTEX
  8
LAYER-1
 10
5.907241
 20
0.051448
 30
0.000000
  0
VERTEX
  8
LAYER-1
 10
5.927060
 20
0.054053
 30
0.000000
  0
VERTEX
  8
LAYER-1
 10
5.953646
 20
0.058393
 30
0.000000
  0
VERTEX
  8
LAYER-1
 10
5.976850
 20
0.065337
 30
0.000000
  0
VERTEX
  8
LAYER-1
 10
6.007788
 20
0.065337
 30
0.000000
  0
VERTEX
  8
LAYER-1
 10
6.038727
 20
0.065337
 30
0.000000
  0
VERTEX
  8
LAYER-1
 10
6.058062
 20
0.065337
 30
0.000000
  0
VERTEX
  8
LAYER-1
 10
6.112203
 20
0.058393
 30
0.000000
  0
VERTEX
  8
LAYER-1
 10
6.143142
 20
0.051448
 30
0.000000
  0
VERTEX
  8
LAYER-1
 10
6.162477
 20
0.047976
 30
0.000000
  0
VERTEX
  8
LAYER-1
 10
6.197283
 20
0.047976
 30
0.000000
  0
VERTEX
  8
LAYER-1
 10
6.220969
 20
0.055355
 30
0.000000
  0
VERTEX
  8
LAYER-1
 10
6.242722
 20
0.056222
 30
0.000000
  0
VERTEX
  8
LAYER-1
 10
6.294447
 20
0.063167
 30
0.000000
  0
VERTEX
  8
LAYER-1
 10
6.342787
 20
0.073150
 30
0.000000
  0
VERTEX
  8
LAYER-1
 10
6.379042
 20
0.076622
 30
0.000000
  0
VERTEX
  8
LAYER-1
 10
6.411914
 20
0.077056
 30
0.000000
  0
VERTEX
  8
LAYER-1
 10
6.428832
 20
0.072282
 30
0.000000
  0
VERTEX
  8
LAYER-1
 10
6.447202
 20
0.068810
 30
0.000000
  0
VERTEX
  8
LAYER-1
 10
6.478141
 20
0.063601
 30
0.000000
  0
VERTEX
  8
LAYER-1
 10
6.518263
 20
0.071847
 30
0.000000
  0
VERTEX
  8
LAYER-1
 10
6.533732
 20
0.079226
 30
0.000000
  0
VERTEX
  8
LAYER-1
 10
6.556936
 20
0.079226
 30
0.000000
  0
VERTEX
  8
LAYER-1
 10
6.580137
 20
0.079226
 30
0.000000
  0
VERTEX
  8
LAYER-1
 10
6.607208
 20
0.072282
 30
0.000000
  0
VERTEX
  8
LAYER-1
 10
6.630412
 20
0.058393
 30
0.000000
  0
VERTEX
  8
LAYER-1
 10
6.657482
 20
0.047976
 30
0.000000
  0
VERTEX
  8
LAYER-1
 10
6.684553
 20
0.037560
 30
0.000000
  0
VERTEX
  8
LAYER-1
 10
6.707757
 20
0.037560
 30
0.000000
  0
VERTEX
  8
LAYER-1
 10
6.737781
 20
0.037543
 30
0.000000
  0
VERTEX
  8
LAYER-1
 10
6.761898
 20
0.047976
 30
0.000000
  0
SEQEND
  8
LAYER-1
  0
TEXT
  8
LAYER-1
 62
  0
 10
1.809856
 20
8.461170
 30
0.000000
 40
0.125000
  1
POLICARBONATO
 72
  5
 11
3.282078
 21
8.461170
 31
0.000000
  0
TEXT
  8
LAYER-1
 62
  0
 10
5.879300
 20
0.544503
 30
0.000000
 40
0.125000
  1
Casquillo
 72
  5
 11
6.684856
 21
0.544503
 31
0.000000
  0
TEXT
  8
LAYER-1
 62
  0
 10
5.879300
 20
0.350059
 30
0.000000
 40
0.125000
  1
anti-polvo
 72
  5
 11
6.684856
 21
0.350059
 31
0.000000
  0
POLYLINE
  8
LAYER-1
 66
  1
 70
  0
 62
  0
 10
5.868356
 20
0.468114
 30
0.000000
  0
VERTEX
  8
LAYER-1
 10
5.868356
 20
0.468114
 30
0.000000
  0
VERTEX
  8
LAYER-1
 10
3.804490
 20
0.158535
 30
0.000000
  0
SEQEND
  8
LAYER-1
  0
POLYLINE
  8
LAYER-1
 66
  1
 70
  1
 62
  0
  0
VERTEX
  8
LAYER-1
 10
3.785022
 20
0.155614
 30
0.000000
  0
VERTEX
  8
LAYER-1
 10
3.847517
 20
0.207121
 30
0.000000
  0
VERTEX
  8
LAYER-1
 10
3.853698
 20
0.165916
 30
0.000000
  0
VERTEX
  8
LAYER-1
 10
3.859879
 20
0.124710
 30
0.000000
  0
VERTEX
  8
LAYER-1
 10
3.785022
 20
0.155614
 30
0.000000
  0
SEQEND
  8
LAYER-1
  0
POLYLINE
  8
LAYER-1
 66
  1
 70
  1
 62
  0
  0
VERTEX
  8
LAYER-1
 10
1.831183
 20
7.153872
 30
0.000000
  0
VERTEX
  8
LAYER-1
 10
2.155809
 20
7.153872
 30
0.000000
  0
VERTEX
  8
LAYER-1
 10
2.155809
 20
7.136246
 30
0.000000
  0
VERTEX
  8
LAYER-1
 10
1.831183
 20
7.136246
 30
0.000000
  0
SEQEND
  8
LAYER-1
  0
POLYLINE
  8
LAYER-1
 66
  1
 70
  1
 62
  0
  0
VERTEX
  8
LAYER-1
 10
2.241183
 20
7.153872
 30
0.000000
  0
VERTEX
  8
LAYER-1
 10
2.565809
 20
7.153872
 30
0.000000
  0
VERTEX
  8
LAYER-1
 10
2.565809
 20
7.136246
 30
0.000000
  0
VERTEX
  8
LAYER-1
 10
2.241183
 20
7.136246
 30
0.000000
  0
SEQEND
  8
LAYER-1
  0
POLYLINE
  8
LAYER-1
 66
  1
 70
  1
 62
  0
  0
VERTEX
  8
LAYER-1
 10
2.651183
 20
7.153872
 30
0.000000
  0
VERTEX
  8
LAYER-1
 10
2.975810
 20
7.153872
 30
0.000000
  0
VERTEX
  8
LAYER-1
 10
2.975810
 20
7.136246
 30
0.000000
  0
VERTEX
  8
LAYER-1
 10
2.651183
 20
7.136246
 30
0.000000
  0
SEQEND
  8
LAYER-1
  0
POLYLINE
  8
LAYER-1
 66
  1
 70
  1
 62
  0
  0
VERTEX
  8
LAYER-1
 10
3.061183
 20
7.153872
 30
0.000000
  0
VERTEX
  8
LAYER-1
 10
3.385810
 20
7.153872
 30
0.000000
  0
VERTEX
  8
LAYER-1
 10
3.385810
 20
7.136246
 30
0.000000
  0
VERTEX
  8
LAYER-1
 10
3.061183
 20
7.136246
 30
0.000000
  0
SEQEND
  8
LAYER-1
  0
POLYLINE
  8
LAYER-1
 66
  1
 70
  1
 62
  0
  0
VERTEX
  8
LAYER-1
 10
4.150003
 20
7.153872
 30
0.000000
  0
VERTEX
  8
LAYER-1
 10
4.474628
 20
7.153872
 30
0.000000
  0
VERTEX
  8
LAYER-1
 10
4.474628
 20
7.136246
 30
0.000000
  0
VERTEX
  8
LAYER-1
 10
4.150003
 20
7.136246
 30
0.000000
  0
SEQEND
  8
LAYER-1
  0
POLYLINE
  8
LAYER-1
 66
  1
 70
  1
 62
  0
  0
VERTEX
  8
LAYER-1
 10
4.560002
 20
7.153872
 30
0.000000
  0
VERTEX
  8
LAYER-1
 10
4.884629
 20
7.153872
 30
0.000000
  0
VERTEX
  8
LAYER-1
 10
4.884629
 20
7.136246
 30
0.000000
  0
VERTEX
  8
LAYER-1
 10
4.560002
 20
7.136246
 30
0.000000
  0
SEQEND
  8
LAYER-1
  0
POLYLINE
  8
LAYER-1
 66
  1
 70
  1
 62
  0
  0
VERTEX
  8
LAYER-1
 10
4.970002
 20
7.153872
 30
0.000000
  0
VERTEX
  8
LAYER-1
 10
5.294629
 20
7.153872
 30
0.000000
  0
VERTEX
  8
LAYER-1
 10
5.294629
 20
7.136246
 30
0.000000
  0
VERTEX
  8
LAYER-1
 10
4.970002
 20
7.136246
 30
0.000000
  0
SEQEND
  8
LAYER-1
  0
POLYLINE
  8
LAYER-1
 66
  1
 70
  1
 62
  0
  0
VERTEX
  8
LAYER-1
 10
5.380002
 20
7.153872
 30
0.000000
  0
VERTEX
  8
LAYER-1
 10
5.704629
 20
7.153872
 30
0.000000
  0
VERTEX
  8
LAYER-1
 10
5.704629
 20
7.136246
 30
0.000000
  0
VERTEX
  8
LAYER-1
 10
5.380002
 20
7.136246
 30
0.000000
  0
SEQEND
  8
LAYER-1
  0
POLYLINE
  8
LAYER-1
 66
  1
 70
  1
 62
  0
  0
VERTEX
  8
LAYER-1
 10
1.831183
 20
3.967672
 30
0.000000
  0
VERTEX
  8
LAYER-1
 10
2.155809
 20
3.967672
 30
0.000000
  0
VERTEX
  8
LAYER-1
 10
2.155809
 20
3.950045
 30
0.000000
  0
VERTEX
  8
LAYER-1
 10
1.831183
 20
3.950045
 30
0.000000
  0
SEQEND
  8
LAYER-1
  0
POLYLINE
  8
LAYER-1
 66
  1
 70
  1
 62
  0
  0
VERTEX
  8
LAYER-1
 10
2.241183
 20
3.967672
 30
0.000000
  0
VERTEX
  8
LAYER-1
 10
2.565809
 20
3.967672
 30
0.000000
  0
VERTEX
  8
LAYER-1
 10
2.565809
 20
3.950045
 30
0.000000
  0
VERTEX
  8
LAYER-1
 10
2.241183
 20
3.950045
 30
0.000000
  0
SEQEND
  8
LAYER-1
  0
POLYLINE
  8
LAYER-1
 66
  1
 70
  1
 62
  0
  0
VERTEX
  8
LAYER-1
 10
2.651183
 20
3.967672
 30
0.000000
  0
VERTEX
  8
LAYER-1
 10
2.975810
 20
3.967672
 30
0.000000
  0
VERTEX
  8
LAYER-1
 10
2.975810
 20
3.950045
 30
0.000000
  0
VERTEX
  8
LAYER-1
 10
2.651183
 20
3.950045
 30
0.000000
  0
SEQEND
  8
LAYER-1
  0
POLYLINE
  8
LAYER-1
 66
  1
 70
  1
 62
  0
  0
VERTEX
  8
LAYER-1
 10
3.061183
 20
3.967672
 30
0.000000
  0
VERTEX
  8
LAYER-1
 10
3.385810
 20
3.967672
 30
0.000000
  0
VERTEX
  8
LAYER-1
 10
3.385810
 20
3.950045
 30
0.000000
  0
VERTEX
  8
LAYER-1
 10
3.061183
 20
3.950045
 30
0.000000
  0
SEQEND
  8
LAYER-1
  0
POLYLINE
  8
LAYER-1
 66
  1
 70
  1
 62
  0
  0
VERTEX
  8
LAYER-1
 10
4.150003
 20
3.967672
 30
0.000000
  0
VERTEX
  8
LAYER-1
 10
4.474628
 20
3.967672
 30
0.000000
  0
VERTEX
  8
LAYER-1
 10
4.474628
 20
3.950045
 30
0.000000
  0
VERTEX
  8
LAYER-1
 10
4.150003
 20
3.950045
 30
0.000000
  0
SEQEND
  8
LAYER-1
  0
POLYLINE
  8
LAYER-1
 66
  1
 70
  1
 62
  0
  0
VERTEX
  8
LAYER-1
 10
4.560002
 20
3.967672
 30
0.000000
  0
VERTEX
  8
LAYER-1
 10
4.884629
 20
3.967672
 30
0.000000
  0
VERTEX
  8
LAYER-1
 10
4.884629
 20
3.950045
 30
0.000000
  0
VERTEX
  8
LAYER-1
 10
4.560002
 20
3.950045
 30
0.000000
  0
SEQEND
  8
LAYER-1
  0
POLYLINE
  8
LAYER-1
 66
  1
 70
  1
 62
  0
  0
VERTEX
  8
LAYER-1
 10
4.970002
 20
3.967672
 30
0.000000
  0
VERTEX
  8
LAYER-1
 10
5.294629
 20
3.967672
 30
0.000000
  0
VERTEX
  8
LAYER-1
 10
5.294629
 20
3.950045
 30
0.000000
  0
VERTEX
  8
LAYER-1
 10
4.970002
 20
3.950045
 30
0.000000
  0
SEQEND
  8
LAYER-1
  0
POLYLINE
  8
LAYER-1
 66
  1
 70
  1
 62
  0
  0
VERTEX
  8
LAYER-1
 10
5.380002
 20
3.967672
 30
0.000000
  0
VERTEX
  8
LAYER-1
 10
5.704629
 20
3.967672
 30
0.000000
  0
VERTEX
  8
LAYER-1
 10
5.704629
 20
3.950045
 30
0.000000
  0
VERTEX
  8
LAYER-1
 10
5.380002
 20
3.950045
 30
0.000000
  0
SEQEND
  8
LAYER-1
  0
POLYLINE
  8
LAYER-1
 66
  1
 70
  1
 62
  0
  0
VERTEX
  8
LAYER-1
 10
1.831183
 20
3.872620
 30
0.000000
  0
VERTEX
  8
LAYER-1
 10
2.155809
 20
3.872620
 30
0.000000
  0
VERTEX
  8
LAYER-1
 10
2.155809
 20
3.854994
 30
0.000000
  0
VERTEX
  8
LAYER-1
 10
1.831183
 20
3.854994
 30
0.000000
  0
SEQEND
  8
LAYER-1
  0
POLYLINE
  8
LAYER-1
 66
  1
 70
  1
 62
  0
  0
VERTEX
  8
LAYER-1
 10
2.241183
 20
3.872620
 30
0.000000
  0
VERTEX
  8
LAYER-1
 10
2.565809
 20
3.872620
 30
0.000000
  0
VERTEX
  8
LAYER-1
 10
2.565809
 20
3.854994
 30
0.000000
  0
VERTEX
  8
LAYER-1
 10
2.241183
 20
3.854994
 30
0.000000
  0
SEQEND
  8
LAYER-1
  0
POLYLINE
  8
LAYER-1
 66
  1
 70
  1
 62
  0
  0
VERTEX
  8
LAYER-1
 10
2.651183
 20
3.872620
 30
0.000000
  0
VERTEX
  8
LAYER-1
 10
2.975810
 20
3.872620
 30
0.000000
  0
VERTEX
  8
LAYER-1
 10
2.975810
 20
3.854994
 30
0.000000
  0
VERTEX
  8
LAYER-1
 10
2.651183
 20
3.854994
 30
0.000000
  0
SEQEND
  8
LAYER-1
  0
POLYLINE
  8
LAYER-1
 66
  1
 70
  1
 62
  0
  0
VERTEX
  8
LAYER-1
 10
3.061183
 20
3.872620
 30
0.000000
  0
VERTEX
  8
LAYER-1
 10
3.385810
 20
3.872620
 30
0.000000
  0
VERTEX
  8
LAYER-1
 10
3.385810
 20
3.854994
 30
0.000000
  0
VERTEX
  8
LAYER-1
 10
3.061183
 20
3.854994
 30
0.000000
  0
SEQEND
  8
LAYER-1
  0
POLYLINE
  8
LAYER-1
 66
  1
 70
  1
 62
  0
  0
VERTEX
  8
LAYER-1
 10
4.150003
 20
3.872620
 30
0.000000
  0
VERTEX
  8
LAYER-1
 10
4.474628
 20
3.872620
 30
0.000000
  0
VERTEX
  8
LAYER-1
 10
4.474628
 20
3.854994
 30
0.000000
  0
VERTEX
  8
LAYER-1
 10
4.150003
 20
3.854994
 30
0.000000
  0
SEQEND
  8
LAYER-1
  0
POLYLINE
  8
LAYER-1
 66
  1
 70
  1
 62
  0
  0
VERTEX
  8
LAYER-1
 10
4.560002
 20
3.872620
 30
0.000000
  0
VERTEX
  8
LAYER-1
 10
4.884629
 20
3.872620
 30
0.000000
  0
VERTEX
  8
LAYER-1
 10
4.884629
 20
3.854994
 30
0.000000
  0
VERTEX
  8
LAYER-1
 10
4.560002
 20
3.854994
 30
0.000000
  0
SEQEND
  8
LAYER-1
  0
POLYLINE
  8
LAYER-1
 66
  1
 70
  1
 62
  0
  0
VERTEX
  8
LAYER-1
 10
4.970002
 20
3.872620
 30
0.000000
  0
VERTEX
  8
LAYER-1
 10
5.294629
 20
3.872620
 30
0.000000
  0
VERTEX
  8
LAYER-1
 10
5.294629
 20
3.854994
 30
0.000000
  0
VERTEX
  8
LAYER-1
 10
4.970002
 20
3.854994
 30
0.000000
  0
SEQEND
  8
LAYER-1
  0
POLYLINE
  8
LAYER-1
 66
  1
 70
  1
 62
  0
  0
VERTEX
  8
LAYER-1
 10
5.380002
 20
3.872620
 30
0.000000
  0
VERTEX
  8
LAYER-1
 10
5.704629
 20
3.872620
 30
0.000000
  0
VERTEX
  8
LAYER-1
 10
5.704629
 20
3.854994
 30
0.000000
  0
VERTEX
  8
LAYER-1
 10
5.380002
 20
3.854994
 30
0.000000
  0
SEQEND
  8
LAYER-1
  0
POLYLINE
  8
LAYER-1
 66
  1
 70
  1
 62
  0
  0
VERTEX
  8
LAYER-1
 10
1.831183
 20
0.688598
 30
0.000000
  0
VERTEX
  8
LAYER-1
 10
2.155809
 20
0.688598
 30
0.000000
  0
VERTEX
  8
LAYER-1
 10
2.155809
 20
0.670970
 30
0.000000
  0
VERTEX
  8
LAYER-1
 10
1.831183
 20
0.670970
 30
0.000000
  0
SEQEND
  8
LAYER-1
  0
POLYLINE
  8
LAYER-1
 66
  1
 70
  1
 62
  0
  0
VERTEX
  8
LAYER-1
 10
2.241183
 20
0.688598
 30
0.000000
  0
VERTEX
  8
LAYER-1
 10
2.565809
 20
0.688598
 30
0.000000
  0
VERTEX
  8
LAYER-1
 10
2.565809
 20
0.670970
 30
0.000000
  0
VERTEX
  8
LAYER-1
 10
2.241183
 20
0.670970
 30
0.000000
  0
SEQEND
  8
LAYER-1
  0
POLYLINE
  8
LAYER-1
 66
  1
 70
  1
 62
  0
  0
VERTEX
  8
LAYER-1
 10
2.651183
 20
0.688598
 30
0.000000
  0
VERTEX
  8
LAYER-1
 10
2.975810
 20
0.688598
 30
0.000000
  0
VERTEX
  8
LAYER-1
 10
2.975810
 20
0.670970
 30
0.000000
  0
VERTEX
  8
LAYER-1
 10
2.651183
 20
0.670970
 30
0.000000
  0
SEQEND
  8
LAYER-1
  0
POLYLINE
  8
LAYER-1
 66
  1
 70
  1
 62
  0
  0
VERTEX
  8
LAYER-1
 10
3.061183
 20
0.688598
 30
0.000000
  0
VERTEX
  8
LAYER-1
 10
3.385810
 20
0.688598
 30
0.000000
  0
VERTEX
  8
LAYER-1
 10
3.385810
 20
0.670970
 30
0.000000
  0
VERTEX
  8
LAYER-1
 10
3.061183
 20
0.670970
 30
0.000000
  0
SEQEND
  8
LAYER-1
  0
POLYLINE
  8
LAYER-1
 66
  1
 70
  1
 62
  0
  0
VERTEX
  8
LAYER-1
 10
4.150003
 20
0.688598
 30
0.000000
  0
VERTEX
  8
LAYER-1
 10
4.474628
 20
0.688598
 30
0.000000
  0
VERTEX
  8
LAYER-1
 10
4.474628
 20
0.670970
 30
0.000000
  0
VERTEX
  8
LAYER-1
 10
4.150003
 20
0.670970
 30
0.000000
  0
SEQEND
  8
LAYER-1
  0
POLYLINE
  8
LAYER-1
 66
  1
 70
  1
 62
  0
  0
VERTEX
  8
LAYER-1
 10
4.560002
 20
0.688598
 30
0.000000
  0
VERTEX
  8
LAYER-1
 10
4.884629
 20
0.688598
 30
0.000000
  0
VERTEX
  8
LAYER-1
 10
4.884629
 20
0.670970
 30
0.000000
  0
VERTEX
  8
LAYER-1
 10
4.560002
 20
0.670970
 30
0.000000
  0
SEQEND
  8
LAYER-1
  0
POLYLINE
  8
LAYER-1
 66
  1
 70
  1
 62
  0
  0
VERTEX
  8
LAYER-1
 10
4.970002
 20
0.688598
 30
0.000000
  0
VERTEX
  8
LAYER-1
 10
5.294629
 20
0.688598
 30
0.000000
  0
VERTEX
  8
LAYER-1
 10
5.294629
 20
0.670970
 30
0.000000
  0
VERTEX
  8
LAYER-1
 10
4.970002
 20
0.670970
 30
0.000000
  0
SEQEND
  8
LAYER-1
  0
POLYLINE
  8
LAYER-1
 66
  1
 70
  1
 62
  0
  0
VERTEX
  8
LAYER-1
 10
5.380002
 20
0.688598
 30
0.000000
  0
VERTEX
  8
LAYER-1
 10
5.704629
 20
0.688598
 30
0.000000
  0
VERTEX
  8
LAYER-1
 10
5.704629
 20
0.670970
 30
0.000000
  0
VERTEX
  8
LAYER-1
 10
5.380002
 20
0.670970
 30
0.000000
  0
SEQEND
  8
LAYER-1
  0
LINE
  8
LAYER-1
 62
  0
 10
5.912287
 20
7.422975
 30
0.000000
 11
5.912287
 21
7.154937
 31
0.000000
  0
LINE
  8
LAYER-1
 62
  0
 10
5.829165
 20
7.422975
 30
0.000000
 11
6.037287
 21
7.422975
 31
0.000000
  0
LINE
  8
LAYER-1
 62
  0
 10
5.835029
 20
7.154937
 30
0.000000
 11
6.037287
 21
7.154937
 31
0.000000
  0
LINE
  8
LAYER-1
 62
  0
 10
5.941750
 20
7.393512
 30
0.000000
 11
5.882824
 21
7.452438
 31
0.000000
  0
LINE
  8
LAYER-1
 62
  0
 10
5.941750
 20
7.125474
 30
0.000000
 11
5.882824
 21
7.184399
 31
0.000000
  0
TEXT
  8
LAYER-1
 62
  0
 10
5.788330
 20
7.282573
 30
0.000000
 40
0.125000
  1
 
 50
90.000000
  0
TEXT
  8
LAYER-1
 62
  0
 10
6.226523
 20
7.308392
 30
0.000000
 40
0.125000
  1
4"
 72
  5
 11
6.448745
 21
7.308392
 31
0.000000
  0
TEXT
  8
LAYER-1
 62
  0
 10
6.004300
 20
7.113948
 30
0.000000
 40
0.125000
  1
102mm
 72
  5
 11
6.670967
 21
7.113948
 31
0.000000
  0
LINE
  8
LAYER-1
 62
  0
 10
4.519057
 20
7.686185
 30
0.000000
 11
4.928779
 21
7.686185
 31
0.000000
  0
LINE
  8
LAYER-1
 62
  0
 10
4.519057
 20
7.316394
 30
0.000000
 11
4.519057
 21
7.811185
 31
0.000000
  0
LINE
  8
LAYER-1
 62
  0
 10
4.928779
 20
7.314659
 30
0.000000
 11
4.928779
 21
7.811185
 31
0.000000
  0
LINE
  8
LAYER-1
 62
  0
 10
4.548520
 20
7.715647
 30
0.000000
 11
4.489595
 21
7.656722
 31
0.000000
  0
LINE
  8
LAYER-1
 62
  0
 10
4.958242
 20
7.715647
 30
0.000000
 11
4.899317
 21
7.656722
 31
0.000000
  0
TEXT
  8
LAYER-1
 62
  0
 10
4.717336
 20
7.807845
 30
0.000000
 40
0.125000
  1
 
  0
TEXT
  8
LAYER-1
 62
  0
 10
4.615411
 20
8.058392
 30
0.000000
 40
0.125000
  1
6"
 72
  5
 11
4.837634
 21
8.058392
 31
0.000000
  0
TEXT
  8
LAYER-1
 62
  0
 10
4.393189
 20
7.863948
 30
0.000000
 40
0.125000
  1
152mm
 72
  5
 11
5.059856
 21
7.863948
 31
0.000000
  0
TEXT
  8
LAYER-1
 62
  0
 10
5.865411
 20
3.738948
 30
0.000000
 40
0.125000
  1
Protector
 72
  5
 11
6.615411
 21
3.738948
 31
0.000000
  0
TEXT
  8
LAYER-1
 62
  0
 10
5.865411
 20
3.544503
 30
0.000000
 40
0.125000
  1
PVC
 72
  5
 11
6.268189
 21
3.544503
 31
0.000000
  0
POLYLINE
  8
LAYER-1
 66
  1
 70
  0
 62
  0
 10
5.827217
 20
3.689292
 30
0.000000
  0
VERTEX
  8
LAYER-1
 10
5.827217
 20
3.689292
 30
0.000000
  0
VERTEX
  8
LAYER-1
 10
5.616440
 20
3.841487
 30
0.000000
  0
SEQEND
  8
LAYER-1
  0
POLYLINE
  8
LAYER-1
 66
  1
 70
  1
 62
  0
  0
VERTEX
  8
LAYER-1
 10
5.600481
 20
3.853010
 30
0.000000
  0
VERTEX
  8
LAYER-1
 10
5.681174
 20
3.846138
 30
0.000000
  0
VERTEX
  8
LAYER-1
 10
5.656782
 20
3.812357
 30
0.000000
  0
VERTEX
  8
LAYER-1
 10
5.632390
 20
3.778576
 30
0.000000
  0
VERTEX
  8
LAYER-1
 10
5.600481
 20
3.853010
 30
0.000000
  0
SEQEND
  8
LAYER-1
  0
ENDSEC
  0
EOF
