  0
SECTION
  2
HEADER
999
MacDraft 5.0\0
  9
$ACADVER
  1
AC1006
  9
$CLAYER
  8
LAYER-1
  9
$EXTMIN
 10
0.000000
 20
0.000000
  9
$EXTMAX
 10
6.965277
 20
9.972381
  9
$FASTZOOM
 70
0
  9
$FILLMODE
 70
1
  0
ENDSEC
  0
SECTION
  2
TABLES
  0
TABLE
  2
LTYPE
 70
16
  0
LTYPE
  2
CONTINUOUS
 70
64
  3
Solid Line
 72
65
 73
0
 40
0.000000
  0
LTYPE
  2
LTYPE01
 70
64
  3
CUSTOM
 72
65
 73
2
 40
0.111111
 49
0.083333
 49
-0.027778
  0
LTYPE
  2
LTYPE02
 70
64
  3
CUSTOM
 72
65
 73
2
 40
0.194444
 49
0.166667
 49
-0.027778
  0
LTYPE
  2
LTYPE03
 70
64
  3
CUSTOM
 72
65
 73
2
 40
0.375000
 49
0.333333
 49
-0.041667
  0
LTYPE
  2
LTYPE04
 70
64
  3
CUSTOM
 72
65
 73
2
 40
0.722222
 49
0.666667
 49
-0.055556
  0
LTYPE
  2
LTYPE05
 70
64
  3
CUSTOM
 72
65
 73
4
 40
0.152778
 49
0.083333
 49
-0.027778
 49
0.013889
 49
-0.027778
  0
LTYPE
  2
LTYPE06
 70
64
  3
CUSTOM
 72
65
 73
4
 40
0.236111
 49
0.166667
 49
-0.027778
 49
0.013889
 49
-0.027778
  0
LTYPE
  2
LTYPE07
 70
64
  3
CUSTOM
 72
65
 73
4
 40
0.444444
 49
0.333333
 49
-0.041667
 49
0.027778
 49
-0.041667
  0
LTYPE
  2
LTYPE08
 70
64
  3
CUSTOM
 72
65
 73
4
 40
0.805556
 49
0.666667
 49
-0.055556
 49
0.027778
 49
-0.055556
  0
LTYPE
  2
LTYPE09
 70
64
  3
CUSTOM
 72
65
 73
6
 40
0.194444
 49
0.083333
 49
-0.027778
 49
0.013889
 49
-0.027778
 49
0.013889
 49
-0.027778
  0
LTYPE
  2
LTYPE10
 70
64
  3
CUSTOM
 72
65
 73
6
 40
0.277778
 49
0.166667
 49
-0.027778
 49
0.013889
 49
-0.027778
 49
0.013889
 49
-0.027778
  0
LTYPE
  2
LTYPE11
 70
64
  3
CUSTOM
 72
65
 73
6
 40
0.500000
 49
0.333333
 49
-0.041667
 49
0.027778
 49
-0.027778
 49
0.027778
 49
-0.041667
  0
LTYPE
  2
LTYPE12
 70
64
  3
CUSTOM
 72
65
 73
6
 40
0.861111
 49
0.666667
 49
-0.055556
 49
0.027778
 49
-0.027778
 49
0.027778
 49
-0.055556
  0
LTYPE
  2
LTYPE13
 70
64
  3
CUSTOM
 72
65
 73
8
 40
0.319444
 49
0.166667
 49
-0.027778
 49
0.013889
 49
-0.027778
 49
0.013889
 49
-0.027778
 49
0.013889
 49
-0.027778
  0
LTYPE
  2
LTYPE14
 70
64
  3
CUSTOM
 72
65
 73
8
 40
0.555556
 49
0.333333
 49
-0.041667
 49
0.027778
 49
-0.027778
 49
0.027778
 49
-0.027778
 49
0.027778
 49
-0.041667
  0
LTYPE
  2
LTYPE15
 70
64
  3
CUSTOM
 72
65
 73
8
 40
0.944444
 49
0.666667
 49
-0.055556
 49
0.027778
 49
-0.041667
 49
0.027778
 49
-0.041667
 49
0.027778
 49
-0.055556
  0
ENDTAB
  0
TABLE
  2
LAYER
 70
1
  0
LAYER
  2
LAYER-1
 70
0
 62
7
  6
CONTINUOUS
  0
ENDTAB
  0
ENDSEC
  0
SECTION
  2
BLOCKS
  0
ENDSEC
  0
SECTION
  2
ENTITIES
  0
POLYLINE
  8
LAYER-1
 66
  1
 70
  0
 62
  0
 10
3.472556
 20
0.214443
 30
0.000000
  0
VERTEX
  8
LAYER-1
 10
3.472556
 20
0.214443
 30
0.000000
  0
VERTEX
  8
LAYER-1
 10
3.472556
 20
0.213253
 30
0.000000
  0
SEQEND
  8
LAYER-1
  0
POLYLINE
  8
LAYER-1
 66
  1
 70
  1
 62
  0
 10
1.300700
 20
0.119276
 30
0.000000
  0
VERTEX
  8
LAYER-1
 10
1.300700
 20
0.119276
 30
0.000000
  0
VERTEX
  8
LAYER-1
 10
1.307644
 20
0.093235
 30
0.000000
  0
VERTEX
  8
LAYER-1
 10
1.332819
 20
0.107123
 30
0.000000
  0
SEQEND
  8
LAYER-1
  0
POLYLINE
  8
LAYER-1
 66
  1
 70
  1
 62
  0
 10
1.490804
 20
0.224308
 30
0.000000
  0
VERTEX
  8
LAYER-1
 10
1.490804
 20
0.224308
 30
0.000000
  0
VERTEX
  8
LAYER-1
 10
1.477784
 20
0.201738
 30
0.000000
  0
VERTEX
  8
LAYER-1
 10
1.508166
 20
0.222571
 30
0.000000
  0
SEQEND
  8
LAYER-1
  0
POLYLINE
  8
LAYER-1
 66
  1
 70
  1
 62
  0
 10
1.136638
 20
0.160075
 30
0.000000
  0
VERTEX
  8
LAYER-1
 10
1.136638
 20
0.160075
 30
0.000000
  0
VERTEX
  8
LAYER-1
 10
1.120145
 20
0.134900
 30
0.000000
  0
VERTEX
  8
LAYER-1
 10
1.134901
 20
0.127088
 30
0.000000
  0
SEQEND
  8
LAYER-1
  0
POLYLINE
  8
LAYER-1
 66
  1
 70
  0
 62
  0
 10
1.303304
 20
0.160944
 30
0.000000
  0
VERTEX
  8
LAYER-1
 10
1.303304
 20
0.160944
 30
0.000000
  0
VERTEX
  8
LAYER-1
 10
1.298965
 20
0.160944
 30
0.000000
  0
VERTEX
  8
LAYER-1
 10
1.295492
 20
0.156603
 30
0.000000
  0
VERTEX
  8
LAYER-1
 10
1.294624
 20
0.151395
 30
0.000000
  0
VERTEX
  8
LAYER-1
 10
1.296360
 20
0.147055
 30
0.000000
  0
VERTEX
  8
LAYER-1
 10
1.300701
 20
0.145319
 30
0.000000
  0
VERTEX
  8
LAYER-1
 10
1.305040
 20
0.145319
 30
0.000000
  0
VERTEX
  8
LAYER-1
 10
1.309381
 20
0.148790
 30
0.000000
  0
VERTEX
  8
LAYER-1
 10
1.309381
 20
0.153131
 30
0.000000
  0
VERTEX
  8
LAYER-1
 10
1.308513
 20
0.157472
 30
0.000000
  0
VERTEX
  8
LAYER-1
 10
1.304172
 20
0.160076
 30
0.000000
  0
SEQEND
  8
LAYER-1
  0
POLYLINE
  8
LAYER-1
 66
  1
 70
  1
 62
  0
 10
0.941325
 20
0.199136
 30
0.000000
  0
VERTEX
  8
LAYER-1
 10
0.941325
 20
0.199136
 30
0.000000
  0
VERTEX
  8
LAYER-1
 10
0.928304
 20
0.176567
 30
0.000000
  0
VERTEX
  8
LAYER-1
 10
0.958686
 20
0.197399
 30
0.000000
  0
SEQEND
  8
LAYER-1
  0
POLYLINE
  8
LAYER-1
 66
  1
 70
  1
 62
  0
 10
1.073103
 20
0.198802
 30
0.000000
  0
VERTEX
  8
LAYER-1
 10
1.073103
 20
0.198802
 30
0.000000
  0
VERTEX
  8
LAYER-1
 10
1.060416
 20
0.179437
 30
0.000000
  0
VERTEX
  8
LAYER-1
 10
1.071768
 20
0.173427
 30
0.000000
  0
SEQEND
  8
LAYER-1
  0
POLYLINE
  8
LAYER-1
 66
  1
 70
  0
 62
  0
 10
1.430909
 20
0.180039
 30
0.000000
  0
VERTEX
  8
LAYER-1
 10
1.430909
 20
0.180039
 30
0.000000
  0
VERTEX
  8
LAYER-1
 10
1.426568
 20
0.180039
 30
0.000000
  0
VERTEX
  8
LAYER-1
 10
1.423096
 20
0.175699
 30
0.000000
  0
VERTEX
  8
LAYER-1
 10
1.422228
 20
0.170492
 30
0.000000
  0
VERTEX
  8
LAYER-1
 10
1.423964
 20
0.166150
 30
0.000000
  0
VERTEX
  8
LAYER-1
 10
1.428304
 20
0.164414
 30
0.000000
  0
VERTEX
  8
LAYER-1
 10
1.432645
 20
0.164414
 30
0.000000
  0
VERTEX
  8
LAYER-1
 10
1.436984
 20
0.167887
 30
0.000000
  0
VERTEX
  8
LAYER-1
 10
1.436984
 20
0.172227
 30
0.000000
  0
VERTEX
  8
LAYER-1
 10
1.436116
 20
0.176568
 30
0.000000
  0
VERTEX
  8
LAYER-1
 10
1.431777
 20
0.179171
 30
0.000000
  0
SEQEND
  8
LAYER-1
  0
POLYLINE
  8
LAYER-1
 66
  1
 70
  0
 62
  0
 10
1.188721
 20
0.153998
 30
0.000000
  0
VERTEX
  8
LAYER-1
 10
1.188721
 20
0.153998
 30
0.000000
  0
VERTEX
  8
LAYER-1
 10
1.184381
 20
0.153998
 30
0.000000
  0
VERTEX
  8
LAYER-1
 10
1.180908
 20
0.149657
 30
0.000000
  0
VERTEX
  8
LAYER-1
 10
1.180040
 20
0.144450
 30
0.000000
  0
VERTEX
  8
LAYER-1
 10
1.181776
 20
0.140109
 30
0.000000
  0
VERTEX
  8
LAYER-1
 10
1.186117
 20
0.138373
 30
0.000000
  0
VERTEX
  8
LAYER-1
 10
1.190457
 20
0.138373
 30
0.000000
  0
VERTEX
  8
LAYER-1
 10
1.194797
 20
0.141845
 30
0.000000
  0
VERTEX
  8
LAYER-1
 10
1.194797
 20
0.146186
 30
0.000000
  0
VERTEX
  8
LAYER-1
 10
1.193929
 20
0.150526
 30
0.000000
  0
VERTEX
  8
LAYER-1
 10
1.189589
 20
0.153130
 30
0.000000
  0
SEQEND
  8
LAYER-1
  0
POLYLINE
  8
LAYER-1
 66
  1
 70
  0
 62
  0
 10
1.024658
 20
0.146186
 30
0.000000
  0
VERTEX
  8
LAYER-1
 10
1.024658
 20
0.146186
 30
0.000000
  0
VERTEX
  8
LAYER-1
 10
1.020318
 20
0.146186
 30
0.000000
  0
VERTEX
  8
LAYER-1
 10
1.016845
 20
0.141845
 30
0.000000
  0
VERTEX
  8
LAYER-1
 10
1.015978
 20
0.136637
 30
0.000000
  0
VERTEX
  8
LAYER-1
 10
1.017714
 20
0.132296
 30
0.000000
  0
VERTEX
  8
LAYER-1
 10
1.022054
 20
0.130561
 30
0.000000
  0
VERTEX
  8
LAYER-1
 10
1.026394
 20
0.130561
 30
0.000000
  0
VERTEX
  8
LAYER-1
 10
1.030734
 20
0.134032
 30
0.000000
  0
VERTEX
  8
LAYER-1
 10
1.030734
 20
0.138373
 30
0.000000
  0
VERTEX
  8
LAYER-1
 10
1.029867
 20
0.142714
 30
0.000000
  0
VERTEX
  8
LAYER-1
 10
1.025526
 20
0.145318
 30
0.000000
  0
SEQEND
  8
LAYER-1
  0
POLYLINE
  8
LAYER-1
 66
  1
 70
  1
 62
  0
 10
1.652697
 20
0.170925
 30
0.000000
  0
VERTEX
  8
LAYER-1
 10
1.652697
 20
0.170925
 30
0.000000
  0
VERTEX
  8
LAYER-1
 10
1.626657
 20
0.163980
 30
0.000000
  0
VERTEX
  8
LAYER-1
 10
1.640544
 20
0.138807
 30
0.000000
  0
SEQEND
  8
LAYER-1
  0
POLYLINE
  8
LAYER-1
 66
  1
 70
  1
 62
  0
 10
1.714241
 20
0.111327
 30
0.000000
  0
VERTEX
  8
LAYER-1
 10
1.714241
 20
0.111327
 30
0.000000
  0
VERTEX
  8
LAYER-1
 10
1.736811
 20
0.098306
 30
0.000000
  0
VERTEX
  8
LAYER-1
 10
1.715978
 20
0.128688
 30
0.000000
  0
SEQEND
  8
LAYER-1
  0
POLYLINE
  8
LAYER-1
 66
  1
 70
  1
 62
  0
 10
1.245579
 20
0.178737
 30
0.000000
  0
VERTEX
  8
LAYER-1
 10
1.245579
 20
0.178737
 30
0.000000
  0
VERTEX
  8
LAYER-1
 10
1.220406
 20
0.195229
 30
0.000000
  0
VERTEX
  8
LAYER-1
 10
1.212594
 20
0.180473
 30
0.000000
  0
SEQEND
  8
LAYER-1
  0
POLYLINE
  8
LAYER-1
 66
  1
 70
  0
 62
  0
 10
1.663983
 20
0.207383
 30
0.000000
  0
VERTEX
  8
LAYER-1
 10
1.663983
 20
0.207383
 30
0.000000
  0
VERTEX
  8
LAYER-1
 10
1.663983
 20
0.211724
 30
0.000000
  0
VERTEX
  8
LAYER-1
 10
1.659642
 20
0.215196
 30
0.000000
  0
VERTEX
  8
LAYER-1
 10
1.654434
 20
0.216064
 30
0.000000
  0
VERTEX
  8
LAYER-1
 10
1.650094
 20
0.214327
 30
0.000000
  0
VERTEX
  8
LAYER-1
 10
1.648358
 20
0.209987
 30
0.000000
  0
VERTEX
  8
LAYER-1
 10
1.648358
 20
0.205648
 30
0.000000
  0
VERTEX
  8
LAYER-1
 10
1.651829
 20
0.201307
 30
0.000000
  0
VERTEX
  8
LAYER-1
 10
1.656170
 20
0.201307
 30
0.000000
  0
VERTEX
  8
LAYER-1
 10
1.660511
 20
0.202175
 30
0.000000
  0
VERTEX
  8
LAYER-1
 10
1.663116
 20
0.206515
 30
0.000000
  0
SEQEND
  8
LAYER-1
  0
POLYLINE
  8
LAYER-1
 66
  1
 70
  1
 62
  0
 10
1.616240
 20
0.183076
 30
0.000000
  0
VERTEX
  8
LAYER-1
 10
1.616240
 20
0.183076
 30
0.000000
  0
VERTEX
  8
LAYER-1
 10
1.593669
 20
0.196097
 30
0.000000
  0
VERTEX
  8
LAYER-1
 10
1.614502
 20
0.165716
 30
0.000000
  0
SEQEND
  8
LAYER-1
  0
POLYLINE
  8
LAYER-1
 66
  1
 70
  1
 62
  0
 10
1.264342
 20
0.195396
 30
0.000000
  0
VERTEX
  8
LAYER-1
 10
1.264342
 20
0.195396
 30
0.000000
  0
VERTEX
  8
LAYER-1
 10
1.244978
 20
0.208082
 30
0.000000
  0
VERTEX
  8
LAYER-1
 10
1.238966
 20
0.196732
 30
0.000000
  0
SEQEND
  8
LAYER-1
  0
POLYLINE
  8
LAYER-1
 66
  1
 70
  0
 62
  0
 10
1.730214
 20
0.071744
 30
0.000000
  0
VERTEX
  8
LAYER-1
 10
1.730214
 20
0.071744
 30
0.000000
  0
VERTEX
  8
LAYER-1
 10
1.730214
 20
0.067404
 30
0.000000
  0
VERTEX
  8
LAYER-1
 10
1.734555
 20
0.063932
 30
0.000000
  0
VERTEX
  8
LAYER-1
 10
1.739763
 20
0.063064
 30
0.000000
  0
VERTEX
  8
LAYER-1
 10
1.744104
 20
0.064799
 30
0.000000
  0
VERTEX
  8
LAYER-1
 10
1.745839
 20
0.069140
 30
0.000000
  0
VERTEX
  8
LAYER-1
 10
1.745839
 20
0.073480
 30
0.000000
  0
VERTEX
  8
LAYER-1
 10
1.742368
 20
0.077821
 30
0.000000
  0
VERTEX
  8
LAYER-1
 10
1.738027
 20
0.077821
 30
0.000000
  0
VERTEX
  8
LAYER-1
 10
1.733686
 20
0.076953
 30
0.000000
  0
VERTEX
  8
LAYER-1
 10
1.731081
 20
0.072611
 30
0.000000
  0
SEQEND
  8
LAYER-1
  0
POLYLINE
  8
LAYER-1
 66
  1
 70
  0
 62
  0
 10
1.239503
 20
0.126654
 30
0.000000
  0
VERTEX
  8
LAYER-1
 10
1.239503
 20
0.126654
 30
0.000000
  0
VERTEX
  8
LAYER-1
 10
1.239503
 20
0.130994
 30
0.000000
  0
VERTEX
  8
LAYER-1
 10
1.235162
 20
0.134466
 30
0.000000
  0
VERTEX
  8
LAYER-1
 10
1.229954
 20
0.135334
 30
0.000000
  0
VERTEX
  8
LAYER-1
 10
1.225614
 20
0.133598
 30
0.000000
  0
VERTEX
  8
LAYER-1
 10
1.223878
 20
0.129257
 30
0.000000
  0
VERTEX
  8
LAYER-1
 10
1.223878
 20
0.124918
 30
0.000000
  0
VERTEX
  8
LAYER-1
 10
1.227350
 20
0.120577
 30
0.000000
  0
VERTEX
  8
LAYER-1
 10
1.231690
 20
0.120577
 30
0.000000
  0
VERTEX
  8
LAYER-1
 10
1.236031
 20
0.121445
 30
0.000000
  0
VERTEX
  8
LAYER-1
 10
1.238636
 20
0.125786
 30
0.000000
  0
SEQEND
  8
LAYER-1
  0
POLYLINE
  8
LAYER-1
 66
  1
 70
  0
 62
  0
 10
1.541587
 20
0.161377
 30
0.000000
  0
VERTEX
  8
LAYER-1
 10
1.541587
 20
0.161377
 30
0.000000
  0
VERTEX
  8
LAYER-1
 10
1.541587
 20
0.165718
 30
0.000000
  0
VERTEX
  8
LAYER-1
 10
1.537246
 20
0.169189
 30
0.000000
  0
VERTEX
  8
LAYER-1
 10
1.532038
 20
0.170058
 30
0.000000
  0
VERTEX
  8
LAYER-1
 10
1.527697
 20
0.168321
 30
0.000000
  0
VERTEX
  8
LAYER-1
 10
1.525962
 20
0.163981
 30
0.000000
  0
VERTEX
  8
LAYER-1
 10
1.525962
 20
0.159642
 30
0.000000
  0
VERTEX
  8
LAYER-1
 10
1.529433
 20
0.155301
 30
0.000000
  0
VERTEX
  8
LAYER-1
 10
1.533774
 20
0.155301
 30
0.000000
  0
VERTEX
  8
LAYER-1
 10
1.538115
 20
0.156169
 30
0.000000
  0
VERTEX
  8
LAYER-1
 10
1.540720
 20
0.160509
 30
0.000000
  0
SEQEND
  8
LAYER-1
  0
POLYLINE
  8
LAYER-1
 66
  1
 70
  1
 62
  0
 10
1.760770
 20
0.153564
 30
0.000000
  0
VERTEX
  8
LAYER-1
 10
1.760770
 20
0.153564
 30
0.000000
  0
VERTEX
  8
LAYER-1
 10
1.767714
 20
0.127524
 30
0.000000
  0
VERTEX
  8
LAYER-1
 10
1.786812
 20
0.143148
 30
0.000000
  0
SEQEND
  8
LAYER-1
  0
POLYLINE
  8
LAYER-1
 66
  1
 70
  1
 62
  0
 10
1.944798
 20
0.175267
 30
0.000000
  0
VERTEX
  8
LAYER-1
 10
1.944798
 20
0.175267
 30
0.000000
  0
VERTEX
  8
LAYER-1
 10
1.931776
 20
0.152696
 30
0.000000
  0
VERTEX
  8
LAYER-1
 10
1.962159
 20
0.173530
 30
0.000000
  0
SEQEND
  8
LAYER-1
  0
POLYLINE
  8
LAYER-1
 66
  1
 70
  1
 62
  0
 10
1.994702
 20
0.073806
 30
0.000000
  0
VERTEX
  8
LAYER-1
 10
1.994702
 20
0.073806
 30
0.000000
  0
VERTEX
  8
LAYER-1
 10
1.978210
 20
0.048632
 30
0.000000
  0
VERTEX
  8
LAYER-1
 10
1.992966
 20
0.040820
 30
0.000000
  0
SEQEND
  8
LAYER-1
  0
POLYLINE
  8
LAYER-1
 66
  1
 70
  0
 62
  0
 10
1.732992
 20
0.177870
 30
0.000000
  0
VERTEX
  8
LAYER-1
 10
1.732992
 20
0.177870
 30
0.000000
  0
VERTEX
  8
LAYER-1
 10
1.728651
 20
0.177870
 30
0.000000
  0
VERTEX
  8
LAYER-1
 10
1.725180
 20
0.173530
 30
0.000000
  0
VERTEX
  8
LAYER-1
 10
1.724312
 20
0.168321
 30
0.000000
  0
VERTEX
  8
LAYER-1
 10
1.726048
 20
0.163981
 30
0.000000
  0
VERTEX
  8
LAYER-1
 10
1.730387
 20
0.162245
 30
0.000000
  0
VERTEX
  8
LAYER-1
 10
1.734728
 20
0.162245
 30
0.000000
  0
VERTEX
  8
LAYER-1
 10
1.739068
 20
0.165717
 30
0.000000
  0
VERTEX
  8
LAYER-1
 10
1.739068
 20
0.170058
 30
0.000000
  0
VERTEX
  8
LAYER-1
 10
1.738200
 20
0.174399
 30
0.000000
  0
VERTEX
  8
LAYER-1
 10
1.733860
 20
0.177002
 30
0.000000
  0
SEQEND
  8
LAYER-1
  0
POLYLINE
  8
LAYER-1
 66
  1
 70
  1
 62
  0
 10
1.770319
 20
0.110162
 30
0.000000
  0
VERTEX
  8
LAYER-1
 10
1.770319
 20
0.110162
 30
0.000000
  0
VERTEX
  8
LAYER-1
 10
1.757298
 20
0.087592
 30
0.000000
  0
VERTEX
  8
LAYER-1
 10
1.787680
 20
0.108425
 30
0.000000
  0
SEQEND
  8
LAYER-1
  0
POLYLINE
  8
LAYER-1
 66
  1
 70
  1
 62
  0
 10
2.026119
 20
0.055914
 30
0.000000
  0
VERTEX
  8
LAYER-1
 10
2.026119
 20
0.055914
 30
0.000000
  0
VERTEX
  8
LAYER-1
 10
2.038806
 20
0.075278
 30
0.000000
  0
VERTEX
  8
LAYER-1
 10
2.027455
 20
0.081290
 30
0.000000
  0
SEQEND
  8
LAYER-1
  0
POLYLINE
  8
LAYER-1
 66
  1
 70
  0
 62
  0
 10
1.925344
 20
0.056361
 30
0.000000
  0
VERTEX
  8
LAYER-1
 10
1.925344
 20
0.056361
 30
0.000000
  0
VERTEX
  8
LAYER-1
 10
1.929685
 20
0.056361
 30
0.000000
  0
VERTEX
  8
LAYER-1
 10
1.933157
 20
0.060702
 30
0.000000
  0
VERTEX
  8
LAYER-1
 10
1.934025
 20
0.065909
 30
0.000000
  0
VERTEX
  8
LAYER-1
 10
1.932289
 20
0.070251
 30
0.000000
  0
VERTEX
  8
LAYER-1
 10
1.927948
 20
0.071986
 30
0.000000
  0
VERTEX
  8
LAYER-1
 10
1.923608
 20
0.071986
 30
0.000000
  0
VERTEX
  8
LAYER-1
 10
1.919268
 20
0.068515
 30
0.000000
  0
VERTEX
  8
LAYER-1
 10
1.919268
 20
0.064173
 30
0.000000
  0
VERTEX
  8
LAYER-1
 10
1.920136
 20
0.059833
 30
0.000000
  0
VERTEX
  8
LAYER-1
 10
1.924476
 20
0.057228
 30
0.000000
  0
SEQEND
  8
LAYER-1
  0
POLYLINE
  8
LAYER-1
 66
  1
 70
  0
 62
  0
 10
1.614849
 20
0.092228
 30
0.000000
  0
VERTEX
  8
LAYER-1
 10
1.614849
 20
0.092228
 30
0.000000
  0
VERTEX
  8
LAYER-1
 10
1.619190
 20
0.092228
 30
0.000000
  0
VERTEX
  8
LAYER-1
 10
1.622662
 20
0.096569
 30
0.000000
  0
VERTEX
  8
LAYER-1
 10
1.623530
 20
0.101777
 30
0.000000
  0
VERTEX
  8
LAYER-1
 10
1.621795
 20
0.106118
 30
0.000000
  0
VERTEX
  8
LAYER-1
 10
1.617454
 20
0.107853
 30
0.000000
  0
VERTEX
  8
LAYER-1
 10
1.613113
 20
0.107853
 30
0.000000
  0
VERTEX
  8
LAYER-1
 10
1.608772
 20
0.104382
 30
0.000000
  0
VERTEX
  8
LAYER-1
 10
1.608772
 20
0.100041
 30
0.000000
  0
VERTEX
  8
LAYER-1
 10
1.609641
 20
0.095701
 30
0.000000
  0
VERTEX
  8
LAYER-1
 10
1.613982
 20
0.093096
 30
0.000000
  0
SEQEND
  8
LAYER-1
  0
POLYLINE
  8
LAYER-1
 66
  1
 70
  1
 62
  0
 10
2.110163
 20
0.158339
 30
0.000000
  0
VERTEX
  8
LAYER-1
 10
2.110163
 20
0.158339
 30
0.000000
  0
VERTEX
  8
LAYER-1
 10
2.084122
 20
0.151394
 30
0.000000
  0
VERTEX
  8
LAYER-1
 10
2.098009
 20
0.126221
 30
0.000000
  0
SEQEND
  8
LAYER-1
  0
POLYLINE
  8
LAYER-1
 66
  1
 70
  1
 62
  0
 10
1.849046
 20
0.118744
 30
0.000000
  0
VERTEX
  8
LAYER-1
 10
1.849046
 20
0.118744
 30
0.000000
  0
VERTEX
  8
LAYER-1
 10
1.826475
 20
0.131765
 30
0.000000
  0
VERTEX
  8
LAYER-1
 10
1.847308
 20
0.101383
 30
0.000000
  0
SEQEND
  8
LAYER-1
  0
POLYLINE
  8
LAYER-1
 66
  1
 70
  1
 62
  0
 10
1.878903
 20
0.041171
 30
0.000000
  0
VERTEX
  8
LAYER-1
 10
1.878903
 20
0.041171
 30
0.000000
  0
VERTEX
  8
LAYER-1
 10
1.904076
 20
0.024677
 30
0.000000
  0
VERTEX
  8
LAYER-1
 10
1.911889
 20
0.039435
 30
0.000000
  0
SEQEND
  8
LAYER-1
  0
POLYLINE
  8
LAYER-1
 66
  1
 70
  0
 62
  0
 10
2.141413
 20
0.207816
 30
0.000000
  0
VERTEX
  8
LAYER-1
 10
2.141413
 20
0.207816
 30
0.000000
  0
VERTEX
  8
LAYER-1
 10
2.141413
 20
0.212157
 30
0.000000
  0
VERTEX
  8
LAYER-1
 10
2.137072
 20
0.215629
 30
0.000000
  0
VERTEX
  8
LAYER-1
 10
2.131864
 20
0.216496
 30
0.000000
  0
VERTEX
  8
LAYER-1
 10
2.127523
 20
0.214761
 30
0.000000
  0
VERTEX
  8
LAYER-1
 10
2.125788
 20
0.210420
 30
0.000000
  0
VERTEX
  8
LAYER-1
 10
2.125788
 20
0.206080
 30
0.000000
  0
VERTEX
  8
LAYER-1
 10
2.129259
 20
0.201739
 30
0.000000
  0
VERTEX
  8
LAYER-1
 10
2.133600
 20
0.201739
 30
0.000000
  0
VERTEX
  8
LAYER-1
 10
2.137941
 20
0.202607
 30
0.000000
  0
VERTEX
  8
LAYER-1
 10
2.140546
 20
0.206948
 30
0.000000
  0
SEQEND
  8
LAYER-1
  0
POLYLINE
  8
LAYER-1
 66
  1
 70
  1
 62
  0
 10
2.073705
 20
0.170492
 30
0.000000
  0
VERTEX
  8
LAYER-1
 10
2.073705
 20
0.170492
 30
0.000000
  0
VERTEX
  8
LAYER-1
 10
2.051134
 20
0.183512
 30
0.000000
  0
VERTEX
  8
LAYER-1
 10
2.071967
 20
0.153130
 30
0.000000
  0
SEQEND
  8
LAYER-1
  0
POLYLINE
  8
LAYER-1
 66
  1
 70
  1
 62
  0
 10
0.842467
 20
0.207114
 30
0.000000
  0
VERTEX
  8
LAYER-1
 10
0.842467
 20
0.207114
 30
0.000000
  0
VERTEX
  8
LAYER-1
 10
0.823103
 20
0.219801
 30
0.000000
  0
VERTEX
  8
LAYER-1
 10
0.817092
 20
0.208450
 30
0.000000
  0
SEQEND
  8
LAYER-1
  0
POLYLINE
  8
LAYER-1
 66
  1
 70
  0
 62
  0
 10
1.853384
 20
0.178640
 30
0.000000
  0
VERTEX
  8
LAYER-1
 10
1.853384
 20
0.178640
 30
0.000000
  0
VERTEX
  8
LAYER-1
 10
1.853384
 20
0.182979
 30
0.000000
  0
VERTEX
  8
LAYER-1
 10
1.849044
 20
0.186451
 30
0.000000
  0
VERTEX
  8
LAYER-1
 10
1.843836
 20
0.187319
 30
0.000000
  0
VERTEX
  8
LAYER-1
 10
1.839495
 20
0.185583
 30
0.000000
  0
VERTEX
  8
LAYER-1
 10
1.837759
 20
0.181244
 30
0.000000
  0
VERTEX
  8
LAYER-1
 10
1.837759
 20
0.176903
 30
0.000000
  0
VERTEX
  8
LAYER-1
 10
1.841232
 20
0.172563
 30
0.000000
  0
VERTEX
  8
LAYER-1
 10
1.845572
 20
0.172563
 30
0.000000
  0
VERTEX
  8
LAYER-1
 10
1.849912
 20
0.173431
 30
0.000000
  0
VERTEX
  8
LAYER-1
 10
1.852517
 20
0.177772
 30
0.000000
  0
SEQEND
  8
LAYER-1
  0
POLYLINE
  8
LAYER-1
 66
  1
 70
  0
 62
  0
 10
0.819364
 20
0.140108
 30
0.000000
  0
VERTEX
  8
LAYER-1
 10
0.819364
 20
0.140108
 30
0.000000
  0
VERTEX
  8
LAYER-1
 10
0.819364
 20
0.144449
 30
0.000000
  0
VERTEX
  8
LAYER-1
 10
0.815024
 20
0.147920
 30
0.000000
  0
VERTEX
  8
LAYER-1
 10
0.809816
 20
0.148788
 30
0.000000
  0
VERTEX
  8
LAYER-1
 10
0.805475
 20
0.147052
 30
0.000000
  0
VERTEX
  8
LAYER-1
 10
0.803739
 20
0.142712
 30
0.000000
  0
VERTEX
  8
LAYER-1
 10
0.803739
 20
0.138373
 30
0.000000
  0
VERTEX
  8
LAYER-1
 10
0.807211
 20
0.134032
 30
0.000000
  0
VERTEX
  8
LAYER-1
 10
0.811552
 20
0.134032
 30
0.000000
  0
VERTEX
  8
LAYER-1
 10
0.815893
 20
0.134900
 30
0.000000
  0
VERTEX
  8
LAYER-1
 10
0.818497
 20
0.139240
 30
0.000000
  0
SEQEND
  8
LAYER-1
  0
POLYLINE
  8
LAYER-1
 66
  1
 70
  0
 62
  0
 10
1.941759
 20
0.207813
 30
0.000000
  0
VERTEX
  8
LAYER-1
 10
1.941759
 20
0.207813
 30
0.000000
  0
VERTEX
  8
LAYER-1
 10
1.941759
 20
0.212154
 30
0.000000
  0
VERTEX
  8
LAYER-1
 10
1.937419
 20
0.215625
 30
0.000000
  0
VERTEX
  8
LAYER-1
 10
1.932211
 20
0.216493
 30
0.000000
  0
VERTEX
  8
LAYER-1
 10
1.927870
 20
0.214757
 30
0.000000
  0
VERTEX
  8
LAYER-1
 10
1.926134
 20
0.210417
 30
0.000000
  0
VERTEX
  8
LAYER-1
 10
1.926134
 20
0.206077
 30
0.000000
  0
VERTEX
  8
LAYER-1
 10
1.929606
 20
0.201736
 30
0.000000
  0
VERTEX
  8
LAYER-1
 10
1.933947
 20
0.201736
 30
0.000000
  0
VERTEX
  8
LAYER-1
 10
1.938288
 20
0.202605
 30
0.000000
  0
VERTEX
  8
LAYER-1
 10
1.940892
 20
0.206945
 30
0.000000
  0
SEQEND
  8
LAYER-1
  0
POLYLINE
  8
LAYER-1
 66
  1
 70
  1
 62
  0
 10
1.501048
 20
0.072349
 30
0.000000
  0
VERTEX
  8
LAYER-1
 10
1.501048
 20
0.072349
 30
0.000000
  0
VERTEX
  8
LAYER-1
 10
1.475006
 20
0.065404
 30
0.000000
  0
VERTEX
  8
LAYER-1
 10
1.488895
 20
0.040231
 30
0.000000
  0
SEQEND
  8
LAYER-1
  0
POLYLINE
  8
LAYER-1
 66
  1
 70
  1
 62
  0
 10
2.347575
 20
0.135769
 30
0.000000
  0
VERTEX
  8
LAYER-1
 10
2.347575
 20
0.135769
 30
0.000000
  0
VERTEX
  8
LAYER-1
 10
2.370145
 20
0.122748
 30
0.000000
  0
VERTEX
  8
LAYER-1
 10
2.349312
 20
0.153130
 30
0.000000
  0
SEQEND
  8
LAYER-1
  0
POLYLINE
  8
LAYER-1
 66
  1
 70
  1
 62
  0
 10
0.956950
 20
0.152696
 30
0.000000
  0
VERTEX
  8
LAYER-1
 10
0.956950
 20
0.152696
 30
0.000000
  0
VERTEX
  8
LAYER-1
 10
0.982124
 20
0.136202
 30
0.000000
  0
VERTEX
  8
LAYER-1
 10
0.989937
 20
0.150960
 30
0.000000
  0
SEQEND
  8
LAYER-1
  0
POLYLINE
  8
LAYER-1
 66
  1
 70
  0
 62
  0
 10
2.275526
 20
0.182640
 30
0.000000
  0
VERTEX
  8
LAYER-1
 10
2.275526
 20
0.182640
 30
0.000000
  0
VERTEX
  8
LAYER-1
 10
2.275526
 20
0.178301
 30
0.000000
  0
VERTEX
  8
LAYER-1
 10
2.279867
 20
0.174829
 30
0.000000
  0
VERTEX
  8
LAYER-1
 10
2.285075
 20
0.173961
 30
0.000000
  0
VERTEX
  8
LAYER-1
 10
2.289416
 20
0.175696
 30
0.000000
  0
VERTEX
  8
LAYER-1
 10
2.291151
 20
0.180038
 30
0.000000
  0
VERTEX
  8
LAYER-1
 10
2.291151
 20
0.184376
 30
0.000000
  0
VERTEX
  8
LAYER-1
 10
2.287680
 20
0.188717
 30
0.000000
  0
VERTEX
  8
LAYER-1
 10
2.283339
 20
0.188717
 30
0.000000
  0
VERTEX
  8
LAYER-1
 10
2.278998
 20
0.187849
 30
0.000000
  0
VERTEX
  8
LAYER-1
 10
2.276395
 20
0.183508
 30
0.000000
  0
SEQEND
  8
LAYER-1
  0
POLYLINE
  8
LAYER-1
 66
  1
 70
  1
 62
  0
 10
2.225179
 20
0.193926
 30
0.000000
  0
VERTEX
  8
LAYER-1
 10
2.225179
 20
0.193926
 30
0.000000
  0
VERTEX
  8
LAYER-1
 10
2.247748
 20
0.180907
 30
0.000000
  0
VERTEX
  8
LAYER-1
 10
2.226916
 20
0.211288
 30
0.000000
  0
SEQEND
  8
LAYER-1
  0
POLYLINE
  8
LAYER-1
 66
  1
 70
  1
 62
  0
 10
0.955548
 20
0.100446
 30
0.000000
  0
VERTEX
  8
LAYER-1
 10
0.955548
 20
0.100446
 30
0.000000
  0
VERTEX
  8
LAYER-1
 10
0.974913
 20
0.087759
 30
0.000000
  0
VERTEX
  8
LAYER-1
 10
0.980924
 20
0.099110
 30
0.000000
  0
SEQEND
  8
LAYER-1
  0
POLYLINE
  8
LAYER-1
 66
  1
 70
  0
 62
  0
 10
1.681690
 20
0.052731
 30
0.000000
  0
VERTEX
  8
LAYER-1
 10
1.681690
 20
0.052731
 30
0.000000
  0
VERTEX
  8
LAYER-1
 10
1.681690
 20
0.057070
 30
0.000000
  0
VERTEX
  8
LAYER-1
 10
1.677349
 20
0.060543
 30
0.000000
  0
VERTEX
  8
LAYER-1
 10
1.672141
 20
0.061412
 30
0.000000
  0
VERTEX
  8
LAYER-1
 10
1.667800
 20
0.059675
 30
0.000000
  0
VERTEX
  8
LAYER-1
 10
1.666065
 20
0.055334
 30
0.000000
  0
VERTEX
  8
LAYER-1
 10
1.666065
 20
0.050994
 30
0.000000
  0
VERTEX
  8
LAYER-1
 10
1.669536
 20
0.046654
 30
0.000000
  0
VERTEX
  8
LAYER-1
 10
1.673877
 20
0.046654
 30
0.000000
  0
VERTEX
  8
LAYER-1
 10
1.678218
 20
0.047522
 30
0.000000
  0
VERTEX
  8
LAYER-1
 10
1.680822
 20
0.051863
 30
0.000000
  0
SEQEND
  8
LAYER-1
  0
POLYLINE
  8
LAYER-1
 66
  1
 70
  0
 62
  0
 10
2.487332
 20
0.135769
 30
0.000000
  0
VERTEX
  8
LAYER-1
 10
2.487332
 20
0.135769
 30
0.000000
  0
VERTEX
  8
LAYER-1
 10
2.487332
 20
0.131429
 30
0.000000
  0
VERTEX
  8
LAYER-1
 10
2.491673
 20
0.127957
 30
0.000000
  0
VERTEX
  8
LAYER-1
 10
2.496880
 20
0.127089
 30
0.000000
  0
VERTEX
  8
LAYER-1
 10
2.501221
 20
0.128825
 30
0.000000
  0
VERTEX
  8
LAYER-1
 10
2.502957
 20
0.133164
 30
0.000000
  0
VERTEX
  8
LAYER-1
 10
2.502957
 20
0.137505
 30
0.000000
  0
VERTEX
  8
LAYER-1
 10
2.499485
 20
0.141846
 30
0.000000
  0
VERTEX
  8
LAYER-1
 10
2.495145
 20
0.141846
 30
0.000000
  0
VERTEX
  8
LAYER-1
 10
2.490804
 20
0.140977
 30
0.000000
  0
VERTEX
  8
LAYER-1
 10
2.488200
 20
0.136637
 30
0.000000
  0
SEQEND
  8
LAYER-1
  0
POLYLINE
  8
LAYER-1
 66
  1
 70
  0
 62
  0
 10
2.321534
 20
0.190456
 30
0.000000
  0
VERTEX
  8
LAYER-1
 10
2.321534
 20
0.190456
 30
0.000000
  0
VERTEX
  8
LAYER-1
 10
2.321534
 20
0.186115
 30
0.000000
  0
VERTEX
  8
LAYER-1
 10
2.325874
 20
0.182643
 30
0.000000
  0
VERTEX
  8
LAYER-1
 10
2.331082
 20
0.181776
 30
0.000000
  0
VERTEX
  8
LAYER-1
 10
2.335423
 20
0.183512
 30
0.000000
  0
VERTEX
  8
LAYER-1
 10
2.337159
 20
0.187851
 30
0.000000
  0
VERTEX
  8
LAYER-1
 10
2.337159
 20
0.192192
 30
0.000000
  0
VERTEX
  8
LAYER-1
 10
2.333687
 20
0.196532
 30
0.000000
  0
VERTEX
  8
LAYER-1
 10
2.329346
 20
0.196532
 30
0.000000
  0
VERTEX
  8
LAYER-1
 10
2.325005
 20
0.195663
 30
0.000000
  0
VERTEX
  8
LAYER-1
 10
2.322401
 20
0.191324
 30
0.000000
  0
SEQEND
  8
LAYER-1
  0
POLYLINE
  8
LAYER-1
 66
  1
 70
  1
 62
  0
 10
2.083687
 20
0.107558
 30
0.000000
  0
VERTEX
  8
LAYER-1
 10
2.083687
 20
0.107558
 30
0.000000
  0
VERTEX
  8
LAYER-1
 10
2.090631
 20
0.081518
 30
0.000000
  0
VERTEX
  8
LAYER-1
 10
2.115805
 20
0.095405
 30
0.000000
  0
SEQEND
  8
LAYER-1
  0
POLYLINE
  8
LAYER-1
 66
  1
 70
  1
 62
  0
 10
2.188201
 20
0.094799
 30
0.000000
  0
VERTEX
  8
LAYER-1
 10
2.188201
 20
0.094799
 30
0.000000
  0
VERTEX
  8
LAYER-1
 10
2.175180
 20
0.072229
 30
0.000000
  0
VERTEX
  8
LAYER-1
 10
2.205562
 20
0.093062
 30
0.000000
  0
SEQEND
  8
LAYER-1
  0
POLYLINE
  8
LAYER-1
 66
  1
 70
  1
 62
  0
 10
1.904165
 20
0.125255
 30
0.000000
  0
VERTEX
  8
LAYER-1
 10
1.904165
 20
0.125255
 30
0.000000
  0
VERTEX
  8
LAYER-1
 10
1.887673
 20
0.100082
 30
0.000000
  0
VERTEX
  8
LAYER-1
 10
1.902430
 20
0.092269
 30
0.000000
  0
SEQEND
  8
LAYER-1
  0
POLYLINE
  8
LAYER-1
 66
  1
 70
  0
 62
  0
 10
2.034208
 20
0.138808
 30
0.000000
  0
VERTEX
  8
LAYER-1
 10
2.034208
 20
0.138808
 30
0.000000
  0
VERTEX
  8
LAYER-1
 10
2.029867
 20
0.138808
 30
0.000000
  0
VERTEX
  8
LAYER-1
 10
2.026395
 20
0.134467
 30
0.000000
  0
VERTEX
  8
LAYER-1
 10
2.025528
 20
0.129259
 30
0.000000
  0
VERTEX
  8
LAYER-1
 10
2.027263
 20
0.124919
 30
0.000000
  0
VERTEX
  8
LAYER-1
 10
2.031604
 20
0.123183
 30
0.000000
  0
VERTEX
  8
LAYER-1
 10
2.035944
 20
0.123183
 30
0.000000
  0
VERTEX
  8
LAYER-1
 10
2.040284
 20
0.126655
 30
0.000000
  0
VERTEX
  8
LAYER-1
 10
2.040284
 20
0.130995
 30
0.000000
  0
VERTEX
  8
LAYER-1
 10
2.039417
 20
0.135336
 30
0.000000
  0
VERTEX
  8
LAYER-1
 10
2.035076
 20
0.137940
 30
0.000000
  0
SEQEND
  8
LAYER-1
  0
POLYLINE
  8
LAYER-1
 66
  1
 70
  1
 62
  0
 10
0.891847
 20
0.215195
 30
0.000000
  0
VERTEX
  8
LAYER-1
 10
0.891847
 20
0.215195
 30
0.000000
  0
VERTEX
  8
LAYER-1
 10
0.878826
 20
0.192624
 30
0.000000
  0
VERTEX
  8
LAYER-1
 10
0.909208
 20
0.213457
 30
0.000000
  0
SEQEND
  8
LAYER-1
  0
POLYLINE
  8
LAYER-1
 66
  1
 70
  1
 62
  0
 10
1.889242
 20
0.157905
 30
0.000000
  0
VERTEX
  8
LAYER-1
 10
1.889242
 20
0.157905
 30
0.000000
  0
VERTEX
  8
LAYER-1
 10
1.876556
 20
0.138540
 30
0.000000
  0
VERTEX
  8
LAYER-1
 10
1.887906
 20
0.132529
 30
0.000000
  0
SEQEND
  8
LAYER-1
  0
POLYLINE
  8
LAYER-1
 66
  1
 70
  0
 62
  0
 10
2.186117
 20
0.140544
 30
0.000000
  0
VERTEX
  8
LAYER-1
 10
2.186117
 20
0.140544
 30
0.000000
  0
VERTEX
  8
LAYER-1
 10
2.181778
 20
0.140544
 30
0.000000
  0
VERTEX
  8
LAYER-1
 10
2.178305
 20
0.136202
 30
0.000000
  0
VERTEX
  8
LAYER-1
 10
2.177437
 20
0.130995
 30
0.000000
  0
VERTEX
  8
LAYER-1
 10
2.179173
 20
0.126655
 30
0.000000
  0
VERTEX
  8
LAYER-1
 10
2.183513
 20
0.124919
 30
0.000000
  0
VERTEX
  8
LAYER-1
 10
2.187854
 20
0.124919
 30
0.000000
  0
VERTEX
  8
LAYER-1
 10
2.192194
 20
0.128390
 30
0.000000
  0
VERTEX
  8
LAYER-1
 10
2.192194
 20
0.132731
 30
0.000000
  0
VERTEX
  8
LAYER-1
 10
2.191326
 20
0.137071
 30
0.000000
  0
VERTEX
  8
LAYER-1
 10
2.186985
 20
0.139676
 30
0.000000
  0
SEQEND
  8
LAYER-1
  0
POLYLINE
  8
LAYER-1
 66
  1
 70
  0
 62
  0
 10
2.246013
 20
0.145751
 30
0.000000
  0
VERTEX
  8
LAYER-1
 10
2.246013
 20
0.145751
 30
0.000000
  0
VERTEX
  8
LAYER-1
 10
2.241673
 20
0.145751
 30
0.000000
  0
VERTEX
  8
LAYER-1
 10
2.238201
 20
0.141411
 30
0.000000
  0
VERTEX
  8
LAYER-1
 10
2.237333
 20
0.136202
 30
0.000000
  0
VERTEX
  8
LAYER-1
 10
2.239069
 20
0.131862
 30
0.000000
  0
VERTEX
  8
LAYER-1
 10
2.243409
 20
0.130126
 30
0.000000
  0
VERTEX
  8
LAYER-1
 10
2.247749
 20
0.130126
 30
0.000000
  0
VERTEX
  8
LAYER-1
 10
2.252090
 20
0.133598
 30
0.000000
  0
VERTEX
  8
LAYER-1
 10
2.252090
 20
0.137939
 30
0.000000
  0
VERTEX
  8
LAYER-1
 10
2.251222
 20
0.142280
 30
0.000000
  0
VERTEX
  8
LAYER-1
 10
2.246881
 20
0.144884
 30
0.000000
  0
SEQEND
  8
LAYER-1
  0
POLYLINE
  8
LAYER-1
 66
  1
 70
  0
 62
  0
 10
0.902264
 20
0.132730
 30
0.000000
  0
VERTEX
  8
LAYER-1
 10
0.902264
 20
0.132730
 30
0.000000
  0
VERTEX
  8
LAYER-1
 10
0.897923
 20
0.132730
 30
0.000000
  0
VERTEX
  8
LAYER-1
 10
0.894451
 20
0.128389
 30
0.000000
  0
VERTEX
  8
LAYER-1
 10
0.893583
 20
0.123182
 30
0.000000
  0
VERTEX
  8
LAYER-1
 10
0.895319
 20
0.118841
 30
0.000000
  0
VERTEX
  8
LAYER-1
 10
0.899660
 20
0.117105
 30
0.000000
  0
VERTEX
  8
LAYER-1
 10
0.904000
 20
0.117105
 30
0.000000
  0
VERTEX
  8
LAYER-1
 10
0.908340
 20
0.120577
 30
0.000000
  0
VERTEX
  8
LAYER-1
 10
0.908340
 20
0.124918
 30
0.000000
  0
VERTEX
  8
LAYER-1
 10
0.907472
 20
0.129258
 30
0.000000
  0
VERTEX
  8
LAYER-1
 10
0.903132
 20
0.131863
 30
0.000000
  0
SEQEND
  8
LAYER-1
  0
POLYLINE
  8
LAYER-1
 66
  1
 70
  1
 62
  0
 10
2.553305
 20
0.172661
 30
0.000000
  0
VERTEX
  8
LAYER-1
 10
2.553305
 20
0.172661
 30
0.000000
  0
VERTEX
  8
LAYER-1
 10
2.560249
 20
0.146619
 30
0.000000
  0
VERTEX
  8
LAYER-1
 10
2.585423
 20
0.160507
 30
0.000000
  0
SEQEND
  8
LAYER-1
  0
POLYLINE
  8
LAYER-1
 66
  1
 70
  1
 62
  0
 10
2.715632
 20
0.201306
 30
0.000000
  0
VERTEX
  8
LAYER-1
 10
2.715632
 20
0.201306
 30
0.000000
  0
VERTEX
  8
LAYER-1
 10
2.702610
 20
0.178737
 30
0.000000
  0
VERTEX
  8
LAYER-1
 10
2.732993
 20
0.199569
 30
0.000000
  0
SEQEND
  8
LAYER-1
  0
POLYLINE
  8
LAYER-1
 66
  1
 70
  1
 62
  0
 10
1.391847
 20
0.152262
 30
0.000000
  0
VERTEX
  8
LAYER-1
 10
1.391847
 20
0.152262
 30
0.000000
  0
VERTEX
  8
LAYER-1
 10
1.375354
 20
0.127087
 30
0.000000
  0
VERTEX
  8
LAYER-1
 10
1.390111
 20
0.119275
 30
0.000000
  0
SEQEND
  8
LAYER-1
  0
POLYLINE
  8
LAYER-1
 66
  1
 70
  0
 62
  0
 10
2.503826
 20
0.203910
 30
0.000000
  0
VERTEX
  8
LAYER-1
 10
2.503826
 20
0.203910
 30
0.000000
  0
VERTEX
  8
LAYER-1
 10
2.499485
 20
0.203910
 30
0.000000
  0
VERTEX
  8
LAYER-1
 10
2.496013
 20
0.199569
 30
0.000000
  0
VERTEX
  8
LAYER-1
 10
2.495145
 20
0.194361
 30
0.000000
  0
VERTEX
  8
LAYER-1
 10
2.496881
 20
0.190020
 30
0.000000
  0
VERTEX
  8
LAYER-1
 10
2.501221
 20
0.188285
 30
0.000000
  0
VERTEX
  8
LAYER-1
 10
2.505562
 20
0.188285
 30
0.000000
  0
VERTEX
  8
LAYER-1
 10
2.509903
 20
0.191756
 30
0.000000
  0
VERTEX
  8
LAYER-1
 10
2.509903
 20
0.196097
 30
0.000000
  0
VERTEX
  8
LAYER-1
 10
2.509034
 20
0.200438
 30
0.000000
  0
VERTEX
  8
LAYER-1
 10
2.504694
 20
0.203042
 30
0.000000
  0
SEQEND
  8
LAYER-1
  0
POLYLINE
  8
LAYER-1
 66
  1
 70
  1
 62
  0
 10
2.541153
 20
0.136202
 30
0.000000
  0
VERTEX
  8
LAYER-1
 10
2.541153
 20
0.136202
 30
0.000000
  0
VERTEX
  8
LAYER-1
 10
2.528131
 20
0.113632
 30
0.000000
  0
VERTEX
  8
LAYER-1
 10
2.558513
 20
0.134465
 30
0.000000
  0
SEQEND
  8
LAYER-1
  0
POLYLINE
  8
LAYER-1
 66
  1
 70
  1
 62
  0
 10
1.100079
 20
0.226573
 30
0.000000
  0
VERTEX
  8
LAYER-1
 10
1.100079
 20
0.226573
 30
0.000000
  0
VERTEX
  8
LAYER-1
 10
1.119444
 20
0.213887
 30
0.000000
  0
VERTEX
  8
LAYER-1
 10
1.125455
 20
0.225237
 30
0.000000
  0
SEQEND
  8
LAYER-1
  0
POLYLINE
  8
LAYER-1
 66
  1
 70
  0
 62
  0
 10
2.655735
 20
0.205645
 30
0.000000
  0
VERTEX
  8
LAYER-1
 10
2.655735
 20
0.205645
 30
0.000000
  0
VERTEX
  8
LAYER-1
 10
2.651395
 20
0.205645
 30
0.000000
  0
VERTEX
  8
LAYER-1
 10
2.647923
 20
0.201305
 30
0.000000
  0
VERTEX
  8
LAYER-1
 10
2.647055
 20
0.196097
 30
0.000000
  0
VERTEX
  8
LAYER-1
 10
2.648791
 20
0.191756
 30
0.000000
  0
VERTEX
  8
LAYER-1
 10
2.653131
 20
0.190020
 30
0.000000
  0
VERTEX
  8
LAYER-1
 10
2.657471
 20
0.190020
 30
0.000000
  0
VERTEX
  8
LAYER-1
 10
2.661812
 20
0.193492
 30
0.000000
  0
VERTEX
  8
LAYER-1
 10
2.661812
 20
0.197833
 30
0.000000
  0
VERTEX
  8
LAYER-1
 10
2.660944
 20
0.202174
 30
0.000000
  0
VERTEX
  8
LAYER-1
 10
2.656603
 20
0.204777
 30
0.000000
  0
SEQEND
  8
LAYER-1
  0
POLYLINE
  8
LAYER-1
 66
  1
 70
  0
 62
  0
 10
1.443931
 20
0.146185
 30
0.000000
  0
VERTEX
  8
LAYER-1
 10
1.443931
 20
0.146185
 30
0.000000
  0
VERTEX
  8
LAYER-1
 10
1.439590
 20
0.146185
 30
0.000000
  0
VERTEX
  8
LAYER-1
 10
1.436118
 20
0.141844
 30
0.000000
  0
VERTEX
  8
LAYER-1
 10
1.435250
 20
0.136637
 30
0.000000
  0
VERTEX
  8
LAYER-1
 10
1.436986
 20
0.132295
 30
0.000000
  0
VERTEX
  8
LAYER-1
 10
1.441326
 20
0.130560
 30
0.000000
  0
VERTEX
  8
LAYER-1
 10
1.445666
 20
0.130560
 30
0.000000
  0
VERTEX
  8
LAYER-1
 10
1.450006
 20
0.134032
 30
0.000000
  0
VERTEX
  8
LAYER-1
 10
1.450006
 20
0.138373
 30
0.000000
  0
VERTEX
  8
LAYER-1
 10
1.449138
 20
0.142713
 30
0.000000
  0
VERTEX
  8
LAYER-1
 10
1.444799
 20
0.145317
 30
0.000000
  0
SEQEND
  8
LAYER-1
  0
POLYLINE
  8
LAYER-1
 66
  1
 70
  0
 62
  0
 10
1.027263
 20
0.122748
 30
0.000000
  0
VERTEX
  8
LAYER-1
 10
1.027263
 20
0.122748
 30
0.000000
  0
VERTEX
  8
LAYER-1
 10
1.022923
 20
0.122748
 30
0.000000
  0
VERTEX
  8
LAYER-1
 10
1.019451
 20
0.118407
 30
0.000000
  0
VERTEX
  8
LAYER-1
 10
1.018583
 20
0.113199
 30
0.000000
  0
VERTEX
  8
LAYER-1
 10
1.020319
 20
0.108858
 30
0.000000
  0
VERTEX
  8
LAYER-1
 10
1.024658
 20
0.107123
 30
0.000000
  0
VERTEX
  8
LAYER-1
 10
1.028999
 20
0.107123
 30
0.000000
  0
VERTEX
  8
LAYER-1
 10
1.033339
 20
0.110594
 30
0.000000
  0
VERTEX
  8
LAYER-1
 10
1.033339
 20
0.114935
 30
0.000000
  0
VERTEX
  8
LAYER-1
 10
1.032471
 20
0.119275
 30
0.000000
  0
VERTEX
  8
LAYER-1
 10
1.028131
 20
0.121880
 30
0.000000
  0
SEQEND
  8
LAYER-1
  0
POLYLINE
  8
LAYER-1
 66
  1
 70
  1
 62
  0
 10
2.995145
 20
0.196965
 30
0.000000
  0
VERTEX
  8
LAYER-1
 10
2.995145
 20
0.196965
 30
0.000000
  0
VERTEX
  8
LAYER-1
 10
3.002090
 20
0.170926
 30
0.000000
  0
VERTEX
  8
LAYER-1
 10
3.027263
 20
0.184812
 30
0.000000
  0
SEQEND
  8
LAYER-1
  0
POLYLINE
  8
LAYER-1
 66
  1
 70
  1
 62
  0
 10
3.157472
 20
0.225612
 30
0.000000
  0
VERTEX
  8
LAYER-1
 10
3.157472
 20
0.225612
 30
0.000000
  0
VERTEX
  8
LAYER-1
 10
3.144451
 20
0.203042
 30
0.000000
  0
VERTEX
  8
LAYER-1
 10
3.174833
 20
0.223874
 30
0.000000
  0
SEQEND
  8
LAYER-1
  0
POLYLINE
  8
LAYER-1
 66
  1
 70
  1
 62
  0
 10
2.385770
 20
0.161376
 30
0.000000
  0
VERTEX
  8
LAYER-1
 10
2.385770
 20
0.161376
 30
0.000000
  0
VERTEX
  8
LAYER-1
 10
2.410943
 20
0.144882
 30
0.000000
  0
VERTEX
  8
LAYER-1
 10
2.418756
 20
0.159640
 30
0.000000
  0
SEQEND
  8
LAYER-1
  0
POLYLINE
  8
LAYER-1
 66
  1
 70
  0
 62
  0
 10
2.956083
 20
0.217800
 30
0.000000
  0
VERTEX
  8
LAYER-1
 10
2.956083
 20
0.217800
 30
0.000000
  0
VERTEX
  8
LAYER-1
 10
2.951742
 20
0.217800
 30
0.000000
  0
VERTEX
  8
LAYER-1
 10
2.948270
 20
0.213459
 30
0.000000
  0
VERTEX
  8
LAYER-1
 10
2.947402
 20
0.208251
 30
0.000000
  0
VERTEX
  8
LAYER-1
 10
2.949138
 20
0.203911
 30
0.000000
  0
VERTEX
  8
LAYER-1
 10
2.953479
 20
0.202175
 30
0.000000
  0
VERTEX
  8
LAYER-1
 10
2.957819
 20
0.202175
 30
0.000000
  0
VERTEX
  8
LAYER-1
 10
2.962159
 20
0.205646
 30
0.000000
  0
VERTEX
  8
LAYER-1
 10
2.962159
 20
0.209987
 30
0.000000
  0
VERTEX
  8
LAYER-1
 10
2.961291
 20
0.214327
 30
0.000000
  0
VERTEX
  8
LAYER-1
 10
2.956951
 20
0.216933
 30
0.000000
  0
SEQEND
  8
LAYER-1
  0
POLYLINE
  8
LAYER-1
 66
  1
 70
  1
 62
  0
 10
2.971709
 20
0.129258
 30
0.000000
  0
VERTEX
  8
LAYER-1
 10
2.971709
 20
0.129258
 30
0.000000
  0
VERTEX
  8
LAYER-1
 10
2.958687
 20
0.106688
 30
0.000000
  0
VERTEX
  8
LAYER-1
 10
2.989070
 20
0.127520
 30
0.000000
  0
SEQEND
  8
LAYER-1
  0
POLYLINE
  8
LAYER-1
 66
  1
 70
  1
 62
  0
 10
3.066159
 20
0.122845
 30
0.000000
  0
VERTEX
  8
LAYER-1
 10
3.066159
 20
0.122845
 30
0.000000
  0
VERTEX
  8
LAYER-1
 10
3.053472
 20
0.103481
 30
0.000000
  0
VERTEX
  8
LAYER-1
 10
3.064823
 20
0.097470
 30
0.000000
  0
SEQEND
  8
LAYER-1
  0
POLYLINE
  8
LAYER-1
 66
  1
 70
  0
 62
  0
 10
3.097576
 20
0.222139
 30
0.000000
  0
VERTEX
  8
LAYER-1
 10
3.097576
 20
0.222139
 30
0.000000
  0
VERTEX
  8
LAYER-1
 10
3.093236
 20
0.222139
 30
0.000000
  0
VERTEX
  8
LAYER-1
 10
3.089763
 20
0.217799
 30
0.000000
  0
VERTEX
  8
LAYER-1
 10
3.088895
 20
0.212591
 30
0.000000
  0
VERTEX
  8
LAYER-1
 10
3.090631
 20
0.208250
 30
0.000000
  0
VERTEX
  8
LAYER-1
 10
3.094972
 20
0.206514
 30
0.000000
  0
VERTEX
  8
LAYER-1
 10
3.099313
 20
0.206514
 30
0.000000
  0
VERTEX
  8
LAYER-1
 10
3.103652
 20
0.209986
 30
0.000000
  0
VERTEX
  8
LAYER-1
 10
3.103652
 20
0.214327
 30
0.000000
  0
VERTEX
  8
LAYER-1
 10
3.102784
 20
0.218668
 30
0.000000
  0
VERTEX
  8
LAYER-1
 10
3.098444
 20
0.221273
 30
0.000000
  0
SEQEND
  8
LAYER-1
  0
POLYLINE
  8
LAYER-1
 66
  1
 70
  0
 62
  0
 10
2.374486
 20
0.214327
 30
0.000000
  0
VERTEX
  8
LAYER-1
 10
2.374486
 20
0.214327
 30
0.000000
  0
VERTEX
  8
LAYER-1
 10
2.374486
 20
0.209986
 30
0.000000
  0
VERTEX
  8
LAYER-1
 10
2.378826
 20
0.206514
 30
0.000000
  0
VERTEX
  8
LAYER-1
 10
2.384034
 20
0.205645
 30
0.000000
  0
VERTEX
  8
LAYER-1
 10
2.388375
 20
0.207381
 30
0.000000
  0
VERTEX
  8
LAYER-1
 10
2.390111
 20
0.211722
 30
0.000000
  0
VERTEX
  8
LAYER-1
 10
2.390111
 20
0.216063
 30
0.000000
  0
VERTEX
  8
LAYER-1
 10
2.386639
 20
0.220404
 30
0.000000
  0
VERTEX
  8
LAYER-1
 10
2.382298
 20
0.220404
 30
0.000000
  0
VERTEX
  8
LAYER-1
 10
2.377957
 20
0.219535
 30
0.000000
  0
VERTEX
  8
LAYER-1
 10
2.375353
 20
0.215194
 30
0.000000
  0
SEQEND
  8
LAYER-1
  0
POLYLINE
  8
LAYER-1
 66
  1
 70
  0
 62
  0
 10
2.937853
 20
0.130124
 30
0.000000
  0
VERTEX
  8
LAYER-1
 10
2.937853
 20
0.130124
 30
0.000000
  0
VERTEX
  8
LAYER-1
 10
2.933512
 20
0.130124
 30
0.000000
  0
VERTEX
  8
LAYER-1
 10
2.930040
 20
0.125783
 30
0.000000
  0
VERTEX
  8
LAYER-1
 10
2.929173
 20
0.120576
 30
0.000000
  0
VERTEX
  8
LAYER-1
 10
2.930908
 20
0.116236
 30
0.000000
  0
VERTEX
  8
LAYER-1
 10
2.935249
 20
0.114499
 30
0.000000
  0
VERTEX
  8
LAYER-1
 10
2.939589
 20
0.114499
 30
0.000000
  0
VERTEX
  8
LAYER-1
 10
2.943929
 20
0.117971
 30
0.000000
  0
VERTEX
  8
LAYER-1
 10
2.943929
 20
0.122312
 30
0.000000
  0
VERTEX
  8
LAYER-1
 10
2.943062
 20
0.126652
 30
0.000000
  0
VERTEX
  8
LAYER-1
 10
2.938721
 20
0.129257
 30
0.000000
  0
SEQEND
  8
LAYER-1
  0
POLYLINE
  8
LAYER-1
 66
  1
 70
  1
 62
  0
 10
2.805042
 20
0.118407
 30
0.000000
  0
VERTEX
  8
LAYER-1
 10
2.805042
 20
0.118407
 30
0.000000
  0
VERTEX
  8
LAYER-1
 10
2.778999
 20
0.111463
 30
0.000000
  0
VERTEX
  8
LAYER-1
 10
2.792888
 20
0.086289
 30
0.000000
  0
SEQEND
  8
LAYER-1
  0
POLYLINE
  8
LAYER-1
 66
  1
 70
  1
 62
  0
 10
1.428307
 20
0.092800
 30
0.000000
  0
VERTEX
  8
LAYER-1
 10
1.428307
 20
0.092800
 30
0.000000
  0
VERTEX
  8
LAYER-1
 10
1.403131
 20
0.109293
 30
0.000000
  0
VERTEX
  8
LAYER-1
 10
1.395319
 20
0.094536
 30
0.000000
  0
SEQEND
  8
LAYER-1
  0
POLYLINE
  8
LAYER-1
 66
  1
 70
  0
 62
  0
 10
2.836292
 20
0.167887
 30
0.000000
  0
VERTEX
  8
LAYER-1
 10
2.836292
 20
0.167887
 30
0.000000
  0
VERTEX
  8
LAYER-1
 10
2.836292
 20
0.172227
 30
0.000000
  0
VERTEX
  8
LAYER-1
 10
2.831951
 20
0.175699
 30
0.000000
  0
VERTEX
  8
LAYER-1
 10
2.826743
 20
0.176567
 30
0.000000
  0
VERTEX
  8
LAYER-1
 10
2.822403
 20
0.174831
 30
0.000000
  0
VERTEX
  8
LAYER-1
 10
2.820667
 20
0.170490
 30
0.000000
  0
VERTEX
  8
LAYER-1
 10
2.820667
 20
0.166150
 30
0.000000
  0
VERTEX
  8
LAYER-1
 10
2.824139
 20
0.161811
 30
0.000000
  0
VERTEX
  8
LAYER-1
 10
2.828479
 20
0.161811
 30
0.000000
  0
VERTEX
  8
LAYER-1
 10
2.832820
 20
0.162677
 30
0.000000
  0
VERTEX
  8
LAYER-1
 10
2.835423
 20
0.167018
 30
0.000000
  0
SEQEND
  8
LAYER-1
  0
POLYLINE
  8
LAYER-1
 66
  1
 70
  1
 62
  0
 10
2.768582
 20
0.130561
 30
0.000000
  0
VERTEX
  8
LAYER-1
 10
2.768582
 20
0.130561
 30
0.000000
  0
VERTEX
  8
LAYER-1
 10
2.746014
 20
0.143581
 30
0.000000
  0
VERTEX
  8
LAYER-1
 10
2.766846
 20
0.113199
 30
0.000000
  0
SEQEND
  8
LAYER-1
  0
POLYLINE
  8
LAYER-1
 66
  1
 70
  1
 62
  0
 10
1.506097
 20
0.112063
 30
0.000000
  0
VERTEX
  8
LAYER-1
 10
1.506097
 20
0.112063
 30
0.000000
  0
VERTEX
  8
LAYER-1
 10
1.486731
 20
0.124749
 30
0.000000
  0
VERTEX
  8
LAYER-1
 10
1.480722
 20
0.113397
 30
0.000000
  0
SEQEND
  8
LAYER-1
  0
POLYLINE
  8
LAYER-1
 66
  1
 70
  0
 62
  0
 10
1.566326
 20
0.100612
 30
0.000000
  0
VERTEX
  8
LAYER-1
 10
1.566326
 20
0.100612
 30
0.000000
  0
VERTEX
  8
LAYER-1
 10
1.566326
 20
0.104952
 30
0.000000
  0
VERTEX
  8
LAYER-1
 10
1.561986
 20
0.108425
 30
0.000000
  0
VERTEX
  8
LAYER-1
 10
1.556778
 20
0.109293
 30
0.000000
  0
VERTEX
  8
LAYER-1
 10
1.552438
 20
0.107557
 30
0.000000
  0
VERTEX
  8
LAYER-1
 10
1.550702
 20
0.103216
 30
0.000000
  0
VERTEX
  8
LAYER-1
 10
1.550702
 20
0.098875
 30
0.000000
  0
VERTEX
  8
LAYER-1
 10
1.554174
 20
0.094536
 30
0.000000
  0
VERTEX
  8
LAYER-1
 10
1.558514
 20
0.094536
 30
0.000000
  0
VERTEX
  8
LAYER-1
 10
1.562855
 20
0.095404
 30
0.000000
  0
VERTEX
  8
LAYER-1
 10
1.565458
 20
0.099744
 30
0.000000
  0
SEQEND
  8
LAYER-1
  0
POLYLINE
  8
LAYER-1
 66
  1
 70
  0
 62
  0
 10
2.686118
 20
0.120143
 30
0.000000
  0
VERTEX
  8
LAYER-1
 10
2.686118
 20
0.120143
 30
0.000000
  0
VERTEX
  8
LAYER-1
 10
2.686118
 20
0.124484
 30
0.000000
  0
VERTEX
  8
LAYER-1
 10
2.681778
 20
0.127956
 30
0.000000
  0
VERTEX
  8
LAYER-1
 10
2.676570
 20
0.128824
 30
0.000000
  0
VERTEX
  8
LAYER-1
 10
2.672229
 20
0.127088
 30
0.000000
  0
VERTEX
  8
LAYER-1
 10
2.670493
 20
0.122748
 30
0.000000
  0
VERTEX
  8
LAYER-1
 10
2.670493
 20
0.118407
 30
0.000000
  0
VERTEX
  8
LAYER-1
 10
2.673965
 20
0.114067
 30
0.000000
  0
VERTEX
  8
LAYER-1
 10
2.678306
 20
0.114067
 30
0.000000
  0
VERTEX
  8
LAYER-1
 10
2.682646
 20
0.114936
 30
0.000000
  0
VERTEX
  8
LAYER-1
 10
2.685249
 20
0.119275
 30
0.000000
  0
SEQEND
  8
LAYER-1
  0
POLYLINE
  8
LAYER-1
 66
  1
 70
  1
 62
  0
 10
2.878826
 20
0.121446
 30
0.000000
  0
VERTEX
  8
LAYER-1
 10
2.878826
 20
0.121446
 30
0.000000
  0
VERTEX
  8
LAYER-1
 10
2.871881
 20
0.147487
 30
0.000000
  0
VERTEX
  8
LAYER-1
 10
2.846708
 20
0.133600
 30
0.000000
  0
SEQEND
  8
LAYER-1
  0
POLYLINE
  8
LAYER-1
 66
  1
 70
  1
 62
  0
 10
2.325874
 20
0.108425
 30
0.000000
  0
VERTEX
  8
LAYER-1
 10
2.325874
 20
0.108425
 30
0.000000
  0
VERTEX
  8
LAYER-1
 10
2.303304
 20
0.121446
 30
0.000000
  0
VERTEX
  8
LAYER-1
 10
2.324137
 20
0.091064
 30
0.000000
  0
SEQEND
  8
LAYER-1
  0
POLYLINE
  8
LAYER-1
 66
  1
 70
  1
 62
  0
 10
3.103653
 20
0.132731
 30
0.000000
  0
VERTEX
  8
LAYER-1
 10
3.103653
 20
0.132731
 30
0.000000
  0
VERTEX
  8
LAYER-1
 10
3.120146
 20
0.157905
 30
0.000000
  0
VERTEX
  8
LAYER-1
 10
3.105389
 20
0.165717
 30
0.000000
  0
SEQEND
  8
LAYER-1
  0
POLYLINE
  8
LAYER-1
 66
  1
 70
  0
 62
  0
 10
3.239069
 20
0.100611
 30
0.000000
  0
VERTEX
  8
LAYER-1
 10
3.239069
 20
0.100611
 30
0.000000
  0
VERTEX
  8
LAYER-1
 10
3.243409
 20
0.100611
 30
0.000000
  0
VERTEX
  8
LAYER-1
 10
3.246881
 20
0.104951
 30
0.000000
  0
VERTEX
  8
LAYER-1
 10
3.247749
 20
0.110158
 30
0.000000
  0
VERTEX
  8
LAYER-1
 10
3.246013
 20
0.114499
 30
0.000000
  0
VERTEX
  8
LAYER-1
 10
3.241673
 20
0.116236
 30
0.000000
  0
VERTEX
  8
LAYER-1
 10
3.237333
 20
0.116236
 30
0.000000
  0
VERTEX
  8
LAYER-1
 10
3.232992
 20
0.112763
 30
0.000000
  0
VERTEX
  8
LAYER-1
 10
3.232992
 20
0.108423
 30
0.000000
  0
VERTEX
  8
LAYER-1
 10
3.233860
 20
0.104082
 30
0.000000
  0
VERTEX
  8
LAYER-1
 10
3.238201
 20
0.101477
 30
0.000000
  0
SEQEND
  8
LAYER-1
  0
POLYLINE
  8
LAYER-1
 66
  1
 70
  1
 62
  0
 10
2.890978
 20
0.157905
 30
0.000000
  0
VERTEX
  8
LAYER-1
 10
2.890978
 20
0.157905
 30
0.000000
  0
VERTEX
  8
LAYER-1
 10
2.903999
 20
0.180475
 30
0.000000
  0
VERTEX
  8
LAYER-1
 10
2.873617
 20
0.159643
 30
0.000000
  0
SEQEND
  8
LAYER-1
  0
POLYLINE
  8
LAYER-1
 66
  1
 70
  1
 62
  0
 10
3.144618
 20
0.108760
 30
0.000000
  0
VERTEX
  8
LAYER-1
 10
3.144618
 20
0.108760
 30
0.000000
  0
VERTEX
  8
LAYER-1
 10
3.157305
 20
0.128124
 30
0.000000
  0
VERTEX
  8
LAYER-1
 10
3.145954
 20
0.134135
 30
0.000000
  0
SEQEND
  8
LAYER-1
  0
POLYLINE
  8
LAYER-1
 66
  1
 70
  0
 62
  0
 10
2.465630
 20
0.168321
 30
0.000000
  0
VERTEX
  8
LAYER-1
 10
2.465630
 20
0.168321
 30
0.000000
  0
VERTEX
  8
LAYER-1
 10
2.465630
 20
0.172661
 30
0.000000
  0
VERTEX
  8
LAYER-1
 10
2.461289
 20
0.176134
 30
0.000000
  0
VERTEX
  8
LAYER-1
 10
2.456082
 20
0.177001
 30
0.000000
  0
VERTEX
  8
LAYER-1
 10
2.451741
 20
0.175265
 30
0.000000
  0
VERTEX
  8
LAYER-1
 10
2.450005
 20
0.170925
 30
0.000000
  0
VERTEX
  8
LAYER-1
 10
2.450005
 20
0.166584
 30
0.000000
  0
VERTEX
  8
LAYER-1
 10
2.453477
 20
0.162245
 30
0.000000
  0
VERTEX
  8
LAYER-1
 10
2.457818
 20
0.162245
 30
0.000000
  0
VERTEX
  8
LAYER-1
 10
2.462158
 20
0.163112
 30
0.000000
  0
VERTEX
  8
LAYER-1
 10
2.464763
 20
0.167452
 30
0.000000
  0
SEQEND
  8
LAYER-1
  0
POLYLINE
  8
LAYER-1
 66
  1
 70
  0
 62
  0
 10
3.051570
 20
0.138808
 30
0.000000
  0
VERTEX
  8
LAYER-1
 10
3.051570
 20
0.138808
 30
0.000000
  0
VERTEX
  8
LAYER-1
 10
3.055910
 20
0.138808
 30
0.000000
  0
VERTEX
  8
LAYER-1
 10
3.059382
 20
0.143149
 30
0.000000
  0
VERTEX
  8
LAYER-1
 10
3.060250
 20
0.148356
 30
0.000000
  0
VERTEX
  8
LAYER-1
 10
3.058514
 20
0.152696
 30
0.000000
  0
VERTEX
  8
LAYER-1
 10
3.054174
 20
0.154433
 30
0.000000
  0
VERTEX
  8
LAYER-1
 10
3.049834
 20
0.154433
 30
0.000000
  0
VERTEX
  8
LAYER-1
 10
3.045493
 20
0.150961
 30
0.000000
  0
VERTEX
  8
LAYER-1
 10
3.045493
 20
0.146620
 30
0.000000
  0
VERTEX
  8
LAYER-1
 10
3.046361
 20
0.142280
 30
0.000000
  0
VERTEX
  8
LAYER-1
 10
3.050702
 20
0.139675
 30
0.000000
  0
SEQEND
  8
LAYER-1
  0
POLYLINE
  8
LAYER-1
 66
  1
 70
  0
 62
  0
 10
3.215632
 20
0.146620
 30
0.000000
  0
VERTEX
  8
LAYER-1
 10
3.215632
 20
0.146620
 30
0.000000
  0
VERTEX
  8
LAYER-1
 10
3.219972
 20
0.146620
 30
0.000000
  0
VERTEX
  8
LAYER-1
 10
3.223444
 20
0.150961
 30
0.000000
  0
VERTEX
  8
LAYER-1
 10
3.224312
 20
0.156169
 30
0.000000
  0
VERTEX
  8
LAYER-1
 10
3.222576
 20
0.160509
 30
0.000000
  0
VERTEX
  8
LAYER-1
 10
3.218235
 20
0.162245
 30
0.000000
  0
VERTEX
  8
LAYER-1
 10
3.213896
 20
0.162245
 30
0.000000
  0
VERTEX
  8
LAYER-1
 10
3.209556
 20
0.158774
 30
0.000000
  0
VERTEX
  8
LAYER-1
 10
3.209556
 20
0.154433
 30
0.000000
  0
VERTEX
  8
LAYER-1
 10
3.210423
 20
0.150092
 30
0.000000
  0
VERTEX
  8
LAYER-1
 10
3.214764
 20
0.147487
 30
0.000000
  0
SEQEND
  8
LAYER-1
  0
POLYLINE
  8
LAYER-1
 66
  1
 70
  1
 62
  0
 10
3.622749
 20
0.144884
 30
0.000000
  0
VERTEX
  8
LAYER-1
 10
3.622749
 20
0.144884
 30
0.000000
  0
VERTEX
  8
LAYER-1
 10
3.629693
 20
0.118843
 30
0.000000
  0
VERTEX
  8
LAYER-1
 10
3.654867
 20
0.132731
 30
0.000000
  0
SEQEND
  8
LAYER-1
  0
POLYLINE
  8
LAYER-1
 66
  1
 70
  1
 62
  0
 10
3.788982
 20
0.098877
 30
0.000000
  0
VERTEX
  8
LAYER-1
 10
3.788982
 20
0.098877
 30
0.000000
  0
VERTEX
  8
LAYER-1
 10
3.775961
 20
0.076308
 30
0.000000
  0
VERTEX
  8
LAYER-1
 10
3.806344
 20
0.097140
 30
0.000000
  0
SEQEND
  8
LAYER-1
  0
POLYLINE
  8
LAYER-1
 66
  1
 70
  1
 62
  0
 10
3.673964
 20
0.189150
 30
0.000000
  0
VERTEX
  8
LAYER-1
 10
3.673964
 20
0.189150
 30
0.000000
  0
VERTEX
  8
LAYER-1
 10
3.657472
 20
0.163977
 30
0.000000
  0
VERTEX
  8
LAYER-1
 10
3.672228
 20
0.156164
 30
0.000000
  0
SEQEND
  8
LAYER-1
  0
POLYLINE
  8
LAYER-1
 66
  1
 70
  0
 62
  0
 10
3.588894
 20
0.176134
 30
0.000000
  0
VERTEX
  8
LAYER-1
 10
3.588894
 20
0.176134
 30
0.000000
  0
VERTEX
  8
LAYER-1
 10
3.584554
 20
0.176134
 30
0.000000
  0
VERTEX
  8
LAYER-1
 10
3.581081
 20
0.171794
 30
0.000000
  0
VERTEX
  8
LAYER-1
 10
3.580212
 20
0.166586
 30
0.000000
  0
VERTEX
  8
LAYER-1
 10
3.581949
 20
0.162245
 30
0.000000
  0
VERTEX
  8
LAYER-1
 10
3.586290
 20
0.160509
 30
0.000000
  0
VERTEX
  8
LAYER-1
 10
3.590629
 20
0.160509
 30
0.000000
  0
VERTEX
  8
LAYER-1
 10
3.594969
 20
0.163981
 30
0.000000
  0
VERTEX
  8
LAYER-1
 10
3.594969
 20
0.168321
 30
0.000000
  0
VERTEX
  8
LAYER-1
 10
3.594101
 20
0.172663
 30
0.000000
  0
VERTEX
  8
LAYER-1
 10
3.589762
 20
0.175267
 30
0.000000
  0
SEQEND
  8
LAYER-1
  0
POLYLINE
  8
LAYER-1
 66
  1
 70
  1
 62
  0
 10
3.572400
 20
0.116236
 30
0.000000
  0
VERTEX
  8
LAYER-1
 10
3.572400
 20
0.116236
 30
0.000000
  0
VERTEX
  8
LAYER-1
 10
3.559380
 20
0.093667
 30
0.000000
  0
VERTEX
  8
LAYER-1
 10
3.589762
 20
0.114499
 30
0.000000
  0
SEQEND
  8
LAYER-1
  0
POLYLINE
  8
LAYER-1
 66
  1
 70
  1
 62
  0
 10
3.627856
 20
0.214589
 30
0.000000
  0
VERTEX
  8
LAYER-1
 10
3.627856
 20
0.214589
 30
0.000000
  0
VERTEX
  8
LAYER-1
 10
3.647221
 20
0.201902
 30
0.000000
  0
VERTEX
  8
LAYER-1
 10
3.653232
 20
0.213253
 30
0.000000
  0
SEQEND
  8
LAYER-1
  0
POLYLINE
  8
LAYER-1
 66
  1
 70
  0
 62
  0
 10
3.512504
 20
0.165839
 30
0.000000
  0
VERTEX
  8
LAYER-1
 10
3.512504
 20
0.165839
 30
0.000000
  0
VERTEX
  8
LAYER-1
 10
3.508164
 20
0.165839
 30
0.000000
  0
VERTEX
  8
LAYER-1
 10
3.504691
 20
0.161498
 30
0.000000
  0
VERTEX
  8
LAYER-1
 10
3.503825
 20
0.156291
 30
0.000000
  0
VERTEX
  8
LAYER-1
 10
3.505560
 20
0.151950
 30
0.000000
  0
VERTEX
  8
LAYER-1
 10
3.509900
 20
0.150214
 30
0.000000
  0
VERTEX
  8
LAYER-1
 10
3.514241
 20
0.150214
 30
0.000000
  0
VERTEX
  8
LAYER-1
 10
3.518581
 20
0.153686
 30
0.000000
  0
VERTEX
  8
LAYER-1
 10
3.518581
 20
0.158027
 30
0.000000
  0
VERTEX
  8
LAYER-1
 10
3.517712
 20
0.162367
 30
0.000000
  0
VERTEX
  8
LAYER-1
 10
3.513373
 20
0.164971
 30
0.000000
  0
SEQEND
  8
LAYER-1
  0
POLYLINE
  8
LAYER-1
 66
  1
 70
  0
 62
  0
 10
3.889244
 20
0.137935
 30
0.000000
  0
VERTEX
  8
LAYER-1
 10
3.889244
 20
0.137935
 30
0.000000
  0
VERTEX
  8
LAYER-1
 10
3.884904
 20
0.137935
 30
0.000000
  0
VERTEX
  8
LAYER-1
 10
3.881432
 20
0.133594
 30
0.000000
  0
VERTEX
  8
LAYER-1
 10
3.880564
 20
0.128387
 30
0.000000
  0
VERTEX
  8
LAYER-1
 10
3.882300
 20
0.124045
 30
0.000000
  0
VERTEX
  8
LAYER-1
 10
3.886640
 20
0.122310
 30
0.000000
  0
VERTEX
  8
LAYER-1
 10
3.890980
 20
0.122310
 30
0.000000
  0
VERTEX
  8
LAYER-1
 10
3.895320
 20
0.125782
 30
0.000000
  0
VERTEX
  8
LAYER-1
 10
3.895320
 20
0.130123
 30
0.000000
  0
VERTEX
  8
LAYER-1
 10
3.894453
 20
0.134463
 30
0.000000
  0
VERTEX
  8
LAYER-1
 10
3.890112
 20
0.137067
 30
0.000000
  0
SEQEND
  8
LAYER-1
  0
POLYLINE
  8
LAYER-1
 66
  1
 70
  0
 62
  0
 10
3.621012
 20
0.109292
 30
0.000000
  0
VERTEX
  8
LAYER-1
 10
3.621012
 20
0.109292
 30
0.000000
  0
VERTEX
  8
LAYER-1
 10
3.616672
 20
0.109292
 30
0.000000
  0
VERTEX
  8
LAYER-1
 10
3.613199
 20
0.104951
 30
0.000000
  0
VERTEX
  8
LAYER-1
 10
3.612331
 20
0.099743
 30
0.000000
  0
VERTEX
  8
LAYER-1
 10
3.614067
 20
0.095402
 30
0.000000
  0
VERTEX
  8
LAYER-1
 10
3.618408
 20
0.093667
 30
0.000000
  0
VERTEX
  8
LAYER-1
 10
3.622748
 20
0.093667
 30
0.000000
  0
VERTEX
  8
LAYER-1
 10
3.627089
 20
0.097138
 30
0.000000
  0
VERTEX
  8
LAYER-1
 10
3.627089
 20
0.101479
 30
0.000000
  0
VERTEX
  8
LAYER-1
 10
3.626221
 20
0.105820
 30
0.000000
  0
VERTEX
  8
LAYER-1
 10
3.621880
 20
0.108424
 30
0.000000
  0
SEQEND
  8
LAYER-1
  0
POLYLINE
  8
LAYER-1
 66
  1
 70
  1
 62
  0
 10
3.419190
 20
0.168755
 30
0.000000
  0
VERTEX
  8
LAYER-1
 10
3.419190
 20
0.168755
 30
0.000000
  0
VERTEX
  8
LAYER-1
 10
3.393149
 20
0.161811
 30
0.000000
  0
VERTEX
  8
LAYER-1
 10
3.407037
 20
0.136637
 30
0.000000
  0
SEQEND
  8
LAYER-1
  0
POLYLINE
  8
LAYER-1
 66
  1
 70
  1
 62
  0
 10
3.326309
 20
0.117539
 30
0.000000
  0
VERTEX
  8
LAYER-1
 10
3.326309
 20
0.117539
 30
0.000000
  0
VERTEX
  8
LAYER-1
 10
3.303738
 20
0.130561
 30
0.000000
  0
VERTEX
  8
LAYER-1
 10
3.324571
 20
0.100179
 30
0.000000
  0
SEQEND
  8
LAYER-1
  0
POLYLINE
  8
LAYER-1
 66
  1
 70
  1
 62
  0
 10
3.289850
 20
0.162676
 30
0.000000
  0
VERTEX
  8
LAYER-1
 10
3.289850
 20
0.162676
 30
0.000000
  0
VERTEX
  8
LAYER-1
 10
3.264676
 20
0.179169
 30
0.000000
  0
VERTEX
  8
LAYER-1
 10
3.256864
 20
0.164412
 30
0.000000
  0
SEQEND
  8
LAYER-1
  0
POLYLINE
  8
LAYER-1
 66
  1
 70
  0
 62
  0
 10
3.450440
 20
0.218233
 30
0.000000
  0
VERTEX
  8
LAYER-1
 10
3.450440
 20
0.218233
 30
0.000000
  0
VERTEX
  8
LAYER-1
 10
3.450440
 20
0.222574
 30
0.000000
  0
VERTEX
  8
LAYER-1
 10
3.446099
 20
0.226045
 30
0.000000
  0
VERTEX
  8
LAYER-1
 10
3.440891
 20
0.226913
 30
0.000000
  0
VERTEX
  8
LAYER-1
 10
3.436551
 20
0.225177
 30
0.000000
  0
VERTEX
  8
LAYER-1
 10
3.434815
 20
0.220837
 30
0.000000
  0
VERTEX
  8
LAYER-1
 10
3.434815
 20
0.216498
 30
0.000000
  0
VERTEX
  8
LAYER-1
 10
3.438287
 20
0.212157
 30
0.000000
  0
VERTEX
  8
LAYER-1
 10
3.442627
 20
0.212157
 30
0.000000
  0
VERTEX
  8
LAYER-1
 10
3.446968
 20
0.213025
 30
0.000000
  0
VERTEX
  8
LAYER-1
 10
3.449573
 20
0.217365
 30
0.000000
  0
SEQEND
  8
LAYER-1
  0
POLYLINE
  8
LAYER-1
 66
  1
 70
  1
 62
  0
 10
3.382732
 20
0.180907
 30
0.000000
  0
VERTEX
  8
LAYER-1
 10
3.382732
 20
0.180907
 30
0.000000
  0
VERTEX
  8
LAYER-1
 10
3.360162
 20
0.193927
 30
0.000000
  0
VERTEX
  8
LAYER-1
 10
3.380994
 20
0.163546
 30
0.000000
  0
SEQEND
  8
LAYER-1
  0
POLYLINE
  8
LAYER-1
 66
  1
 70
  1
 62
  0
 10
3.334386
 20
0.187948
 30
0.000000
  0
VERTEX
  8
LAYER-1
 10
3.334386
 20
0.187948
 30
0.000000
  0
VERTEX
  8
LAYER-1
 10
3.321700
 20
0.168585
 30
0.000000
  0
VERTEX
  8
LAYER-1
 10
3.333050
 20
0.162574
 30
0.000000
  0
SEQEND
  8
LAYER-1
  0
POLYLINE
  8
LAYER-1
 66
  1
 70
  0
 62
  0
 10
3.452176
 20
0.090630
 30
0.000000
  0
VERTEX
  8
LAYER-1
 10
3.452176
 20
0.090630
 30
0.000000
  0
VERTEX
  8
LAYER-1
 10
3.452176
 20
0.094969
 30
0.000000
  0
VERTEX
  8
LAYER-1
 10
3.447835
 20
0.098442
 30
0.000000
  0
VERTEX
  8
LAYER-1
 10
3.442627
 20
0.099310
 30
0.000000
  0
VERTEX
  8
LAYER-1
 10
3.438287
 20
0.097574
 30
0.000000
  0
VERTEX
  8
LAYER-1
 10
3.436551
 20
0.093233
 30
0.000000
  0
VERTEX
  8
LAYER-1
 10
3.436551
 20
0.088893
 30
0.000000
  0
VERTEX
  8
LAYER-1
 10
3.440022
 20
0.084552
 30
0.000000
  0
VERTEX
  8
LAYER-1
 10
3.444363
 20
0.084552
 30
0.000000
  0
VERTEX
  8
LAYER-1
 10
3.448704
 20
0.085420
 30
0.000000
  0
VERTEX
  8
LAYER-1
 10
3.451309
 20
0.089762
 30
0.000000
  0
SEQEND
  8
LAYER-1
  0
POLYLINE
  8
LAYER-1
 66
  1
 70
  0
 62
  0
 10
3.370578
 20
0.091498
 30
0.000000
  0
VERTEX
  8
LAYER-1
 10
3.370578
 20
0.091498
 30
0.000000
  0
VERTEX
  8
LAYER-1
 10
3.370578
 20
0.095838
 30
0.000000
  0
VERTEX
  8
LAYER-1
 10
3.366238
 20
0.099310
 30
0.000000
  0
VERTEX
  8
LAYER-1
 10
3.361031
 20
0.100177
 30
0.000000
  0
VERTEX
  8
LAYER-1
 10
3.356690
 20
0.098442
 30
0.000000
  0
VERTEX
  8
LAYER-1
 10
3.354954
 20
0.094101
 30
0.000000
  0
VERTEX
  8
LAYER-1
 10
3.354954
 20
0.089762
 30
0.000000
  0
VERTEX
  8
LAYER-1
 10
3.358426
 20
0.085420
 30
0.000000
  0
VERTEX
  8
LAYER-1
 10
3.362766
 20
0.085420
 30
0.000000
  0
VERTEX
  8
LAYER-1
 10
3.367107
 20
0.086288
 30
0.000000
  0
VERTEX
  8
LAYER-1
 10
3.369711
 20
0.090630
 30
0.000000
  0
SEQEND
  8
LAYER-1
  0
POLYLINE
  8
LAYER-1
 66
  1
 70
  0
 62
  0
 10
3.300267
 20
0.201739
 30
0.000000
  0
VERTEX
  8
LAYER-1
 10
3.300267
 20
0.201739
 30
0.000000
  0
VERTEX
  8
LAYER-1
 10
3.300267
 20
0.206080
 30
0.000000
  0
VERTEX
  8
LAYER-1
 10
3.295926
 20
0.209551
 30
0.000000
  0
VERTEX
  8
LAYER-1
 10
3.290719
 20
0.210420
 30
0.000000
  0
VERTEX
  8
LAYER-1
 10
3.286378
 20
0.208683
 30
0.000000
  0
VERTEX
  8
LAYER-1
 10
3.284642
 20
0.204343
 30
0.000000
  0
VERTEX
  8
LAYER-1
 10
3.284642
 20
0.200004
 30
0.000000
  0
VERTEX
  8
LAYER-1
 10
3.288113
 20
0.195663
 30
0.000000
  0
VERTEX
  8
LAYER-1
 10
3.292454
 20
0.195663
 30
0.000000
  0
VERTEX
  8
LAYER-1
 10
3.296795
 20
0.196531
 30
0.000000
  0
VERTEX
  8
LAYER-1
 10
3.299400
 20
0.200871
 30
0.000000
  0
SEQEND
  8
LAYER-1
  0
POLYLINE
  8
LAYER-1
 66
  1
 70
  1
 62
  0
 10
4.082819
 20
0.191324
 30
0.000000
  0
VERTEX
  8
LAYER-1
 10
4.082819
 20
0.191324
 30
0.000000
  0
VERTEX
  8
LAYER-1
 10
4.089763
 20
0.165283
 30
0.000000
  0
VERTEX
  8
LAYER-1
 10
4.114937
 20
0.179171
 30
0.000000
  0
SEQEND
  8
LAYER-1
  0
POLYLINE
  8
LAYER-1
 66
  1
 70
  1
 62
  0
 10
4.245146
 20
0.219970
 30
0.000000
  0
VERTEX
  8
LAYER-1
 10
4.245146
 20
0.219970
 30
0.000000
  0
VERTEX
  8
LAYER-1
 10
4.232125
 20
0.197400
 30
0.000000
  0
VERTEX
  8
LAYER-1
 10
4.262507
 20
0.218233
 30
0.000000
  0
SEQEND
  8
LAYER-1
  0
POLYLINE
  8
LAYER-1
 66
  1
 70
  1
 62
  0
 10
4.224314
 20
0.134900
 30
0.000000
  0
VERTEX
  8
LAYER-1
 10
4.224314
 20
0.134900
 30
0.000000
  0
VERTEX
  8
LAYER-1
 10
4.207820
 20
0.109725
 30
0.000000
  0
VERTEX
  8
LAYER-1
 10
4.222578
 20
0.101913
 30
0.000000
  0
SEQEND
  8
LAYER-1
  0
POLYLINE
  8
LAYER-1
 66
  1
 70
  0
 62
  0
 10
4.033340
 20
0.222574
 30
0.000000
  0
VERTEX
  8
LAYER-1
 10
4.033340
 20
0.222574
 30
0.000000
  0
VERTEX
  8
LAYER-1
 10
4.028999
 20
0.222574
 30
0.000000
  0
VERTEX
  8
LAYER-1
 10
4.025528
 20
0.218233
 30
0.000000
  0
VERTEX
  8
LAYER-1
 10
4.024659
 20
0.213025
 30
0.000000
  0
VERTEX
  8
LAYER-1
 10
4.026395
 20
0.208685
 30
0.000000
  0
VERTEX
  8
LAYER-1
 10
4.030736
 20
0.206949
 30
0.000000
  0
VERTEX
  8
LAYER-1
 10
4.035076
 20
0.206949
 30
0.000000
  0
VERTEX
  8
LAYER-1
 10
4.039416
 20
0.210420
 30
0.000000
  0
VERTEX
  8
LAYER-1
 10
4.039416
 20
0.214762
 30
0.000000
  0
VERTEX
  8
LAYER-1
 10
4.038548
 20
0.219102
 30
0.000000
  0
VERTEX
  8
LAYER-1
 10
4.034208
 20
0.221706
 30
0.000000
  0
SEQEND
  8
LAYER-1
  0
POLYLINE
  8
LAYER-1
 66
  1
 70
  1
 62
  0
 10
4.054606
 20
0.154431
 30
0.000000
  0
VERTEX
  8
LAYER-1
 10
4.054606
 20
0.154431
 30
0.000000
  0
VERTEX
  8
LAYER-1
 10
4.077176
 20
0.141411
 30
0.000000
  0
VERTEX
  8
LAYER-1
 10
4.056343
 20
0.171792
 30
0.000000
  0
SEQEND
  8
LAYER-1
  0
POLYLINE
  8
LAYER-1
 66
  1
 70
  1
 62
  0
 10
4.171261
 20
0.146451
 30
0.000000
  0
VERTEX
  8
LAYER-1
 10
4.171261
 20
0.146451
 30
0.000000
  0
VERTEX
  8
LAYER-1
 10
4.190626
 20
0.133764
 30
0.000000
  0
VERTEX
  8
LAYER-1
 10
4.196636
 20
0.145115
 30
0.000000
  0
SEQEND
  8
LAYER-1
  0
POLYLINE
  8
LAYER-1
 66
  1
 70
  0
 62
  0
 10
4.185250
 20
0.224310
 30
0.000000
  0
VERTEX
  8
LAYER-1
 10
4.185250
 20
0.224310
 30
0.000000
  0
VERTEX
  8
LAYER-1
 10
4.180910
 20
0.224310
 30
0.000000
  0
VERTEX
  8
LAYER-1
 10
4.177438
 20
0.219969
 30
0.000000
  0
VERTEX
  8
LAYER-1
 10
4.176570
 20
0.214762
 30
0.000000
  0
VERTEX
  8
LAYER-1
 10
4.178306
 20
0.210420
 30
0.000000
  0
VERTEX
  8
LAYER-1
 10
4.182646
 20
0.208685
 30
0.000000
  0
VERTEX
  8
LAYER-1
 10
4.186987
 20
0.208685
 30
0.000000
  0
VERTEX
  8
LAYER-1
 10
4.191327
 20
0.212157
 30
0.000000
  0
VERTEX
  8
LAYER-1
 10
4.191327
 20
0.216498
 30
0.000000
  0
VERTEX
  8
LAYER-1
 10
4.190459
 20
0.220838
 30
0.000000
  0
VERTEX
  8
LAYER-1
 10
4.186118
 20
0.223442
 30
0.000000
  0
SEQEND
  8
LAYER-1
  0
POLYLINE
  8
LAYER-1
 66
  1
 70
  0
 62
  0
 10
4.269453
 20
0.097573
 30
0.000000
  0
VERTEX
  8
LAYER-1
 10
4.269453
 20
0.097573
 30
0.000000
  0
VERTEX
  8
LAYER-1
 10
4.265112
 20
0.097573
 30
0.000000
  0
VERTEX
  8
LAYER-1
 10
4.261640
 20
0.093232
 30
0.000000
  0
VERTEX
  8
LAYER-1
 10
4.260772
 20
0.088025
 30
0.000000
  0
VERTEX
  8
LAYER-1
 10
4.262508
 20
0.083683
 30
0.000000
  0
VERTEX
  8
LAYER-1
 10
4.266848
 20
0.081948
 30
0.000000
  0
VERTEX
  8
LAYER-1
 10
4.271189
 20
0.081948
 30
0.000000
  0
VERTEX
  8
LAYER-1
 10
4.275529
 20
0.085420
 30
0.000000
  0
VERTEX
  8
LAYER-1
 10
4.275529
 20
0.089761
 30
0.000000
  0
VERTEX
  8
LAYER-1
 10
4.274660
 20
0.094101
 30
0.000000
  0
VERTEX
  8
LAYER-1
 10
4.270320
 20
0.096705
 30
0.000000
  0
SEQEND
  8
LAYER-1
  0
POLYLINE
  8
LAYER-1
 66
  1
 70
  0
 62
  0
 10
4.115806
 20
0.152258
 30
0.000000
  0
VERTEX
  8
LAYER-1
 10
4.115806
 20
0.152258
 30
0.000000
  0
VERTEX
  8
LAYER-1
 10
4.111465
 20
0.152258
 30
0.000000
  0
VERTEX
  8
LAYER-1
 10
4.107993
 20
0.147918
 30
0.000000
  0
VERTEX
  8
LAYER-1
 10
4.107125
 20
0.142710
 30
0.000000
  0
VERTEX
  8
LAYER-1
 10
4.108861
 20
0.138369
 30
0.000000
  0
VERTEX
  8
LAYER-1
 10
4.113201
 20
0.136633
 30
0.000000
  0
VERTEX
  8
LAYER-1
 10
4.117541
 20
0.136633
 30
0.000000
  0
VERTEX
  8
LAYER-1
 10
4.121882
 20
0.140105
 30
0.000000
  0
VERTEX
  8
LAYER-1
 10
4.121882
 20
0.144446
 30
0.000000
  0
VERTEX
  8
LAYER-1
 10
4.121013
 20
0.148787
 30
0.000000
  0
VERTEX
  8
LAYER-1
 10
4.116673
 20
0.151390
 30
0.000000
  0
SEQEND
  8
LAYER-1
  0
POLYLINE
  8
LAYER-1
 66
  1
 70
  1
 62
  0
 10
3.950876
 20
0.160940
 30
0.000000
  0
VERTEX
  8
LAYER-1
 10
3.950876
 20
0.160940
 30
0.000000
  0
VERTEX
  8
LAYER-1
 10
3.943931
 20
0.186980
 30
0.000000
  0
VERTEX
  8
LAYER-1
 10
3.918757
 20
0.173093
 30
0.000000
  0
SEQEND
  8
LAYER-1
  0
POLYLINE
  8
LAYER-1
 66
  1
 70
  1
 62
  0
 10
3.539850
 20
0.192623
 30
0.000000
  0
VERTEX
  8
LAYER-1
 10
3.539850
 20
0.192623
 30
0.000000
  0
VERTEX
  8
LAYER-1
 10
3.552870
 20
0.215193
 30
0.000000
  0
VERTEX
  8
LAYER-1
 10
3.522489
 20
0.194361
 30
0.000000
  0
SEQEND
  8
LAYER-1
  0
POLYLINE
  8
LAYER-1
 66
  1
 70
  1
 62
  0
 10
3.837159
 20
0.186114
 30
0.000000
  0
VERTEX
  8
LAYER-1
 10
3.837159
 20
0.186114
 30
0.000000
  0
VERTEX
  8
LAYER-1
 10
3.853653
 20
0.211288
 30
0.000000
  0
VERTEX
  8
LAYER-1
 10
3.838895
 20
0.219100
 30
0.000000
  0
SEQEND
  8
LAYER-1
  0
POLYLINE
  8
LAYER-1
 66
  1
 70
  0
 62
  0
 10
4.000354
 20
0.129690
 30
0.000000
  0
VERTEX
  8
LAYER-1
 10
4.000354
 20
0.129690
 30
0.000000
  0
VERTEX
  8
LAYER-1
 10
4.004695
 20
0.129690
 30
0.000000
  0
VERTEX
  8
LAYER-1
 10
4.008166
 20
0.134031
 30
0.000000
  0
VERTEX
  8
LAYER-1
 10
4.009035
 20
0.139238
 30
0.000000
  0
VERTEX
  8
LAYER-1
 10
4.007300
 20
0.143579
 30
0.000000
  0
VERTEX
  8
LAYER-1
 10
4.002959
 20
0.145315
 30
0.000000
  0
VERTEX
  8
LAYER-1
 10
3.998618
 20
0.145315
 30
0.000000
  0
VERTEX
  8
LAYER-1
 10
3.994278
 20
0.141843
 30
0.000000
  0
VERTEX
  8
LAYER-1
 10
3.994278
 20
0.137502
 30
0.000000
  0
VERTEX
  8
LAYER-1
 10
3.995146
 20
0.133162
 30
0.000000
  0
VERTEX
  8
LAYER-1
 10
3.999487
 20
0.130557
 30
0.000000
  0
SEQEND
  8
LAYER-1
  0
POLYLINE
  8
LAYER-1
 66
  1
 70
  1
 62
  0
 10
3.954347
 20
0.126219
 30
0.000000
  0
VERTEX
  8
LAYER-1
 10
3.954347
 20
0.126219
 30
0.000000
  0
VERTEX
  8
LAYER-1
 10
3.967368
 20
0.148789
 30
0.000000
  0
VERTEX
  8
LAYER-1
 10
3.936986
 20
0.127957
 30
0.000000
  0
SEQEND
  8
LAYER-1
  0
POLYLINE
  8
LAYER-1
 66
  1
 70
  1
 62
  0
 10
3.899760
 20
0.167620
 30
0.000000
  0
VERTEX
  8
LAYER-1
 10
3.899760
 20
0.167620
 30
0.000000
  0
VERTEX
  8
LAYER-1
 10
3.880397
 20
0.180308
 30
0.000000
  0
VERTEX
  8
LAYER-1
 10
3.874385
 20
0.168956
 30
0.000000
  0
SEQEND
  8
LAYER-1
  0
POLYLINE
  8
LAYER-1
 66
  1
 70
  0
 62
  0
 10
3.876654
 20
0.064276
 30
0.000000
  0
VERTEX
  8
LAYER-1
 10
3.876654
 20
0.064276
 30
0.000000
  0
VERTEX
  8
LAYER-1
 10
3.880995
 20
0.064276
 30
0.000000
  0
VERTEX
  8
LAYER-1
 10
3.884467
 20
0.068616
 30
0.000000
  0
VERTEX
  8
LAYER-1
 10
3.885336
 20
0.073824
 30
0.000000
  0
VERTEX
  8
LAYER-1
 10
3.883600
 20
0.078165
 30
0.000000
  0
VERTEX
  8
LAYER-1
 10
3.879259
 20
0.079901
 30
0.000000
  0
VERTEX
  8
LAYER-1
 10
3.874919
 20
0.079901
 30
0.000000
  0
VERTEX
  8
LAYER-1
 10
3.870578
 20
0.076429
 30
0.000000
  0
VERTEX
  8
LAYER-1
 10
3.870578
 20
0.072088
 30
0.000000
  0
VERTEX
  8
LAYER-1
 10
3.871447
 20
0.067747
 30
0.000000
  0
VERTEX
  8
LAYER-1
 10
3.875788
 20
0.065142
 30
0.000000
  0
SEQEND
  8
LAYER-1
  0
POLYLINE
  8
LAYER-1
 66
  1
 70
  0
 62
  0
 10
3.786812
 20
0.207070
 30
0.000000
  0
VERTEX
  8
LAYER-1
 10
3.786812
 20
0.207070
 30
0.000000
  0
VERTEX
  8
LAYER-1
 10
3.791153
 20
0.207070
 30
0.000000
  0
VERTEX
  8
LAYER-1
 10
3.794624
 20
0.211411
 30
0.000000
  0
VERTEX
  8
LAYER-1
 10
3.795491
 20
0.216618
 30
0.000000
  0
VERTEX
  8
LAYER-1
 10
3.793755
 20
0.220959
 30
0.000000
  0
VERTEX
  8
LAYER-1
 10
3.789415
 20
0.222695
 30
0.000000
  0
VERTEX
  8
LAYER-1
 10
3.785076
 20
0.222695
 30
0.000000
  0
VERTEX
  8
LAYER-1
 10
3.780735
 20
0.219223
 30
0.000000
  0
VERTEX
  8
LAYER-1
 10
3.780735
 20
0.214883
 30
0.000000
  0
VERTEX
  8
LAYER-1
 10
3.781602
 20
0.210542
 30
0.000000
  0
VERTEX
  8
LAYER-1
 10
3.785943
 20
0.207937
 30
0.000000
  0
SEQEND
  8
LAYER-1
  0
POLYLINE
  8
LAYER-1
 66
  1
 70
  0
 62
  0
 10
3.949139
 20
0.200004
 30
0.000000
  0
VERTEX
  8
LAYER-1
 10
3.949139
 20
0.200004
 30
0.000000
  0
VERTEX
  8
LAYER-1
 10
3.953480
 20
0.200004
 30
0.000000
  0
VERTEX
  8
LAYER-1
 10
3.956952
 20
0.204344
 30
0.000000
  0
VERTEX
  8
LAYER-1
 10
3.957819
 20
0.209551
 30
0.000000
  0
VERTEX
  8
LAYER-1
 10
3.956083
 20
0.213893
 30
0.000000
  0
VERTEX
  8
LAYER-1
 10
3.951742
 20
0.215629
 30
0.000000
  0
VERTEX
  8
LAYER-1
 10
3.947403
 20
0.215629
 30
0.000000
  0
VERTEX
  8
LAYER-1
 10
3.943063
 20
0.212157
 30
0.000000
  0
VERTEX
  8
LAYER-1
 10
3.943063
 20
0.207816
 30
0.000000
  0
VERTEX
  8
LAYER-1
 10
3.943929
 20
0.203475
 30
0.000000
  0
VERTEX
  8
LAYER-1
 10
3.948270
 20
0.200870
 30
0.000000
  0
SEQEND
  8
LAYER-1
  0
POLYLINE
  8
LAYER-1
 66
  1
 70
  1
 62
  0
 10
4.705215
 20
0.169189
 30
0.000000
  0
VERTEX
  8
LAYER-1
 10
4.705215
 20
0.169189
 30
0.000000
  0
VERTEX
  8
LAYER-1
 10
4.712159
 20
0.143149
 30
0.000000
  0
VERTEX
  8
LAYER-1
 10
4.737333
 20
0.157037
 30
0.000000
  0
SEQEND
  8
LAYER-1
  0
POLYLINE
  8
LAYER-1
 66
  1
 70
  1
 62
  0
 10
4.831950
 20
0.204780
 30
0.000000
  0
VERTEX
  8
LAYER-1
 10
4.831950
 20
0.204780
 30
0.000000
  0
VERTEX
  8
LAYER-1
 10
4.818929
 20
0.182211
 30
0.000000
  0
VERTEX
  8
LAYER-1
 10
4.849311
 20
0.203043
 30
0.000000
  0
SEQEND
  8
LAYER-1
  0
POLYLINE
  8
LAYER-1
 66
  1
 70
  1
 62
  0
 10
4.507300
 20
0.193495
 30
0.000000
  0
VERTEX
  8
LAYER-1
 10
4.507300
 20
0.193495
 30
0.000000
  0
VERTEX
  8
LAYER-1
 10
4.490807
 20
0.168321
 30
0.000000
  0
VERTEX
  8
LAYER-1
 10
4.505564
 20
0.160509
 30
0.000000
  0
SEQEND
  8
LAYER-1
  0
POLYLINE
  8
LAYER-1
 66
  1
 70
  0
 62
  0
 10
4.617541
 20
0.185684
 30
0.000000
  0
VERTEX
  8
LAYER-1
 10
4.617541
 20
0.185684
 30
0.000000
  0
VERTEX
  8
LAYER-1
 10
4.613201
 20
0.185684
 30
0.000000
  0
VERTEX
  8
LAYER-1
 10
4.609729
 20
0.181345
 30
0.000000
  0
VERTEX
  8
LAYER-1
 10
4.608860
 20
0.176137
 30
0.000000
  0
VERTEX
  8
LAYER-1
 10
4.610596
 20
0.171796
 30
0.000000
  0
VERTEX
  8
LAYER-1
 10
4.614937
 20
0.170061
 30
0.000000
  0
VERTEX
  8
LAYER-1
 10
4.619278
 20
0.170061
 30
0.000000
  0
VERTEX
  8
LAYER-1
 10
4.623617
 20
0.173532
 30
0.000000
  0
VERTEX
  8
LAYER-1
 10
4.623617
 20
0.177873
 30
0.000000
  0
VERTEX
  8
LAYER-1
 10
4.622749
 20
0.182214
 30
0.000000
  0
VERTEX
  8
LAYER-1
 10
4.618409
 20
0.184817
 30
0.000000
  0
SEQEND
  8
LAYER-1
  0
POLYLINE
  8
LAYER-1
 66
  1
 70
  1
 62
  0
 10
4.647056
 20
0.139676
 30
0.000000
  0
VERTEX
  8
LAYER-1
 10
4.647056
 20
0.139676
 30
0.000000
  0
VERTEX
  8
LAYER-1
 10
4.634034
 20
0.117106
 30
0.000000
  0
VERTEX
  8
LAYER-1
 10
4.664416
 20
0.137939
 30
0.000000
  0
SEQEND
  8
LAYER-1
  0
POLYLINE
  8
LAYER-1
 66
  1
 70
  1
 62
  0
 10
4.854353
 20
0.140207
 30
0.000000
  0
VERTEX
  8
LAYER-1
 10
4.854353
 20
0.140207
 30
0.000000
  0
VERTEX
  8
LAYER-1
 10
4.841666
 20
0.120842
 30
0.000000
  0
VERTEX
  8
LAYER-1
 10
4.853018
 20
0.114832
 30
0.000000
  0
SEQEND
  8
LAYER-1
  0
POLYLINE
  8
LAYER-1
 66
  1
 70
  0
 62
  0
 10
4.761637
 20
0.209119
 30
0.000000
  0
VERTEX
  8
LAYER-1
 10
4.761637
 20
0.209119
 30
0.000000
  0
VERTEX
  8
LAYER-1
 10
4.757297
 20
0.209119
 30
0.000000
  0
VERTEX
  8
LAYER-1
 10
4.753825
 20
0.204779
 30
0.000000
  0
VERTEX
  8
LAYER-1
 10
4.752957
 20
0.199571
 30
0.000000
  0
VERTEX
  8
LAYER-1
 10
4.754693
 20
0.195230
 30
0.000000
  0
VERTEX
  8
LAYER-1
 10
4.759032
 20
0.193494
 30
0.000000
  0
VERTEX
  8
LAYER-1
 10
4.763373
 20
0.193494
 30
0.000000
  0
VERTEX
  8
LAYER-1
 10
4.767714
 20
0.196966
 30
0.000000
  0
VERTEX
  8
LAYER-1
 10
4.767714
 20
0.201307
 30
0.000000
  0
VERTEX
  8
LAYER-1
 10
4.766845
 20
0.205648
 30
0.000000
  0
VERTEX
  8
LAYER-1
 10
4.762505
 20
0.208251
 30
0.000000
  0
SEQEND
  8
LAYER-1
  0
POLYLINE
  8
LAYER-1
 66
  1
 70
  0
 62
  0
 10
4.548966
 20
0.199570
 30
0.000000
  0
VERTEX
  8
LAYER-1
 10
4.548966
 20
0.199570
 30
0.000000
  0
VERTEX
  8
LAYER-1
 10
4.544626
 20
0.199570
 30
0.000000
  0
VERTEX
  8
LAYER-1
 10
4.541153
 20
0.195229
 30
0.000000
  0
VERTEX
  8
LAYER-1
 10
4.540285
 20
0.190021
 30
0.000000
  0
VERTEX
  8
LAYER-1
 10
4.542022
 20
0.185681
 30
0.000000
  0
VERTEX
  8
LAYER-1
 10
4.546362
 20
0.183945
 30
0.000000
  0
VERTEX
  8
LAYER-1
 10
4.550703
 20
0.183945
 30
0.000000
  0
VERTEX
  8
LAYER-1
 10
4.555042
 20
0.187417
 30
0.000000
  0
VERTEX
  8
LAYER-1
 10
4.555042
 20
0.191757
 30
0.000000
  0
VERTEX
  8
LAYER-1
 10
4.554175
 20
0.196098
 30
0.000000
  0
VERTEX
  8
LAYER-1
 10
4.549835
 20
0.198702
 30
0.000000
  0
SEQEND
  8
LAYER-1
  0
POLYLINE
  8
LAYER-1
 66
  1
 70
  0
 62
  0
 10
4.796362
 20
0.171790
 30
0.000000
  0
VERTEX
  8
LAYER-1
 10
4.796362
 20
0.171790
 30
0.000000
  0
VERTEX
  8
LAYER-1
 10
4.792022
 20
0.171790
 30
0.000000
  0
VERTEX
  8
LAYER-1
 10
4.788550
 20
0.167450
 30
0.000000
  0
VERTEX
  8
LAYER-1
 10
4.787682
 20
0.162242
 30
0.000000
  0
VERTEX
  8
LAYER-1
 10
4.789419
 20
0.157901
 30
0.000000
  0
VERTEX
  8
LAYER-1
 10
4.793759
 20
0.156165
 30
0.000000
  0
VERTEX
  8
LAYER-1
 10
4.798099
 20
0.156165
 30
0.000000
  0
VERTEX
  8
LAYER-1
 10
4.802439
 20
0.159637
 30
0.000000
  0
VERTEX
  8
LAYER-1
 10
4.802439
 20
0.163978
 30
0.000000
  0
VERTEX
  8
LAYER-1
 10
4.801572
 20
0.168319
 30
0.000000
  0
VERTEX
  8
LAYER-1
 10
4.797231
 20
0.170923
 30
0.000000
  0
SEQEND
  8
LAYER-1
  0
POLYLINE
  8
LAYER-1
 66
  1
 70
  1
 62
  0
 10
4.410945
 20
0.118407
 30
0.000000
  0
VERTEX
  8
LAYER-1
 10
4.410945
 20
0.118407
 30
0.000000
  0
VERTEX
  8
LAYER-1
 10
4.404000
 20
0.144446
 30
0.000000
  0
VERTEX
  8
LAYER-1
 10
4.378827
 20
0.130560
 30
0.000000
  0
SEQEND
  8
LAYER-1
  0
POLYLINE
  8
LAYER-1
 66
  1
 70
  1
 62
  0
 10
4.259035
 20
0.159203
 30
0.000000
  0
VERTEX
  8
LAYER-1
 10
4.259035
 20
0.159203
 30
0.000000
  0
VERTEX
  8
LAYER-1
 10
4.272057
 20
0.181774
 30
0.000000
  0
VERTEX
  8
LAYER-1
 10
4.241675
 20
0.160941
 30
0.000000
  0
SEQEND
  8
LAYER-1
  0
POLYLINE
  8
LAYER-1
 66
  1
 70
  1
 62
  0
 10
4.342369
 20
0.119277
 30
0.000000
  0
VERTEX
  8
LAYER-1
 10
4.342369
 20
0.119277
 30
0.000000
  0
VERTEX
  8
LAYER-1
 10
4.358862
 20
0.144451
 30
0.000000
  0
VERTEX
  8
LAYER-1
 10
4.344105
 20
0.152263
 30
0.000000
  0
SEQEND
  8
LAYER-1
  0
POLYLINE
  8
LAYER-1
 66
  1
 70
  0
 62
  0
 10
4.516849
 20
0.121014
 30
0.000000
  0
VERTEX
  8
LAYER-1
 10
4.516849
 20
0.121014
 30
0.000000
  0
VERTEX
  8
LAYER-1
 10
4.521189
 20
0.121014
 30
0.000000
  0
VERTEX
  8
LAYER-1
 10
4.524661
 20
0.125355
 30
0.000000
  0
VERTEX
  8
LAYER-1
 10
4.525529
 20
0.130563
 30
0.000000
  0
VERTEX
  8
LAYER-1
 10
4.523794
 20
0.134903
 30
0.000000
  0
VERTEX
  8
LAYER-1
 10
4.519453
 20
0.136639
 30
0.000000
  0
VERTEX
  8
LAYER-1
 10
4.515113
 20
0.136639
 30
0.000000
  0
VERTEX
  8
LAYER-1
 10
4.510772
 20
0.133168
 30
0.000000
  0
VERTEX
  8
LAYER-1
 10
4.510772
 20
0.128827
 30
0.000000
  0
VERTEX
  8
LAYER-1
 10
4.511640
 20
0.124486
 30
0.000000
  0
VERTEX
  8
LAYER-1
 10
4.515981
 20
0.121881
 30
0.000000
  0
SEQEND
  8
LAYER-1
  0
POLYLINE
  8
LAYER-1
 66
  1
 70
  1
 62
  0
 10
4.468236
 20
0.135769
 30
0.000000
  0
VERTEX
  8
LAYER-1
 10
4.468236
 20
0.135769
 30
0.000000
  0
VERTEX
  8
LAYER-1
 10
4.481257
 20
0.158340
 30
0.000000
  0
VERTEX
  8
LAYER-1
 10
4.450875
 20
0.137507
 30
0.000000
  0
SEQEND
  8
LAYER-1
  0
POLYLINE
  8
LAYER-1
 66
  1
 70
  1
 62
  0
 10
4.357292
 20
0.171694
 30
0.000000
  0
VERTEX
  8
LAYER-1
 10
4.357292
 20
0.171694
 30
0.000000
  0
VERTEX
  8
LAYER-1
 10
4.369979
 20
0.191058
 30
0.000000
  0
VERTEX
  8
LAYER-1
 10
4.358629
 20
0.197069
 30
0.000000
  0
SEQEND
  8
LAYER-1
  0
POLYLINE
  8
LAYER-1
 66
  1
 70
  0
 62
  0
 10
4.312940
 20
0.203165
 30
0.000000
  0
VERTEX
  8
LAYER-1
 10
4.312940
 20
0.203165
 30
0.000000
  0
VERTEX
  8
LAYER-1
 10
4.317280
 20
0.203165
 30
0.000000
  0
VERTEX
  8
LAYER-1
 10
4.320753
 20
0.207505
 30
0.000000
  0
VERTEX
  8
LAYER-1
 10
4.321621
 20
0.212713
 30
0.000000
  0
VERTEX
  8
LAYER-1
 10
4.319885
 20
0.217054
 30
0.000000
  0
VERTEX
  8
LAYER-1
 10
4.315544
 20
0.218790
 30
0.000000
  0
VERTEX
  8
LAYER-1
 10
4.311203
 20
0.218790
 30
0.000000
  0
VERTEX
  8
LAYER-1
 10
4.306864
 20
0.215318
 30
0.000000
  0
VERTEX
  8
LAYER-1
 10
4.306864
 20
0.210977
 30
0.000000
  0
VERTEX
  8
LAYER-1
 10
4.307732
 20
0.206636
 30
0.000000
  0
VERTEX
  8
LAYER-1
 10
4.312072
 20
0.204032
 30
0.000000
  0
SEQEND
  8
LAYER-1
  0
POLYLINE
  8
LAYER-1
 66
  1
 70
  0
 62
  0
 10
4.290285
 20
0.125354
 30
0.000000
  0
VERTEX
  8
LAYER-1
 10
4.290285
 20
0.125354
 30
0.000000
  0
VERTEX
  8
LAYER-1
 10
4.294626
 20
0.125354
 30
0.000000
  0
VERTEX
  8
LAYER-1
 10
4.298098
 20
0.129695
 30
0.000000
  0
VERTEX
  8
LAYER-1
 10
4.298966
 20
0.134902
 30
0.000000
  0
VERTEX
  8
LAYER-1
 10
4.297230
 20
0.139243
 30
0.000000
  0
VERTEX
  8
LAYER-1
 10
4.292889
 20
0.140979
 30
0.000000
  0
VERTEX
  8
LAYER-1
 10
4.288550
 20
0.140979
 30
0.000000
  0
VERTEX
  8
LAYER-1
 10
4.284209
 20
0.137507
 30
0.000000
  0
VERTEX
  8
LAYER-1
 10
4.284209
 20
0.133167
 30
0.000000
  0
VERTEX
  8
LAYER-1
 10
4.285077
 20
0.128826
 30
0.000000
  0
VERTEX
  8
LAYER-1
 10
4.289417
 20
0.126221
 30
0.000000
  0
SEQEND
  8
LAYER-1
  0
POLYLINE
  8
LAYER-1
 66
  1
 70
  0
 62
  0
 10
4.454348
 20
0.202609
 30
0.000000
  0
VERTEX
  8
LAYER-1
 10
4.454348
 20
0.202609
 30
0.000000
  0
VERTEX
  8
LAYER-1
 10
4.458689
 20
0.202609
 30
0.000000
  0
VERTEX
  8
LAYER-1
 10
4.462160
 20
0.206950
 30
0.000000
  0
VERTEX
  8
LAYER-1
 10
4.463028
 20
0.212157
 30
0.000000
  0
VERTEX
  8
LAYER-1
 10
4.461292
 20
0.216498
 30
0.000000
  0
VERTEX
  8
LAYER-1
 10
4.456952
 20
0.218234
 30
0.000000
  0
VERTEX
  8
LAYER-1
 10
4.452612
 20
0.218234
 30
0.000000
  0
VERTEX
  8
LAYER-1
 10
4.448271
 20
0.214762
 30
0.000000
  0
VERTEX
  8
LAYER-1
 10
4.448271
 20
0.210421
 30
0.000000
  0
VERTEX
  8
LAYER-1
 10
4.449139
 20
0.206081
 30
0.000000
  0
VERTEX
  8
LAYER-1
 10
4.453480
 20
0.203476
 30
0.000000
  0
SEQEND
  8
LAYER-1
  0
POLYLINE
  8
LAYER-1
 66
  1
 70
  1
 62
  0
 10
4.906166
 20
0.159206
 30
0.000000
  0
VERTEX
  8
LAYER-1
 10
4.906166
 20
0.159206
 30
0.000000
  0
VERTEX
  8
LAYER-1
 10
4.932207
 20
0.166150
 30
0.000000
  0
VERTEX
  8
LAYER-1
 10
4.918319
 20
0.191323
 30
0.000000
  0
SEQEND
  8
LAYER-1
  0
POLYLINE
  8
LAYER-1
 66
  1
 70
  1
 62
  0
 10
4.588461
 20
0.212157
 30
0.000000
  0
VERTEX
  8
LAYER-1
 10
4.588461
 20
0.212157
 30
0.000000
  0
VERTEX
  8
LAYER-1
 10
4.611031
 20
0.199137
 30
0.000000
  0
VERTEX
  8
LAYER-1
 10
4.590198
 20
0.229518
 30
0.000000
  0
SEQEND
  8
LAYER-1
  0
POLYLINE
  8
LAYER-1
 66
  1
 70
  1
 62
  0
 10
5.525090
 20
0.117536
 30
0.000000
  0
VERTEX
  8
LAYER-1
 10
5.525090
 20
0.117536
 30
0.000000
  0
VERTEX
  8
LAYER-1
 10
5.550265
 20
0.101043
 30
0.000000
  0
VERTEX
  8
LAYER-1
 10
5.558077
 20
0.115800
 30
0.000000
  0
SEQEND
  8
LAYER-1
  0
POLYLINE
  8
LAYER-1
 66
  1
 70
  0
 62
  0
 10
5.346272
 20
0.126218
 30
0.000000
  0
VERTEX
  8
LAYER-1
 10
5.346272
 20
0.126218
 30
0.000000
  0
VERTEX
  8
LAYER-1
 10
5.346272
 20
0.121878
 30
0.000000
  0
VERTEX
  8
LAYER-1
 10
5.350612
 20
0.118406
 30
0.000000
  0
VERTEX
  8
LAYER-1
 10
5.355820
 20
0.117538
 30
0.000000
  0
VERTEX
  8
LAYER-1
 10
5.360160
 20
0.119275
 30
0.000000
  0
VERTEX
  8
LAYER-1
 10
5.361897
 20
0.123614
 30
0.000000
  0
VERTEX
  8
LAYER-1
 10
5.361897
 20
0.127955
 30
0.000000
  0
VERTEX
  8
LAYER-1
 10
5.358425
 20
0.132295
 30
0.000000
  0
VERTEX
  8
LAYER-1
 10
5.354084
 20
0.132295
 30
0.000000
  0
VERTEX
  8
LAYER-1
 10
5.349743
 20
0.131426
 30
0.000000
  0
VERTEX
  8
LAYER-1
 10
5.347140
 20
0.127087
 30
0.000000
  0
SEQEND
  8
LAYER-1
  0
POLYLINE
  8
LAYER-1
 66
  1
 70
  1
 62
  0
 10
4.976479
 20
0.146183
 30
0.000000
  0
VERTEX
  8
LAYER-1
 10
4.976479
 20
0.146183
 30
0.000000
  0
VERTEX
  8
LAYER-1
 10
4.999049
 20
0.133163
 30
0.000000
  0
VERTEX
  8
LAYER-1
 10
4.978216
 20
0.163545
 30
0.000000
  0
SEQEND
  8
LAYER-1
  0
POLYLINE
  8
LAYER-1
 66
  1
 70
  1
 62
  0
 10
4.939487
 20
0.217198
 30
0.000000
  0
VERTEX
  8
LAYER-1
 10
4.939487
 20
0.217198
 30
0.000000
  0
VERTEX
  8
LAYER-1
 10
4.958852
 20
0.204511
 30
0.000000
  0
VERTEX
  8
LAYER-1
 10
4.964862
 20
0.215863
 30
0.000000
  0
SEQEND
  8
LAYER-1
  0
POLYLINE
  8
LAYER-1
 66
  1
 70
  0
 62
  0
 10
4.584122
 20
0.152262
 30
0.000000
  0
VERTEX
  8
LAYER-1
 10
4.584122
 20
0.152262
 30
0.000000
  0
VERTEX
  8
LAYER-1
 10
4.584122
 20
0.147923
 30
0.000000
  0
VERTEX
  8
LAYER-1
 10
4.588462
 20
0.144450
 30
0.000000
  0
VERTEX
  8
LAYER-1
 10
4.593669
 20
0.143582
 30
0.000000
  0
VERTEX
  8
LAYER-1
 10
4.598010
 20
0.145318
 30
0.000000
  0
VERTEX
  8
LAYER-1
 10
4.599746
 20
0.149658
 30
0.000000
  0
VERTEX
  8
LAYER-1
 10
4.599746
 20
0.153998
 30
0.000000
  0
VERTEX
  8
LAYER-1
 10
4.596274
 20
0.158339
 30
0.000000
  0
VERTEX
  8
LAYER-1
 10
4.591934
 20
0.158339
 30
0.000000
  0
VERTEX
  8
LAYER-1
 10
4.587593
 20
0.157471
 30
0.000000
  0
VERTEX
  8
LAYER-1
 10
4.584989
 20
0.153130
 30
0.000000
  0
SEQEND
  8
LAYER-1
  0
POLYLINE
  8
LAYER-1
 66
  1
 70
  0
 62
  0
 10
4.990367
 20
0.114067
 30
0.000000
  0
VERTEX
  8
LAYER-1
 10
4.990367
 20
0.114067
 30
0.000000
  0
VERTEX
  8
LAYER-1
 10
4.990367
 20
0.109726
 30
0.000000
  0
VERTEX
  8
LAYER-1
 10
4.994708
 20
0.106255
 30
0.000000
  0
VERTEX
  8
LAYER-1
 10
4.999916
 20
0.105386
 30
0.000000
  0
VERTEX
  8
LAYER-1
 10
5.004256
 20
0.107123
 30
0.000000
  0
VERTEX
  8
LAYER-1
 10
5.005992
 20
0.111462
 30
0.000000
  0
VERTEX
  8
LAYER-1
 10
5.005992
 20
0.115802
 30
0.000000
  0
VERTEX
  8
LAYER-1
 10
5.002521
 20
0.120143
 30
0.000000
  0
VERTEX
  8
LAYER-1
 10
4.998180
 20
0.120143
 30
0.000000
  0
VERTEX
  8
LAYER-1
 10
4.993839
 20
0.119275
 30
0.000000
  0
VERTEX
  8
LAYER-1
 10
4.991235
 20
0.114935
 30
0.000000
  0
SEQEND
  8
LAYER-1
  0
POLYLINE
  8
LAYER-1
 66
  1
 70
  0
 62
  0
 10
5.058944
 20
0.149657
 30
0.000000
  0
VERTEX
  8
LAYER-1
 10
5.058944
 20
0.149657
 30
0.000000
  0
VERTEX
  8
LAYER-1
 10
5.058944
 20
0.145317
 30
0.000000
  0
VERTEX
  8
LAYER-1
 10
5.063285
 20
0.141845
 30
0.000000
  0
VERTEX
  8
LAYER-1
 10
5.068492
 20
0.140976
 30
0.000000
  0
VERTEX
  8
LAYER-1
 10
5.072833
 20
0.142713
 30
0.000000
  0
VERTEX
  8
LAYER-1
 10
5.074570
 20
0.147052
 30
0.000000
  0
VERTEX
  8
LAYER-1
 10
5.074570
 20
0.151393
 30
0.000000
  0
VERTEX
  8
LAYER-1
 10
5.071097
 20
0.155734
 30
0.000000
  0
VERTEX
  8
LAYER-1
 10
5.066756
 20
0.155734
 30
0.000000
  0
VERTEX
  8
LAYER-1
 10
5.062416
 20
0.154865
 30
0.000000
  0
VERTEX
  8
LAYER-1
 10
5.059812
 20
0.150525
 30
0.000000
  0
SEQEND
  8
LAYER-1
  0
POLYLINE
  8
LAYER-1
 66
  1
 70
  1
 62
  0
 10
5.098355
 20
0.170925
 30
0.000000
  0
VERTEX
  8
LAYER-1
 10
5.098355
 20
0.170925
 30
0.000000
  0
VERTEX
  8
LAYER-1
 10
5.105300
 20
0.144884
 30
0.000000
  0
VERTEX
  8
LAYER-1
 10
5.130473
 20
0.158771
 30
0.000000
  0
SEQEND
  8
LAYER-1
  0
POLYLINE
  8
LAYER-1
 66
  1
 70
  1
 62
  0
 10
5.259900
 20
0.199571
 30
0.000000
  0
VERTEX
  8
LAYER-1
 10
5.259900
 20
0.199571
 30
0.000000
  0
VERTEX
  8
LAYER-1
 10
5.246879
 20
0.177001
 30
0.000000
  0
VERTEX
  8
LAYER-1
 10
5.277262
 20
0.197833
 30
0.000000
  0
SEQEND
  8
LAYER-1
  0
POLYLINE
  8
LAYER-1
 66
  1
 70
  1
 62
  0
 10
5.652260
 20
0.170052
 30
0.000000
  0
VERTEX
  8
LAYER-1
 10
5.652260
 20
0.170052
 30
0.000000
  0
VERTEX
  8
LAYER-1
 10
5.635768
 20
0.144880
 30
0.000000
  0
VERTEX
  8
LAYER-1
 10
5.650525
 20
0.137067
 30
0.000000
  0
SEQEND
  8
LAYER-1
  0
POLYLINE
  8
LAYER-1
 66
  1
 70
  0
 62
  0
 10
5.048094
 20
0.202174
 30
0.000000
  0
VERTEX
  8
LAYER-1
 10
5.048094
 20
0.202174
 30
0.000000
  0
VERTEX
  8
LAYER-1
 10
5.043753
 20
0.202174
 30
0.000000
  0
VERTEX
  8
LAYER-1
 10
5.040282
 20
0.197833
 30
0.000000
  0
VERTEX
  8
LAYER-1
 10
5.039413
 20
0.192625
 30
0.000000
  0
VERTEX
  8
LAYER-1
 10
5.041150
 20
0.188285
 30
0.000000
  0
VERTEX
  8
LAYER-1
 10
5.045490
 20
0.186549
 30
0.000000
  0
VERTEX
  8
LAYER-1
 10
5.049830
 20
0.186549
 30
0.000000
  0
VERTEX
  8
LAYER-1
 10
5.054171
 20
0.190020
 30
0.000000
  0
VERTEX
  8
LAYER-1
 10
5.054171
 20
0.194361
 30
0.000000
  0
VERTEX
  8
LAYER-1
 10
5.053303
 20
0.198702
 30
0.000000
  0
VERTEX
  8
LAYER-1
 10
5.048962
 20
0.201307
 30
0.000000
  0
SEQEND
  8
LAYER-1
  0
POLYLINE
  8
LAYER-1
 66
  1
 70
  1
 62
  0
 10
5.111464
 20
0.125786
 30
0.000000
  0
VERTEX
  8
LAYER-1
 10
5.111464
 20
0.125786
 30
0.000000
  0
VERTEX
  8
LAYER-1
 10
5.098443
 20
0.103215
 30
0.000000
  0
VERTEX
  8
LAYER-1
 10
5.128825
 20
0.124048
 30
0.000000
  0
SEQEND
  8
LAYER-1
  0
POLYLINE
  8
LAYER-1
 66
  1
 70
  1
 62
  0
 10
5.180207
 20
0.103548
 30
0.000000
  0
VERTEX
  8
LAYER-1
 10
5.180207
 20
0.103548
 30
0.000000
  0
VERTEX
  8
LAYER-1
 10
5.192894
 20
0.122911
 30
0.000000
  0
VERTEX
  8
LAYER-1
 10
5.181543
 20
0.128923
 30
0.000000
  0
SEQEND
  8
LAYER-1
  0
POLYLINE
  8
LAYER-1
 66
  1
 70
  0
 62
  0
 10
5.200004
 20
0.203910
 30
0.000000
  0
VERTEX
  8
LAYER-1
 10
5.200004
 20
0.203910
 30
0.000000
  0
VERTEX
  8
LAYER-1
 10
5.195665
 20
0.203910
 30
0.000000
  0
VERTEX
  8
LAYER-1
 10
5.192192
 20
0.199569
 30
0.000000
  0
VERTEX
  8
LAYER-1
 10
5.191324
 20
0.194361
 30
0.000000
  0
VERTEX
  8
LAYER-1
 10
5.193060
 20
0.190020
 30
0.000000
  0
VERTEX
  8
LAYER-1
 10
5.197400
 20
0.188285
 30
0.000000
  0
VERTEX
  8
LAYER-1
 10
5.201741
 20
0.188285
 30
0.000000
  0
VERTEX
  8
LAYER-1
 10
5.206081
 20
0.191756
 30
0.000000
  0
VERTEX
  8
LAYER-1
 10
5.206081
 20
0.196097
 30
0.000000
  0
VERTEX
  8
LAYER-1
 10
5.205213
 20
0.200438
 30
0.000000
  0
VERTEX
  8
LAYER-1
 10
5.200872
 20
0.203043
 30
0.000000
  0
SEQEND
  8
LAYER-1
  0
POLYLINE
  8
LAYER-1
 66
  1
 70
  0
 62
  0
 10
5.704344
 20
0.163976
 30
0.000000
  0
VERTEX
  8
LAYER-1
 10
5.704344
 20
0.163976
 30
0.000000
  0
VERTEX
  8
LAYER-1
 10
5.700003
 20
0.163976
 30
0.000000
  0
VERTEX
  8
LAYER-1
 10
5.696532
 20
0.159636
 30
0.000000
  0
VERTEX
  8
LAYER-1
 10
5.695664
 20
0.154427
 30
0.000000
  0
VERTEX
  8
LAYER-1
 10
5.697400
 20
0.150087
 30
0.000000
  0
VERTEX
  8
LAYER-1
 10
5.701740
 20
0.148351
 30
0.000000
  0
VERTEX
  8
LAYER-1
 10
5.706080
 20
0.148351
 30
0.000000
  0
VERTEX
  8
LAYER-1
 10
5.710421
 20
0.151823
 30
0.000000
  0
VERTEX
  8
LAYER-1
 10
5.710421
 20
0.156164
 30
0.000000
  0
VERTEX
  8
LAYER-1
 10
5.709553
 20
0.160505
 30
0.000000
  0
VERTEX
  8
LAYER-1
 10
5.705212
 20
0.163109
 30
0.000000
  0
SEQEND
  8
LAYER-1
  0
POLYLINE
  8
LAYER-1
 66
  1
 70
  0
 62
  0
 10
5.613199
 20
0.131858
 30
0.000000
  0
VERTEX
  8
LAYER-1
 10
5.613199
 20
0.131858
 30
0.000000
  0
VERTEX
  8
LAYER-1
 10
5.608858
 20
0.131858
 30
0.000000
  0
VERTEX
  8
LAYER-1
 10
5.605387
 20
0.127518
 30
0.000000
  0
VERTEX
  8
LAYER-1
 10
5.604518
 20
0.122310
 30
0.000000
  0
VERTEX
  8
LAYER-1
 10
5.606255
 20
0.117969
 30
0.000000
  0
VERTEX
  8
LAYER-1
 10
5.610595
 20
0.116233
 30
0.000000
  0
VERTEX
  8
LAYER-1
 10
5.614935
 20
0.116233
 30
0.000000
  0
VERTEX
  8
LAYER-1
 10
5.619275
 20
0.119705
 30
0.000000
  0
VERTEX
  8
LAYER-1
 10
5.619275
 20
0.124045
 30
0.000000
  0
VERTEX
  8
LAYER-1
 10
5.618408
 20
0.128387
 30
0.000000
  0
VERTEX
  8
LAYER-1
 10
5.614067
 20
0.130992
 30
0.000000
  0
SEQEND
  8
LAYER-1
  0
POLYLINE
  8
LAYER-1
 66
  1
 70
  1
 62
  0
 10
5.298095
 20
0.186117
 30
0.000000
  0
VERTEX
  8
LAYER-1
 10
5.298095
 20
0.186117
 30
0.000000
  0
VERTEX
  8
LAYER-1
 10
5.324135
 20
0.193061
 30
0.000000
  0
VERTEX
  8
LAYER-1
 10
5.310248
 20
0.218234
 30
0.000000
  0
SEQEND
  8
LAYER-1
  0
POLYLINE
  8
LAYER-1
 66
  1
 70
  0
 62
  0
 10
5.266845
 20
0.136637
 30
0.000000
  0
VERTEX
  8
LAYER-1
 10
5.266845
 20
0.136637
 30
0.000000
  0
VERTEX
  8
LAYER-1
 10
5.266845
 20
0.132298
 30
0.000000
  0
VERTEX
  8
LAYER-1
 10
5.271186
 20
0.128825
 30
0.000000
  0
VERTEX
  8
LAYER-1
 10
5.276393
 20
0.127958
 30
0.000000
  0
VERTEX
  8
LAYER-1
 10
5.280734
 20
0.129694
 30
0.000000
  0
VERTEX
  8
LAYER-1
 10
5.282470
 20
0.134033
 30
0.000000
  0
VERTEX
  8
LAYER-1
 10
5.282470
 20
0.138374
 30
0.000000
  0
VERTEX
  8
LAYER-1
 10
5.278998
 20
0.142714
 30
0.000000
  0
VERTEX
  8
LAYER-1
 10
5.274657
 20
0.142714
 30
0.000000
  0
VERTEX
  8
LAYER-1
 10
5.270317
 20
0.141846
 30
0.000000
  0
VERTEX
  8
LAYER-1
 10
5.267712
 20
0.137506
 30
0.000000
  0
SEQEND
  8
LAYER-1
  0
POLYLINE
  8
LAYER-1
 66
  1
 70
  1
 62
  0
 10
5.361897
 20
0.150092
 30
0.000000
  0
VERTEX
  8
LAYER-1
 10
5.361897
 20
0.150092
 30
0.000000
  0
VERTEX
  8
LAYER-1
 10
5.374918
 20
0.172663
 30
0.000000
  0
VERTEX
  8
LAYER-1
 10
5.344537
 20
0.151830
 30
0.000000
  0
SEQEND
  8
LAYER-1
  0
POLYLINE
  8
LAYER-1
 66
  1
 70
  0
 62
  0
 10
5.417018
 20
0.184380
 30
0.000000
  0
VERTEX
  8
LAYER-1
 10
5.417018
 20
0.184380
 30
0.000000
  0
VERTEX
  8
LAYER-1
 10
5.417018
 20
0.180040
 30
0.000000
  0
VERTEX
  8
LAYER-1
 10
5.421359
 20
0.176569
 30
0.000000
  0
VERTEX
  8
LAYER-1
 10
5.426567
 20
0.175700
 30
0.000000
  0
VERTEX
  8
LAYER-1
 10
5.430907
 20
0.177437
 30
0.000000
  0
VERTEX
  8
LAYER-1
 10
5.432643
 20
0.181776
 30
0.000000
  0
VERTEX
  8
LAYER-1
 10
5.432643
 20
0.186117
 30
0.000000
  0
VERTEX
  8
LAYER-1
 10
5.429172
 20
0.190457
 30
0.000000
  0
VERTEX
  8
LAYER-1
 10
5.424831
 20
0.190457
 30
0.000000
  0
VERTEX
  8
LAYER-1
 10
5.420490
 20
0.189588
 30
0.000000
  0
VERTEX
  8
LAYER-1
 10
5.417885
 20
0.185248
 30
0.000000
  0
SEQEND
  8
LAYER-1
  0
POLYLINE
  8
LAYER-1
 66
  1
 70
  1
 62
  0
 10
6.162941
 20
0.200784
 30
0.000000
  0
VERTEX
  8
LAYER-1
 10
6.162941
 20
0.200784
 30
0.000000
  0
VERTEX
  8
LAYER-1
 10
6.155997
 20
0.226826
 30
0.000000
  0
VERTEX
  8
LAYER-1
 10
6.130823
 20
0.212938
 30
0.000000
  0
SEQEND
  8
LAYER-1
  0
POLYLINE
  8
LAYER-1
 66
  1
 70
  0
 62
  0
 10
6.203480
 20
0.074570
 30
0.000000
  0
VERTEX
  8
LAYER-1
 10
6.203480
 20
0.074570
 30
0.000000
  0
VERTEX
  8
LAYER-1
 10
6.207820
 20
0.074570
 30
0.000000
  0
VERTEX
  8
LAYER-1
 10
6.211293
 20
0.078911
 30
0.000000
  0
VERTEX
  8
LAYER-1
 10
6.212159
 20
0.084118
 30
0.000000
  0
VERTEX
  8
LAYER-1
 10
6.210424
 20
0.088459
 30
0.000000
  0
VERTEX
  8
LAYER-1
 10
6.206084
 20
0.090195
 30
0.000000
  0
VERTEX
  8
LAYER-1
 10
6.201743
 20
0.090195
 30
0.000000
  0
VERTEX
  8
LAYER-1
 10
6.197403
 20
0.086723
 30
0.000000
  0
VERTEX
  8
LAYER-1
 10
6.197403
 20
0.082382
 30
0.000000
  0
VERTEX
  8
LAYER-1
 10
6.198271
 20
0.078042
 30
0.000000
  0
VERTEX
  8
LAYER-1
 10
6.202611
 20
0.075438
 30
0.000000
  0
SEQEND
  8
LAYER-1
  0
POLYLINE
  8
LAYER-1
 66
  1
 70
  1
 62
  0
 10
5.499917
 20
0.107557
 30
0.000000
  0
VERTEX
  8
LAYER-1
 10
5.499917
 20
0.107557
 30
0.000000
  0
VERTEX
  8
LAYER-1
 10
5.512937
 20
0.130126
 30
0.000000
  0
VERTEX
  8
LAYER-1
 10
5.482556
 20
0.109294
 30
0.000000
  0
SEQEND
  8
LAYER-1
  0
POLYLINE
  8
LAYER-1
 66
  1
 70
  0
 62
  0
 10
5.543669
 20
0.185889
 30
0.000000
  0
VERTEX
  8
LAYER-1
 10
5.543669
 20
0.185889
 30
0.000000
  0
VERTEX
  8
LAYER-1
 10
5.548010
 20
0.185889
 30
0.000000
  0
VERTEX
  8
LAYER-1
 10
5.551481
 20
0.190230
 30
0.000000
  0
VERTEX
  8
LAYER-1
 10
5.552350
 20
0.195438
 30
0.000000
  0
VERTEX
  8
LAYER-1
 10
5.550613
 20
0.199778
 30
0.000000
  0
VERTEX
  8
LAYER-1
 10
5.546274
 20
0.201514
 30
0.000000
  0
VERTEX
  8
LAYER-1
 10
5.541933
 20
0.201514
 30
0.000000
  0
VERTEX
  8
LAYER-1
 10
5.537592
 20
0.198042
 30
0.000000
  0
VERTEX
  8
LAYER-1
 10
5.537592
 20
0.193702
 30
0.000000
  0
VERTEX
  8
LAYER-1
 10
5.538461
 20
0.189361
 30
0.000000
  0
VERTEX
  8
LAYER-1
 10
5.542801
 20
0.186757
 30
0.000000
  0
SEQEND
  8
LAYER-1
  0
POLYLINE
  8
LAYER-1
 66
  1
 70
  1
 62
  0
 10
6.083255
 20
0.116673
 30
0.000000
  0
VERTEX
  8
LAYER-1
 10
6.083255
 20
0.116673
 30
0.000000
  0
VERTEX
  8
LAYER-1
 10
6.057214
 20
0.109727
 30
0.000000
  0
VERTEX
  8
LAYER-1
 10
6.071102
 20
0.084554
 30
0.000000
  0
SEQEND
  8
LAYER-1
  0
POLYLINE
  8
LAYER-1
 66
  1
 70
  0
 62
  0
 10
5.448268
 20
0.131431
 30
0.000000
  0
VERTEX
  8
LAYER-1
 10
5.448268
 20
0.131431
 30
0.000000
  0
VERTEX
  8
LAYER-1
 10
5.448268
 20
0.135769
 30
0.000000
  0
VERTEX
  8
LAYER-1
 10
5.443928
 20
0.139243
 30
0.000000
  0
VERTEX
  8
LAYER-1
 10
5.438720
 20
0.140110
 30
0.000000
  0
VERTEX
  8
LAYER-1
 10
5.434379
 20
0.138374
 30
0.000000
  0
VERTEX
  8
LAYER-1
 10
5.432643
 20
0.134033
 30
0.000000
  0
VERTEX
  8
LAYER-1
 10
5.432643
 20
0.129693
 30
0.000000
  0
VERTEX
  8
LAYER-1
 10
5.436115
 20
0.125354
 30
0.000000
  0
VERTEX
  8
LAYER-1
 10
5.440456
 20
0.125354
 30
0.000000
  0
VERTEX
  8
LAYER-1
 10
5.444797
 20
0.126221
 30
0.000000
  0
VERTEX
  8
LAYER-1
 10
5.447400
 20
0.130562
 30
0.000000
  0
SEQEND
  8
LAYER-1
  0
POLYLINE
  8
LAYER-1
 66
  1
 70
  1
 62
  0
 10
6.032040
 20
0.106256
 30
0.000000
  0
VERTEX
  8
LAYER-1
 10
6.032040
 20
0.106256
 30
0.000000
  0
VERTEX
  8
LAYER-1
 10
6.004261
 20
0.122748
 30
0.000000
  0
VERTEX
  8
LAYER-1
 10
6.025094
 20
0.092367
 30
0.000000
  0
SEQEND
  8
LAYER-1
  0
POLYLINE
  8
LAYER-1
 66
  1
 70
  0
 62
  0
 10
5.742539
 20
0.187848
 30
0.000000
  0
VERTEX
  8
LAYER-1
 10
5.742539
 20
0.187848
 30
0.000000
  0
VERTEX
  8
LAYER-1
 10
5.742539
 20
0.192189
 30
0.000000
  0
VERTEX
  8
LAYER-1
 10
5.738198
 20
0.195661
 30
0.000000
  0
VERTEX
  8
LAYER-1
 10
5.732990
 20
0.196530
 30
0.000000
  0
VERTEX
  8
LAYER-1
 10
5.728650
 20
0.194792
 30
0.000000
  0
VERTEX
  8
LAYER-1
 10
5.726914
 20
0.190453
 30
0.000000
  0
VERTEX
  8
LAYER-1
 10
5.726914
 20
0.186112
 30
0.000000
  0
VERTEX
  8
LAYER-1
 10
5.730385
 20
0.181773
 30
0.000000
  0
VERTEX
  8
LAYER-1
 10
5.734726
 20
0.181773
 30
0.000000
  0
VERTEX
  8
LAYER-1
 10
5.739067
 20
0.182640
 30
0.000000
  0
VERTEX
  8
LAYER-1
 10
5.741671
 20
0.186980
 30
0.000000
  0
SEQEND
  8
LAYER-1
  0
POLYLINE
  8
LAYER-1
 66
  1
 70
  1
 62
  0
 10
6.313202
 20
0.094364
 30
0.000000
  0
VERTEX
  8
LAYER-1
 10
6.313202
 20
0.094364
 30
0.000000
  0
VERTEX
  8
LAYER-1
 10
6.306257
 20
0.120405
 30
0.000000
  0
VERTEX
  8
LAYER-1
 10
6.281083
 20
0.106517
 30
0.000000
  0
SEQEND
  8
LAYER-1
  0
POLYLINE
  8
LAYER-1
 66
  1
 70
  0
 62
  0
 10
6.403047
 20
0.194622
 30
0.000000
  0
VERTEX
  8
LAYER-1
 10
6.403047
 20
0.194622
 30
0.000000
  0
VERTEX
  8
LAYER-1
 10
6.407388
 20
0.194622
 30
0.000000
  0
VERTEX
  8
LAYER-1
 10
6.410859
 20
0.198964
 30
0.000000
  0
VERTEX
  8
LAYER-1
 10
6.411726
 20
0.204171
 30
0.000000
  0
VERTEX
  8
LAYER-1
 10
6.409991
 20
0.208511
 30
0.000000
  0
VERTEX
  8
LAYER-1
 10
6.405652
 20
0.210247
 30
0.000000
  0
VERTEX
  8
LAYER-1
 10
6.401311
 20
0.210247
 30
0.000000
  0
VERTEX
  8
LAYER-1
 10
6.396970
 20
0.206776
 30
0.000000
  0
VERTEX
  8
LAYER-1
 10
6.396970
 20
0.202435
 30
0.000000
  0
VERTEX
  8
LAYER-1
 10
6.397839
 20
0.198095
 30
0.000000
  0
VERTEX
  8
LAYER-1
 10
6.402178
 20
0.195491
 30
0.000000
  0
SEQEND
  8
LAYER-1
  0
POLYLINE
  8
LAYER-1
 66
  1
 70
  1
 62
  0
 10
6.388289
 20
0.229779
 30
0.000000
  0
VERTEX
  8
LAYER-1
 10
6.388289
 20
0.229779
 30
0.000000
  0
VERTEX
  8
LAYER-1
 10
6.362247
 20
0.222834
 30
0.000000
  0
VERTEX
  8
LAYER-1
 10
6.376136
 20
0.197661
 30
0.000000
  0
SEQEND
  8
LAYER-1
  0
POLYLINE
  8
LAYER-1
 66
  1
 70
  1
 62
  0
 10
5.637070
 20
0.088463
 30
0.000000
  0
VERTEX
  8
LAYER-1
 10
5.637070
 20
0.088463
 30
0.000000
  0
VERTEX
  8
LAYER-1
 10
5.650090
 20
0.111032
 30
0.000000
  0
VERTEX
  8
LAYER-1
 10
5.619709
 20
0.090200
 30
0.000000
  0
SEQEND
  8
LAYER-1
  0
POLYLINE
  8
LAYER-1
 66
  1
 70
  0
 62
  0
 10
5.633597
 20
0.195231
 30
0.000000
  0
VERTEX
  8
LAYER-1
 10
5.633597
 20
0.195231
 30
0.000000
  0
VERTEX
  8
LAYER-1
 10
5.637938
 20
0.195231
 30
0.000000
  0
VERTEX
  8
LAYER-1
 10
5.641410
 20
0.199571
 30
0.000000
  0
VERTEX
  8
LAYER-1
 10
5.642278
 20
0.204780
 30
0.000000
  0
VERTEX
  8
LAYER-1
 10
5.640543
 20
0.209120
 30
0.000000
  0
VERTEX
  8
LAYER-1
 10
5.636202
 20
0.210856
 30
0.000000
  0
VERTEX
  8
LAYER-1
 10
5.631861
 20
0.210856
 30
0.000000
  0
VERTEX
  8
LAYER-1
 10
5.627521
 20
0.207384
 30
0.000000
  0
VERTEX
  8
LAYER-1
 10
5.627521
 20
0.203044
 30
0.000000
  0
VERTEX
  8
LAYER-1
 10
5.628390
 20
0.198702
 30
0.000000
  0
VERTEX
  8
LAYER-1
 10
5.632730
 20
0.196099
 30
0.000000
  0
SEQEND
  8
LAYER-1
  0
POLYLINE
  8
LAYER-1
 66
  1
 70
  1
 62
  0
 10
5.586288
 20
0.173963
 30
0.000000
  0
VERTEX
  8
LAYER-1
 10
5.586288
 20
0.173963
 30
0.000000
  0
VERTEX
  8
LAYER-1
 10
5.611463
 20
0.157470
 30
0.000000
  0
VERTEX
  8
LAYER-1
 10
5.619275
 20
0.172227
 30
0.000000
  0
SEQEND
  8
LAYER-1
  0
POLYLINE
  8
LAYER-1
 66
  1
 70
  1
 62
  0
 10
5.572935
 20
0.146351
 30
0.000000
  0
VERTEX
  8
LAYER-1
 10
5.572935
 20
0.146351
 30
0.000000
  0
VERTEX
  8
LAYER-1
 10
5.553571
 20
0.159039
 30
0.000000
  0
VERTEX
  8
LAYER-1
 10
5.547560
 20
0.147687
 30
0.000000
  0
SEQEND
  8
LAYER-1
  0
POLYLINE
  8
LAYER-1
 66
  1
 70
  1
 62
  0
 10
1.350179
 20
0.205212
 30
0.000000
  0
VERTEX
  8
LAYER-1
 10
1.350179
 20
0.205212
 30
0.000000
  0
VERTEX
  8
LAYER-1
 10
1.337158
 20
0.182643
 30
0.000000
  0
VERTEX
  8
LAYER-1
 10
1.367540
 20
0.203475
 30
0.000000
  0
SEQEND
  8
LAYER-1
  0
POLYLINE
  8
LAYER-1
 66
  1
 70
  1
 62
  0
 10
5.899659
 20
0.132299
 30
0.000000
  0
VERTEX
  8
LAYER-1
 10
5.899659
 20
0.132299
 30
0.000000
  0
VERTEX
  8
LAYER-1
 10
5.922229
 20
0.119277
 30
0.000000
  0
VERTEX
  8
LAYER-1
 10
5.901396
 20
0.149659
 30
0.000000
  0
SEQEND
  8
LAYER-1
  0
POLYLINE
  8
LAYER-1
 66
  1
 70
  0
 62
  0
 10
5.827611
 20
0.179170
 30
0.000000
  0
VERTEX
  8
LAYER-1
 10
5.827611
 20
0.179170
 30
0.000000
  0
VERTEX
  8
LAYER-1
 10
5.827611
 20
0.174830
 30
0.000000
  0
VERTEX
  8
LAYER-1
 10
5.831952
 20
0.171358
 30
0.000000
  0
VERTEX
  8
LAYER-1
 10
5.837159
 20
0.170490
 30
0.000000
  0
VERTEX
  8
LAYER-1
 10
5.841500
 20
0.172226
 30
0.000000
  0
VERTEX
  8
LAYER-1
 10
5.843236
 20
0.176567
 30
0.000000
  0
VERTEX
  8
LAYER-1
 10
5.843236
 20
0.180907
 30
0.000000
  0
VERTEX
  8
LAYER-1
 10
5.839764
 20
0.185246
 30
0.000000
  0
VERTEX
  8
LAYER-1
 10
5.835424
 20
0.185246
 30
0.000000
  0
VERTEX
  8
LAYER-1
 10
5.831083
 20
0.184379
 30
0.000000
  0
VERTEX
  8
LAYER-1
 10
5.828479
 20
0.180038
 30
0.000000
  0
SEQEND
  8
LAYER-1
  0
POLYLINE
  8
LAYER-1
 66
  1
 70
  1
 62
  0
 10
5.777263
 20
0.190456
 30
0.000000
  0
VERTEX
  8
LAYER-1
 10
5.777263
 20
0.190456
 30
0.000000
  0
VERTEX
  8
LAYER-1
 10
5.799833
 20
0.177436
 30
0.000000
  0
VERTEX
  8
LAYER-1
 10
5.779000
 20
0.207817
 30
0.000000
  0
SEQEND
  8
LAYER-1
  0
POLYLINE
  8
LAYER-1
 66
  1
 70
  0
 62
  0
 10
6.039416
 20
0.132299
 30
0.000000
  0
VERTEX
  8
LAYER-1
 10
6.039416
 20
0.132299
 30
0.000000
  0
VERTEX
  8
LAYER-1
 10
6.039416
 20
0.127958
 30
0.000000
  0
VERTEX
  8
LAYER-1
 10
6.043757
 20
0.124486
 30
0.000000
  0
VERTEX
  8
LAYER-1
 10
6.048965
 20
0.123618
 30
0.000000
  0
VERTEX
  8
LAYER-1
 10
6.053306
 20
0.125354
 30
0.000000
  0
VERTEX
  8
LAYER-1
 10
6.055041
 20
0.129694
 30
0.000000
  0
VERTEX
  8
LAYER-1
 10
6.055041
 20
0.134034
 30
0.000000
  0
VERTEX
  8
LAYER-1
 10
6.051570
 20
0.138375
 30
0.000000
  0
VERTEX
  8
LAYER-1
 10
6.047229
 20
0.138375
 30
0.000000
  0
VERTEX
  8
LAYER-1
 10
6.042888
 20
0.137506
 30
0.000000
  0
VERTEX
  8
LAYER-1
 10
6.040284
 20
0.133167
 30
0.000000
  0
SEQEND
  8
LAYER-1
  0
POLYLINE
  8
LAYER-1
 66
  1
 70
  0
 62
  0
 10
5.873618
 20
0.186985
 30
0.000000
  0
VERTEX
  8
LAYER-1
 10
5.873618
 20
0.186985
 30
0.000000
  0
VERTEX
  8
LAYER-1
 10
5.873618
 20
0.182644
 30
0.000000
  0
VERTEX
  8
LAYER-1
 10
5.877959
 20
0.179174
 30
0.000000
  0
VERTEX
  8
LAYER-1
 10
5.883166
 20
0.178306
 30
0.000000
  0
VERTEX
  8
LAYER-1
 10
5.887507
 20
0.180042
 30
0.000000
  0
VERTEX
  8
LAYER-1
 10
5.889243
 20
0.184380
 30
0.000000
  0
VERTEX
  8
LAYER-1
 10
5.889243
 20
0.188721
 30
0.000000
  0
VERTEX
  8
LAYER-1
 10
5.885771
 20
0.193062
 30
0.000000
  0
VERTEX
  8
LAYER-1
 10
5.881431
 20
0.193062
 30
0.000000
  0
VERTEX
  8
LAYER-1
 10
5.877090
 20
0.192193
 30
0.000000
  0
VERTEX
  8
LAYER-1
 10
5.874485
 20
0.187853
 30
0.000000
  0
SEQEND
  8
LAYER-1
  0
POLYLINE
  8
LAYER-1
 66
  1
 70
  1
 62
  0
 10
5.798098
 20
0.122315
 30
0.000000
  0
VERTEX
  8
LAYER-1
 10
5.798098
 20
0.122315
 30
0.000000
  0
VERTEX
  8
LAYER-1
 10
5.785077
 20
0.099745
 30
0.000000
  0
VERTEX
  8
LAYER-1
 10
5.815459
 20
0.120577
 30
0.000000
  0
SEQEND
  8
LAYER-1
  0
POLYLINE
  8
LAYER-1
 66
  1
 70
  0
 62
  0
 10
5.724397
 20
0.114450
 30
0.000000
  0
VERTEX
  8
LAYER-1
 10
5.724397
 20
0.114450
 30
0.000000
  0
VERTEX
  8
LAYER-1
 10
5.720058
 20
0.114450
 30
0.000000
  0
VERTEX
  8
LAYER-1
 10
5.716585
 20
0.110110
 30
0.000000
  0
VERTEX
  8
LAYER-1
 10
5.715717
 20
0.104902
 30
0.000000
  0
VERTEX
  8
LAYER-1
 10
5.717453
 20
0.100561
 30
0.000000
  0
VERTEX
  8
LAYER-1
 10
5.721793
 20
0.098825
 30
0.000000
  0
VERTEX
  8
LAYER-1
 10
5.726134
 20
0.098825
 30
0.000000
  0
VERTEX
  8
LAYER-1
 10
5.730474
 20
0.102297
 30
0.000000
  0
VERTEX
  8
LAYER-1
 10
5.730474
 20
0.106638
 30
0.000000
  0
VERTEX
  8
LAYER-1
 10
5.729606
 20
0.110979
 30
0.000000
  0
VERTEX
  8
LAYER-1
 10
5.725265
 20
0.113583
 30
0.000000
  0
SEQEND
  8
LAYER-1
  0
POLYLINE
  8
LAYER-1
 66
  1
 70
  0
 62
  0
 10
5.798098
 20
0.152696
 30
0.000000
  0
VERTEX
  8
LAYER-1
 10
5.798098
 20
0.152696
 30
0.000000
  0
VERTEX
  8
LAYER-1
 10
5.793757
 20
0.152696
 30
0.000000
  0
VERTEX
  8
LAYER-1
 10
5.790285
 20
0.148355
 30
0.000000
  0
VERTEX
  8
LAYER-1
 10
5.789418
 20
0.143148
 30
0.000000
  0
VERTEX
  8
LAYER-1
 10
5.791153
 20
0.138807
 30
0.000000
  0
VERTEX
  8
LAYER-1
 10
5.795494
 20
0.137071
 30
0.000000
  0
VERTEX
  8
LAYER-1
 10
5.799834
 20
0.137071
 30
0.000000
  0
VERTEX
  8
LAYER-1
 10
5.804175
 20
0.140543
 30
0.000000
  0
VERTEX
  8
LAYER-1
 10
5.804175
 20
0.144883
 30
0.000000
  0
VERTEX
  8
LAYER-1
 10
5.803307
 20
0.149224
 30
0.000000
  0
VERTEX
  8
LAYER-1
 10
5.798966
 20
0.151829
 30
0.000000
  0
SEQEND
  8
LAYER-1
  0
POLYLINE
  8
LAYER-1
 66
  1
 70
  1
 62
  0
 10
6.105389
 20
0.169189
 30
0.000000
  0
VERTEX
  8
LAYER-1
 10
6.105389
 20
0.169189
 30
0.000000
  0
VERTEX
  8
LAYER-1
 10
6.112334
 20
0.143149
 30
0.000000
  0
VERTEX
  8
LAYER-1
 10
6.137507
 20
0.157037
 30
0.000000
  0
SEQEND
  8
LAYER-1
  0
POLYLINE
  8
LAYER-1
 66
  1
 70
  1
 62
  0
 10
6.267715
 20
0.197835
 30
0.000000
  0
VERTEX
  8
LAYER-1
 10
6.267715
 20
0.197835
 30
0.000000
  0
VERTEX
  8
LAYER-1
 10
6.254694
 20
0.175267
 30
0.000000
  0
VERTEX
  8
LAYER-1
 10
6.285076
 20
0.196098
 30
0.000000
  0
SEQEND
  8
LAYER-1
  0
POLYLINE
  8
LAYER-1
 66
  1
 70
  0
 62
  0
 10
6.055910
 20
0.200439
 30
0.000000
  0
VERTEX
  8
LAYER-1
 10
6.055910
 20
0.200439
 30
0.000000
  0
VERTEX
  8
LAYER-1
 10
6.051570
 20
0.200439
 30
0.000000
  0
VERTEX
  8
LAYER-1
 10
6.048098
 20
0.196098
 30
0.000000
  0
VERTEX
  8
LAYER-1
 10
6.047229
 20
0.190890
 30
0.000000
  0
VERTEX
  8
LAYER-1
 10
6.048966
 20
0.186550
 30
0.000000
  0
VERTEX
  8
LAYER-1
 10
6.053306
 20
0.184814
 30
0.000000
  0
VERTEX
  8
LAYER-1
 10
6.057646
 20
0.184814
 30
0.000000
  0
VERTEX
  8
LAYER-1
 10
6.061987
 20
0.188286
 30
0.000000
  0
VERTEX
  8
LAYER-1
 10
6.061987
 20
0.192626
 30
0.000000
  0
VERTEX
  8
LAYER-1
 10
6.061118
 20
0.196967
 30
0.000000
  0
VERTEX
  8
LAYER-1
 10
6.056778
 20
0.199571
 30
0.000000
  0
SEQEND
  8
LAYER-1
  0
POLYLINE
  8
LAYER-1
 66
  1
 70
  1
 62
  0
 10
6.166154
 20
0.132731
 30
0.000000
  0
VERTEX
  8
LAYER-1
 10
6.166154
 20
0.132731
 30
0.000000
  0
VERTEX
  8
LAYER-1
 10
6.153134
 20
0.110162
 30
0.000000
  0
VERTEX
  8
LAYER-1
 10
6.183515
 20
0.130994
 30
0.000000
  0
SEQEND
  8
LAYER-1
  0
POLYLINE
  8
LAYER-1
 66
  1
 70
  0
 62
  0
 10
6.207819
 20
0.202175
 30
0.000000
  0
VERTEX
  8
LAYER-1
 10
6.207819
 20
0.202175
 30
0.000000
  0
VERTEX
  8
LAYER-1
 10
6.203478
 20
0.202175
 30
0.000000
  0
VERTEX
  8
LAYER-1
 10
6.200006
 20
0.197834
 30
0.000000
  0
VERTEX
  8
LAYER-1
 10
6.199138
 20
0.192626
 30
0.000000
  0
VERTEX
  8
LAYER-1
 10
6.200874
 20
0.188286
 30
0.000000
  0
VERTEX
  8
LAYER-1
 10
6.205215
 20
0.186550
 30
0.000000
  0
VERTEX
  8
LAYER-1
 10
6.209555
 20
0.186550
 30
0.000000
  0
VERTEX
  8
LAYER-1
 10
6.213896
 20
0.190021
 30
0.000000
  0
VERTEX
  8
LAYER-1
 10
6.213896
 20
0.194362
 30
0.000000
  0
VERTEX
  8
LAYER-1
 10
6.213028
 20
0.198702
 30
0.000000
  0
VERTEX
  8
LAYER-1
 10
6.208687
 20
0.201307
 30
0.000000
  0
SEQEND
  8
LAYER-1
  0
POLYLINE
  8
LAYER-1
 66
  1
 70
  1
 62
  0
 10
6.547228
 20
0.193494
 30
0.000000
  0
VERTEX
  8
LAYER-1
 10
6.547228
 20
0.193494
 30
0.000000
  0
VERTEX
  8
LAYER-1
 10
6.554173
 20
0.167455
 30
0.000000
  0
VERTEX
  8
LAYER-1
 10
6.579346
 20
0.181342
 30
0.000000
  0
SEQEND
  8
LAYER-1
  0
POLYLINE
  8
LAYER-1
 66
  1
 70
  1
 62
  0
 10
6.709555
 20
0.222142
 30
0.000000
  0
VERTEX
  8
LAYER-1
 10
6.709555
 20
0.222142
 30
0.000000
  0
VERTEX
  8
LAYER-1
 10
6.696533
 20
0.199571
 30
0.000000
  0
VERTEX
  8
LAYER-1
 10
6.726916
 20
0.220404
 30
0.000000
  0
SEQEND
  8
LAYER-1
  0
POLYLINE
  8
LAYER-1
 66
  1
 70
  1
 62
  0
 10
5.937855
 20
0.157906
 30
0.000000
  0
VERTEX
  8
LAYER-1
 10
5.937855
 20
0.157906
 30
0.000000
  0
VERTEX
  8
LAYER-1
 10
5.963028
 20
0.141412
 30
0.000000
  0
VERTEX
  8
LAYER-1
 10
5.970841
 20
0.156169
 30
0.000000
  0
SEQEND
  8
LAYER-1
  0
POLYLINE
  8
LAYER-1
 66
  1
 70
  0
 62
  0
 10
6.508166
 20
0.214329
 30
0.000000
  0
VERTEX
  8
LAYER-1
 10
6.508166
 20
0.214329
 30
0.000000
  0
VERTEX
  8
LAYER-1
 10
6.503825
 20
0.214329
 30
0.000000
  0
VERTEX
  8
LAYER-1
 10
6.500353
 20
0.209988
 30
0.000000
  0
VERTEX
  8
LAYER-1
 10
6.499485
 20
0.204781
 30
0.000000
  0
VERTEX
  8
LAYER-1
 10
6.501221
 20
0.200439
 30
0.000000
  0
VERTEX
  8
LAYER-1
 10
6.505562
 20
0.198704
 30
0.000000
  0
VERTEX
  8
LAYER-1
 10
6.509902
 20
0.198704
 30
0.000000
  0
VERTEX
  8
LAYER-1
 10
6.514242
 20
0.202176
 30
0.000000
  0
VERTEX
  8
LAYER-1
 10
6.514242
 20
0.206517
 30
0.000000
  0
VERTEX
  8
LAYER-1
 10
6.513374
 20
0.210857
 30
0.000000
  0
VERTEX
  8
LAYER-1
 10
6.509034
 20
0.213462
 30
0.000000
  0
SEQEND
  8
LAYER-1
  0
POLYLINE
  8
LAYER-1
 66
  1
 70
  1
 62
  0
 10
6.523791
 20
0.125788
 30
0.000000
  0
VERTEX
  8
LAYER-1
 10
6.523791
 20
0.125788
 30
0.000000
  0
VERTEX
  8
LAYER-1
 10
6.510771
 20
0.103217
 30
0.000000
  0
VERTEX
  8
LAYER-1
 10
6.541153
 20
0.124050
 30
0.000000
  0
SEQEND
  8
LAYER-1
  0
POLYLINE
  8
LAYER-1
 66
  1
 70
  1
 62
  0
 10
6.618242
 20
0.140205
 30
0.000000
  0
VERTEX
  8
LAYER-1
 10
6.618242
 20
0.140205
 30
0.000000
  0
VERTEX
  8
LAYER-1
 10
6.605556
 20
0.120841
 30
0.000000
  0
VERTEX
  8
LAYER-1
 10
6.616906
 20
0.114830
 30
0.000000
  0
SEQEND
  8
LAYER-1
  0
POLYLINE
  8
LAYER-1
 66
  1
 70
  0
 62
  0
 10
6.649659
 20
0.218669
 30
0.000000
  0
VERTEX
  8
LAYER-1
 10
6.649659
 20
0.218669
 30
0.000000
  0
VERTEX
  8
LAYER-1
 10
6.645319
 20
0.218669
 30
0.000000
  0
VERTEX
  8
LAYER-1
 10
6.641846
 20
0.214327
 30
0.000000
  0
VERTEX
  8
LAYER-1
 10
6.640978
 20
0.209120
 30
0.000000
  0
VERTEX
  8
LAYER-1
 10
6.642714
 20
0.204780
 30
0.000000
  0
VERTEX
  8
LAYER-1
 10
6.647055
 20
0.203044
 30
0.000000
  0
VERTEX
  8
LAYER-1
 10
6.651396
 20
0.203044
 30
0.000000
  0
VERTEX
  8
LAYER-1
 10
6.655735
 20
0.206515
 30
0.000000
  0
VERTEX
  8
LAYER-1
 10
6.655735
 20
0.210856
 30
0.000000
  0
VERTEX
  8
LAYER-1
 10
6.654867
 20
0.215196
 30
0.000000
  0
VERTEX
  8
LAYER-1
 10
6.650527
 20
0.217801
 30
0.000000
  0
SEQEND
  8
LAYER-1
  0
POLYLINE
  8
LAYER-1
 66
  1
 70
  0
 62
  0
 10
5.926571
 20
0.210856
 30
0.000000
  0
VERTEX
  8
LAYER-1
 10
5.926571
 20
0.210856
 30
0.000000
  0
VERTEX
  8
LAYER-1
 10
5.926571
 20
0.206515
 30
0.000000
  0
VERTEX
  8
LAYER-1
 10
5.930912
 20
0.203044
 30
0.000000
  0
VERTEX
  8
LAYER-1
 10
5.936119
 20
0.202175
 30
0.000000
  0
VERTEX
  8
LAYER-1
 10
5.940460
 20
0.203911
 30
0.000000
  0
VERTEX
  8
LAYER-1
 10
5.942196
 20
0.208251
 30
0.000000
  0
VERTEX
  8
LAYER-1
 10
5.942196
 20
0.212592
 30
0.000000
  0
VERTEX
  8
LAYER-1
 10
5.938724
 20
0.216933
 30
0.000000
  0
VERTEX
  8
LAYER-1
 10
5.934383
 20
0.216933
 30
0.000000
  0
VERTEX
  8
LAYER-1
 10
5.930043
 20
0.216064
 30
0.000000
  0
VERTEX
  8
LAYER-1
 10
5.927438
 20
0.211723
 30
0.000000
  0
SEQEND
  8
LAYER-1
  0
POLYLINE
  8
LAYER-1
 66
  1
 70
  0
 62
  0
 10
6.489936
 20
0.126654
 30
0.000000
  0
VERTEX
  8
LAYER-1
 10
6.489936
 20
0.126654
 30
0.000000
  0
VERTEX
  8
LAYER-1
 10
6.485595
 20
0.126654
 30
0.000000
  0
VERTEX
  8
LAYER-1
 10
6.482123
 20
0.122313
 30
0.000000
  0
VERTEX
  8
LAYER-1
 10
6.481255
 20
0.117105
 30
0.000000
  0
VERTEX
  8
LAYER-1
 10
6.482991
 20
0.112764
 30
0.000000
  0
VERTEX
  8
LAYER-1
 10
6.487332
 20
0.111029
 30
0.000000
  0
VERTEX
  8
LAYER-1
 10
6.491672
 20
0.111029
 30
0.000000
  0
VERTEX
  8
LAYER-1
 10
6.496012
 20
0.114500
 30
0.000000
  0
VERTEX
  8
LAYER-1
 10
6.496012
 20
0.118841
 30
0.000000
  0
VERTEX
  8
LAYER-1
 10
6.495144
 20
0.123182
 30
0.000000
  0
VERTEX
  8
LAYER-1
 10
6.490804
 20
0.125787
 30
0.000000
  0
SEQEND
  8
LAYER-1
  0
POLYLINE
  8
LAYER-1
 66
  1
 70
  0
 62
  0
 10
6.388375
 20
0.164415
 30
0.000000
  0
VERTEX
  8
LAYER-1
 10
6.388375
 20
0.164415
 30
0.000000
  0
VERTEX
  8
LAYER-1
 10
6.388375
 20
0.168756
 30
0.000000
  0
VERTEX
  8
LAYER-1
 10
6.384034
 20
0.172228
 30
0.000000
  0
VERTEX
  8
LAYER-1
 10
6.378827
 20
0.173096
 30
0.000000
  0
VERTEX
  8
LAYER-1
 10
6.374486
 20
0.171360
 30
0.000000
  0
VERTEX
  8
LAYER-1
 10
6.372750
 20
0.167019
 30
0.000000
  0
VERTEX
  8
LAYER-1
 10
6.372750
 20
0.162680
 30
0.000000
  0
VERTEX
  8
LAYER-1
 10
6.376222
 20
0.158340
 30
0.000000
  0
VERTEX
  8
LAYER-1
 10
6.380563
 20
0.158340
 30
0.000000
  0
VERTEX
  8
LAYER-1
 10
6.384903
 20
0.159207
 30
0.000000
  0
VERTEX
  8
LAYER-1
 10
6.387506
 20
0.163548
 30
0.000000
  0
SEQEND
  8
LAYER-1
  0
POLYLINE
  8
LAYER-1
 66
  1
 70
  1
 62
  0
 10
6.320666
 20
0.151394
 30
0.000000
  0
VERTEX
  8
LAYER-1
 10
6.320666
 20
0.151394
 30
0.000000
  0
VERTEX
  8
LAYER-1
 10
6.298097
 20
0.164414
 30
0.000000
  0
VERTEX
  8
LAYER-1
 10
6.318930
 20
0.134032
 30
0.000000
  0
SEQEND
  8
LAYER-1
  0
POLYLINE
  8
LAYER-1
 66
  1
 70
  0
 62
  0
 10
6.238202
 20
0.116673
 30
0.000000
  0
VERTEX
  8
LAYER-1
 10
6.238202
 20
0.116673
 30
0.000000
  0
VERTEX
  8
LAYER-1
 10
6.238202
 20
0.121013
 30
0.000000
  0
VERTEX
  8
LAYER-1
 10
6.233861
 20
0.124485
 30
0.000000
  0
VERTEX
  8
LAYER-1
 10
6.228653
 20
0.125353
 30
0.000000
  0
VERTEX
  8
LAYER-1
 10
6.224313
 20
0.123617
 30
0.000000
  0
VERTEX
  8
LAYER-1
 10
6.222577
 20
0.119277
 30
0.000000
  0
VERTEX
  8
LAYER-1
 10
6.222577
 20
0.114937
 30
0.000000
  0
VERTEX
  8
LAYER-1
 10
6.226049
 20
0.110596
 30
0.000000
  0
VERTEX
  8
LAYER-1
 10
6.230389
 20
0.110596
 30
0.000000
  0
VERTEX
  8
LAYER-1
 10
6.234730
 20
0.111465
 30
0.000000
  0
VERTEX
  8
LAYER-1
 10
6.237333
 20
0.115805
 30
0.000000
  0
SEQEND
  8
LAYER-1
  0
POLYLINE
  8
LAYER-1
 66
  1
 70
  1
 62
  0
 10
6.428480
 20
0.106951
 30
0.000000
  0
VERTEX
  8
LAYER-1
 10
6.428480
 20
0.106951
 30
0.000000
  0
VERTEX
  8
LAYER-1
 10
6.421535
 20
0.132991
 30
0.000000
  0
VERTEX
  8
LAYER-1
 10
6.396362
 20
0.119104
 30
0.000000
  0
SEQEND
  8
LAYER-1
  0
POLYLINE
  8
LAYER-1
 66
  1
 70
  1
 62
  0
 10
6.450006
 20
0.161377
 30
0.000000
  0
VERTEX
  8
LAYER-1
 10
6.450006
 20
0.161377
 30
0.000000
  0
VERTEX
  8
LAYER-1
 10
6.463028
 20
0.183946
 30
0.000000
  0
VERTEX
  8
LAYER-1
 10
6.432646
 20
0.163115
 30
0.000000
  0
SEQEND
  8
LAYER-1
  0
POLYLINE
  8
LAYER-1
 66
  1
 70
  1
 62
  0
 10
5.877959
 20
0.104954
 30
0.000000
  0
VERTEX
  8
LAYER-1
 10
5.877959
 20
0.104954
 30
0.000000
  0
VERTEX
  8
LAYER-1
 10
5.855388
 20
0.117976
 30
0.000000
  0
VERTEX
  8
LAYER-1
 10
5.876221
 20
0.087593
 30
0.000000
  0
SEQEND
  8
LAYER-1
  0
POLYLINE
  8
LAYER-1
 66
  1
 70
  1
 62
  0
 10
6.655736
 20
0.129261
 30
0.000000
  0
VERTEX
  8
LAYER-1
 10
6.655736
 20
0.129261
 30
0.000000
  0
VERTEX
  8
LAYER-1
 10
6.672229
 20
0.154433
 30
0.000000
  0
VERTEX
  8
LAYER-1
 10
6.657472
 20
0.162246
 30
0.000000
  0
SEQEND
  8
LAYER-1
  0
POLYLINE
  8
LAYER-1
 66
  1
 70
  0
 62
  0
 10
6.686636
 20
0.055856
 30
0.000000
  0
VERTEX
  8
LAYER-1
 10
6.686636
 20
0.055856
 30
0.000000
  0
VERTEX
  8
LAYER-1
 10
6.690977
 20
0.055856
 30
0.000000
  0
VERTEX
  8
LAYER-1
 10
6.694449
 20
0.060198
 30
0.000000
  0
VERTEX
  8
LAYER-1
 10
6.695317
 20
0.065405
 30
0.000000
  0
VERTEX
  8
LAYER-1
 10
6.693581
 20
0.069745
 30
0.000000
  0
VERTEX
  8
LAYER-1
 10
6.689240
 20
0.071481
 30
0.000000
  0
VERTEX
  8
LAYER-1
 10
6.684900
 20
0.071481
 30
0.000000
  0
VERTEX
  8
LAYER-1
 10
6.680560
 20
0.068010
 30
0.000000
  0
VERTEX
  8
LAYER-1
 10
6.680560
 20
0.063669
 30
0.000000
  0
VERTEX
  8
LAYER-1
 10
6.681428
 20
0.059329
 30
0.000000
  0
VERTEX
  8
LAYER-1
 10
6.685768
 20
0.056724
 30
0.000000
  0
SEQEND
  8
LAYER-1
  0
POLYLINE
  8
LAYER-1
 66
  1
 70
  0
 62
  0
 10
6.663200
 20
0.081036
 30
0.000000
  0
VERTEX
  8
LAYER-1
 10
6.663200
 20
0.081036
 30
0.000000
  0
VERTEX
  8
LAYER-1
 10
6.667541
 20
0.081036
 30
0.000000
  0
VERTEX
  8
LAYER-1
 10
6.671012
 20
0.085376
 30
0.000000
  0
VERTEX
  8
LAYER-1
 10
6.671880
 20
0.090584
 30
0.000000
  0
VERTEX
  8
LAYER-1
 10
6.670144
 20
0.094925
 30
0.000000
  0
VERTEX
  8
LAYER-1
 10
6.665804
 20
0.096661
 30
0.000000
  0
VERTEX
  8
LAYER-1
 10
6.661464
 20
0.096661
 30
0.000000
  0
VERTEX
  8
LAYER-1
 10
6.657123
 20
0.093189
 30
0.000000
  0
VERTEX
  8
LAYER-1
 10
6.657123
 20
0.088849
 30
0.000000
  0
VERTEX
  8
LAYER-1
 10
6.657991
 20
0.084507
 30
0.000000
  0
VERTEX
  8
LAYER-1
 10
6.662332
 20
0.081902
 30
0.000000
  0
SEQEND
  8
LAYER-1
  0
POLYLINE
  8
LAYER-1
 66
  1
 70
  1
 62
  0
 10
6.737417
 20
0.097092
 30
0.000000
  0
VERTEX
  8
LAYER-1
 10
6.737417
 20
0.097092
 30
0.000000
  0
VERTEX
  8
LAYER-1
 10
6.712244
 20
0.113584
 30
0.000000
  0
VERTEX
  8
LAYER-1
 10
6.704431
 20
0.098827
 30
0.000000
  0
SEQEND
  8
LAYER-1
  0
POLYLINE
  8
LAYER-1
 66
  1
 70
  0
 62
  0
 10
6.747835
 20
0.136156
 30
0.000000
  0
VERTEX
  8
LAYER-1
 10
6.747835
 20
0.136156
 30
0.000000
  0
VERTEX
  8
LAYER-1
 10
6.747835
 20
0.140496
 30
0.000000
  0
VERTEX
  8
LAYER-1
 10
6.743494
 20
0.143968
 30
0.000000
  0
VERTEX
  8
LAYER-1
 10
6.738286
 20
0.144836
 30
0.000000
  0
VERTEX
  8
LAYER-1
 10
6.733946
 20
0.143100
 30
0.000000
  0
VERTEX
  8
LAYER-1
 10
6.732210
 20
0.138759
 30
0.000000
  0
VERTEX
  8
LAYER-1
 10
6.732210
 20
0.134420
 30
0.000000
  0
VERTEX
  8
LAYER-1
 10
6.735681
 20
0.130079
 30
0.000000
  0
VERTEX
  8
LAYER-1
 10
6.740022
 20
0.130079
 30
0.000000
  0
VERTEX
  8
LAYER-1
 10
6.744363
 20
0.130947
 30
0.000000
  0
VERTEX
  8
LAYER-1
 10
6.746968
 20
0.135288
 30
0.000000
  0
SEQEND
  8
LAYER-1
  0
POLYLINE
  8
LAYER-1
 66
  1
 70
  1
 62
  0
 10
6.694357
 20
0.142008
 30
0.000000
  0
VERTEX
  8
LAYER-1
 10
6.694357
 20
0.142008
 30
0.000000
  0
VERTEX
  8
LAYER-1
 10
6.707044
 20
0.161371
 30
0.000000
  0
VERTEX
  8
LAYER-1
 10
6.695693
 20
0.167383
 30
0.000000
  0
SEQEND
  8
LAYER-1
  0
POLYLINE
  8
LAYER-1
 66
  1
 70
  0
 62
  0
 10
6.017715
 20
0.171794
 30
0.000000
  0
VERTEX
  8
LAYER-1
 10
6.017715
 20
0.171794
 30
0.000000
  0
VERTEX
  8
LAYER-1
 10
6.017715
 20
0.176133
 30
0.000000
  0
VERTEX
  8
LAYER-1
 10
6.013374
 20
0.179607
 30
0.000000
  0
VERTEX
  8
LAYER-1
 10
6.008166
 20
0.180474
 30
0.000000
  0
VERTEX
  8
LAYER-1
 10
6.003826
 20
0.178738
 30
0.000000
  0
VERTEX
  8
LAYER-1
 10
6.002090
 20
0.174398
 30
0.000000
  0
VERTEX
  8
LAYER-1
 10
6.002090
 20
0.170057
 30
0.000000
  0
VERTEX
  8
LAYER-1
 10
6.005562
 20
0.165718
 30
0.000000
  0
VERTEX
  8
LAYER-1
 10
6.009903
 20
0.165718
 30
0.000000
  0
VERTEX
  8
LAYER-1
 10
6.014243
 20
0.166585
 30
0.000000
  0
VERTEX
  8
LAYER-1
 10
6.016848
 20
0.170926
 30
0.000000
  0
SEQEND
  8
LAYER-1
  0
POLYLINE
  8
LAYER-1
 66
  1
 70
  0
 62
  0
 10
6.603653
 20
0.135337
 30
0.000000
  0
VERTEX
  8
LAYER-1
 10
6.603653
 20
0.135337
 30
0.000000
  0
VERTEX
  8
LAYER-1
 10
6.607993
 20
0.135337
 30
0.000000
  0
VERTEX
  8
LAYER-1
 10
6.611465
 20
0.139677
 30
0.000000
  0
VERTEX
  8
LAYER-1
 10
6.612333
 20
0.144886
 30
0.000000
  0
VERTEX
  8
LAYER-1
 10
6.610597
 20
0.149226
 30
0.000000
  0
VERTEX
  8
LAYER-1
 10
6.606256
 20
0.150962
 30
0.000000
  0
VERTEX
  8
LAYER-1
 10
6.601916
 20
0.150962
 30
0.000000
  0
VERTEX
  8
LAYER-1
 10
6.597576
 20
0.147490
 30
0.000000
  0
VERTEX
  8
LAYER-1
 10
6.597576
 20
0.143149
 30
0.000000
  0
VERTEX
  8
LAYER-1
 10
6.598444
 20
0.138808
 30
0.000000
  0
VERTEX
  8
LAYER-1
 10
6.602784
 20
0.136204
 30
0.000000
  0
SEQEND
  8
LAYER-1
  0
POLYLINE
  8
LAYER-1
 66
  1
 70
  1
 62
  0
 10
0.861288
 20
0.139018
 30
0.000000
  0
VERTEX
  8
LAYER-1
 10
0.861288
 20
0.139018
 30
0.000000
  0
VERTEX
  8
LAYER-1
 10
0.838718
 20
0.152039
 30
0.000000
  0
VERTEX
  8
LAYER-1
 10
0.859551
 20
0.121657
 30
0.000000
  0
SEQEND
  8
LAYER-1
  0
POLYLINE
  8
LAYER-1
 66
  1
 70
  0
 62
  0
 10
0.850004
 20
0.072177
 30
0.000000
  0
VERTEX
  8
LAYER-1
 10
0.850004
 20
0.072177
 30
0.000000
  0
VERTEX
  8
LAYER-1
 10
0.850004
 20
0.076516
 30
0.000000
  0
VERTEX
  8
LAYER-1
 10
0.845663
 20
0.079990
 30
0.000000
  0
VERTEX
  8
LAYER-1
 10
0.840456
 20
0.080857
 30
0.000000
  0
VERTEX
  8
LAYER-1
 10
0.836115
 20
0.079121
 30
0.000000
  0
VERTEX
  8
LAYER-1
 10
0.834379
 20
0.074780
 30
0.000000
  0
VERTEX
  8
LAYER-1
 10
0.834379
 20
0.070440
 30
0.000000
  0
VERTEX
  8
LAYER-1
 10
0.837851
 20
0.066101
 30
0.000000
  0
VERTEX
  8
LAYER-1
 10
0.842192
 20
0.066101
 30
0.000000
  0
VERTEX
  8
LAYER-1
 10
0.846532
 20
0.066967
 30
0.000000
  0
VERTEX
  8
LAYER-1
 10
0.849137
 20
0.071309
 30
0.000000
  0
SEQEND
  8
LAYER-1
  0
POLYLINE
  8
LAYER-1
 66
  1
 70
  1
 62
  0
 10
1.128044
 20
0.060977
 30
0.000000
  0
VERTEX
  8
LAYER-1
 10
1.128044
 20
0.060977
 30
0.000000
  0
VERTEX
  8
LAYER-1
 10
1.144537
 20
0.086151
 30
0.000000
  0
VERTEX
  8
LAYER-1
 10
1.129780
 20
0.093964
 30
0.000000
  0
SEQEND
  8
LAYER-1
  0
POLYLINE
  8
LAYER-1
 66
  1
 70
  1
 62
  0
 10
1.175953
 20
0.076071
 30
0.000000
  0
VERTEX
  8
LAYER-1
 10
1.175953
 20
0.076071
 30
0.000000
  0
VERTEX
  8
LAYER-1
 10
1.188641
 20
0.095436
 30
0.000000
  0
VERTEX
  8
LAYER-1
 10
1.177289
 20
0.101446
 30
0.000000
  0
SEQEND
  8
LAYER-1
  0
POLYLINE
  8
LAYER-1
 66
  1
 70
  0
 62
  0
 10
1.240023
 20
0.052299
 30
0.000000
  0
VERTEX
  8
LAYER-1
 10
1.240023
 20
0.052299
 30
0.000000
  0
VERTEX
  8
LAYER-1
 10
1.244363
 20
0.052299
 30
0.000000
  0
VERTEX
  8
LAYER-1
 10
1.247835
 20
0.056640
 30
0.000000
  0
VERTEX
  8
LAYER-1
 10
1.248703
 20
0.061847
 30
0.000000
  0
VERTEX
  8
LAYER-1
 10
1.246967
 20
0.066188
 30
0.000000
  0
VERTEX
  8
LAYER-1
 10
1.242626
 20
0.067924
 30
0.000000
  0
VERTEX
  8
LAYER-1
 10
1.238287
 20
0.067924
 30
0.000000
  0
VERTEX
  8
LAYER-1
 10
1.233946
 20
0.064452
 30
0.000000
  0
VERTEX
  8
LAYER-1
 10
1.233946
 20
0.060112
 30
0.000000
  0
VERTEX
  8
LAYER-1
 10
1.234814
 20
0.055771
 30
0.000000
  0
VERTEX
  8
LAYER-1
 10
1.239155
 20
0.053168
 30
0.000000
  0
SEQEND
  8
LAYER-1
  0
POLYLINE
  8
LAYER-1
 66
  1
 70
  1
 62
  0
 10
1.273876
 20
0.115232
 30
0.000000
  0
VERTEX
  8
LAYER-1
 10
1.273876
 20
0.115232
 30
0.000000
  0
VERTEX
  8
LAYER-1
 10
1.247835
 20
0.108287
 30
0.000000
  0
VERTEX
  8
LAYER-1
 10
1.261723
 20
0.083114
 30
0.000000
  0
SEQEND
  8
LAYER-1
  0
POLYLINE
  8
LAYER-1
 66
  1
 70
  0
 62
  0
 10
2.641758
 20
0.082939
 30
0.000000
  0
VERTEX
  8
LAYER-1
 10
2.641758
 20
0.082939
 30
0.000000
  0
VERTEX
  8
LAYER-1
 10
2.641758
 20
0.087279
 30
0.000000
  0
VERTEX
  8
LAYER-1
 10
2.637417
 20
0.090752
 30
0.000000
  0
VERTEX
  8
LAYER-1
 10
2.632210
 20
0.091620
 30
0.000000
  0
VERTEX
  8
LAYER-1
 10
2.627869
 20
0.089884
 30
0.000000
  0
VERTEX
  8
LAYER-1
 10
2.626133
 20
0.085543
 30
0.000000
  0
VERTEX
  8
LAYER-1
 10
2.626133
 20
0.081203
 30
0.000000
  0
VERTEX
  8
LAYER-1
 10
2.629605
 20
0.076862
 30
0.000000
  0
VERTEX
  8
LAYER-1
 10
2.633946
 20
0.076862
 30
0.000000
  0
VERTEX
  8
LAYER-1
 10
2.638286
 20
0.077731
 30
0.000000
  0
VERTEX
  8
LAYER-1
 10
2.640890
 20
0.082071
 30
0.000000
  0
SEQEND
  8
LAYER-1
  0
POLYLINE
  8
LAYER-1
 66
  1
 70
  1
 62
  0
 10
2.575785
 20
0.046048
 30
0.000000
  0
VERTEX
  8
LAYER-1
 10
2.575785
 20
0.046048
 30
0.000000
  0
VERTEX
  8
LAYER-1
 10
2.568841
 20
0.072089
 30
0.000000
  0
VERTEX
  8
LAYER-1
 10
2.543667
 20
0.058201
 30
0.000000
  0
SEQEND
  8
LAYER-1
  0
POLYLINE
  8
LAYER-1
 66
  1
 70
  1
 62
  0
 10
2.587938
 20
0.082506
 30
0.000000
  0
VERTEX
  8
LAYER-1
 10
2.587938
 20
0.082506
 30
0.000000
  0
VERTEX
  8
LAYER-1
 10
2.600959
 20
0.105076
 30
0.000000
  0
VERTEX
  8
LAYER-1
 10
2.570577
 20
0.084243
 30
0.000000
  0
SEQEND
  8
LAYER-1
  0
POLYLINE
  8
LAYER-1
 66
  1
 70
  0
 62
  0
 10
2.424137
 20
0.093356
 30
0.000000
  0
VERTEX
  8
LAYER-1
 10
2.424137
 20
0.093356
 30
0.000000
  0
VERTEX
  8
LAYER-1
 10
2.419796
 20
0.093356
 30
0.000000
  0
VERTEX
  8
LAYER-1
 10
2.416324
 20
0.089016
 30
0.000000
  0
VERTEX
  8
LAYER-1
 10
2.415456
 20
0.083808
 30
0.000000
  0
VERTEX
  8
LAYER-1
 10
2.417192
 20
0.079467
 30
0.000000
  0
VERTEX
  8
LAYER-1
 10
2.421533
 20
0.077731
 30
0.000000
  0
VERTEX
  8
LAYER-1
 10
2.425873
 20
0.077731
 30
0.000000
  0
VERTEX
  8
LAYER-1
 10
2.430213
 20
0.081203
 30
0.000000
  0
VERTEX
  8
LAYER-1
 10
2.430213
 20
0.085543
 30
0.000000
  0
VERTEX
  8
LAYER-1
 10
2.429345
 20
0.089884
 30
0.000000
  0
VERTEX
  8
LAYER-1
 10
2.425005
 20
0.092489
 30
0.000000
  0
SEQEND
  8
LAYER-1
  0
POLYLINE
  8
LAYER-1
 66
  1
 70
  1
 62
  0
 10
2.503998
 20
0.056029
 30
0.000000
  0
VERTEX
  8
LAYER-1
 10
2.503998
 20
0.056029
 30
0.000000
  0
VERTEX
  8
LAYER-1
 10
2.481427
 20
0.069052
 30
0.000000
  0
VERTEX
  8
LAYER-1
 10
2.502260
 20
0.038668
 30
0.000000
  0
SEQEND
  8
LAYER-1
  0
POLYLINE
  8
LAYER-1
 66
  1
 70
  1
 62
  0
 10
3.098969
 20
0.056881
 30
0.000000
  0
VERTEX
  8
LAYER-1
 10
3.098969
 20
0.056881
 30
0.000000
  0
VERTEX
  8
LAYER-1
 10
3.111990
 20
0.079451
 30
0.000000
  0
VERTEX
  8
LAYER-1
 10
3.081608
 20
0.058618
 30
0.000000
  0
SEQEND
  8
LAYER-1
  0
POLYLINE
  8
LAYER-1
 66
  1
 70
  1
 62
  0
 10
3.004519
 20
0.063293
 30
0.000000
  0
VERTEX
  8
LAYER-1
 10
3.004519
 20
0.063293
 30
0.000000
  0
VERTEX
  8
LAYER-1
 10
3.017206
 20
0.082657
 30
0.000000
  0
VERTEX
  8
LAYER-1
 10
3.005855
 20
0.088669
 30
0.000000
  0
SEQEND
  8
LAYER-1
  0
POLYLINE
  8
LAYER-1
 66
  1
 70
  0
 62
  0
 10
3.132825
 20
0.056013
 30
0.000000
  0
VERTEX
  8
LAYER-1
 10
3.132825
 20
0.056013
 30
0.000000
  0
VERTEX
  8
LAYER-1
 10
3.137165
 20
0.056013
 30
0.000000
  0
VERTEX
  8
LAYER-1
 10
3.140637
 20
0.060354
 30
0.000000
  0
VERTEX
  8
LAYER-1
 10
3.141505
 20
0.065562
 30
0.000000
  0
VERTEX
  8
LAYER-1
 10
3.139769
 20
0.069902
 30
0.000000
  0
VERTEX
  8
LAYER-1
 10
3.135429
 20
0.071638
 30
0.000000
  0
VERTEX
  8
LAYER-1
 10
3.131089
 20
0.071638
 30
0.000000
  0
VERTEX
  8
LAYER-1
 10
3.126748
 20
0.068166
 30
0.000000
  0
VERTEX
  8
LAYER-1
 10
3.126748
 20
0.063826
 30
0.000000
  0
VERTEX
  8
LAYER-1
 10
3.127616
 20
0.059485
 30
0.000000
  0
VERTEX
  8
LAYER-1
 10
3.131957
 20
0.056881
 30
0.000000
  0
SEQEND
  8
LAYER-1
  0
POLYLINE
  8
LAYER-1
 66
  1
 70
  0
 62
  0
 10
3.019108
 20
0.047330
 30
0.000000
  0
VERTEX
  8
LAYER-1
 10
3.019108
 20
0.047330
 30
0.000000
  0
VERTEX
  8
LAYER-1
 10
3.014767
 20
0.047330
 30
0.000000
  0
VERTEX
  8
LAYER-1
 10
3.011296
 20
0.042989
 30
0.000000
  0
VERTEX
  8
LAYER-1
 10
3.010428
 20
0.037782
 30
0.000000
  0
VERTEX
  8
LAYER-1
 10
3.012164
 20
0.033440
 30
0.000000
  0
VERTEX
  8
LAYER-1
 10
3.016504
 20
0.031705
 30
0.000000
  0
VERTEX
  8
LAYER-1
 10
3.020844
 20
0.031705
 30
0.000000
  0
VERTEX
  8
LAYER-1
 10
3.025185
 20
0.035177
 30
0.000000
  0
VERTEX
  8
LAYER-1
 10
3.025185
 20
0.039518
 30
0.000000
  0
VERTEX
  8
LAYER-1
 10
3.024317
 20
0.043858
 30
0.000000
  0
VERTEX
  8
LAYER-1
 10
3.019976
 20
0.046463
 30
0.000000
  0
SEQEND
  8
LAYER-1
  0
POLYLINE
  8
LAYER-1
 66
  1
 70
  1
 62
  0
 10
2.860161
 20
0.060631
 30
0.000000
  0
VERTEX
  8
LAYER-1
 10
2.860161
 20
0.060631
 30
0.000000
  0
VERTEX
  8
LAYER-1
 10
2.873182
 20
0.083201
 30
0.000000
  0
VERTEX
  8
LAYER-1
 10
2.842800
 20
0.062369
 30
0.000000
  0
SEQEND
  8
LAYER-1
  0
POLYLINE
  8
LAYER-1
 66
  1
 70
  0
 62
  0
 10
2.894017
 20
0.059764
 30
0.000000
  0
VERTEX
  8
LAYER-1
 10
2.894017
 20
0.059764
 30
0.000000
  0
VERTEX
  8
LAYER-1
 10
2.898357
 20
0.059764
 30
0.000000
  0
VERTEX
  8
LAYER-1
 10
2.901829
 20
0.064105
 30
0.000000
  0
VERTEX
  8
LAYER-1
 10
2.902697
 20
0.069312
 30
0.000000
  0
VERTEX
  8
LAYER-1
 10
2.900961
 20
0.073652
 30
0.000000
  0
VERTEX
  8
LAYER-1
 10
2.896621
 20
0.075389
 30
0.000000
  0
VERTEX
  8
LAYER-1
 10
2.892281
 20
0.075389
 30
0.000000
  0
VERTEX
  8
LAYER-1
 10
2.887940
 20
0.071917
 30
0.000000
  0
VERTEX
  8
LAYER-1
 10
2.887940
 20
0.067576
 30
0.000000
  0
VERTEX
  8
LAYER-1
 10
2.888808
 20
0.063236
 30
0.000000
  0
VERTEX
  8
LAYER-1
 10
2.893149
 20
0.060631
 30
0.000000
  0
SEQEND
  8
LAYER-1
  0
POLYLINE
  8
LAYER-1
 66
  1
 70
  1
 62
  0
 10
3.492278
 20
0.095701
 30
0.000000
  0
VERTEX
  8
LAYER-1
 10
3.492278
 20
0.095701
 30
0.000000
  0
VERTEX
  8
LAYER-1
 10
3.514848
 20
0.082681
 30
0.000000
  0
VERTEX
  8
LAYER-1
 10
3.494016
 20
0.113063
 30
0.000000
  0
SEQEND
  8
LAYER-1
  0
POLYLINE
  8
LAYER-1
 66
  1
 70
  0
 62
  0
 10
3.491411
 20
0.061846
 30
0.000000
  0
VERTEX
  8
LAYER-1
 10
3.491411
 20
0.061846
 30
0.000000
  0
VERTEX
  8
LAYER-1
 10
3.491411
 20
0.057505
 30
0.000000
  0
VERTEX
  8
LAYER-1
 10
3.495752
 20
0.054033
 30
0.000000
  0
VERTEX
  8
LAYER-1
 10
3.500960
 20
0.053165
 30
0.000000
  0
VERTEX
  8
LAYER-1
 10
3.505300
 20
0.054901
 30
0.000000
  0
VERTEX
  8
LAYER-1
 10
3.507036
 20
0.059241
 30
0.000000
  0
VERTEX
  8
LAYER-1
 10
3.507036
 20
0.063582
 30
0.000000
  0
VERTEX
  8
LAYER-1
 10
3.503564
 20
0.067922
 30
0.000000
  0
VERTEX
  8
LAYER-1
 10
3.499223
 20
0.067922
 30
0.000000
  0
VERTEX
  8
LAYER-1
 10
3.494883
 20
0.067054
 30
0.000000
  0
VERTEX
  8
LAYER-1
 10
3.492278
 20
0.062714
 30
0.000000
  0
SEQEND
  8
LAYER-1
  0
POLYLINE
  8
LAYER-1
 66
  1
 70
  1
 62
  0
 10
4.041758
 20
0.127731
 30
0.000000
  0
VERTEX
  8
LAYER-1
 10
4.041758
 20
0.127731
 30
0.000000
  0
VERTEX
  8
LAYER-1
 10
4.048703
 20
0.101690
 30
0.000000
  0
VERTEX
  8
LAYER-1
 10
4.073876
 20
0.115578
 30
0.000000
  0
SEQEND
  8
LAYER-1
  0
POLYLINE
  8
LAYER-1
 66
  1
 70
  1
 62
  0
 10
4.013545
 20
0.090837
 30
0.000000
  0
VERTEX
  8
LAYER-1
 10
4.013545
 20
0.090837
 30
0.000000
  0
VERTEX
  8
LAYER-1
 10
4.036115
 20
0.077816
 30
0.000000
  0
VERTEX
  8
LAYER-1
 10
4.015282
 20
0.108198
 30
0.000000
  0
SEQEND
  8
LAYER-1
  0
POLYLINE
  8
LAYER-1
 66
  1
 70
  1
 62
  0
 10
4.130199
 20
0.082857
 30
0.000000
  0
VERTEX
  8
LAYER-1
 10
4.130199
 20
0.082857
 30
0.000000
  0
VERTEX
  8
LAYER-1
 10
4.149565
 20
0.070169
 30
0.000000
  0
VERTEX
  8
LAYER-1
 10
4.155576
 20
0.081521
 30
0.000000
  0
SEQEND
  8
LAYER-1
  0
POLYLINE
  8
LAYER-1
 66
  1
 70
  0
 62
  0
 10
4.074745
 20
0.088665
 30
0.000000
  0
VERTEX
  8
LAYER-1
 10
4.074745
 20
0.088665
 30
0.000000
  0
VERTEX
  8
LAYER-1
 10
4.070404
 20
0.088665
 30
0.000000
  0
VERTEX
  8
LAYER-1
 10
4.066932
 20
0.084324
 30
0.000000
  0
VERTEX
  8
LAYER-1
 10
4.066064
 20
0.079116
 30
0.000000
  0
VERTEX
  8
LAYER-1
 10
4.067800
 20
0.074776
 30
0.000000
  0
VERTEX
  8
LAYER-1
 10
4.072140
 20
0.073040
 30
0.000000
  0
VERTEX
  8
LAYER-1
 10
4.076481
 20
0.073040
 30
0.000000
  0
VERTEX
  8
LAYER-1
 10
4.080822
 20
0.076512
 30
0.000000
  0
VERTEX
  8
LAYER-1
 10
4.080822
 20
0.080852
 30
0.000000
  0
VERTEX
  8
LAYER-1
 10
4.079953
 20
0.085193
 30
0.000000
  0
VERTEX
  8
LAYER-1
 10
4.075613
 20
0.087797
 30
0.000000
  0
SEQEND
  8
LAYER-1
  0
POLYLINE
  8
LAYER-1
 66
  1
 70
  0
 62
  0
 10
3.959293
 20
0.066096
 30
0.000000
  0
VERTEX
  8
LAYER-1
 10
3.959293
 20
0.066096
 30
0.000000
  0
VERTEX
  8
LAYER-1
 10
3.963634
 20
0.066096
 30
0.000000
  0
VERTEX
  8
LAYER-1
 10
3.967106
 20
0.070437
 30
0.000000
  0
VERTEX
  8
LAYER-1
 10
3.967975
 20
0.075645
 30
0.000000
  0
VERTEX
  8
LAYER-1
 10
3.966239
 20
0.079985
 30
0.000000
  0
VERTEX
  8
LAYER-1
 10
3.961898
 20
0.081721
 30
0.000000
  0
VERTEX
  8
LAYER-1
 10
3.957557
 20
0.081721
 30
0.000000
  0
VERTEX
  8
LAYER-1
 10
3.953217
 20
0.078250
 30
0.000000
  0
VERTEX
  8
LAYER-1
 10
3.953217
 20
0.073908
 30
0.000000
  0
VERTEX
  8
LAYER-1
 10
3.954085
 20
0.069568
 30
0.000000
  0
VERTEX
  8
LAYER-1
 10
3.958426
 20
0.066963
 30
0.000000
  0
SEQEND
  8
LAYER-1
  0
POLYLINE
  8
LAYER-1
 66
  1
 70
  1
 62
  0
 10
4.445940
 20
0.036409
 30
0.000000
  0
VERTEX
  8
LAYER-1
 10
4.445940
 20
0.036409
 30
0.000000
  0
VERTEX
  8
LAYER-1
 10
4.438996
 20
0.062450
 30
0.000000
  0
VERTEX
  8
LAYER-1
 10
4.413823
 20
0.048562
 30
0.000000
  0
SEQEND
  8
LAYER-1
  0
POLYLINE
  8
LAYER-1
 66
  1
 70
  1
 62
  0
 10
4.474153
 20
0.073303
 30
0.000000
  0
VERTEX
  8
LAYER-1
 10
4.474153
 20
0.073303
 30
0.000000
  0
VERTEX
  8
LAYER-1
 10
4.451583
 20
0.086323
 30
0.000000
  0
VERTEX
  8
LAYER-1
 10
4.472416
 20
0.055942
 30
0.000000
  0
SEQEND
  8
LAYER-1
  0
POLYLINE
  8
LAYER-1
 66
  1
 70
  1
 62
  0
 10
4.357499
 20
0.081283
 30
0.000000
  0
VERTEX
  8
LAYER-1
 10
4.357499
 20
0.081283
 30
0.000000
  0
VERTEX
  8
LAYER-1
 10
4.338134
 20
0.093970
 30
0.000000
  0
VERTEX
  8
LAYER-1
 10
4.332124
 20
0.082619
 30
0.000000
  0
SEQEND
  8
LAYER-1
  0
POLYLINE
  8
LAYER-1
 66
  1
 70
  0
 62
  0
 10
4.412954
 20
0.075475
 30
0.000000
  0
VERTEX
  8
LAYER-1
 10
4.412954
 20
0.075475
 30
0.000000
  0
VERTEX
  8
LAYER-1
 10
4.417294
 20
0.075475
 30
0.000000
  0
VERTEX
  8
LAYER-1
 10
4.420766
 20
0.079816
 30
0.000000
  0
VERTEX
  8
LAYER-1
 10
4.421634
 20
0.085024
 30
0.000000
  0
VERTEX
  8
LAYER-1
 10
4.419898
 20
0.089364
 30
0.000000
  0
VERTEX
  8
LAYER-1
 10
4.415558
 20
0.091100
 30
0.000000
  0
VERTEX
  8
LAYER-1
 10
4.411218
 20
0.091100
 30
0.000000
  0
VERTEX
  8
LAYER-1
 10
4.406877
 20
0.087629
 30
0.000000
  0
VERTEX
  8
LAYER-1
 10
4.406877
 20
0.083288
 30
0.000000
  0
VERTEX
  8
LAYER-1
 10
4.407746
 20
0.078947
 30
0.000000
  0
VERTEX
  8
LAYER-1
 10
4.412086
 20
0.076343
 30
0.000000
  0
SEQEND
  8
LAYER-1
  0
POLYLINE
  8
LAYER-1
 66
  1
 70
  0
 62
  0
 10
4.528405
 20
0.098044
 30
0.000000
  0
VERTEX
  8
LAYER-1
 10
4.528405
 20
0.098044
 30
0.000000
  0
VERTEX
  8
LAYER-1
 10
4.524064
 20
0.098044
 30
0.000000
  0
VERTEX
  8
LAYER-1
 10
4.520593
 20
0.093703
 30
0.000000
  0
VERTEX
  8
LAYER-1
 10
4.519724
 20
0.088495
 30
0.000000
  0
VERTEX
  8
LAYER-1
 10
4.521460
 20
0.084155
 30
0.000000
  0
VERTEX
  8
LAYER-1
 10
4.525800
 20
0.082419
 30
0.000000
  0
VERTEX
  8
LAYER-1
 10
4.530141
 20
0.082419
 30
0.000000
  0
VERTEX
  8
LAYER-1
 10
4.534482
 20
0.085891
 30
0.000000
  0
VERTEX
  8
LAYER-1
 10
4.534482
 20
0.090231
 30
0.000000
  0
VERTEX
  8
LAYER-1
 10
4.533613
 20
0.094572
 30
0.000000
  0
VERTEX
  8
LAYER-1
 10
4.529272
 20
0.097176
 30
0.000000
  0
SEQEND
  8
LAYER-1
  0
POLYLINE
  8
LAYER-1
 66
  1
 70
  1
 62
  0
 10
4.698284
 20
0.020003
 30
0.000000
  0
VERTEX
  8
LAYER-1
 10
4.698284
 20
0.020003
 30
0.000000
  0
VERTEX
  8
LAYER-1
 10
4.691339
 20
0.046043
 30
0.000000
  0
VERTEX
  8
LAYER-1
 10
4.666166
 20
0.032155
 30
0.000000
  0
SEQEND
  8
LAYER-1
  0
POLYLINE
  8
LAYER-1
 66
  1
 70
  1
 62
  0
 10
4.726496
 20
0.056897
 30
0.000000
  0
VERTEX
  8
LAYER-1
 10
4.726496
 20
0.056897
 30
0.000000
  0
VERTEX
  8
LAYER-1
 10
4.703927
 20
0.069917
 30
0.000000
  0
VERTEX
  8
LAYER-1
 10
4.724759
 20
0.039536
 30
0.000000
  0
SEQEND
  8
LAYER-1
  0
POLYLINE
  8
LAYER-1
 66
  1
 70
  1
 62
  0
 10
4.609843
 20
0.064876
 30
0.000000
  0
VERTEX
  8
LAYER-1
 10
4.609843
 20
0.064876
 30
0.000000
  0
VERTEX
  8
LAYER-1
 10
4.590477
 20
0.077564
 30
0.000000
  0
VERTEX
  8
LAYER-1
 10
4.584467
 20
0.066212
 30
0.000000
  0
SEQEND
  8
LAYER-1
  0
POLYLINE
  8
LAYER-1
 66
  1
 70
  0
 62
  0
 10
4.665297
 20
0.059068
 30
0.000000
  0
VERTEX
  8
LAYER-1
 10
4.665297
 20
0.059068
 30
0.000000
  0
VERTEX
  8
LAYER-1
 10
4.669637
 20
0.059068
 30
0.000000
  0
VERTEX
  8
LAYER-1
 10
4.673109
 20
0.063410
 30
0.000000
  0
VERTEX
  8
LAYER-1
 10
4.673977
 20
0.068617
 30
0.000000
  0
VERTEX
  8
LAYER-1
 10
4.672242
 20
0.072958
 30
0.000000
  0
VERTEX
  8
LAYER-1
 10
4.667902
 20
0.074693
 30
0.000000
  0
VERTEX
  8
LAYER-1
 10
4.663561
 20
0.074693
 30
0.000000
  0
VERTEX
  8
LAYER-1
 10
4.659220
 20
0.071222
 30
0.000000
  0
VERTEX
  8
LAYER-1
 10
4.659220
 20
0.066881
 30
0.000000
  0
VERTEX
  8
LAYER-1
 10
4.660089
 20
0.062541
 30
0.000000
  0
VERTEX
  8
LAYER-1
 10
4.664429
 20
0.059937
 30
0.000000
  0
SEQEND
  8
LAYER-1
  0
POLYLINE
  8
LAYER-1
 66
  1
 70
  0
 62
  0
 10
4.780749
 20
0.081637
 30
0.000000
  0
VERTEX
  8
LAYER-1
 10
4.780749
 20
0.081637
 30
0.000000
  0
VERTEX
  8
LAYER-1
 10
4.776408
 20
0.081637
 30
0.000000
  0
VERTEX
  8
LAYER-1
 10
4.772936
 20
0.077297
 30
0.000000
  0
VERTEX
  8
LAYER-1
 10
4.772067
 20
0.072089
 30
0.000000
  0
VERTEX
  8
LAYER-1
 10
4.773803
 20
0.067748
 30
0.000000
  0
VERTEX
  8
LAYER-1
 10
4.778144
 20
0.066012
 30
0.000000
  0
VERTEX
  8
LAYER-1
 10
4.782484
 20
0.066012
 30
0.000000
  0
VERTEX
  8
LAYER-1
 10
4.786825
 20
0.069484
 30
0.000000
  0
VERTEX
  8
LAYER-1
 10
4.786825
 20
0.073825
 30
0.000000
  0
VERTEX
  8
LAYER-1
 10
4.785956
 20
0.078166
 30
0.000000
  0
VERTEX
  8
LAYER-1
 10
4.781615
 20
0.080771
 30
0.000000
  0
SEQEND
  8
LAYER-1
  0
POLYLINE
  8
LAYER-1
 66
  1
 70
  1
 62
  0
 10
4.918843
 20
0.119052
 30
0.000000
  0
VERTEX
  8
LAYER-1
 10
4.918843
 20
0.119052
 30
0.000000
  0
VERTEX
  8
LAYER-1
 10
4.925787
 20
0.093010
 30
0.000000
  0
VERTEX
  8
LAYER-1
 10
4.950961
 20
0.106898
 30
0.000000
  0
SEQEND
  8
LAYER-1
  0
POLYLINE
  8
LAYER-1
 66
  1
 70
  1
 62
  0
 10
4.890630
 20
0.082158
 30
0.000000
  0
VERTEX
  8
LAYER-1
 10
4.890630
 20
0.082158
 30
0.000000
  0
VERTEX
  8
LAYER-1
 10
4.913200
 20
0.069138
 30
0.000000
  0
VERTEX
  8
LAYER-1
 10
4.892367
 20
0.099519
 30
0.000000
  0
SEQEND
  8
LAYER-1
  0
POLYLINE
  8
LAYER-1
 66
  1
 70
  0
 62
  0
 10
4.836378
 20
0.057416
 30
0.000000
  0
VERTEX
  8
LAYER-1
 10
4.836378
 20
0.057416
 30
0.000000
  0
VERTEX
  8
LAYER-1
 10
4.840719
 20
0.057416
 30
0.000000
  0
VERTEX
  8
LAYER-1
 10
4.844190
 20
0.061757
 30
0.000000
  0
VERTEX
  8
LAYER-1
 10
4.845059
 20
0.066965
 30
0.000000
  0
VERTEX
  8
LAYER-1
 10
4.843324
 20
0.071306
 30
0.000000
  0
VERTEX
  8
LAYER-1
 10
4.838983
 20
0.073041
 30
0.000000
  0
VERTEX
  8
LAYER-1
 10
4.834642
 20
0.073041
 30
0.000000
  0
VERTEX
  8
LAYER-1
 10
4.830301
 20
0.069570
 30
0.000000
  0
VERTEX
  8
LAYER-1
 10
4.830301
 20
0.065229
 30
0.000000
  0
VERTEX
  8
LAYER-1
 10
4.831170
 20
0.060889
 30
0.000000
  0
VERTEX
  8
LAYER-1
 10
4.835511
 20
0.058283
 30
0.000000
  0
SEQEND
  8
LAYER-1
  0
POLYLINE
  8
LAYER-1
 66
  1
 70
  1
 62
  0
 10
5.471965
 20
0.231168
 30
0.000000
  0
VERTEX
  8
LAYER-1
 10
5.471965
 20
0.231168
 30
0.000000
  0
VERTEX
  8
LAYER-1
 10
5.478910
 20
0.205127
 30
0.000000
  0
VERTEX
  8
LAYER-1
 10
5.504083
 20
0.219014
 30
0.000000
  0
SEQEND
  8
LAYER-1
  0
POLYLINE
  8
LAYER-1
 66
  1
 70
  1
 62
  0
 10
5.485074
 20
0.186028
 30
0.000000
  0
VERTEX
  8
LAYER-1
 10
5.485074
 20
0.186028
 30
0.000000
  0
VERTEX
  8
LAYER-1
 10
5.472053
 20
0.163459
 30
0.000000
  0
VERTEX
  8
LAYER-1
 10
5.502435
 20
0.184291
 30
0.000000
  0
SEQEND
  8
LAYER-1
  0
POLYLINE
  8
LAYER-1
 66
  1
 70
  1
 62
  0
 10
5.176569
 20
0.154553
 30
0.000000
  0
VERTEX
  8
LAYER-1
 10
5.176569
 20
0.154553
 30
0.000000
  0
VERTEX
  8
LAYER-1
 10
5.169625
 20
0.180593
 30
0.000000
  0
VERTEX
  8
LAYER-1
 10
5.144452
 20
0.166706
 30
0.000000
  0
SEQEND
  8
LAYER-1
  0
POLYLINE
  8
LAYER-1
 66
  1
 70
  1
 62
  0
 10
5.163460
 20
0.199691
 30
0.000000
  0
VERTEX
  8
LAYER-1
 10
5.163460
 20
0.199691
 30
0.000000
  0
VERTEX
  8
LAYER-1
 10
5.176482
 20
0.222261
 30
0.000000
  0
VERTEX
  8
LAYER-1
 10
5.146099
 20
0.201429
 30
0.000000
  0
SEQEND
  8
LAYER-1
  0
POLYLINE
  8
LAYER-1
 66
  1
 70
  1
 62
  0
 10
5.681341
 20
0.056724
 30
0.000000
  0
VERTEX
  8
LAYER-1
 10
5.681341
 20
0.056724
 30
0.000000
  0
VERTEX
  8
LAYER-1
 10
5.707381
 20
0.063669
 30
0.000000
  0
VERTEX
  8
LAYER-1
 10
5.693494
 20
0.088843
 30
0.000000
  0
SEQEND
  8
LAYER-1
  0
POLYLINE
  8
LAYER-1
 66
  1
 70
  1
 62
  0
 10
5.726480
 20
0.069832
 30
0.000000
  0
VERTEX
  8
LAYER-1
 10
5.726480
 20
0.069832
 30
0.000000
  0
VERTEX
  8
LAYER-1
 10
5.749051
 20
0.056812
 30
0.000000
  0
VERTEX
  8
LAYER-1
 10
5.728218
 20
0.087193
 30
0.000000
  0
SEQEND
  8
LAYER-1
  0
ARC
  8
LAYER-1
 62
  0
 10
5.466026
 20
8.911460
 30
0.000000
 40
0.254425
 50
270.000000
 51
90.000000
  0
POLYLINE
  8
LAYER-1
 66
  1
 70
  0
 62
  0
 10
5.466026
 20
9.165885
 30
0.000000
  0
VERTEX
  8
LAYER-1
 10
5.466026
 20
9.165885
 30
0.000000
  0
VERTEX
  8
LAYER-1
 10
1.801105
 20
9.165885
 30
0.000000
  0
SEQEND
  8
LAYER-1
  0
POLYLINE
  8
LAYER-1
 66
  1
 70
  0
 62
  0
 10
1.801105
 20
9.165885
 30
0.000000
  0
VERTEX
  8
LAYER-1
 10
1.801105
 20
9.165885
 30
0.000000
  0
VERTEX
  8
LAYER-1
 10
1.801105
 20
8.657036
 30
0.000000
  0
SEQEND
  8
LAYER-1
  0
POLYLINE
  8
LAYER-1
 66
  1
 70
  0
 62
  0
 10
5.466026
 20
8.657036
 30
0.000000
  0
VERTEX
  8
LAYER-1
 10
5.466026
 20
8.657036
 30
0.000000
  0
VERTEX
  8
LAYER-1
 10
1.801105
 20
8.657036
 30
0.000000
  0
SEQEND
  8
LAYER-1
  0
TEXT
  8
LAYER-1
 62
  0
 10
3.611636
 20
9.450740
 30
0.000000
 40
0.333333
  1
MobilFlex
 72
  5
 11
5.764414
 21
9.450740
 31
0.000000
  0
POLYLINE
  8
LAYER-1
 66
  1
 70
  1
 62
  0
  0
VERTEX
  8
LAYER-1
 10
1.802608
 20
9.970713
 30
0.000000
  0
VERTEX
  8
LAYER-1
 10
2.040455
 20
9.970713
 30
0.000000
  0
VERTEX
  8
LAYER-1
 10
2.040455
 20
9.453769
 30
0.000000
  0
VERTEX
  8
LAYER-1
 10
1.802608
 20
9.453769
 30
0.000000
  0
SEQEND
  8
LAYER-1
  0
POLYLINE
  8
LAYER-1
 66
  1
 70
  1
 62
  0
  0
VERTEX
  8
LAYER-1
 10
2.115108
 20
9.970713
 30
0.000000
  0
VERTEX
  8
LAYER-1
 10
2.352955
 20
9.970713
 30
0.000000
  0
VERTEX
  8
LAYER-1
 10
2.352955
 20
9.453769
 30
0.000000
  0
VERTEX
  8
LAYER-1
 10
2.115108
 20
9.453769
 30
0.000000
  0
SEQEND
  8
LAYER-1
  0
POLYLINE
  8
LAYER-1
 66
  1
 70
  1
 62
  0
  0
VERTEX
  8
LAYER-1
 10
2.415455
 20
9.970713
 30
0.000000
  0
VERTEX
  8
LAYER-1
 10
2.653303
 20
9.970713
 30
0.000000
  0
VERTEX
  8
LAYER-1
 10
2.653303
 20
9.453769
 30
0.000000
  0
VERTEX
  8
LAYER-1
 10
2.415455
 20
9.453769
 30
0.000000
  0
SEQEND
  8
LAYER-1
  0
POLYLINE
  8
LAYER-1
 66
  1
 70
  1
 62
  0
  0
VERTEX
  8
LAYER-1
 10
2.719275
 20
9.970713
 30
0.000000
  0
VERTEX
  8
LAYER-1
 10
2.957122
 20
9.970713
 30
0.000000
  0
VERTEX
  8
LAYER-1
 10
2.957122
 20
9.453769
 30
0.000000
  0
VERTEX
  8
LAYER-1
 10
2.719275
 20
9.453769
 30
0.000000
  0
SEQEND
  8
LAYER-1
  0
POLYLINE
  8
LAYER-1
 66
  1
 70
  1
 62
  0
  0
VERTEX
  8
LAYER-1
 10
3.036115
 20
9.966799
 30
0.000000
  0
VERTEX
  8
LAYER-1
 10
3.411549
 20
9.966799
 30
0.000000
  0
VERTEX
  8
LAYER-1
 10
3.411549
 20
9.828778
 30
0.000000
  0
VERTEX
  8
LAYER-1
 10
3.036115
 20
9.828778
 30
0.000000
  0
SEQEND
  8
LAYER-1
  0
POLYLINE
  8
LAYER-1
 66
  1
 70
  1
 62
  0
  0
VERTEX
  8
LAYER-1
 10
3.035681
 20
9.739368
 30
0.000000
  0
VERTEX
  8
LAYER-1
 10
3.343841
 20
9.739368
 30
0.000000
  0
VERTEX
  8
LAYER-1
 10
3.343841
 20
9.605253
 30
0.000000
  0
VERTEX
  8
LAYER-1
 10
3.035681
 20
9.605253
 30
0.000000
  0
SEQEND
  8
LAYER-1
  0
POLYLINE
  8
LAYER-1
 66
  1
 70
  1
 62
  0
  0
VERTEX
  8
LAYER-1
 10
1.802608
 20
9.369142
 30
0.000000
  0
VERTEX
  8
LAYER-1
 10
5.721011
 20
9.369142
 30
0.000000
  0
VERTEX
  8
LAYER-1
 10
5.721011
 20
9.325740
 30
0.000000
  0
VERTEX
  8
LAYER-1
 10
1.802608
 20
9.325740
 30
0.000000
  0
SEQEND
  8
LAYER-1
  0
POLYLINE
  8
LAYER-1
 66
  1
 70
  0
 62
  0
 10
5.773594
 20
7.413294
 30
0.000000
  0
VERTEX
  8
LAYER-1
 10
5.773594
 20
7.413294
 30
0.000000
  0
VERTEX
  8
LAYER-1
 10
1.754731
 20
7.413430
 30
0.000000
  0
VERTEX
  8
LAYER-1
 10
1.754731
 20
0.346217
 30
0.000000
  0
VERTEX
  8
LAYER-1
 10
5.773594
 20
0.346217
 30
0.000000
  0
VERTEX
  8
LAYER-1
 10
5.773594
 20
7.413430
 30
0.000000
  0
SEQEND
  8
LAYER-1
  0
POLYLINE
  8
LAYER-1
 66
  1
 70
  1
 62
  0
  0
VERTEX
  8
LAYER-1
 10
3.789743
 20
7.479853
 30
0.000000
  0
VERTEX
  8
LAYER-1
 10
3.814838
 20
7.479853
 30
0.000000
  0
VERTEX
  8
LAYER-1
 10
3.814838
 20
7.413535
 30
0.000000
  0
VERTEX
  8
LAYER-1
 10
3.789743
 20
7.413535
 30
0.000000
  0
SEQEND
  8
LAYER-1
  0
POLYLINE
  8
LAYER-1
 66
  1
 70
  1
 62
  0
  0
VERTEX
  8
LAYER-1
 10
1.827407
 20
7.413441
 30
0.000000
  0
VERTEX
  8
LAYER-1
 10
2.152040
 20
7.413441
 30
0.000000
  0
VERTEX
  8
LAYER-1
 10
2.152040
 20
7.143442
 30
0.000000
  0
VERTEX
  8
LAYER-1
 10
1.827407
 20
7.143442
 30
0.000000
  0
SEQEND
  8
LAYER-1
  0
POLYLINE
  8
LAYER-1
 66
  1
 70
  1
 62
  0
  0
VERTEX
  8
LAYER-1
 10
2.647531
 20
7.413441
 30
0.000000
  0
VERTEX
  8
LAYER-1
 10
2.972161
 20
7.413441
 30
0.000000
  0
VERTEX
  8
LAYER-1
 10
2.972161
 20
7.143442
 30
0.000000
  0
VERTEX
  8
LAYER-1
 10
2.647531
 20
7.143442
 30
0.000000
  0
SEQEND
  8
LAYER-1
  0
POLYLINE
  8
LAYER-1
 66
  1
 70
  0
 62
  0
 10
2.794423
 20
7.413516
 30
0.000000
  0
VERTEX
  8
LAYER-1
 10
2.794423
 20
7.413516
 30
0.000000
  0
VERTEX
  8
LAYER-1
 10
2.794423
 20
7.143985
 30
0.000000
  0
SEQEND
  8
LAYER-1
  0
POLYLINE
  8
LAYER-1
 66
  1
 70
  0
 62
  0
 10
2.831502
 20
7.413516
 30
0.000000
  0
VERTEX
  8
LAYER-1
 10
2.831502
 20
7.413516
 30
0.000000
  0
VERTEX
  8
LAYER-1
 10
2.831502
 20
7.143985
 30
0.000000
  0
SEQEND
  8
LAYER-1
  0
POLYLINE
  8
LAYER-1
 66
  1
 70
  0
 62
  0
 10
1.972756
 20
7.413516
 30
0.000000
  0
VERTEX
  8
LAYER-1
 10
1.972756
 20
7.413516
 30
0.000000
  0
VERTEX
  8
LAYER-1
 10
1.972756
 20
7.143985
 30
0.000000
  0
SEQEND
  8
LAYER-1
  0
POLYLINE
  8
LAYER-1
 66
  1
 70
  0
 62
  0
 10
2.011318
 20
7.413516
 30
0.000000
  0
VERTEX
  8
LAYER-1
 10
2.011318
 20
7.413516
 30
0.000000
  0
VERTEX
  8
LAYER-1
 10
2.011318
 20
7.143985
 30
0.000000
  0
SEQEND
  8
LAYER-1
  0
POLYLINE
  8
LAYER-1
 66
  1
 70
  1
 62
  0
  0
VERTEX
  8
LAYER-1
 10
2.168533
 20
7.419376
 30
0.000000
  0
VERTEX
  8
LAYER-1
 10
2.223409
 20
7.419376
 30
0.000000
  0
VERTEX
  8
LAYER-1
 10
2.223409
 20
7.413516
 30
0.000000
  0
VERTEX
  8
LAYER-1
 10
2.168533
 20
7.413516
 30
0.000000
  0
SEQEND
  8
LAYER-1
  0
POLYLINE
  8
LAYER-1
 66
  1
 70
  0
 62
  0
 10
2.177431
 20
7.346133
 30
0.000000
  0
VERTEX
  8
LAYER-1
 10
2.177431
 20
7.346133
 30
0.000000
  0
VERTEX
  8
LAYER-1
 10
2.213027
 20
7.346133
 30
0.000000
  0
SEQEND
  8
LAYER-1
  0
POLYLINE
  8
LAYER-1
 66
  1
 70
  0
 62
  0
 10
2.177431
 20
7.217228
 30
0.000000
  0
VERTEX
  8
LAYER-1
 10
2.177431
 20
7.217228
 30
0.000000
  0
VERTEX
  8
LAYER-1
 10
2.213027
 20
7.217228
 30
0.000000
  0
SEQEND
  8
LAYER-1
  0
POLYLINE
  8
LAYER-1
 66
  1
 70
  1
 62
  0
  0
VERTEX
  8
LAYER-1
 10
2.985747
 20
7.419376
 30
0.000000
  0
VERTEX
  8
LAYER-1
 10
3.040623
 20
7.419376
 30
0.000000
  0
VERTEX
  8
LAYER-1
 10
3.040623
 20
7.413516
 30
0.000000
  0
VERTEX
  8
LAYER-1
 10
2.985747
 20
7.413516
 30
0.000000
  0
SEQEND
  8
LAYER-1
  0
POLYLINE
  8
LAYER-1
 66
  1
 70
  0
 62
  0
 10
2.996130
 20
7.346133
 30
0.000000
  0
VERTEX
  8
LAYER-1
 10
2.996130
 20
7.346133
 30
0.000000
  0
VERTEX
  8
LAYER-1
 10
3.031725
 20
7.346133
 30
0.000000
  0
SEQEND
  8
LAYER-1
  0
POLYLINE
  8
LAYER-1
 66
  1
 70
  0
 62
  0
 10
2.996130
 20
7.217227
 30
0.000000
  0
VERTEX
  8
LAYER-1
 10
2.996130
 20
7.217227
 30
0.000000
  0
VERTEX
  8
LAYER-1
 10
3.031725
 20
7.217227
 30
0.000000
  0
SEQEND
  8
LAYER-1
  0
POLYLINE
  8
LAYER-1
 66
  1
 70
  0
 62
  0
 10
1.827407
 20
7.413441
 30
0.000000
  0
VERTEX
  8
LAYER-1
 10
1.827407
 20
7.413441
 30
0.000000
  0
VERTEX
  8
LAYER-1
 10
1.827407
 20
0.346650
 30
0.000000
  0
SEQEND
  8
LAYER-1
  0
POLYLINE
  8
LAYER-1
 66
  1
 70
  0
 62
  0
 10
2.152040
 20
7.413441
 30
0.000000
  0
VERTEX
  8
LAYER-1
 10
2.152040
 20
7.413441
 30
0.000000
  0
VERTEX
  8
LAYER-1
 10
2.152040
 20
0.346650
 30
0.000000
  0
SEQEND
  8
LAYER-1
  0
POLYLINE
  8
LAYER-1
 66
  1
 70
  0
 62
  0
 10
2.237469
 20
7.413441
 30
0.000000
  0
VERTEX
  8
LAYER-1
 10
2.237469
 20
7.413441
 30
0.000000
  0
VERTEX
  8
LAYER-1
 10
2.237469
 20
0.346650
 30
0.000000
  0
SEQEND
  8
LAYER-1
  0
POLYLINE
  8
LAYER-1
 66
  1
 70
  0
 62
  0
 10
2.177431
 20
7.413441
 30
0.000000
  0
VERTEX
  8
LAYER-1
 10
2.177431
 20
7.413441
 30
0.000000
  0
VERTEX
  8
LAYER-1
 10
2.177431
 20
0.346650
 30
0.000000
  0
SEQEND
  8
LAYER-1
  0
POLYLINE
  8
LAYER-1
 66
  1
 70
  0
 62
  0
 10
2.213027
 20
7.413441
 30
0.000000
  0
VERTEX
  8
LAYER-1
 10
2.213027
 20
7.413441
 30
0.000000
  0
VERTEX
  8
LAYER-1
 10
2.213027
 20
0.346650
 30
0.000000
  0
SEQEND
  8
LAYER-1
  0
POLYLINE
  8
LAYER-1
 66
  1
 70
  1
 62
  0
  0
VERTEX
  8
LAYER-1
 10
2.167049
 20
0.346725
 30
0.000000
  0
VERTEX
  8
LAYER-1
 10
2.221925
 20
0.346725
 30
0.000000
  0
VERTEX
  8
LAYER-1
 10
2.221925
 20
0.340866
 30
0.000000
  0
VERTEX
  8
LAYER-1
 10
2.167049
 20
0.340866
 30
0.000000
  0
SEQEND
  8
LAYER-1
  0
POLYLINE
  8
LAYER-1
 66
  1
 70
  0
 62
  0
 10
2.213027
 20
0.419968
 30
0.000000
  0
VERTEX
  8
LAYER-1
 10
2.213027
 20
0.419968
 30
0.000000
  0
VERTEX
  8
LAYER-1
 10
2.177431
 20
0.419968
 30
0.000000
  0
SEQEND
  8
LAYER-1
  0
POLYLINE
  8
LAYER-1
 66
  1
 70
  0
 62
  0
 10
2.213027
 20
0.548874
 30
0.000000
  0
VERTEX
  8
LAYER-1
 10
2.213027
 20
0.548874
 30
0.000000
  0
VERTEX
  8
LAYER-1
 10
2.177431
 20
0.548874
 30
0.000000
  0
SEQEND
  8
LAYER-1
  0
POLYLINE
  8
LAYER-1
 66
  1
 70
  0
 62
  0
 10
2.177431
 20
0.623858
 30
0.000000
  0
VERTEX
  8
LAYER-1
 10
2.177431
 20
0.623858
 30
0.000000
  0
VERTEX
  8
LAYER-1
 10
2.213027
 20
0.623858
 30
0.000000
  0
SEQEND
  8
LAYER-1
  0
POLYLINE
  8
LAYER-1
 66
  1
 70
  0
 62
  0
 10
2.177431
 20
1.470538
 30
0.000000
  0
VERTEX
  8
LAYER-1
 10
2.177431
 20
1.470538
 30
0.000000
  0
VERTEX
  8
LAYER-1
 10
2.213027
 20
1.470538
 30
0.000000
  0
SEQEND
  8
LAYER-1
  0
POLYLINE
  8
LAYER-1
 66
  1
 70
  0
 62
  0
 10
2.177431
 20
2.308427
 30
0.000000
  0
VERTEX
  8
LAYER-1
 10
2.177431
 20
2.308427
 30
0.000000
  0
VERTEX
  8
LAYER-1
 10
2.213027
 20
2.308427
 30
0.000000
  0
SEQEND
  8
LAYER-1
  0
POLYLINE
  8
LAYER-1
 66
  1
 70
  0
 62
  0
 10
2.177431
 20
3.158029
 30
0.000000
  0
VERTEX
  8
LAYER-1
 10
2.177431
 20
3.158029
 30
0.000000
  0
VERTEX
  8
LAYER-1
 10
2.213027
 20
3.158029
 30
0.000000
  0
SEQEND
  8
LAYER-1
  0
POLYLINE
  8
LAYER-1
 66
  1
 70
  0
 62
  0
 10
2.213027
 20
4.000315
 30
0.000000
  0
VERTEX
  8
LAYER-1
 10
2.213027
 20
4.000315
 30
0.000000
  0
VERTEX
  8
LAYER-1
 10
2.177431
 20
4.000315
 30
0.000000
  0
SEQEND
  8
LAYER-1
  0
POLYLINE
  8
LAYER-1
 66
  1
 70
  0
 62
  0
 10
2.562102
 20
7.413441
 30
0.000000
  0
VERTEX
  8
LAYER-1
 10
2.562102
 20
7.413441
 30
0.000000
  0
VERTEX
  8
LAYER-1
 10
2.562102
 20
0.346650
 30
0.000000
  0
SEQEND
  8
LAYER-1
  0
POLYLINE
  8
LAYER-1
 66
  1
 70
  0
 62
  0
 10
2.647531
 20
7.413441
 30
0.000000
  0
VERTEX
  8
LAYER-1
 10
2.647531
 20
7.413441
 30
0.000000
  0
VERTEX
  8
LAYER-1
 10
2.647531
 20
0.346650
 30
0.000000
  0
SEQEND
  8
LAYER-1
  0
POLYLINE
  8
LAYER-1
 66
  1
 70
  0
 62
  0
 10
2.972161
 20
7.413441
 30
0.000000
  0
VERTEX
  8
LAYER-1
 10
2.972161
 20
7.413441
 30
0.000000
  0
VERTEX
  8
LAYER-1
 10
2.972161
 20
0.346650
 30
0.000000
  0
SEQEND
  8
LAYER-1
  0
POLYLINE
  8
LAYER-1
 66
  1
 70
  0
 62
  0
 10
3.057591
 20
7.413441
 30
0.000000
  0
VERTEX
  8
LAYER-1
 10
3.057591
 20
7.413441
 30
0.000000
  0
VERTEX
  8
LAYER-1
 10
3.057591
 20
0.346650
 30
0.000000
  0
SEQEND
  8
LAYER-1
  0
POLYLINE
  8
LAYER-1
 66
  1
 70
  0
 62
  0
 10
3.382222
 20
7.413441
 30
0.000000
  0
VERTEX
  8
LAYER-1
 10
3.382222
 20
7.413441
 30
0.000000
  0
VERTEX
  8
LAYER-1
 10
3.382222
 20
0.346650
 30
0.000000
  0
SEQEND
  8
LAYER-1
  0
POLYLINE
  8
LAYER-1
 66
  1
 70
  0
 62
  0
 10
3.464803
 20
7.413441
 30
0.000000
  0
VERTEX
  8
LAYER-1
 10
3.464803
 20
7.413441
 30
0.000000
  0
VERTEX
  8
LAYER-1
 10
3.464803
 20
0.346650
 30
0.000000
  0
SEQEND
  8
LAYER-1
  0
POLYLINE
  8
LAYER-1
 66
  1
 70
  0
 62
  0
 10
1.791812
 20
7.413441
 30
0.000000
  0
VERTEX
  8
LAYER-1
 10
1.791812
 20
7.413441
 30
0.000000
  0
VERTEX
  8
LAYER-1
 10
1.791812
 20
0.346650
 30
0.000000
  0
SEQEND
  8
LAYER-1
  0
POLYLINE
  8
LAYER-1
 66
  1
 70
  0
 62
  0
 10
2.604579
 20
7.413441
 30
0.000000
  0
VERTEX
  8
LAYER-1
 10
2.604579
 20
7.413441
 30
0.000000
  0
VERTEX
  8
LAYER-1
 10
2.604579
 20
0.346650
 30
0.000000
  0
SEQEND
  8
LAYER-1
  0
POLYLINE
  8
LAYER-1
 66
  1
 70
  0
 62
  0
 10
2.996130
 20
7.413441
 30
0.000000
  0
VERTEX
  8
LAYER-1
 10
2.996130
 20
7.413441
 30
0.000000
  0
VERTEX
  8
LAYER-1
 10
2.996130
 20
0.346650
 30
0.000000
  0
SEQEND
  8
LAYER-1
  0
POLYLINE
  8
LAYER-1
 66
  1
 70
  0
 62
  0
 10
3.031725
 20
7.413441
 30
0.000000
  0
VERTEX
  8
LAYER-1
 10
3.031725
 20
7.413441
 30
0.000000
  0
VERTEX
  8
LAYER-1
 10
3.031725
 20
0.346650
 30
0.000000
  0
SEQEND
  8
LAYER-1
  0
POLYLINE
  8
LAYER-1
 66
  1
 70
  0
 62
  0
 10
3.423277
 20
7.413441
 30
0.000000
  0
VERTEX
  8
LAYER-1
 10
3.423277
 20
7.413441
 30
0.000000
  0
VERTEX
  8
LAYER-1
 10
3.423277
 20
0.346650
 30
0.000000
  0
SEQEND
  8
LAYER-1
  0
POLYLINE
  8
LAYER-1
 66
  1
 70
  1
 62
  0
  0
VERTEX
  8
LAYER-1
 10
2.984262
 20
0.346725
 30
0.000000
  0
VERTEX
  8
LAYER-1
 10
3.039140
 20
0.346725
 30
0.000000
  0
VERTEX
  8
LAYER-1
 10
3.039140
 20
0.340866
 30
0.000000
  0
VERTEX
  8
LAYER-1
 10
2.984262
 20
0.340866
 30
0.000000
  0
SEQEND
  8
LAYER-1
  0
POLYLINE
  8
LAYER-1
 66
  1
 70
  0
 62
  0
 10
3.031725
 20
0.419968
 30
0.000000
  0
VERTEX
  8
LAYER-1
 10
3.031725
 20
0.419968
 30
0.000000
  0
VERTEX
  8
LAYER-1
 10
2.996130
 20
0.419968
 30
0.000000
  0
SEQEND
  8
LAYER-1
  0
POLYLINE
  8
LAYER-1
 66
  1
 70
  0
 62
  0
 10
3.031725
 20
0.548874
 30
0.000000
  0
VERTEX
  8
LAYER-1
 10
3.031725
 20
0.548874
 30
0.000000
  0
VERTEX
  8
LAYER-1
 10
2.996130
 20
0.548874
 30
0.000000
  0
SEQEND
  8
LAYER-1
  0
POLYLINE
  8
LAYER-1
 66
  1
 70
  0
 62
  0
 10
2.996130
 20
0.623858
 30
0.000000
  0
VERTEX
  8
LAYER-1
 10
2.996130
 20
0.623858
 30
0.000000
  0
VERTEX
  8
LAYER-1
 10
3.031725
 20
0.623858
 30
0.000000
  0
SEQEND
  8
LAYER-1
  0
POLYLINE
  8
LAYER-1
 66
  1
 70
  0
 62
  0
 10
2.996130
 20
1.470538
 30
0.000000
  0
VERTEX
  8
LAYER-1
 10
2.996130
 20
1.470538
 30
0.000000
  0
VERTEX
  8
LAYER-1
 10
3.031725
 20
1.470538
 30
0.000000
  0
SEQEND
  8
LAYER-1
  0
POLYLINE
  8
LAYER-1
 66
  1
 70
  0
 62
  0
 10
2.996130
 20
2.308427
 30
0.000000
  0
VERTEX
  8
LAYER-1
 10
2.996130
 20
2.308427
 30
0.000000
  0
VERTEX
  8
LAYER-1
 10
3.031725
 20
2.308427
 30
0.000000
  0
SEQEND
  8
LAYER-1
  0
POLYLINE
  8
LAYER-1
 66
  1
 70
  0
 62
  0
 10
2.996130
 20
3.158029
 30
0.000000
  0
VERTEX
  8
LAYER-1
 10
2.996130
 20
3.158029
 30
0.000000
  0
VERTEX
  8
LAYER-1
 10
3.031725
 20
3.158029
 30
0.000000
  0
SEQEND
  8
LAYER-1
  0
POLYLINE
  8
LAYER-1
 66
  1
 70
  0
 62
  0
 10
3.031725
 20
4.000315
 30
0.000000
  0
VERTEX
  8
LAYER-1
 10
3.031725
 20
4.000315
 30
0.000000
  0
VERTEX
  8
LAYER-1
 10
2.996130
 20
4.000315
 30
0.000000
  0
SEQEND
  8
LAYER-1
  0
POLYLINE
  8
LAYER-1
 66
  1
 70
  0
 62
  0
 10
2.178083
 20
4.851316
 30
0.000000
  0
VERTEX
  8
LAYER-1
 10
2.178083
 20
4.851316
 30
0.000000
  0
VERTEX
  8
LAYER-1
 10
2.213679
 20
4.851316
 30
0.000000
  0
SEQEND
  8
LAYER-1
  0
POLYLINE
  8
LAYER-1
 66
  1
 70
  0
 62
  0
 10
2.178083
 20
5.695065
 30
0.000000
  0
VERTEX
  8
LAYER-1
 10
2.178083
 20
5.695065
 30
0.000000
  0
VERTEX
  8
LAYER-1
 10
2.213679
 20
5.695065
 30
0.000000
  0
SEQEND
  8
LAYER-1
  0
POLYLINE
  8
LAYER-1
 66
  1
 70
  0
 62
  0
 10
2.178083
 20
6.540284
 30
0.000000
  0
VERTEX
  8
LAYER-1
 10
2.178083
 20
6.540284
 30
0.000000
  0
VERTEX
  8
LAYER-1
 10
2.213679
 20
6.540284
 30
0.000000
  0
SEQEND
  8
LAYER-1
  0
POLYLINE
  8
LAYER-1
 66
  1
 70
  0
 62
  0
 10
2.995953
 20
6.540284
 30
0.000000
  0
VERTEX
  8
LAYER-1
 10
2.995953
 20
6.540284
 30
0.000000
  0
VERTEX
  8
LAYER-1
 10
3.031548
 20
6.540284
 30
0.000000
  0
SEQEND
  8
LAYER-1
  0
POLYLINE
  8
LAYER-1
 66
  1
 70
  0
 62
  0
 10
3.644087
 20
6.540208
 30
0.000000
  0
VERTEX
  8
LAYER-1
 10
3.644087
 20
6.540208
 30
0.000000
  0
VERTEX
  8
LAYER-1
 10
3.679681
 20
6.540208
 30
0.000000
  0
SEQEND
  8
LAYER-1
  0
POLYLINE
  8
LAYER-1
 66
  1
 70
  0
 62
  0
 10
5.350243
 20
6.540284
 30
0.000000
  0
VERTEX
  8
LAYER-1
 10
5.350243
 20
6.540284
 30
0.000000
  0
VERTEX
  8
LAYER-1
 10
5.314648
 20
6.540284
 30
0.000000
  0
SEQEND
  8
LAYER-1
  0
POLYLINE
  8
LAYER-1
 66
  1
 70
  0
 62
  0
 10
4.532368
 20
6.540284
 30
0.000000
  0
VERTEX
  8
LAYER-1
 10
4.532368
 20
6.540284
 30
0.000000
  0
VERTEX
  8
LAYER-1
 10
4.496777
 20
6.540284
 30
0.000000
  0
SEQEND
  8
LAYER-1
  0
POLYLINE
  8
LAYER-1
 66
  1
 70
  0
 62
  0
 10
3.884230
 20
6.540208
 30
0.000000
  0
VERTEX
  8
LAYER-1
 10
3.884230
 20
6.540208
 30
0.000000
  0
VERTEX
  8
LAYER-1
 10
3.848638
 20
6.540208
 30
0.000000
  0
SEQEND
  8
LAYER-1
  0
POLYLINE
  8
LAYER-1
 66
  1
 70
  0
 62
  0
 10
2.995953
 20
4.851316
 30
0.000000
  0
VERTEX
  8
LAYER-1
 10
2.995953
 20
4.851316
 30
0.000000
  0
VERTEX
  8
LAYER-1
 10
3.031548
 20
4.851316
 30
0.000000
  0
SEQEND
  8
LAYER-1
  0
POLYLINE
  8
LAYER-1
 66
  1
 70
  0
 62
  0
 10
2.995953
 20
5.695065
 30
0.000000
  0
VERTEX
  8
LAYER-1
 10
2.995953
 20
5.695065
 30
0.000000
  0
VERTEX
  8
LAYER-1
 10
3.031548
 20
5.695065
 30
0.000000
  0
SEQEND
  8
LAYER-1
  0
POLYLINE
  8
LAYER-1
 66
  1
 70
  1
 62
  0
  0
VERTEX
  8
LAYER-1
 10
3.633881
 20
7.419300
 30
0.000000
  0
VERTEX
  8
LAYER-1
 10
3.688758
 20
7.419300
 30
0.000000
  0
VERTEX
  8
LAYER-1
 10
3.688758
 20
7.413439
 30
0.000000
  0
VERTEX
  8
LAYER-1
 10
3.633881
 20
7.413439
 30
0.000000
  0
SEQEND
  8
LAYER-1
  0
POLYLINE
  8
LAYER-1
 66
  1
 70
  0
 62
  0
 10
3.644264
 20
7.346057
 30
0.000000
  0
VERTEX
  8
LAYER-1
 10
3.644264
 20
7.346057
 30
0.000000
  0
VERTEX
  8
LAYER-1
 10
3.679858
 20
7.346057
 30
0.000000
  0
SEQEND
  8
LAYER-1
  0
POLYLINE
  8
LAYER-1
 66
  1
 70
  0
 62
  0
 10
3.644264
 20
7.217150
 30
0.000000
  0
VERTEX
  8
LAYER-1
 10
3.644264
 20
7.217150
 30
0.000000
  0
VERTEX
  8
LAYER-1
 10
3.679858
 20
7.217150
 30
0.000000
  0
SEQEND
  8
LAYER-1
  0
POLYLINE
  8
LAYER-1
 66
  1
 70
  0
 62
  0
 10
3.644264
 20
7.413365
 30
0.000000
  0
VERTEX
  8
LAYER-1
 10
3.644264
 20
7.413365
 30
0.000000
  0
VERTEX
  8
LAYER-1
 10
3.644264
 20
0.346650
 30
0.000000
  0
SEQEND
  8
LAYER-1
  0
POLYLINE
  8
LAYER-1
 66
  1
 70
  0
 62
  0
 10
3.679858
 20
0.419891
 30
0.000000
  0
VERTEX
  8
LAYER-1
 10
3.679858
 20
0.419891
 30
0.000000
  0
VERTEX
  8
LAYER-1
 10
3.644264
 20
0.419891
 30
0.000000
  0
SEQEND
  8
LAYER-1
  0
POLYLINE
  8
LAYER-1
 66
  1
 70
  0
 62
  0
 10
3.679858
 20
0.548797
 30
0.000000
  0
VERTEX
  8
LAYER-1
 10
3.679858
 20
0.548797
 30
0.000000
  0
VERTEX
  8
LAYER-1
 10
3.644264
 20
0.548797
 30
0.000000
  0
SEQEND
  8
LAYER-1
  0
POLYLINE
  8
LAYER-1
 66
  1
 70
  0
 62
  0
 10
3.644264
 20
0.623779
 30
0.000000
  0
VERTEX
  8
LAYER-1
 10
3.644264
 20
0.623779
 30
0.000000
  0
VERTEX
  8
LAYER-1
 10
3.679860
 20
0.623779
 30
0.000000
  0
SEQEND
  8
LAYER-1
  0
POLYLINE
  8
LAYER-1
 66
  1
 70
  0
 62
  0
 10
3.644264
 20
1.470462
 30
0.000000
  0
VERTEX
  8
LAYER-1
 10
3.644264
 20
1.470462
 30
0.000000
  0
VERTEX
  8
LAYER-1
 10
3.679860
 20
1.470462
 30
0.000000
  0
SEQEND
  8
LAYER-1
  0
POLYLINE
  8
LAYER-1
 66
  1
 70
  0
 62
  0
 10
3.644264
 20
2.308350
 30
0.000000
  0
VERTEX
  8
LAYER-1
 10
3.644264
 20
2.308350
 30
0.000000
  0
VERTEX
  8
LAYER-1
 10
3.679860
 20
2.308350
 30
0.000000
  0
SEQEND
  8
LAYER-1
  0
POLYLINE
  8
LAYER-1
 66
  1
 70
  0
 62
  0
 10
3.644264
 20
3.157954
 30
0.000000
  0
VERTEX
  8
LAYER-1
 10
3.644264
 20
3.157954
 30
0.000000
  0
VERTEX
  8
LAYER-1
 10
3.679860
 20
3.157954
 30
0.000000
  0
SEQEND
  8
LAYER-1
  0
POLYLINE
  8
LAYER-1
 66
  1
 70
  0
 62
  0
 10
3.679860
 20
4.000239
 30
0.000000
  0
VERTEX
  8
LAYER-1
 10
3.679860
 20
4.000239
 30
0.000000
  0
VERTEX
  8
LAYER-1
 10
3.644264
 20
4.000239
 30
0.000000
  0
SEQEND
  8
LAYER-1
  0
POLYLINE
  8
LAYER-1
 66
  1
 70
  0
 62
  0
 10
3.644087
 20
4.851240
 30
0.000000
  0
VERTEX
  8
LAYER-1
 10
3.644087
 20
4.851240
 30
0.000000
  0
VERTEX
  8
LAYER-1
 10
3.679681
 20
4.851240
 30
0.000000
  0
SEQEND
  8
LAYER-1
  0
POLYLINE
  8
LAYER-1
 66
  1
 70
  0
 62
  0
 10
3.644087
 20
5.694989
 30
0.000000
  0
VERTEX
  8
LAYER-1
 10
3.644087
 20
5.694989
 30
0.000000
  0
VERTEX
  8
LAYER-1
 10
3.679681
 20
5.694989
 30
0.000000
  0
SEQEND
  8
LAYER-1
  0
POLYLINE
  8
LAYER-1
 66
  1
 70
  1
 62
  0
  0
VERTEX
  8
LAYER-1
 10
3.632401
 20
0.346650
 30
0.000000
  0
VERTEX
  8
LAYER-1
 10
3.687275
 20
0.346650
 30
0.000000
  0
VERTEX
  8
LAYER-1
 10
3.687275
 20
0.340791
 30
0.000000
  0
VERTEX
  8
LAYER-1
 10
3.632401
 20
0.340791
 30
0.000000
  0
SEQEND
  8
LAYER-1
  0
POLYLINE
  8
LAYER-1
 66
  1
 70
  1
 62
  0
  0
VERTEX
  8
LAYER-1
 10
3.678791
 20
7.413441
 30
0.000000
  0
VERTEX
  8
LAYER-1
 10
3.848465
 20
7.413441
 30
0.000000
  0
VERTEX
  8
LAYER-1
 10
3.848465
 20
0.346458
 30
0.000000
  0
VERTEX
  8
LAYER-1
 10
3.678791
 20
0.346458
 30
0.000000
  0
SEQEND
  8
LAYER-1
  0
POLYLINE
  8
LAYER-1
 66
  1
 70
  1
 62
  0
  0
VERTEX
  8
LAYER-1
 10
5.376286
 20
7.413440
 30
0.000000
  0
VERTEX
  8
LAYER-1
 10
5.700918
 20
7.413440
 30
0.000000
  0
VERTEX
  8
LAYER-1
 10
5.700918
 20
7.143441
 30
0.000000
  0
VERTEX
  8
LAYER-1
 10
5.376286
 20
7.143441
 30
0.000000
  0
SEQEND
  8
LAYER-1
  0
POLYLINE
  8
LAYER-1
 66
  1
 70
  1
 62
  0
  0
VERTEX
  8
LAYER-1
 10
4.556162
 20
7.413440
 30
0.000000
  0
VERTEX
  8
LAYER-1
 10
4.880793
 20
7.413440
 30
0.000000
  0
VERTEX
  8
LAYER-1
 10
4.880793
 20
7.143441
 30
0.000000
  0
VERTEX
  8
LAYER-1
 10
4.556162
 20
7.143441
 30
0.000000
  0
SEQEND
  8
LAYER-1
  0
POLYLINE
  8
LAYER-1
 66
  1
 70
  0
 62
  0
 10
4.733902
 20
7.413515
 30
0.000000
  0
VERTEX
  8
LAYER-1
 10
4.733902
 20
7.413515
 30
0.000000
  0
VERTEX
  8
LAYER-1
 10
4.733902
 20
7.143984
 30
0.000000
  0
SEQEND
  8
LAYER-1
  0
POLYLINE
  8
LAYER-1
 66
  1
 70
  0
 62
  0
 10
4.696826
 20
7.413515
 30
0.000000
  0
VERTEX
  8
LAYER-1
 10
4.696826
 20
7.413515
 30
0.000000
  0
VERTEX
  8
LAYER-1
 10
4.696826
 20
7.143984
 30
0.000000
  0
SEQEND
  8
LAYER-1
  0
POLYLINE
  8
LAYER-1
 66
  1
 70
  0
 62
  0
 10
5.555570
 20
7.413515
 30
0.000000
  0
VERTEX
  8
LAYER-1
 10
5.555570
 20
7.413515
 30
0.000000
  0
VERTEX
  8
LAYER-1
 10
5.555570
 20
7.143984
 30
0.000000
  0
SEQEND
  8
LAYER-1
  0
POLYLINE
  8
LAYER-1
 66
  1
 70
  0
 62
  0
 10
5.517009
 20
7.413515
 30
0.000000
  0
VERTEX
  8
LAYER-1
 10
5.517009
 20
7.413515
 30
0.000000
  0
VERTEX
  8
LAYER-1
 10
5.517009
 20
7.143984
 30
0.000000
  0
SEQEND
  8
LAYER-1
  0
POLYLINE
  8
LAYER-1
 66
  1
 70
  1
 62
  0
  0
VERTEX
  8
LAYER-1
 10
5.304916
 20
7.419376
 30
0.000000
  0
VERTEX
  8
LAYER-1
 10
5.359791
 20
7.419376
 30
0.000000
  0
VERTEX
  8
LAYER-1
 10
5.359791
 20
7.413515
 30
0.000000
  0
VERTEX
  8
LAYER-1
 10
5.304916
 20
7.413515
 30
0.000000
  0
SEQEND
  8
LAYER-1
  0
POLYLINE
  8
LAYER-1
 66
  1
 70
  0
 62
  0
 10
5.350897
 20
7.346133
 30
0.000000
  0
VERTEX
  8
LAYER-1
 10
5.350897
 20
7.346133
 30
0.000000
  0
VERTEX
  8
LAYER-1
 10
5.315299
 20
7.346133
 30
0.000000
  0
SEQEND
  8
LAYER-1
  0
POLYLINE
  8
LAYER-1
 66
  1
 70
  0
 62
  0
 10
5.350897
 20
7.217228
 30
0.000000
  0
VERTEX
  8
LAYER-1
 10
5.350897
 20
7.217228
 30
0.000000
  0
VERTEX
  8
LAYER-1
 10
5.315299
 20
7.217228
 30
0.000000
  0
SEQEND
  8
LAYER-1
  0
POLYLINE
  8
LAYER-1
 66
  1
 70
  1
 62
  0
  0
VERTEX
  8
LAYER-1
 10
4.487698
 20
7.419376
 30
0.000000
  0
VERTEX
  8
LAYER-1
 10
4.542577
 20
7.419376
 30
0.000000
  0
VERTEX
  8
LAYER-1
 10
4.542577
 20
7.413515
 30
0.000000
  0
VERTEX
  8
LAYER-1
 10
4.487698
 20
7.413515
 30
0.000000
  0
SEQEND
  8
LAYER-1
  0
POLYLINE
  8
LAYER-1
 66
  1
 70
  0
 62
  0
 10
4.532191
 20
7.346133
 30
0.000000
  0
VERTEX
  8
LAYER-1
 10
4.532191
 20
7.346133
 30
0.000000
  0
VERTEX
  8
LAYER-1
 10
4.496600
 20
7.346133
 30
0.000000
  0
SEQEND
  8
LAYER-1
  0
POLYLINE
  8
LAYER-1
 66
  1
 70
  0
 62
  0
 10
4.532191
 20
7.217226
 30
0.000000
  0
VERTEX
  8
LAYER-1
 10
4.532191
 20
7.217226
 30
0.000000
  0
VERTEX
  8
LAYER-1
 10
4.496600
 20
7.217226
 30
0.000000
  0
SEQEND
  8
LAYER-1
  0
POLYLINE
  8
LAYER-1
 66
  1
 70
  0
 62
  0
 10
5.700918
 20
7.413440
 30
0.000000
  0
VERTEX
  8
LAYER-1
 10
5.700918
 20
7.413440
 30
0.000000
  0
VERTEX
  8
LAYER-1
 10
5.700918
 20
0.346650
 30
0.000000
  0
SEQEND
  8
LAYER-1
  0
POLYLINE
  8
LAYER-1
 66
  1
 70
  0
 62
  0
 10
5.376286
 20
7.413440
 30
0.000000
  0
VERTEX
  8
LAYER-1
 10
5.376286
 20
7.413440
 30
0.000000
  0
VERTEX
  8
LAYER-1
 10
5.376286
 20
0.346650
 30
0.000000
  0
SEQEND
  8
LAYER-1
  0
POLYLINE
  8
LAYER-1
 66
  1
 70
  0
 62
  0
 10
5.290855
 20
7.413440
 30
0.000000
  0
VERTEX
  8
LAYER-1
 10
5.290855
 20
7.413440
 30
0.000000
  0
VERTEX
  8
LAYER-1
 10
5.290855
 20
0.346650
 30
0.000000
  0
SEQEND
  8
LAYER-1
  0
POLYLINE
  8
LAYER-1
 66
  1
 70
  0
 62
  0
 10
5.350897
 20
7.413440
 30
0.000000
  0
VERTEX
  8
LAYER-1
 10
5.350897
 20
7.413440
 30
0.000000
  0
VERTEX
  8
LAYER-1
 10
5.350897
 20
0.346650
 30
0.000000
  0
SEQEND
  8
LAYER-1
  0
POLYLINE
  8
LAYER-1
 66
  1
 70
  0
 62
  0
 10
5.315299
 20
7.413440
 30
0.000000
  0
VERTEX
  8
LAYER-1
 10
5.315299
 20
7.413440
 30
0.000000
  0
VERTEX
  8
LAYER-1
 10
5.315299
 20
0.346650
 30
0.000000
  0
SEQEND
  8
LAYER-1
  0
POLYLINE
  8
LAYER-1
 66
  1
 70
  1
 62
  0
  0
VERTEX
  8
LAYER-1
 10
5.306401
 20
0.346725
 30
0.000000
  0
VERTEX
  8
LAYER-1
 10
5.361276
 20
0.346725
 30
0.000000
  0
VERTEX
  8
LAYER-1
 10
5.361276
 20
0.340866
 30
0.000000
  0
VERTEX
  8
LAYER-1
 10
5.306401
 20
0.340866
 30
0.000000
  0
SEQEND
  8
LAYER-1
  0
POLYLINE
  8
LAYER-1
 66
  1
 70
  0
 62
  0
 10
5.315299
 20
0.419968
 30
0.000000
  0
VERTEX
  8
LAYER-1
 10
5.315299
 20
0.419968
 30
0.000000
  0
VERTEX
  8
LAYER-1
 10
5.350897
 20
0.419968
 30
0.000000
  0
SEQEND
  8
LAYER-1
  0
POLYLINE
  8
LAYER-1
 66
  1
 70
  0
 62
  0
 10
5.315299
 20
0.548874
 30
0.000000
  0
VERTEX
  8
LAYER-1
 10
5.315299
 20
0.548874
 30
0.000000
  0
VERTEX
  8
LAYER-1
 10
5.350897
 20
0.548874
 30
0.000000
  0
SEQEND
  8
LAYER-1
  0
POLYLINE
  8
LAYER-1
 66
  1
 70
  0
 62
  0
 10
5.350897
 20
0.623858
 30
0.000000
  0
VERTEX
  8
LAYER-1
 10
5.350897
 20
0.623858
 30
0.000000
  0
VERTEX
  8
LAYER-1
 10
5.315299
 20
0.623858
 30
0.000000
  0
SEQEND
  8
LAYER-1
  0
POLYLINE
  8
LAYER-1
 66
  1
 70
  0
 62
  0
 10
5.350897
 20
1.470538
 30
0.000000
  0
VERTEX
  8
LAYER-1
 10
5.350897
 20
1.470538
 30
0.000000
  0
VERTEX
  8
LAYER-1
 10
5.315299
 20
1.470538
 30
0.000000
  0
SEQEND
  8
LAYER-1
  0
POLYLINE
  8
LAYER-1
 66
  1
 70
  0
 62
  0
 10
5.350897
 20
2.308427
 30
0.000000
  0
VERTEX
  8
LAYER-1
 10
5.350897
 20
2.308427
 30
0.000000
  0
VERTEX
  8
LAYER-1
 10
5.315299
 20
2.308427
 30
0.000000
  0
SEQEND
  8
LAYER-1
  0
POLYLINE
  8
LAYER-1
 66
  1
 70
  0
 62
  0
 10
5.350897
 20
3.158029
 30
0.000000
  0
VERTEX
  8
LAYER-1
 10
5.350897
 20
3.158029
 30
0.000000
  0
VERTEX
  8
LAYER-1
 10
5.315299
 20
3.158029
 30
0.000000
  0
SEQEND
  8
LAYER-1
  0
POLYLINE
  8
LAYER-1
 66
  1
 70
  0
 62
  0
 10
5.315299
 20
4.000315
 30
0.000000
  0
VERTEX
  8
LAYER-1
 10
5.315299
 20
4.000315
 30
0.000000
  0
VERTEX
  8
LAYER-1
 10
5.350897
 20
4.000315
 30
0.000000
  0
SEQEND
  8
LAYER-1
  0
POLYLINE
  8
LAYER-1
 66
  1
 70
  0
 62
  0
 10
4.966223
 20
7.413440
 30
0.000000
  0
VERTEX
  8
LAYER-1
 10
4.966223
 20
7.413440
 30
0.000000
  0
VERTEX
  8
LAYER-1
 10
4.966223
 20
0.346650
 30
0.000000
  0
SEQEND
  8
LAYER-1
  0
POLYLINE
  8
LAYER-1
 66
  1
 70
  0
 62
  0
 10
4.880793
 20
7.413440
 30
0.000000
  0
VERTEX
  8
LAYER-1
 10
4.880793
 20
7.413440
 30
0.000000
  0
VERTEX
  8
LAYER-1
 10
4.880793
 20
0.346650
 30
0.000000
  0
SEQEND
  8
LAYER-1
  0
POLYLINE
  8
LAYER-1
 66
  1
 70
  0
 62
  0
 10
4.556162
 20
7.413440
 30
0.000000
  0
VERTEX
  8
LAYER-1
 10
4.556162
 20
7.413440
 30
0.000000
  0
VERTEX
  8
LAYER-1
 10
4.556162
 20
0.346650
 30
0.000000
  0
SEQEND
  8
LAYER-1
  0
POLYLINE
  8
LAYER-1
 66
  1
 70
  0
 62
  0
 10
4.470730
 20
7.413440
 30
0.000000
  0
VERTEX
  8
LAYER-1
 10
4.470730
 20
7.413440
 30
0.000000
  0
VERTEX
  8
LAYER-1
 10
4.470730
 20
0.346650
 30
0.000000
  0
SEQEND
  8
LAYER-1
  0
POLYLINE
  8
LAYER-1
 66
  1
 70
  0
 62
  0
 10
4.146100
 20
7.413440
 30
0.000000
  0
VERTEX
  8
LAYER-1
 10
4.146100
 20
7.413440
 30
0.000000
  0
VERTEX
  8
LAYER-1
 10
4.146100
 20
0.346650
 30
0.000000
  0
SEQEND
  8
LAYER-1
  0
POLYLINE
  8
LAYER-1
 66
  1
 70
  0
 62
  0
 10
4.063516
 20
7.413440
 30
0.000000
  0
VERTEX
  8
LAYER-1
 10
4.063516
 20
7.413440
 30
0.000000
  0
VERTEX
  8
LAYER-1
 10
4.063516
 20
0.346650
 30
0.000000
  0
SEQEND
  8
LAYER-1
  0
POLYLINE
  8
LAYER-1
 66
  1
 70
  0
 62
  0
 10
5.736515
 20
7.413440
 30
0.000000
  0
VERTEX
  8
LAYER-1
 10
5.736515
 20
7.413440
 30
0.000000
  0
VERTEX
  8
LAYER-1
 10
5.736515
 20
0.346650
 30
0.000000
  0
SEQEND
  8
LAYER-1
  0
POLYLINE
  8
LAYER-1
 66
  1
 70
  0
 62
  0
 10
4.923748
 20
7.413440
 30
0.000000
  0
VERTEX
  8
LAYER-1
 10
4.923748
 20
7.413440
 30
0.000000
  0
VERTEX
  8
LAYER-1
 10
4.923748
 20
0.346650
 30
0.000000
  0
SEQEND
  8
LAYER-1
  0
POLYLINE
  8
LAYER-1
 66
  1
 70
  0
 62
  0
 10
4.532191
 20
7.413440
 30
0.000000
  0
VERTEX
  8
LAYER-1
 10
4.532191
 20
7.413440
 30
0.000000
  0
VERTEX
  8
LAYER-1
 10
4.532191
 20
0.346650
 30
0.000000
  0
SEQEND
  8
LAYER-1
  0
POLYLINE
  8
LAYER-1
 66
  1
 70
  0
 62
  0
 10
4.496600
 20
7.413440
 30
0.000000
  0
VERTEX
  8
LAYER-1
 10
4.496600
 20
7.413440
 30
0.000000
  0
VERTEX
  8
LAYER-1
 10
4.496600
 20
0.346650
 30
0.000000
  0
SEQEND
  8
LAYER-1
  0
POLYLINE
  8
LAYER-1
 66
  1
 70
  0
 62
  0
 10
4.105042
 20
7.413440
 30
0.000000
  0
VERTEX
  8
LAYER-1
 10
4.105042
 20
7.413440
 30
0.000000
  0
VERTEX
  8
LAYER-1
 10
4.105042
 20
0.346650
 30
0.000000
  0
SEQEND
  8
LAYER-1
  0
POLYLINE
  8
LAYER-1
 66
  1
 70
  1
 62
  0
  0
VERTEX
  8
LAYER-1
 10
4.489183
 20
0.346725
 30
0.000000
  0
VERTEX
  8
LAYER-1
 10
4.544061
 20
0.346725
 30
0.000000
  0
VERTEX
  8
LAYER-1
 10
4.544061
 20
0.340866
 30
0.000000
  0
VERTEX
  8
LAYER-1
 10
4.489183
 20
0.340866
 30
0.000000
  0
SEQEND
  8
LAYER-1
  0
POLYLINE
  8
LAYER-1
 66
  1
 70
  0
 62
  0
 10
4.496600
 20
0.419968
 30
0.000000
  0
VERTEX
  8
LAYER-1
 10
4.496600
 20
0.419968
 30
0.000000
  0
VERTEX
  8
LAYER-1
 10
4.532191
 20
0.419968
 30
0.000000
  0
SEQEND
  8
LAYER-1
  0
POLYLINE
  8
LAYER-1
 66
  1
 70
  0
 62
  0
 10
4.496600
 20
0.548874
 30
0.000000
  0
VERTEX
  8
LAYER-1
 10
4.496600
 20
0.548874
 30
0.000000
  0
VERTEX
  8
LAYER-1
 10
4.532191
 20
0.548874
 30
0.000000
  0
SEQEND
  8
LAYER-1
  0
POLYLINE
  8
LAYER-1
 66
  1
 70
  0
 62
  0
 10
4.532191
 20
0.623858
 30
0.000000
  0
VERTEX
  8
LAYER-1
 10
4.532191
 20
0.623858
 30
0.000000
  0
VERTEX
  8
LAYER-1
 10
4.496600
 20
0.623858
 30
0.000000
  0
SEQEND
  8
LAYER-1
  0
POLYLINE
  8
LAYER-1
 66
  1
 70
  0
 62
  0
 10
4.532191
 20
1.470538
 30
0.000000
  0
VERTEX
  8
LAYER-1
 10
4.532191
 20
1.470538
 30
0.000000
  0
VERTEX
  8
LAYER-1
 10
4.496600
 20
1.470538
 30
0.000000
  0
SEQEND
  8
LAYER-1
  0
POLYLINE
  8
LAYER-1
 66
  1
 70
  0
 62
  0
 10
4.532191
 20
2.308427
 30
0.000000
  0
VERTEX
  8
LAYER-1
 10
4.532191
 20
2.308427
 30
0.000000
  0
VERTEX
  8
LAYER-1
 10
4.496600
 20
2.308427
 30
0.000000
  0
SEQEND
  8
LAYER-1
  0
POLYLINE
  8
LAYER-1
 66
  1
 70
  0
 62
  0
 10
4.532191
 20
3.158029
 30
0.000000
  0
VERTEX
  8
LAYER-1
 10
4.532191
 20
3.158029
 30
0.000000
  0
VERTEX
  8
LAYER-1
 10
4.496600
 20
3.158029
 30
0.000000
  0
SEQEND
  8
LAYER-1
  0
POLYLINE
  8
LAYER-1
 66
  1
 70
  0
 62
  0
 10
4.496600
 20
4.000315
 30
0.000000
  0
VERTEX
  8
LAYER-1
 10
4.496600
 20
4.000315
 30
0.000000
  0
VERTEX
  8
LAYER-1
 10
4.532191
 20
4.000315
 30
0.000000
  0
SEQEND
  8
LAYER-1
  0
POLYLINE
  8
LAYER-1
 66
  1
 70
  0
 62
  0
 10
5.350243
 20
4.851316
 30
0.000000
  0
VERTEX
  8
LAYER-1
 10
5.350243
 20
4.851316
 30
0.000000
  0
VERTEX
  8
LAYER-1
 10
5.314648
 20
4.851316
 30
0.000000
  0
SEQEND
  8
LAYER-1
  0
POLYLINE
  8
LAYER-1
 66
  1
 70
  0
 62
  0
 10
5.350243
 20
5.695065
 30
0.000000
  0
VERTEX
  8
LAYER-1
 10
5.350243
 20
5.695065
 30
0.000000
  0
VERTEX
  8
LAYER-1
 10
5.314648
 20
5.695065
 30
0.000000
  0
SEQEND
  8
LAYER-1
  0
POLYLINE
  8
LAYER-1
 66
  1
 70
  0
 62
  0
 10
4.532368
 20
4.851316
 30
0.000000
  0
VERTEX
  8
LAYER-1
 10
4.532368
 20
4.851316
 30
0.000000
  0
VERTEX
  8
LAYER-1
 10
4.496777
 20
4.851316
 30
0.000000
  0
SEQEND
  8
LAYER-1
  0
POLYLINE
  8
LAYER-1
 66
  1
 70
  0
 62
  0
 10
4.532368
 20
5.695065
 30
0.000000
  0
VERTEX
  8
LAYER-1
 10
4.532368
 20
5.695065
 30
0.000000
  0
VERTEX
  8
LAYER-1
 10
4.496777
 20
5.695065
 30
0.000000
  0
SEQEND
  8
LAYER-1
  0
POLYLINE
  8
LAYER-1
 66
  1
 70
  1
 62
  0
  0
VERTEX
  8
LAYER-1
 10
3.839560
 20
7.419300
 30
0.000000
  0
VERTEX
  8
LAYER-1
 10
3.894437
 20
7.419300
 30
0.000000
  0
VERTEX
  8
LAYER-1
 10
3.894437
 20
7.413439
 30
0.000000
  0
VERTEX
  8
LAYER-1
 10
3.839560
 20
7.413439
 30
0.000000
  0
SEQEND
  8
LAYER-1
  0
POLYLINE
  8
LAYER-1
 66
  1
 70
  0
 62
  0
 10
3.884052
 20
7.346056
 30
0.000000
  0
VERTEX
  8
LAYER-1
 10
3.884052
 20
7.346056
 30
0.000000
  0
VERTEX
  8
LAYER-1
 10
3.848461
 20
7.346056
 30
0.000000
  0
SEQEND
  8
LAYER-1
  0
POLYLINE
  8
LAYER-1
 66
  1
 70
  0
 62
  0
 10
3.884052
 20
7.217150
 30
0.000000
  0
VERTEX
  8
LAYER-1
 10
3.884052
 20
7.217150
 30
0.000000
  0
VERTEX
  8
LAYER-1
 10
3.848461
 20
7.217150
 30
0.000000
  0
SEQEND
  8
LAYER-1
  0
POLYLINE
  8
LAYER-1
 66
  1
 70
  0
 62
  0
 10
3.884052
 20
7.413364
 30
0.000000
  0
VERTEX
  8
LAYER-1
 10
3.884052
 20
7.413364
 30
0.000000
  0
VERTEX
  8
LAYER-1
 10
3.884052
 20
0.346650
 30
0.000000
  0
SEQEND
  8
LAYER-1
  0
POLYLINE
  8
LAYER-1
 66
  1
 70
  0
 62
  0
 10
3.848461
 20
0.419891
 30
0.000000
  0
VERTEX
  8
LAYER-1
 10
3.848461
 20
0.419891
 30
0.000000
  0
VERTEX
  8
LAYER-1
 10
3.884052
 20
0.419891
 30
0.000000
  0
SEQEND
  8
LAYER-1
  0
POLYLINE
  8
LAYER-1
 66
  1
 70
  0
 62
  0
 10
3.848461
 20
0.548797
 30
0.000000
  0
VERTEX
  8
LAYER-1
 10
3.848461
 20
0.548797
 30
0.000000
  0
VERTEX
  8
LAYER-1
 10
3.884052
 20
0.548797
 30
0.000000
  0
SEQEND
  8
LAYER-1
  0
POLYLINE
  8
LAYER-1
 66
  1
 70
  0
 62
  0
 10
3.884052
 20
0.623779
 30
0.000000
  0
VERTEX
  8
LAYER-1
 10
3.884052
 20
0.623779
 30
0.000000
  0
VERTEX
  8
LAYER-1
 10
3.848458
 20
0.623779
 30
0.000000
  0
SEQEND
  8
LAYER-1
  0
POLYLINE
  8
LAYER-1
 66
  1
 70
  0
 62
  0
 10
3.884052
 20
1.470462
 30
0.000000
  0
VERTEX
  8
LAYER-1
 10
3.884052
 20
1.470462
 30
0.000000
  0
VERTEX
  8
LAYER-1
 10
3.848458
 20
1.470462
 30
0.000000
  0
SEQEND
  8
LAYER-1
  0
POLYLINE
  8
LAYER-1
 66
  1
 70
  0
 62
  0
 10
3.884052
 20
2.308350
 30
0.000000
  0
VERTEX
  8
LAYER-1
 10
3.884052
 20
2.308350
 30
0.000000
  0
VERTEX
  8
LAYER-1
 10
3.848458
 20
2.308350
 30
0.000000
  0
SEQEND
  8
LAYER-1
  0
POLYLINE
  8
LAYER-1
 66
  1
 70
  0
 62
  0
 10
3.884052
 20
3.157954
 30
0.000000
  0
VERTEX
  8
LAYER-1
 10
3.884052
 20
3.157954
 30
0.000000
  0
VERTEX
  8
LAYER-1
 10
3.848458
 20
3.157954
 30
0.000000
  0
SEQEND
  8
LAYER-1
  0
POLYLINE
  8
LAYER-1
 66
  1
 70
  0
 62
  0
 10
3.848458
 20
4.000239
 30
0.000000
  0
VERTEX
  8
LAYER-1
 10
3.848458
 20
4.000239
 30
0.000000
  0
VERTEX
  8
LAYER-1
 10
3.884052
 20
4.000239
 30
0.000000
  0
SEQEND
  8
LAYER-1
  0
POLYLINE
  8
LAYER-1
 66
  1
 70
  0
 62
  0
 10
3.884230
 20
4.851240
 30
0.000000
  0
VERTEX
  8
LAYER-1
 10
3.884230
 20
4.851240
 30
0.000000
  0
VERTEX
  8
LAYER-1
 10
3.848638
 20
4.851240
 30
0.000000
  0
SEQEND
  8
LAYER-1
  0
POLYLINE
  8
LAYER-1
 66
  1
 70
  0
 62
  0
 10
3.884230
 20
5.694989
 30
0.000000
  0
VERTEX
  8
LAYER-1
 10
3.884230
 20
5.694989
 30
0.000000
  0
VERTEX
  8
LAYER-1
 10
3.848638
 20
5.694989
 30
0.000000
  0
SEQEND
  8
LAYER-1
  0
POLYLINE
  8
LAYER-1
 66
  1
 70
  1
 62
  0
  0
VERTEX
  8
LAYER-1
 10
3.841044
 20
0.346650
 30
0.000000
  0
VERTEX
  8
LAYER-1
 10
3.895916
 20
0.346650
 30
0.000000
  0
VERTEX
  8
LAYER-1
 10
3.895916
 20
0.340791
 30
0.000000
  0
VERTEX
  8
LAYER-1
 10
3.841044
 20
0.340791
 30
0.000000
  0
SEQEND
  8
LAYER-1
  0
TEXT
  8
LAYER-1
 62
  7
 10
1.986636
 20
8.770184
 30
0.000000
 40
0.187500
  1
âlÄvation modÅle Global
 72
  5
 11
4.958858
 21
8.770184
 31
0.000000
  0
LINE
  8
LAYER-1
 62
  0
 10
6.764414
 20
7.479073
 30
0.000000
 11
0.764414
 21
7.479073
 31
0.000000
  0
LINE
  8
LAYER-1
 62
  0
 10
6.764414
 20
7.589072
 30
0.000000
 11
0.764414
 21
7.589072
 31
0.000000
  0
LINE
  8
LAYER-1
 62
  0
 10
1.327783
 20
7.480579
 30
0.000000
 11
1.327783
 21
7.590558
 31
0.000000
  0
LINE
  8
LAYER-1
 62
  0
 10
1.268415
 20
7.480579
 30
0.000000
 11
1.452783
 21
7.480579
 31
0.000000
  0
LINE
  8
LAYER-1
 62
  0
 10
1.268755
 20
7.590558
 30
0.000000
 11
1.452783
 21
7.590558
 31
0.000000
  0
LINE
  8
LAYER-1
 62
  0
 10
1.327783
 20
7.590558
 30
0.000000
 11
1.327783
 21
7.225043
 31
0.000000
  0
LINE
  8
LAYER-1
 62
  0
 10
1.298320
 20
7.510042
 30
0.000000
 11
1.357246
 21
7.451116
 31
0.000000
  0
LINE
  8
LAYER-1
 62
  0
 10
1.298320
 20
7.620021
 30
0.000000
 11
1.357246
 21
7.561094
 31
0.000000
  0
TEXT
  8
LAYER-1
 62
  0
 10
1.315923
 20
7.096627
 30
0.000000
 40
0.125000
  1
 
  0
TEXT
  8
LAYER-1
 62
  0
 10
1.069969
 20
6.853517
 30
0.000000
 40
0.125000
  1
1-
 72
  5
 11
1.292191
 21
6.853517
 31
0.000000
  0
TEXT
  8
LAYER-1
 62
  0
 10
1.292191
 20
6.853517
 30
0.000000
 40
0.104167
  1
9/16
 72
  5
 11
1.653303
 21
6.853517
 31
0.000000
  0
TEXT
  8
LAYER-1
 62
  0
 10
1.653303
 20
6.853517
 30
0.000000
 40
0.125000
  1
"
 72
  5
 11
1.778303
 21
6.853517
 31
0.000000
  0
TEXT
  8
LAYER-1
 62
  0
 10
1.069969
 20
6.659073
 30
0.000000
 40
0.125000
  1
40mm
 72
  5
 11
1.639414
 21
6.659073
 31
0.000000
  0
TEXT
  8
LAYER-1
 62
  0
 10
2.306080
 20
7.909073
 30
0.000000
 40
0.125000
  1
Membre
 72
  5
 11
3.000525
 21
7.909073
 31
0.000000
  0
TEXT
  8
LAYER-1
 62
  0
 10
2.306080
 20
7.714628
 30
0.000000
 40
0.125000
  1
intermÄdiaire #4
 72
  5
 11
3.625525
 21
7.714628
 31
0.000000
  0
POLYLINE
  8
LAYER-1
 66
  1
 70
  0
 62
  0
 10
3.515282
 20
7.745877
 30
0.000000
  0
VERTEX
  8
LAYER-1
 10
3.515282
 20
7.745877
 30
0.000000
  0
VERTEX
  8
LAYER-1
 10
3.756357
 20
7.430782
 30
0.000000
  0
SEQEND
  8
LAYER-1
  0
POLYLINE
  8
LAYER-1
 66
  1
 70
  1
 62
  0
  0
VERTEX
  8
LAYER-1
 10
3.768319
 20
7.415148
 30
0.000000
  0
VERTEX
  8
LAYER-1
 10
3.693029
 20
7.444983
 30
0.000000
  0
VERTEX
  8
LAYER-1
 10
3.726121
 20
7.470301
 30
0.000000
  0
VERTEX
  8
LAYER-1
 10
3.759213
 20
7.495620
 30
0.000000
  0
VERTEX
  8
LAYER-1
 10
3.768319
 20
7.415148
 30
0.000000
  0
SEQEND
  8
LAYER-1
  0
POLYLINE
  8
LAYER-1
 66
  1
 70
  0
 62
  0
 40
0.027778
 41
0.027778
 10
3.680799
 20
0.240680
 30
0.000000
  0
VERTEX
  8
LAYER-1
 10
3.680799
 20
0.240680
 30
0.000000
  0
VERTEX
  8
LAYER-1
 10
0.764414
 20
0.240680
 30
0.000000
  0
SEQEND
  8
LAYER-1
  0
POLYLINE
  8
LAYER-1
 66
  1
 70
  0
 62
  0
 40
0.027778
 41
0.027778
 10
3.774417
 20
0.240680
 30
0.000000
  0
VERTEX
  8
LAYER-1
 10
3.774417
 20
0.240680
 30
0.000000
  0
VERTEX
  8
LAYER-1
 10
6.771358
 20
0.240680
 30
0.000000
  0
SEQEND
  8
LAYER-1
  0
POLYLINE
  8
LAYER-1
 66
  1
 70
  1
 62
  0
  0
VERTEX
  8
LAYER-1
 10
3.711181
 20
0.346458
 30
0.000000
  0
VERTEX
  8
LAYER-1
 10
3.744738
 20
0.346458
 30
0.000000
  0
VERTEX
  8
LAYER-1
 10
3.744738
 20
0.250953
 30
0.000000
  0
VERTEX
  8
LAYER-1
 10
3.711181
 20
0.250953
 30
0.000000
  0
SEQEND
  8
LAYER-1
  0
POLYLINE
  8
LAYER-1
 66
  1
 70
  0
 62
  0
 10
3.731222
 20
2.457414
 30
0.000000
  0
VERTEX
  8
LAYER-1
 10
3.731222
 20
2.457414
 30
0.000000
  0
VERTEX
  8
LAYER-1
 10
3.731222
 20
2.457414
 30
0.000000
  0
SEQEND
  8
LAYER-1
  0
POLYLINE
  8
LAYER-1
 66
  1
 70
  0
 62
  0
 10
3.739187
 20
2.449449
 30
0.000000
  0
VERTEX
  8
LAYER-1
 10
3.739187
 20
2.449449
 30
0.000000
  0
VERTEX
  8
LAYER-1
 10
3.739187
 20
2.199906
 30
0.000000
  0
SEQEND
  8
LAYER-1
  0
POLYLINE
  8
LAYER-1
 66
  1
 70
  0
 62
  0
 10
3.731222
 20
2.191942
 30
0.000000
  0
VERTEX
  8
LAYER-1
 10
3.731222
 20
2.191942
 30
0.000000
  0
VERTEX
  8
LAYER-1
 10
3.731222
 20
2.191942
 30
0.000000
  0
SEQEND
  8
LAYER-1
  0
POLYLINE
  8
LAYER-1
 66
  1
 70
  0
 62
  0
 10
3.723257
 20
2.199906
 30
0.000000
  0
VERTEX
  8
LAYER-1
 10
3.723257
 20
2.199906
 30
0.000000
  0
VERTEX
  8
LAYER-1
 10
3.723257
 20
2.449449
 30
0.000000
  0
SEQEND
  8
LAYER-1
  0
ARC
  8
LAYER-1
 62
  0
 10
3.731222
 20
2.449449
 30
0.000000
 40
0.007964
 50
270.000000
 51
0.000000
  0
ARC
  8
LAYER-1
 62
  0
 10
3.731222
 20
2.199906
 30
0.000000
 40
0.007964
 50
0.000000
 51
90.000000
  0
ARC
  8
LAYER-1
 62
  0
 10
3.731222
 20
2.199906
 30
0.000000
 40
0.007964
 50
90.000000
 51
180.000000
  0
ARC
  8
LAYER-1
 62
  0
 10
3.731222
 20
2.449449
 30
0.000000
 40
0.007964
 50
180.000000
 51
270.000000
  0
CIRCLE
  8
LAYER-1
 62
  0
 10
3.731555
 20
2.194594
 30
0.000000
 40
0.022565
  0
CIRCLE
  8
LAYER-1
 62
  0
 10
3.731555
 20
2.194594
 30
0.000000
 40
0.016522
  0
CIRCLE
  8
LAYER-1
 62
  0
 10
3.731555
 20
2.194594
 30
0.000000
 40
0.013746
  0
CIRCLE
  8
LAYER-1
 62
  0
 10
3.731555
 20
2.194594
 30
0.000000
 40
0.008860
  0
POLYLINE
  8
LAYER-1
 66
  1
 70
  0
 62
  0
 10
3.681277
 20
0.243292
 30
0.000000
  0
VERTEX
  8
LAYER-1
 10
3.681277
 20
0.243292
 30
0.000000
  0
VERTEX
  8
LAYER-1
 10
3.694055
 20
0.250857
 30
0.000000
  0
SEQEND
  8
LAYER-1
  0
POLYLINE
  8
LAYER-1
 66
  1
 70
  0
 62
  0
 10
3.681277
 20
0.243292
 30
0.000000
  0
VERTEX
  8
LAYER-1
 10
3.681277
 20
0.243292
 30
0.000000
  0
VERTEX
  8
LAYER-1
 10
3.681277
 20
0.241727
 30
0.000000
  0
SEQEND
  8
LAYER-1
  0
POLYLINE
  8
LAYER-1
 66
  1
 70
  1
 62
  0
  0
VERTEX
  8
LAYER-1
 10
3.699721
 20
0.241714
 30
0.000000
  0
VERTEX
  8
LAYER-1
 10
3.756307
 20
0.241714
 30
0.000000
  0
VERTEX
  8
LAYER-1
 10
3.756307
 20
0.054051
 30
0.000000
  0
VERTEX
  8
LAYER-1
 10
3.699721
 20
0.054051
 30
0.000000
  0
SEQEND
  8
LAYER-1
  0
POLYLINE
  8
LAYER-1
  6
LTYPE01
 66
  1
 70
  1
 62
  0
  0
VERTEX
  8
LAYER-1
  6
LTYPE01
 10
3.704415
 20
0.250839
 30
0.000000
  0
VERTEX
  8
LAYER-1
  6
LTYPE01
 10
3.751355
 20
0.250839
 30
0.000000
  0
VERTEX
  8
LAYER-1
  6
LTYPE01
 10
3.751355
 20
0.063611
 30
0.000000
  0
VERTEX
  8
LAYER-1
  6
LTYPE01
 10
3.704415
 20
0.063611
 30
0.000000
  0
SEQEND
  8
LAYER-1
  0
POLYLINE
  8
LAYER-1
 66
  1
 70
  0
 62
  0
 10
3.681277
 20
0.241727
 30
0.000000
  0
VERTEX
  8
LAYER-1
 10
3.681277
 20
0.241727
 30
0.000000
  0
VERTEX
  8
LAYER-1
 10
3.774894
 20
0.241727
 30
0.000000
  0
SEQEND
  8
LAYER-1
  0
POLYLINE
  8
LAYER-1
 66
  1
 70
  0
 62
  0
 10
3.774894
 20
0.241727
 30
0.000000
  0
VERTEX
  8
LAYER-1
 10
3.774894
 20
0.241727
 30
0.000000
  0
VERTEX
  8
LAYER-1
 10
3.774894
 20
0.243292
 30
0.000000
  0
SEQEND
  8
LAYER-1
  0
POLYLINE
  8
LAYER-1
 66
  1
 70
  0
 62
  0
 10
3.774894
 20
0.243292
 30
0.000000
  0
VERTEX
  8
LAYER-1
 10
3.774894
 20
0.243292
 30
0.000000
  0
VERTEX
  8
LAYER-1
 10
3.761855
 20
0.250857
 30
0.000000
  0
SEQEND
  8
LAYER-1
  0
POLYLINE
  8
LAYER-1
  6
LTYPE02
 66
  1
 70
  0
 62
  0
  6
LTYPE02
 10
3.705659
 20
0.150068
 30
0.000000
  0
VERTEX
  8
LAYER-1
  6
LTYPE02
 10
3.705659
 20
0.150068
 30
0.000000
  0
VERTEX
  8
LAYER-1
  6
LTYPE02
 10
3.705659
 20
0.116170
 30
0.000000
  0
SEQEND
  8
LAYER-1
  0
POLYLINE
  8
LAYER-1
  6
LTYPE02
 66
  1
 70
  0
 62
  0
  6
LTYPE02
 10
3.709568
 20
0.150068
 30
0.000000
  0
VERTEX
  8
LAYER-1
  6
LTYPE02
 10
3.709568
 20
0.150068
 30
0.000000
  0
VERTEX
  8
LAYER-1
  6
LTYPE02
 10
3.705659
 20
0.150068
 30
0.000000
  0
SEQEND
  8
LAYER-1
  0
POLYLINE
  8
LAYER-1
  6
LTYPE02
 66
  1
 70
  0
 62
  0
  6
LTYPE02
 10
3.709568
 20
0.150068
 30
0.000000
  0
VERTEX
  8
LAYER-1
  6
LTYPE02
 10
3.709568
 20
0.150068
 30
0.000000
  0
VERTEX
  8
LAYER-1
  6
LTYPE02
 10
3.709568
 20
0.154502
 30
0.000000
  0
SEQEND
  8
LAYER-1
  0
POLYLINE
  8
LAYER-1
  6
LTYPE02
 66
  1
 70
  0
 62
  0
  6
LTYPE02
 10
3.709568
 20
0.154502
 30
0.000000
  0
VERTEX
  8
LAYER-1
  6
LTYPE02
 10
3.709568
 20
0.154502
 30
0.000000
  0
VERTEX
  8
LAYER-1
  6
LTYPE02
 10
3.746827
 20
0.154502
 30
0.000000
  0
SEQEND
  8
LAYER-1
  0
POLYLINE
  8
LAYER-1
  6
LTYPE02
 66
  1
 70
  0
 62
  0
  6
LTYPE02
 10
3.705659
 20
0.116170
 30
0.000000
  0
VERTEX
  8
LAYER-1
  6
LTYPE02
 10
3.705659
 20
0.116170
 30
0.000000
  0
VERTEX
  8
LAYER-1
  6
LTYPE02
 10
3.749991
 20
0.116170
 30
0.000000
  0
SEQEND
  8
LAYER-1
  0
POLYLINE
  8
LAYER-1
  6
LTYPE02
 66
  1
 70
  0
 62
  0
  6
LTYPE02
 10
3.749991
 20
0.116170
 30
0.000000
  0
VERTEX
  8
LAYER-1
  6
LTYPE02
 10
3.749991
 20
0.116170
 30
0.000000
  0
VERTEX
  8
LAYER-1
  6
LTYPE02
 10
3.749991
 20
0.150068
 30
0.000000
  0
SEQEND
  8
LAYER-1
  0
POLYLINE
  8
LAYER-1
  6
LTYPE02
 66
  1
 70
  0
 62
  0
  6
LTYPE02
 10
3.746827
 20
0.150068
 30
0.000000
  0
VERTEX
  8
LAYER-1
  6
LTYPE02
 10
3.746827
 20
0.150068
 30
0.000000
  0
VERTEX
  8
LAYER-1
  6
LTYPE02
 10
3.749991
 20
0.150068
 30
0.000000
  0
SEQEND
  8
LAYER-1
  0
POLYLINE
  8
LAYER-1
  6
LTYPE02
 66
  1
 70
  0
 62
  0
  6
LTYPE02
 10
3.746827
 20
0.154502
 30
0.000000
  0
VERTEX
  8
LAYER-1
  6
LTYPE02
 10
3.746827
 20
0.154502
 30
0.000000
  0
VERTEX
  8
LAYER-1
  6
LTYPE02
 10
3.746827
 20
0.150068
 30
0.000000
  0
SEQEND
  8
LAYER-1
  0
POLYLINE
  8
LAYER-1
  6
LTYPE01
 66
  1
 70
  1
 62
  0
  0
VERTEX
  8
LAYER-1
  6
LTYPE01
 10
3.710797
 20
0.116024
 30
0.000000
  0
VERTEX
  8
LAYER-1
  6
LTYPE01
 10
3.745218
 20
0.116024
 30
0.000000
  0
VERTEX
  8
LAYER-1
  6
LTYPE01
 10
3.745218
 20
0.063870
 30
0.000000
  0
VERTEX
  8
LAYER-1
  6
LTYPE01
 10
3.710797
 20
0.063870
 30
0.000000
  0
SEQEND
  8
LAYER-1
  0
POLYLINE
  8
LAYER-1
  6
LTYPE02
 66
  1
 70
  0
 62
  0
  6
LTYPE02
 10
3.745218
 20
0.116024
 30
0.000000
  0
VERTEX
  8
LAYER-1
  6
LTYPE02
 10
3.745218
 20
0.116024
 30
0.000000
  0
VERTEX
  8
LAYER-1
  6
LTYPE02
 10
3.710797
 20
0.113156
 30
0.000000
  0
SEQEND
  8
LAYER-1
  0
POLYLINE
  8
LAYER-1
  6
LTYPE02
 66
  1
 70
  0
 62
  0
  6
LTYPE02
 10
3.745218
 20
0.114459
 30
0.000000
  0
VERTEX
  8
LAYER-1
  6
LTYPE02
 10
3.745218
 20
0.114459
 30
0.000000
  0
VERTEX
  8
LAYER-1
  6
LTYPE02
 10
3.710797
 20
0.111332
 30
0.000000
  0
SEQEND
  8
LAYER-1
  0
POLYLINE
  8
LAYER-1
  6
LTYPE02
 66
  1
 70
  0
 62
  0
  6
LTYPE02
 10
3.745218
 20
0.111070
 30
0.000000
  0
VERTEX
  8
LAYER-1
  6
LTYPE02
 10
3.745218
 20
0.111070
 30
0.000000
  0
VERTEX
  8
LAYER-1
  6
LTYPE02
 10
3.710797
 20
0.108200
 30
0.000000
  0
SEQEND
  8
LAYER-1
  0
POLYLINE
  8
LAYER-1
  6
LTYPE02
 66
  1
 70
  0
 62
  0
  6
LTYPE02
 10
3.745218
 20
0.109505
 30
0.000000
  0
VERTEX
  8
LAYER-1
  6
LTYPE02
 10
3.745218
 20
0.109505
 30
0.000000
  0
VERTEX
  8
LAYER-1
  6
LTYPE02
 10
3.710797
 20
0.106375
 30
0.000000
  0
SEQEND
  8
LAYER-1
  0
POLYLINE
  8
LAYER-1
  6
LTYPE02
 66
  1
 70
  0
 62
  0
  6
LTYPE02
 10
3.745218
 20
0.105921
 30
0.000000
  0
VERTEX
  8
LAYER-1
  6
LTYPE02
 10
3.745218
 20
0.105921
 30
0.000000
  0
VERTEX
  8
LAYER-1
  6
LTYPE02
 10
3.710797
 20
0.103052
 30
0.000000
  0
SEQEND
  8
LAYER-1
  0
POLYLINE
  8
LAYER-1
  6
LTYPE02
 66
  1
 70
  0
 62
  0
  6
LTYPE02
 10
3.745218
 20
0.104357
 30
0.000000
  0
VERTEX
  8
LAYER-1
  6
LTYPE02
 10
3.745218
 20
0.104357
 30
0.000000
  0
VERTEX
  8
LAYER-1
  6
LTYPE02
 10
3.710797
 20
0.101228
 30
0.000000
  0
SEQEND
  8
LAYER-1
  0
POLYLINE
  8
LAYER-1
  6
LTYPE02
 66
  1
 70
  0
 62
  0
  6
LTYPE02
 10
3.745154
 20
0.101422
 30
0.000000
  0
VERTEX
  8
LAYER-1
  6
LTYPE02
 10
3.745154
 20
0.101422
 30
0.000000
  0
VERTEX
  8
LAYER-1
  6
LTYPE02
 10
3.710732
 20
0.098553
 30
0.000000
  0
SEQEND
  8
LAYER-1
  0
POLYLINE
  8
LAYER-1
  6
LTYPE02
 66
  1
 70
  0
 62
  0
  6
LTYPE02
 10
3.745154
 20
0.099859
 30
0.000000
  0
VERTEX
  8
LAYER-1
  6
LTYPE02
 10
3.745154
 20
0.099859
 30
0.000000
  0
VERTEX
  8
LAYER-1
  6
LTYPE02
 10
3.710732
 20
0.096729
 30
0.000000
  0
SEQEND
  8
LAYER-1
  0
POLYLINE
  8
LAYER-1
  6
LTYPE02
 66
  1
 70
  0
 62
  0
  6
LTYPE02
 10
3.745154
 20
0.096598
 30
0.000000
  0
VERTEX
  8
LAYER-1
  6
LTYPE02
 10
3.745154
 20
0.096598
 30
0.000000
  0
VERTEX
  8
LAYER-1
  6
LTYPE02
 10
3.710732
 20
0.093730
 30
0.000000
  0
SEQEND
  8
LAYER-1
  0
POLYLINE
  8
LAYER-1
  6
LTYPE02
 66
  1
 70
  0
 62
  0
  6
LTYPE02
 10
3.745154
 20
0.095033
 30
0.000000
  0
VERTEX
  8
LAYER-1
  6
LTYPE02
 10
3.745154
 20
0.095033
 30
0.000000
  0
VERTEX
  8
LAYER-1
  6
LTYPE02
 10
3.710732
 20
0.091904
 30
0.000000
  0
SEQEND
  8
LAYER-1
  0
POLYLINE
  8
LAYER-1
  6
LTYPE02
 66
  1
 70
  0
 62
  0
  6
LTYPE02
 10
3.745154
 20
0.091643
 30
0.000000
  0
VERTEX
  8
LAYER-1
  6
LTYPE02
 10
3.745154
 20
0.091643
 30
0.000000
  0
VERTEX
  8
LAYER-1
  6
LTYPE02
 10
3.710732
 20
0.088774
 30
0.000000
  0
SEQEND
  8
LAYER-1
  0
POLYLINE
  8
LAYER-1
  6
LTYPE02
 66
  1
 70
  0
 62
  0
  6
LTYPE02
 10
3.745154
 20
0.090079
 30
0.000000
  0
VERTEX
  8
LAYER-1
  6
LTYPE02
 10
3.745154
 20
0.090079
 30
0.000000
  0
VERTEX
  8
LAYER-1
  6
LTYPE02
 10
3.710732
 20
0.086948
 30
0.000000
  0
SEQEND
  8
LAYER-1
  0
POLYLINE
  8
LAYER-1
  6
LTYPE02
 66
  1
 70
  0
 62
  0
  6
LTYPE02
 10
3.745154
 20
0.086493
 30
0.000000
  0
VERTEX
  8
LAYER-1
  6
LTYPE02
 10
3.745154
 20
0.086493
 30
0.000000
  0
VERTEX
  8
LAYER-1
  6
LTYPE02
 10
3.710732
 20
0.083624
 30
0.000000
  0
SEQEND
  8
LAYER-1
  0
POLYLINE
  8
LAYER-1
  6
LTYPE02
 66
  1
 70
  0
 62
  0
  6
LTYPE02
 10
3.745154
 20
0.084928
 30
0.000000
  0
VERTEX
  8
LAYER-1
  6
LTYPE02
 10
3.745154
 20
0.084928
 30
0.000000
  0
VERTEX
  8
LAYER-1
  6
LTYPE02
 10
3.710732
 20
0.081800
 30
0.000000
  0
SEQEND
  8
LAYER-1
  0
POLYLINE
  8
LAYER-1
  6
LTYPE02
 66
  1
 70
  0
 62
  0
  6
LTYPE02
 10
3.745089
 20
0.081994
 30
0.000000
  0
VERTEX
  8
LAYER-1
  6
LTYPE02
 10
3.745089
 20
0.081994
 30
0.000000
  0
VERTEX
  8
LAYER-1
  6
LTYPE02
 10
3.710667
 20
0.079126
 30
0.000000
  0
SEQEND
  8
LAYER-1
  0
POLYLINE
  8
LAYER-1
  6
LTYPE02
 66
  1
 70
  0
 62
  0
  6
LTYPE02
 10
3.745089
 20
0.080431
 30
0.000000
  0
VERTEX
  8
LAYER-1
  6
LTYPE02
 10
3.745089
 20
0.080431
 30
0.000000
  0
VERTEX
  8
LAYER-1
  6
LTYPE02
 10
3.710667
 20
0.077302
 30
0.000000
  0
SEQEND
  8
LAYER-1
  0
POLYLINE
  8
LAYER-1
  6
LTYPE02
 66
  1
 70
  0
 62
  0
  6
LTYPE02
 10
3.745218
 20
0.077627
 30
0.000000
  0
VERTEX
  8
LAYER-1
  6
LTYPE02
 10
3.745218
 20
0.077627
 30
0.000000
  0
VERTEX
  8
LAYER-1
  6
LTYPE02
 10
3.710797
 20
0.074758
 30
0.000000
  0
SEQEND
  8
LAYER-1
  0
POLYLINE
  8
LAYER-1
  6
LTYPE02
 66
  1
 70
  0
 62
  0
  6
LTYPE02
 10
3.745218
 20
0.076062
 30
0.000000
  0
VERTEX
  8
LAYER-1
  6
LTYPE02
 10
3.745218
 20
0.076062
 30
0.000000
  0
VERTEX
  8
LAYER-1
  6
LTYPE02
 10
3.710797
 20
0.072934
 30
0.000000
  0
SEQEND
  8
LAYER-1
  0
POLYLINE
  8
LAYER-1
  6
LTYPE02
 66
  1
 70
  0
 62
  0
  6
LTYPE02
 10
3.745218
 20
0.072673
 30
0.000000
  0
VERTEX
  8
LAYER-1
  6
LTYPE02
 10
3.745218
 20
0.072673
 30
0.000000
  0
VERTEX
  8
LAYER-1
  6
LTYPE02
 10
3.710797
 20
0.069804
 30
0.000000
  0
SEQEND
  8
LAYER-1
  0
POLYLINE
  8
LAYER-1
  6
LTYPE02
 66
  1
 70
  0
 62
  0
  6
LTYPE02
 10
3.745218
 20
0.071108
 30
0.000000
  0
VERTEX
  8
LAYER-1
  6
LTYPE02
 10
3.745218
 20
0.071108
 30
0.000000
  0
VERTEX
  8
LAYER-1
  6
LTYPE02
 10
3.710797
 20
0.067978
 30
0.000000
  0
SEQEND
  8
LAYER-1
  0
POLYLINE
  8
LAYER-1
  6
LTYPE02
 66
  1
 70
  0
 62
  0
  6
LTYPE02
 10
3.745218
 20
0.067523
 30
0.000000
  0
VERTEX
  8
LAYER-1
  6
LTYPE02
 10
3.745218
 20
0.067523
 30
0.000000
  0
VERTEX
  8
LAYER-1
  6
LTYPE02
 10
3.710797
 20
0.064652
 30
0.000000
  0
SEQEND
  8
LAYER-1
  0
POLYLINE
  8
LAYER-1
  6
LTYPE02
 66
  1
 70
  0
 62
  0
  6
LTYPE02
 10
3.745218
 20
0.065958
 30
0.000000
  0
VERTEX
  8
LAYER-1
  6
LTYPE02
 10
3.745218
 20
0.065958
 30
0.000000
  0
VERTEX
  8
LAYER-1
  6
LTYPE02
 10
3.722206
 20
0.063870
 30
0.000000
  0
SEQEND
  8
LAYER-1
  0
POLYLINE
  8
LAYER-1
  6
LTYPE02
 66
  1
 70
  0
 62
  0
  6
LTYPE02
 10
3.711788
 20
0.175234
 30
0.000000
  0
VERTEX
  8
LAYER-1
  6
LTYPE02
 10
3.711788
 20
0.175234
 30
0.000000
  0
VERTEX
  8
LAYER-1
  6
LTYPE02
 10
3.711788
 20
0.250857
 30
0.000000
  0
SEQEND
  8
LAYER-1
  0
POLYLINE
  8
LAYER-1
  6
LTYPE02
 66
  1
 70
  0
 62
  0
  6
LTYPE02
 10
3.744122
 20
0.175234
 30
0.000000
  0
VERTEX
  8
LAYER-1
  6
LTYPE02
 10
3.744122
 20
0.175234
 30
0.000000
  0
VERTEX
  8
LAYER-1
  6
LTYPE02
 10
3.744122
 20
0.250857
 30
0.000000
  0
SEQEND
  8
LAYER-1
  0
POLYLINE
  8
LAYER-1
  6
LTYPE01
 66
  1
 70
  0
 62
  0
  6
LTYPE01
 10
3.711788
 20
0.175234
 30
0.000000
  0
VERTEX
  8
LAYER-1
  6
LTYPE01
 10
3.711788
 20
0.175234
 30
0.000000
  0
VERTEX
  8
LAYER-1
  6
LTYPE01
 10
3.714555
 20
0.165771
 30
0.000000
  0
VERTEX
  8
LAYER-1
  6
LTYPE01
 10
3.725987
 20
0.161036
 30
0.000000
  0
VERTEX
  8
LAYER-1
  6
LTYPE01
 10
3.737419
 20
0.165771
 30
0.000000
  0
VERTEX
  8
LAYER-1
  6
LTYPE01
 10
3.744123
 20
0.175234
 30
0.000000
  0
SEQEND
  8
LAYER-1
  0
POLYLINE
  8
LAYER-1
 66
  1
 70
  0
 62
  0
 10
3.694055
 20
0.250857
 30
0.000000
  0
VERTEX
  8
LAYER-1
 10
3.694055
 20
0.250857
 30
0.000000
  0
VERTEX
  8
LAYER-1
 10
3.761855
 20
0.250857
 30
0.000000
  0
SEQEND
  8
LAYER-1
  0
POLYLINE
  8
LAYER-1
 66
  1
 70
  1
 62
  0
  0
VERTEX
  8
LAYER-1
 10
2.800872
 20
7.479819
 30
0.000000
  0
VERTEX
  8
LAYER-1
 10
2.825967
 20
7.479819
 30
0.000000
  0
VERTEX
  8
LAYER-1
 10
2.825967
 20
7.413501
 30
0.000000
  0
VERTEX
  8
LAYER-1
 10
2.800872
 20
7.413501
 30
0.000000
  0
SEQEND
  8
LAYER-1
  0
POLYLINE
  8
LAYER-1
 66
  1
 70
  1
 62
  0
  0
VERTEX
  8
LAYER-1
 10
1.979692
 20
7.479819
 30
0.000000
  0
VERTEX
  8
LAYER-1
 10
2.004787
 20
7.479819
 30
0.000000
  0
VERTEX
  8
LAYER-1
 10
2.004787
 20
7.413501
 30
0.000000
  0
VERTEX
  8
LAYER-1
 10
1.979692
 20
7.413501
 30
0.000000
  0
SEQEND
  8
LAYER-1
  0
POLYLINE
  8
LAYER-1
 66
  1
 70
  1
 62
  0
  0
VERTEX
  8
LAYER-1
 10
4.702781
 20
7.479819
 30
0.000000
  0
VERTEX
  8
LAYER-1
 10
4.727876
 20
7.479819
 30
0.000000
  0
VERTEX
  8
LAYER-1
 10
4.727876
 20
7.413501
 30
0.000000
  0
VERTEX
  8
LAYER-1
 10
4.702781
 20
7.413501
 30
0.000000
  0
SEQEND
  8
LAYER-1
  0
POLYLINE
  8
LAYER-1
 66
  1
 70
  1
 62
  0
  0
VERTEX
  8
LAYER-1
 10
5.523962
 20
7.479819
 30
0.000000
  0
VERTEX
  8
LAYER-1
 10
5.549057
 20
7.479819
 30
0.000000
  0
VERTEX
  8
LAYER-1
 10
5.549057
 20
7.413501
 30
0.000000
  0
VERTEX
  8
LAYER-1
 10
5.523962
 20
7.413501
 30
0.000000
  0
SEQEND
  8
LAYER-1
  0
POLYLINE
  8
LAYER-1
 66
  1
 70
  0
 62
  0
 10
2.178083
 20
7.143496
 30
0.000000
  0
VERTEX
  8
LAYER-1
 10
2.178083
 20
7.143496
 30
0.000000
  0
VERTEX
  8
LAYER-1
 10
2.213679
 20
7.143496
 30
0.000000
  0
SEQEND
  8
LAYER-1
  0
POLYLINE
  8
LAYER-1
 66
  1
 70
  0
 62
  0
 10
2.995953
 20
7.143496
 30
0.000000
  0
VERTEX
  8
LAYER-1
 10
2.995953
 20
7.143496
 30
0.000000
  0
VERTEX
  8
LAYER-1
 10
3.031548
 20
7.143496
 30
0.000000
  0
SEQEND
  8
LAYER-1
  0
POLYLINE
  8
LAYER-1
 66
  1
 70
  0
 62
  0
 10
3.644087
 20
7.143420
 30
0.000000
  0
VERTEX
  8
LAYER-1
 10
3.644087
 20
7.143420
 30
0.000000
  0
VERTEX
  8
LAYER-1
 10
3.679681
 20
7.143420
 30
0.000000
  0
SEQEND
  8
LAYER-1
  0
POLYLINE
  8
LAYER-1
 66
  1
 70
  0
 62
  0
 10
5.350243
 20
7.143495
 30
0.000000
  0
VERTEX
  8
LAYER-1
 10
5.350243
 20
7.143495
 30
0.000000
  0
VERTEX
  8
LAYER-1
 10
5.314648
 20
7.143495
 30
0.000000
  0
SEQEND
  8
LAYER-1
  0
POLYLINE
  8
LAYER-1
 66
  1
 70
  0
 62
  0
 10
4.532368
 20
7.143495
 30
0.000000
  0
VERTEX
  8
LAYER-1
 10
4.532368
 20
7.143495
 30
0.000000
  0
VERTEX
  8
LAYER-1
 10
4.496777
 20
7.143495
 30
0.000000
  0
SEQEND
  8
LAYER-1
  0
POLYLINE
  8
LAYER-1
 66
  1
 70
  0
 62
  0
 10
3.884230
 20
7.143419
 30
0.000000
  0
VERTEX
  8
LAYER-1
 10
3.884230
 20
7.143419
 30
0.000000
  0
VERTEX
  8
LAYER-1
 10
3.848638
 20
7.143419
 30
0.000000
  0
SEQEND
  8
LAYER-1
  0
TEXT
  8
LAYER-1
 62
  0
 10
1.083858
 20
7.075740
 30
0.000000
 40
0.125000
  1
Rail
 72
  5
 11
1.458858
 21
7.075740
 31
0.000000
  0
TEXT
  8
LAYER-1
 62
  0
 10
5.889414
 20
5.561851
 30
0.000000
 40
0.125000
  1
Panneau
 72
  5
 11
6.653303
 21
5.561851
 31
0.000000
  0
TEXT
  8
LAYER-1
 62
  0
 10
5.889414
 20
5.367406
 30
0.000000
 40
0.125000
  1
d'aluminium
 72
  5
 11
6.903303
 21
5.367406
 31
0.000000
  0
POLYLINE
  8
LAYER-1
 66
  1
 70
  0
 62
  0
 10
5.823007
 20
5.474177
 30
0.000000
  0
VERTEX
  8
LAYER-1
 10
5.823007
 20
5.474177
 30
0.000000
  0
VERTEX
  8
LAYER-1
 10
5.581931
 20
5.789271
 30
0.000000
  0
SEQEND
  8
LAYER-1
  0
POLYLINE
  8
LAYER-1
 66
  1
 70
  1
 62
  0
  0
VERTEX
  8
LAYER-1
 10
5.569970
 20
5.804906
 30
0.000000
  0
VERTEX
  8
LAYER-1
 10
5.645259
 20
5.775071
 30
0.000000
  0
VERTEX
  8
LAYER-1
 10
5.612167
 20
5.749752
 30
0.000000
  0
VERTEX
  8
LAYER-1
 10
5.579075
 20
5.724433
 30
0.000000
  0
VERTEX
  8
LAYER-1
 10
5.569970
 20
5.804906
 30
0.000000
  0
SEQEND
  8
LAYER-1
  0
POLYLINE
  8
LAYER-1
 66
  1
 70
  0
 62
  0
 10
0.013889
 20
5.133888
 30
0.000000
  0
VERTEX
  8
LAYER-1
 10
0.013889
 20
5.133888
 30
0.000000
  0
VERTEX
  8
LAYER-1
 10
0.013889
 20
3.435410
 30
0.000000
  0
SEQEND
  8
LAYER-1
  0
POLYLINE
  8
LAYER-1
 66
  1
 70
  0
 62
  0
 10
0.031292
 20
5.133888
 30
0.000000
  0
VERTEX
  8
LAYER-1
 10
0.031292
 20
5.133888
 30
0.000000
  0
VERTEX
  8
LAYER-1
 10
0.031292
 20
3.435410
 30
0.000000
  0
SEQEND
  8
LAYER-1
  0
POLYLINE
  8
LAYER-1
 66
  1
 70
  0
 62
  0
 10
0.145694
 20
5.133888
 30
0.000000
  0
VERTEX
  8
LAYER-1
 10
0.145694
 20
5.133888
 30
0.000000
  0
VERTEX
  8
LAYER-1
 10
0.145694
 20
3.435410
 30
0.000000
  0
SEQEND
  8
LAYER-1
  0
POLYLINE
  8
LAYER-1
 66
  1
 70
  0
 62
  0
 10
0.163098
 20
5.133888
 30
0.000000
  0
VERTEX
  8
LAYER-1
 10
0.163098
 20
5.133888
 30
0.000000
  0
VERTEX
  8
LAYER-1
 10
0.163098
 20
3.435410
 30
0.000000
  0
SEQEND
  8
LAYER-1
  0
POLYLINE
  8
LAYER-1
 66
  1
 70
  0
 62
  0
 10
0.162271
 20
5.133888
 30
0.000000
  0
VERTEX
  8
LAYER-1
 10
0.162271
 20
5.133888
 30
0.000000
  0
VERTEX
  8
LAYER-1
 10
0.162271
 20
3.435410
 30
0.000000
  0
SEQEND
  8
LAYER-1
  0
POLYLINE
  8
LAYER-1
 66
  1
 70
  0
 62
  0
 10
0.179675
 20
5.133888
 30
0.000000
  0
VERTEX
  8
LAYER-1
 10
0.179675
 20
5.133888
 30
0.000000
  0
VERTEX
  8
LAYER-1
 10
0.179675
 20
3.435410
 30
0.000000
  0
SEQEND
  8
LAYER-1
  0
POLYLINE
  8
LAYER-1
 66
  1
 70
  0
 62
  0
 10
0.294077
 20
5.133888
 30
0.000000
  0
VERTEX
  8
LAYER-1
 10
0.294077
 20
5.133888
 30
0.000000
  0
VERTEX
  8
LAYER-1
 10
0.294077
 20
3.435410
 30
0.000000
  0
SEQEND
  8
LAYER-1
  0
POLYLINE
  8
LAYER-1
 66
  1
 70
  0
 62
  0
 10
0.311480
 20
5.133888
 30
0.000000
  0
VERTEX
  8
LAYER-1
 10
0.311480
 20
5.133888
 30
0.000000
  0
VERTEX
  8
LAYER-1
 10
0.311480
 20
3.435410
 30
0.000000
  0
SEQEND
  8
LAYER-1
  0
POLYLINE
  8
LAYER-1
 66
  1
 70
  0
 62
  0
 10
0.310653
 20
5.133888
 30
0.000000
  0
VERTEX
  8
LAYER-1
 10
0.310653
 20
5.133888
 30
0.000000
  0
VERTEX
  8
LAYER-1
 10
0.310653
 20
3.435410
 30
0.000000
  0
SEQEND
  8
LAYER-1
  0
POLYLINE
  8
LAYER-1
 66
  1
 70
  0
 62
  0
 10
0.328057
 20
5.133888
 30
0.000000
  0
VERTEX
  8
LAYER-1
 10
0.328057
 20
5.133888
 30
0.000000
  0
VERTEX
  8
LAYER-1
 10
0.328057
 20
3.435410
 30
0.000000
  0
SEQEND
  8
LAYER-1
  0
POLYLINE
  8
LAYER-1
 66
  1
 70
  0
 62
  0
 10
0.442459
 20
5.133888
 30
0.000000
  0
VERTEX
  8
LAYER-1
 10
0.442459
 20
5.133888
 30
0.000000
  0
VERTEX
  8
LAYER-1
 10
0.442459
 20
3.435410
 30
0.000000
  0
SEQEND
  8
LAYER-1
  0
POLYLINE
  8
LAYER-1
 66
  1
 70
  0
 62
  0
 10
0.459861
 20
5.133888
 30
0.000000
  0
VERTEX
  8
LAYER-1
 10
0.459861
 20
5.133888
 30
0.000000
  0
VERTEX
  8
LAYER-1
 10
0.459861
 20
3.435410
 30
0.000000
  0
SEQEND
  8
LAYER-1
  0
POLYLINE
  8
LAYER-1
 66
  1
 70
  0
 62
  0
 10
0.459034
 20
5.133888
 30
0.000000
  0
VERTEX
  8
LAYER-1
 10
0.459034
 20
5.133888
 30
0.000000
  0
VERTEX
  8
LAYER-1
 10
0.459034
 20
3.435410
 30
0.000000
  0
SEQEND
  8
LAYER-1
  0
POLYLINE
  8
LAYER-1
 66
  1
 70
  0
 62
  0
 10
0.476437
 20
5.133888
 30
0.000000
  0
VERTEX
  8
LAYER-1
 10
0.476437
 20
5.133888
 30
0.000000
  0
VERTEX
  8
LAYER-1
 10
0.476437
 20
3.435410
 30
0.000000
  0
SEQEND
  8
LAYER-1
  0
POLYLINE
  8
LAYER-1
 66
  1
 70
  0
 62
  0
 10
0.590839
 20
5.133888
 30
0.000000
  0
VERTEX
  8
LAYER-1
 10
0.590839
 20
5.133888
 30
0.000000
  0
VERTEX
  8
LAYER-1
 10
0.590839
 20
3.435410
 30
0.000000
  0
SEQEND
  8
LAYER-1
  0
POLYLINE
  8
LAYER-1
 66
  1
 70
  0
 62
  0
 10
0.608244
 20
5.133888
 30
0.000000
  0
VERTEX
  8
LAYER-1
 10
0.608244
 20
5.133888
 30
0.000000
  0
VERTEX
  8
LAYER-1
 10
0.608244
 20
3.435410
 30
0.000000
  0
SEQEND
  8
LAYER-1
  0
POLYLINE
  8
LAYER-1
 66
  1
 70
  0
 62
  0
 10
0.607415
 20
5.133888
 30
0.000000
  0
VERTEX
  8
LAYER-1
 10
0.607415
 20
5.133888
 30
0.000000
  0
VERTEX
  8
LAYER-1
 10
0.607415
 20
3.435410
 30
0.000000
  0
SEQEND
  8
LAYER-1
  0
POLYLINE
  8
LAYER-1
 66
  1
 70
  0
 62
  0
 10
0.624820
 20
5.133888
 30
0.000000
  0
VERTEX
  8
LAYER-1
 10
0.624820
 20
5.133888
 30
0.000000
  0
VERTEX
  8
LAYER-1
 10
0.624820
 20
3.435410
 30
0.000000
  0
SEQEND
  8
LAYER-1
  0
POLYLINE
  8
LAYER-1
 66
  1
 70
  0
 62
  0
 10
0.739220
 20
5.133888
 30
0.000000
  0
VERTEX
  8
LAYER-1
 10
0.739220
 20
5.133888
 30
0.000000
  0
VERTEX
  8
LAYER-1
 10
0.739220
 20
3.435410
 30
0.000000
  0
SEQEND
  8
LAYER-1
  0
POLYLINE
  8
LAYER-1
 66
  1
 70
  0
 62
  0
 10
0.756625
 20
5.133888
 30
0.000000
  0
VERTEX
  8
LAYER-1
 10
0.756625
 20
5.133888
 30
0.000000
  0
VERTEX
  8
LAYER-1
 10
0.756625
 20
3.435410
 30
0.000000
  0
SEQEND
  8
LAYER-1
  0
POLYLINE
  8
LAYER-1
 66
  1
 70
  0
 62
  0
 10
0.755797
 20
5.133888
 30
0.000000
  0
VERTEX
  8
LAYER-1
 10
0.755797
 20
5.133888
 30
0.000000
  0
VERTEX
  8
LAYER-1
 10
0.755797
 20
3.435410
 30
0.000000
  0
SEQEND
  8
LAYER-1
  0
POLYLINE
  8
LAYER-1
 66
  1
 70
  0
 62
  0
 10
0.773200
 20
5.133888
 30
0.000000
  0
VERTEX
  8
LAYER-1
 10
0.773200
 20
5.133888
 30
0.000000
  0
VERTEX
  8
LAYER-1
 10
0.773200
 20
3.435410
 30
0.000000
  0
SEQEND
  8
LAYER-1
  0
POLYLINE
  8
LAYER-1
 66
  1
 70
  0
 62
  0
 10
0.887603
 20
5.133888
 30
0.000000
  0
VERTEX
  8
LAYER-1
 10
0.887603
 20
5.133888
 30
0.000000
  0
VERTEX
  8
LAYER-1
 10
0.887603
 20
3.435410
 30
0.000000
  0
SEQEND
  8
LAYER-1
  0
POLYLINE
  8
LAYER-1
 66
  1
 70
  0
 62
  0
 10
0.905008
 20
5.133888
 30
0.000000
  0
VERTEX
  8
LAYER-1
 10
0.905008
 20
5.133888
 30
0.000000
  0
VERTEX
  8
LAYER-1
 10
0.905008
 20
3.435410
 30
0.000000
  0
SEQEND
  8
LAYER-1
  0
POLYLINE
  8
LAYER-1
 66
  1
 70
  0
 62
  0
 10
0.904180
 20
5.133888
 30
0.000000
  0
VERTEX
  8
LAYER-1
 10
0.904180
 20
5.133888
 30
0.000000
  0
VERTEX
  8
LAYER-1
 10
0.904180
 20
3.435410
 30
0.000000
  0
SEQEND
  8
LAYER-1
  0
POLYLINE
  8
LAYER-1
 66
  1
 70
  0
 62
  0
 10
0.921583
 20
5.133888
 30
0.000000
  0
VERTEX
  8
LAYER-1
 10
0.921583
 20
5.133888
 30
0.000000
  0
VERTEX
  8
LAYER-1
 10
0.921583
 20
3.435410
 30
0.000000
  0
SEQEND
  8
LAYER-1
  0
POLYLINE
  8
LAYER-1
 66
  1
 70
  0
 62
  0
 10
1.035985
 20
5.133888
 30
0.000000
  0
VERTEX
  8
LAYER-1
 10
1.035985
 20
5.133888
 30
0.000000
  0
VERTEX
  8
LAYER-1
 10
1.035985
 20
3.435410
 30
0.000000
  0
SEQEND
  8
LAYER-1
  0
POLYLINE
  8
LAYER-1
 66
  1
 70
  0
 62
  0
 10
1.053388
 20
5.133888
 30
0.000000
  0
VERTEX
  8
LAYER-1
 10
1.053388
 20
5.133888
 30
0.000000
  0
VERTEX
  8
LAYER-1
 10
1.053388
 20
3.435410
 30
0.000000
  0
SEQEND
  8
LAYER-1
  0
POLYLINE
  8
LAYER-1
 66
  1
 70
  1
 62
  0
  0
VERTEX
  8
LAYER-1
 10
0.031292
 20
5.133228
 30
0.000000
  0
VERTEX
  8
LAYER-1
 10
0.145759
 20
5.133228
 30
0.000000
  0
VERTEX
  8
LAYER-1
 10
0.145759
 20
3.436832
 30
0.000000
  0
VERTEX
  8
LAYER-1
 10
0.031292
 20
3.436832
 30
0.000000
  0
SEQEND
  8
LAYER-1
  0
POLYLINE
  8
LAYER-1
 66
  1
 70
  1
 62
  0
  0
VERTEX
  8
LAYER-1
 10
0.179593
 20
5.029196
 30
0.000000
  0
VERTEX
  8
LAYER-1
 10
0.294205
 20
5.029196
 30
0.000000
  0
VERTEX
  8
LAYER-1
 10
0.294205
 20
3.436764
 30
0.000000
  0
VERTEX
  8
LAYER-1
 10
0.179593
 20
3.436764
 30
0.000000
  0
SEQEND
  8
LAYER-1
  0
POLYLINE
  8
LAYER-1
 66
  1
 70
  1
 62
  0
  0
VERTEX
  8
LAYER-1
 10
0.476338
 20
5.029196
 30
0.000000
  0
VERTEX
  8
LAYER-1
 10
0.590803
 20
5.029196
 30
0.000000
  0
VERTEX
  8
LAYER-1
 10
0.590803
 20
3.436764
 30
0.000000
  0
VERTEX
  8
LAYER-1
 10
0.476338
 20
3.436764
 30
0.000000
  0
SEQEND
  8
LAYER-1
  0
POLYLINE
  8
LAYER-1
 66
  1
 70
  1
 62
  0
  0
VERTEX
  8
LAYER-1
 10
0.773228
 20
5.029196
 30
0.000000
  0
VERTEX
  8
LAYER-1
 10
0.887695
 20
5.029196
 30
0.000000
  0
VERTEX
  8
LAYER-1
 10
0.887695
 20
3.436764
 30
0.000000
  0
VERTEX
  8
LAYER-1
 10
0.773228
 20
3.436764
 30
0.000000
  0
SEQEND
  8
LAYER-1
  0
POLYLINE
  8
LAYER-1
 66
  1
 70
  1
 62
  0
  0
VERTEX
  8
LAYER-1
 10
0.328038
 20
5.133228
 30
0.000000
  0
VERTEX
  8
LAYER-1
 10
0.442504
 20
5.133228
 30
0.000000
  0
VERTEX
  8
LAYER-1
 10
0.442504
 20
3.436832
 30
0.000000
  0
VERTEX
  8
LAYER-1
 10
0.328038
 20
3.436832
 30
0.000000
  0
SEQEND
  8
LAYER-1
  0
POLYLINE
  8
LAYER-1
 66
  1
 70
  1
 62
  0
  0
VERTEX
  8
LAYER-1
 10
0.624929
 20
5.133228
 30
0.000000
  0
VERTEX
  8
LAYER-1
 10
0.739247
 20
5.133228
 30
0.000000
  0
VERTEX
  8
LAYER-1
 10
0.739247
 20
3.436832
 30
0.000000
  0
VERTEX
  8
LAYER-1
 10
0.624929
 20
3.436832
 30
0.000000
  0
SEQEND
  8
LAYER-1
  0
POLYLINE
  8
LAYER-1
 66
  1
 70
  1
 62
  0
  0
VERTEX
  8
LAYER-1
 10
0.921676
 20
5.133228
 30
0.000000
  0
VERTEX
  8
LAYER-1
 10
1.035995
 20
5.133228
 30
0.000000
  0
VERTEX
  8
LAYER-1
 10
1.035995
 20
3.436832
 30
0.000000
  0
VERTEX
  8
LAYER-1
 10
0.921676
 20
3.436832
 30
0.000000
  0
SEQEND
  8
LAYER-1
  0
POLYLINE
  8
LAYER-1
 66
  1
 70
  0
 62
  0
 10
0.013889
 20
5.133888
 30
0.000000
  0
VERTEX
  8
LAYER-1
 10
0.013889
 20
5.133888
 30
0.000000
  0
VERTEX
  8
LAYER-1
 10
1.053388
 20
5.133888
 30
0.000000
  0
SEQEND
  8
LAYER-1
  0
POLYLINE
  8
LAYER-1
 66
  1
 70
  0
 62
  0
 10
0.013889
 20
3.435410
 30
0.000000
  0
VERTEX
  8
LAYER-1
 10
0.013889
 20
3.435410
 30
0.000000
  0
VERTEX
  8
LAYER-1
 10
1.053388
 20
3.435410
 30
0.000000
  0
SEQEND
  8
LAYER-1
  0
TEXT
  8
LAYER-1
 62
  0
 10
0.208858
 20
3.228517
 30
0.000000
 40
0.104167
  1
GLOBAL
 72
  5
 11
0.861636
 21
3.228517
 31
0.000000
  0
TEXT
  8
LAYER-1
 62
  0
 10
0.264414
 20
3.131295
 30
0.000000
 40
0.083333
  1
(Opaque)
 72
  5
 11
0.778303
 21
3.131295
 31
0.000000
  0
POLYLINE
  8
LAYER-1
 66
  1
 70
  1
 62
  0
  0
VERTEX
  8
LAYER-1
 10
0.179894
 20
5.133817
 30
0.000000
  0
VERTEX
  8
LAYER-1
 10
0.294505
 20
5.133817
 30
0.000000
  0
VERTEX
  8
LAYER-1
 10
0.294505
 20
5.030183
 30
0.000000
  0
VERTEX
  8
LAYER-1
 10
0.179894
 20
5.030183
 30
0.000000
  0
SEQEND
  8
LAYER-1
  0
POLYLINE
  8
LAYER-1
 66
  1
 70
  1
 62
  0
  0
VERTEX
  8
LAYER-1
 10
0.476639
 20
5.133817
 30
0.000000
  0
VERTEX
  8
LAYER-1
 10
0.591104
 20
5.133817
 30
0.000000
  0
VERTEX
  8
LAYER-1
 10
0.591104
 20
5.030183
 30
0.000000
  0
VERTEX
  8
LAYER-1
 10
0.476639
 20
5.030183
 30
0.000000
  0
SEQEND
  8
LAYER-1
  0
POLYLINE
  8
LAYER-1
 66
  1
 70
  1
 62
  0
  0
VERTEX
  8
LAYER-1
 10
0.773529
 20
5.133817
 30
0.000000
  0
VERTEX
  8
LAYER-1
 10
0.887995
 20
5.133817
 30
0.000000
  0
VERTEX
  8
LAYER-1
 10
0.887995
 20
5.030183
 30
0.000000
  0
VERTEX
  8
LAYER-1
 10
0.773529
 20
5.030183
 30
0.000000
  0
SEQEND
  8
LAYER-1
  0
POLYLINE
  8
LAYER-1
 66
  1
 70
  0
 62
  7
 10
0.179894
 20
5.030183
 30
0.000000
  0
VERTEX
  8
LAYER-1
 10
0.179894
 20
5.030183
 30
0.000000
  0
VERTEX
  8
LAYER-1
 10
0.294505
 20
5.030183
 30
0.000000
  0
SEQEND
  8
LAYER-1
  0
POLYLINE
  8
LAYER-1
 66
  1
 70
  0
 62
  7
 10
0.476639
 20
5.030183
 30
0.000000
  0
VERTEX
  8
LAYER-1
 10
0.476639
 20
5.030183
 30
0.000000
  0
VERTEX
  8
LAYER-1
 10
0.591104
 20
5.030183
 30
0.000000
  0
SEQEND
  8
LAYER-1
  0
POLYLINE
  8
LAYER-1
 66
  1
 70
  0
 62
  7
 10
0.773529
 20
5.030183
 30
0.000000
  0
VERTEX
  8
LAYER-1
 10
0.773529
 20
5.030183
 30
0.000000
  0
VERTEX
  8
LAYER-1
 10
0.887995
 20
5.030183
 30
0.000000
  0
SEQEND
  8
LAYER-1
  0
POLYLINE
  8
LAYER-1
 66
  1
 70
  0
 62
  7
 10
0.229958
 20
5.133822
 30
0.000000
  0
VERTEX
  8
LAYER-1
 10
0.229958
 20
5.133822
 30
0.000000
  0
VERTEX
  8
LAYER-1
 10
0.229958
 20
5.030517
 30
0.000000
  0
SEQEND
  8
LAYER-1
  0
POLYLINE
  8
LAYER-1
 66
  1
 70
  0
 62
  7
 10
0.241878
 20
5.133822
 30
0.000000
  0
VERTEX
  8
LAYER-1
 10
0.241878
 20
5.133822
 30
0.000000
  0
VERTEX
  8
LAYER-1
 10
0.241878
 20
5.030517
 30
0.000000
  0
SEQEND
  8
LAYER-1
  0
POLYLINE
  8
LAYER-1
 66
  1
 70
  0
 62
  7
 10
0.527954
 20
5.135411
 30
0.000000
  0
VERTEX
  8
LAYER-1
 10
0.527954
 20
5.135411
 30
0.000000
  0
VERTEX
  8
LAYER-1
 10
0.527954
 20
5.032105
 30
0.000000
  0
SEQEND
  8
LAYER-1
  0
POLYLINE
  8
LAYER-1
 66
  1
 70
  0
 62
  7
 10
0.539873
 20
5.135411
 30
0.000000
  0
VERTEX
  8
LAYER-1
 10
0.539873
 20
5.135411
 30
0.000000
  0
VERTEX
  8
LAYER-1
 10
0.539873
 20
5.032105
 30
0.000000
  0
SEQEND
  8
LAYER-1
  0
POLYLINE
  8
LAYER-1
 66
  1
 70
  0
 62
  7
 10
0.825155
 20
5.133028
 30
0.000000
  0
VERTEX
  8
LAYER-1
 10
0.825155
 20
5.133028
 30
0.000000
  0
VERTEX
  8
LAYER-1
 10
0.825155
 20
5.029723
 30
0.000000
  0
SEQEND
  8
LAYER-1
  0
POLYLINE
  8
LAYER-1
 66
  1
 70
  0
 62
  7
 10
0.837075
 20
5.133028
 30
0.000000
  0
VERTEX
  8
LAYER-1
 10
0.837075
 20
5.133028
 30
0.000000
  0
VERTEX
  8
LAYER-1
 10
0.837075
 20
5.029723
 30
0.000000
  0
SEQEND
  8
LAYER-1
  0
POLYLINE
  8
LAYER-1
 66
  1
 70
  0
 62
  0
 10
0.771443
 20
0.037543
 30
0.000000
  0
VERTEX
  8
LAYER-1
 10
0.771443
 20
0.037543
 30
0.000000
  0
VERTEX
  8
LAYER-1
 10
0.797983
 20
0.034087
 30
0.000000
  0
VERTEX
  8
LAYER-1
 10
0.817362
 20
0.034087
 30
0.000000
  0
VERTEX
  8
LAYER-1
 10
0.836740
 20
0.037560
 30
0.000000
  0
VERTEX
  8
LAYER-1
 10
0.856118
 20
0.037560
 30
0.000000
  0
VERTEX
  8
LAYER-1
 10
0.902626
 20
0.044504
 30
0.000000
  0
VERTEX
  8
LAYER-1
 10
0.937507
 20
0.054921
 30
0.000000
  0
VERTEX
  8
LAYER-1
 10
0.959792
 20
0.059261
 30
0.000000
  0
VERTEX
  8
LAYER-1
 10
0.981593
 20
0.060998
 30
0.000000
  0
VERTEX
  8
LAYER-1
 10
1.011145
 20
0.058393
 30
0.000000
  0
VERTEX
  8
LAYER-1
 10
1.042150
 20
0.054921
 30
0.000000
  0
VERTEX
  8
LAYER-1
 10
1.069280
 20
0.047977
 30
0.000000
  0
VERTEX
  8
LAYER-1
 10
1.088658
 20
0.044504
 30
0.000000
  0
VERTEX
  8
LAYER-1
 10
1.119663
 20
0.041033
 30
0.000000
  0
VERTEX
  8
LAYER-1
 10
1.139042
 20
0.037560
 30
0.000000
  0
VERTEX
  8
LAYER-1
 10
1.162296
 20
0.034087
 30
0.000000
  0
VERTEX
  8
LAYER-1
 10
1.189425
 20
0.034087
 30
0.000000
  0
VERTEX
  8
LAYER-1
 10
1.216555
 20
0.034087
 30
0.000000
  0
VERTEX
  8
LAYER-1
 10
1.239809
 20
0.034087
 30
0.000000
  0
VERTEX
  8
LAYER-1
 10
1.263063
 20
0.030616
 30
0.000000
  0
VERTEX
  8
LAYER-1
 10
1.301821
 20
0.030616
 30
0.000000
  0
VERTEX
  8
LAYER-1
 10
1.332827
 20
0.030616
 30
0.000000
  0
VERTEX
  8
LAYER-1
 10
1.352204
 20
0.027143
 30
0.000000
  0
VERTEX
  8
LAYER-1
 10
1.383210
 20
0.023671
 30
0.000000
  0
VERTEX
  8
LAYER-1
 10
1.414216
 20
0.020198
 30
0.000000
  0
VERTEX
  8
LAYER-1
 10
1.452972
 20
0.020198
 30
0.000000
  0
VERTEX
  8
LAYER-1
 10
1.483978
 20
0.020198
 30
0.000000
  0
VERTEX
  8
LAYER-1
 10
1.522734
 20
0.020198
 30
0.000000
  0
VERTEX
  8
LAYER-1
 10
1.553739
 20
0.027143
 30
0.000000
  0
VERTEX
  8
LAYER-1
 10
1.576993
 20
0.027143
 30
0.000000
  0
VERTEX
  8
LAYER-1
 10
1.596371
 20
0.030616
 30
0.000000
  0
VERTEX
  8
LAYER-1
 10
1.619626
 20
0.030616
 30
0.000000
  0
VERTEX
  8
LAYER-1
 10
1.639004
 20
0.030616
 30
0.000000
  0
VERTEX
  8
LAYER-1
 10
1.681636
 20
0.030616
 30
0.000000
  0
VERTEX
  8
LAYER-1
 10
1.728145
 20
0.023671
 30
0.000000
  0
VERTEX
  8
LAYER-1
 10
1.770776
 20
0.020198
 30
0.000000
  0
VERTEX
  8
LAYER-1
 10
1.832787
 20
0.013254
 30
0.000000
  0
VERTEX
  8
LAYER-1
 10
1.890922
 20
0.006310
 30
0.000000
  0
VERTEX
  8
LAYER-1
 10
1.941305
 20
0.006310
 30
0.000000
  0
VERTEX
  8
LAYER-1
 10
1.968435
 20
0.006310
 30
0.000000
  0
VERTEX
  8
LAYER-1
 10
2.003316
 20
0.006310
 30
0.000000
  0
VERTEX
  8
LAYER-1
 10
2.023663
 20
0.007178
 30
0.000000
  0
VERTEX
  8
LAYER-1
 10
2.060966
 20
0.009348
 30
0.000000
  0
VERTEX
  8
LAYER-1
 10
2.107959
 20
0.020198
 30
0.000000
  0
VERTEX
  8
LAYER-1
 10
2.150591
 20
0.034087
 30
0.000000
  0
VERTEX
  8
LAYER-1
 10
2.185472
 20
0.044504
 30
0.000000
  0
VERTEX
  8
LAYER-1
 10
2.212602
 20
0.054921
 30
0.000000
  0
VERTEX
  8
LAYER-1
 10
2.235856
 20
0.061866
 30
0.000000
  0
VERTEX
  8
LAYER-1
 10
2.259110
 20
0.061866
 30
0.000000
  0
VERTEX
  8
LAYER-1
 10
2.282364
 20
0.061866
 30
0.000000
  0
VERTEX
  8
LAYER-1
 10
2.305618
 20
0.061866
 30
0.000000
  0
VERTEX
  8
LAYER-1
 10
2.340499
 20
0.054921
 30
0.000000
  0
VERTEX
  8
LAYER-1
 10
2.371504
 20
0.047977
 30
0.000000
  0
VERTEX
  8
LAYER-1
 10
2.394758
 20
0.041033
 30
0.000000
  0
VERTEX
  8
LAYER-1
 10
2.414136
 20
0.037560
 30
0.000000
  0
VERTEX
  8
LAYER-1
 10
2.437390
 20
0.030616
 30
0.000000
  0
VERTEX
  8
LAYER-1
 10
2.456768
 20
0.023671
 30
0.000000
  0
VERTEX
  8
LAYER-1
 10
2.480022
 20
0.020198
 30
0.000000
  0
VERTEX
  8
LAYER-1
 10
2.499401
 20
0.020198
 30
0.000000
  0
VERTEX
  8
LAYER-1
 10
2.530406
 20
0.016727
 30
0.000000
  0
VERTEX
  8
LAYER-1
 10
2.557536
 20
0.016727
 30
0.000000
  0
VERTEX
  8
LAYER-1
 10
2.592417
 20
0.016727
 30
0.000000
  0
VERTEX
  8
LAYER-1
 10
2.619546
 20
0.020198
 30
0.000000
  0
VERTEX
  8
LAYER-1
 10
2.654428
 20
0.030616
 30
0.000000
  0
VERTEX
  8
LAYER-1
 10
2.673805
 20
0.030616
 30
0.000000
  0
VERTEX
  8
LAYER-1
 10
2.697060
 20
0.030616
 30
0.000000
  0
VERTEX
  8
LAYER-1
 10
2.716438
 20
0.030616
 30
0.000000
  0
VERTEX
  8
LAYER-1
 10
2.739692
 20
0.034087
 30
0.000000
  0
VERTEX
  8
LAYER-1
 10
2.762946
 20
0.037560
 30
0.000000
  0
VERTEX
  8
LAYER-1
 10
2.793951
 20
0.037560
 30
0.000000
  0
VERTEX
  8
LAYER-1
 10
2.824957
 20
0.037560
 30
0.000000
  0
VERTEX
  8
LAYER-1
 10
2.848210
 20
0.037560
 30
0.000000
  0
VERTEX
  8
LAYER-1
 10
2.871464
 20
0.037560
 30
0.000000
  0
VERTEX
  8
LAYER-1
 10
2.890843
 20
0.034087
 30
0.000000
  0
VERTEX
  8
LAYER-1
 10
2.910222
 20
0.030616
 30
0.000000
  0
VERTEX
  8
LAYER-1
 10
2.929600
 20
0.027143
 30
0.000000
  0
VERTEX
  8
LAYER-1
 10
2.948978
 20
0.023671
 30
0.000000
  0
VERTEX
  8
LAYER-1
 10
2.979984
 20
0.016727
 30
0.000000
  0
VERTEX
  8
LAYER-1
 10
3.003237
 20
0.013254
 30
0.000000
  0
VERTEX
  8
LAYER-1
 10
3.026491
 20
0.013254
 30
0.000000
  0
VERTEX
  8
LAYER-1
 10
3.045869
 20
0.013254
 30
0.000000
  0
VERTEX
  8
LAYER-1
 10
3.072999
 20
0.013254
 30
0.000000
  0
VERTEX
  8
LAYER-1
 10
3.104004
 20
0.016727
 30
0.000000
  0
VERTEX
  8
LAYER-1
 10
3.158263
 20
0.027143
 30
0.000000
  0
VERTEX
  8
LAYER-1
 10
3.204771
 20
0.037560
 30
0.000000
  0
VERTEX
  8
LAYER-1
 10
3.247403
 20
0.044504
 30
0.000000
  0
VERTEX
  8
LAYER-1
 10
3.278409
 20
0.047977
 30
0.000000
  0
VERTEX
  8
LAYER-1
 10
3.317165
 20
0.051448
 30
0.000000
  0
VERTEX
  8
LAYER-1
 10
3.348171
 20
0.054921
 30
0.000000
  0
VERTEX
  8
LAYER-1
 10
3.373847
 20
0.055790
 30
0.000000
  0
VERTEX
  8
LAYER-1
 10
3.391287
 20
0.053619
 30
0.000000
  0
VERTEX
  8
LAYER-1
 10
3.412604
 20
0.048845
 30
0.000000
  0
VERTEX
  8
LAYER-1
 10
3.433435
 20
0.037560
 30
0.000000
  0
VERTEX
  8
LAYER-1
 10
3.456689
 20
0.034087
 30
0.000000
  0
VERTEX
  8
LAYER-1
 10
3.476068
 20
0.034087
 30
0.000000
  0
VERTEX
  8
LAYER-1
 10
3.495446
 20
0.034087
 30
0.000000
  0
VERTEX
  8
LAYER-1
 10
3.514826
 20
0.034087
 30
0.000000
  0
VERTEX
  8
LAYER-1
 10
3.545831
 20
0.034087
 30
0.000000
  0
VERTEX
  8
LAYER-1
 10
3.569085
 20
0.034087
 30
0.000000
  0
VERTEX
  8
LAYER-1
 10
3.592339
 20
0.034087
 30
0.000000
  0
VERTEX
  8
LAYER-1
 10
3.611718
 20
0.034087
 30
0.000000
  0
VERTEX
  8
LAYER-1
 10
3.634972
 20
0.034087
 30
0.000000
  0
VERTEX
  8
LAYER-1
 10
3.658226
 20
0.034087
 30
0.000000
  0
VERTEX
  8
LAYER-1
 10
3.677604
 20
0.034087
 30
0.000000
  0
VERTEX
  8
LAYER-1
 10
3.704734
 20
0.034087
 30
0.000000
  0
VERTEX
  8
LAYER-1
 10
3.727987
 20
0.030616
 30
0.000000
  0
VERTEX
  8
LAYER-1
 10
3.750273
 20
0.022803
 30
0.000000
  0
VERTEX
  8
LAYER-1
 10
3.790967
 20
0.020198
 30
0.000000
  0
VERTEX
  8
LAYER-1
 10
3.828755
 20
0.023671
 30
0.000000
  0
VERTEX
  8
LAYER-1
 10
3.848133
 20
0.030616
 30
0.000000
  0
VERTEX
  8
LAYER-1
 10
3.871387
 20
0.037560
 30
0.000000
  0
VERTEX
  8
LAYER-1
 10
3.891251
 20
0.041467
 30
0.000000
  0
VERTEX
  8
LAYER-1
 10
3.914020
 20
0.047977
 30
0.000000
  0
VERTEX
  8
LAYER-1
 10
3.937272
 20
0.047977
 30
0.000000
  0
VERTEX
  8
LAYER-1
 10
3.960527
 20
0.044504
 30
0.000000
  0
VERTEX
  8
LAYER-1
 10
3.983782
 20
0.044504
 30
0.000000
  0
VERTEX
  8
LAYER-1
 10
4.007035
 20
0.044504
 30
0.000000
  0
VERTEX
  8
LAYER-1
 10
4.026415
 20
0.041033
 30
0.000000
  0
VERTEX
  8
LAYER-1
 10
4.053544
 20
0.041033
 30
0.000000
  0
VERTEX
  8
LAYER-1
 10
4.084549
 20
0.041033
 30
0.000000
  0
VERTEX
  8
LAYER-1
 10
4.115554
 20
0.047977
 30
0.000000
  0
VERTEX
  8
LAYER-1
 10
4.134933
 20
0.051448
 30
0.000000
  0
VERTEX
  8
LAYER-1
 10
4.162062
 20
0.051448
 30
0.000000
  0
VERTEX
  8
LAYER-1
 10
4.185316
 20
0.054921
 30
0.000000
  0
VERTEX
  8
LAYER-1
 10
4.216321
 20
0.058393
 30
0.000000
  0
VERTEX
  8
LAYER-1
 10
4.239575
 20
0.058393
 30
0.000000
  0
VERTEX
  8
LAYER-1
 10
4.270581
 20
0.054921
 30
0.000000
  0
VERTEX
  8
LAYER-1
 10
4.313213
 20
0.044504
 30
0.000000
  0
VERTEX
  8
LAYER-1
 10
4.344218
 20
0.034087
 30
0.000000
  0
VERTEX
  8
LAYER-1
 10
4.379100
 20
0.023671
 30
0.000000
  0
VERTEX
  8
LAYER-1
 10
4.422217
 20
0.016726
 30
0.000000
  0
VERTEX
  8
LAYER-1
 10
4.469693
 20
0.017593
 30
0.000000
  0
VERTEX
  8
LAYER-1
 10
4.524921
 20
0.020198
 30
0.000000
  0
VERTEX
  8
LAYER-1
 10
4.592261
 20
0.020198
 30
0.000000
  0
VERTEX
  8
LAYER-1
 10
4.637800
 20
0.008914
 30
0.000000
  0
VERTEX
  8
LAYER-1
 10
4.667836
 20
0.002836
 30
0.000000
  0
VERTEX
  8
LAYER-1
 10
4.691090
 20
0.001968
 30
0.000000
  0
VERTEX
  8
LAYER-1
 10
4.725972
 20
0.001970
 30
0.000000
  0
VERTEX
  8
LAYER-1
 10
4.751163
 20
0.006310
 30
0.000000
  0
VERTEX
  8
LAYER-1
 10
4.778293
 20
0.016727
 30
0.000000
  0
VERTEX
  8
LAYER-1
 10
4.813174
 20
0.023671
 30
0.000000
  0
VERTEX
  8
LAYER-1
 10
4.840303
 20
0.030616
 30
0.000000
  0
VERTEX
  8
LAYER-1
 10
4.863558
 20
0.034087
 30
0.000000
  0
VERTEX
  8
LAYER-1
 10
4.886811
 20
0.037560
 30
0.000000
  0
VERTEX
  8
LAYER-1
 10
4.913940
 20
0.041033
 30
0.000000
  0
VERTEX
  8
LAYER-1
 10
4.941070
 20
0.047977
 30
0.000000
  0
VERTEX
  8
LAYER-1
 10
4.960448
 20
0.051448
 30
0.000000
  0
VERTEX
  8
LAYER-1
 10
4.991454
 20
0.054921
 30
0.000000
  0
VERTEX
  8
LAYER-1
 10
5.014708
 20
0.061866
 30
0.000000
  0
VERTEX
  8
LAYER-1
 10
5.038446
 20
0.072717
 30
0.000000
  0
VERTEX
  8
LAYER-1
 10
5.061215
 20
0.079227
 30
0.000000
  0
VERTEX
  8
LAYER-1
 10
5.084470
 20
0.079227
 30
0.000000
  0
VERTEX
  8
LAYER-1
 10
5.111599
 20
0.079227
 30
0.000000
  0
VERTEX
  8
LAYER-1
 10
5.138728
 20
0.079227
 30
0.000000
  0
VERTEX
  8
LAYER-1
 10
5.177486
 20
0.075754
 30
0.000000
  0
VERTEX
  8
LAYER-1
 10
5.231745
 20
0.072283
 30
0.000000
  0
VERTEX
  8
LAYER-1
 10
5.274377
 20
0.072283
 30
0.000000
  0
VERTEX
  8
LAYER-1
 10
5.305381
 20
0.072283
 30
0.000000
  0
VERTEX
  8
LAYER-1
 10
5.328636
 20
0.072283
 30
0.000000
  0
VERTEX
  8
LAYER-1
 10
5.351891
 20
0.072283
 30
0.000000
  0
VERTEX
  8
LAYER-1
 10
5.382895
 20
0.075754
 30
0.000000
  0
VERTEX
  8
LAYER-1
 10
5.421652
 20
0.075754
 30
0.000000
  0
VERTEX
  8
LAYER-1
 10
5.452657
 20
0.075754
 30
0.000000
  0
VERTEX
  8
LAYER-1
 10
5.475911
 20
0.079227
 30
0.000000
  0
VERTEX
  8
LAYER-1
 10
5.506916
 20
0.079227
 30
0.000000
  0
VERTEX
  8
LAYER-1
 10
5.526295
 20
0.079227
 30
0.000000
  0
VERTEX
  8
LAYER-1
 10
5.557300
 20
0.070546
 30
0.000000
  0
VERTEX
  8
LAYER-1
 10
5.584429
 20
0.058393
 30
0.000000
  0
VERTEX
  8
LAYER-1
 10
5.619310
 20
0.044504
 30
0.000000
  0
VERTEX
  8
LAYER-1
 10
5.646439
 20
0.037560
 30
0.000000
  0
VERTEX
  8
LAYER-1
 10
5.677446
 20
0.030616
 30
0.000000
  0
VERTEX
  8
LAYER-1
 10
5.705060
 20
0.028446
 30
0.000000
  0
VERTEX
  8
LAYER-1
 10
5.731705
 20
0.027143
 30
0.000000
  0
VERTEX
  8
LAYER-1
 10
5.754959
 20
0.030616
 30
0.000000
  0
VERTEX
  8
LAYER-1
 10
5.778213
 20
0.037560
 30
0.000000
  0
VERTEX
  8
LAYER-1
 10
5.805343
 20
0.041033
 30
0.000000
  0
VERTEX
  8
LAYER-1
 10
5.828596
 20
0.044504
 30
0.000000
  0
VERTEX
  8
LAYER-1
 10
5.851851
 20
0.047977
 30
0.000000
  0
VERTEX
  8
LAYER-1
 10
5.871229
 20
0.051448
 30
0.000000
  0
VERTEX
  8
LAYER-1
 10
5.894483
 20
0.051448
 30
0.000000
  0
VERTEX
  8
LAYER-1
 10
5.921612
 20
0.051448
 30
0.000000
  0
VERTEX
  8
LAYER-1
 10
5.941475
 20
0.054053
 30
0.000000
  0
VERTEX
  8
LAYER-1
 10
5.968120
 20
0.058393
 30
0.000000
  0
VERTEX
  8
LAYER-1
 10
5.991374
 20
0.065337
 30
0.000000
  0
VERTEX
  8
LAYER-1
 10
6.022379
 20
0.065337
 30
0.000000
  0
VERTEX
  8
LAYER-1
 10
6.053385
 20
0.065337
 30
0.000000
  0
VERTEX
  8
LAYER-1
 10
6.072762
 20
0.065337
 30
0.000000
  0
VERTEX
  8
LAYER-1
 10
6.127022
 20
0.058393
 30
0.000000
  0
VERTEX
  8
LAYER-1
 10
6.158028
 20
0.051448
 30
0.000000
  0
VERTEX
  8
LAYER-1
 10
6.177405
 20
0.047977
 30
0.000000
  0
VERTEX
  8
LAYER-1
 10
6.212286
 20
0.047977
 30
0.000000
  0
VERTEX
  8
LAYER-1
 10
6.236025
 20
0.055355
 30
0.000000
  0
VERTEX
  8
LAYER-1
 10
6.257825
 20
0.056223
 30
0.000000
  0
VERTEX
  8
LAYER-1
 10
6.309663
 20
0.063167
 30
0.000000
  0
VERTEX
  8
LAYER-1
 10
6.358108
 20
0.073150
 30
0.000000
  0
VERTEX
  8
LAYER-1
 10
6.394443
 20
0.076623
 30
0.000000
  0
VERTEX
  8
LAYER-1
 10
6.427386
 20
0.077056
 30
0.000000
  0
VERTEX
  8
LAYER-1
 10
6.444341
 20
0.072283
 30
0.000000
  0
VERTEX
  8
LAYER-1
 10
6.462751
 20
0.068810
 30
0.000000
  0
VERTEX
  8
LAYER-1
 10
6.493757
 20
0.063602
 30
0.000000
  0
VERTEX
  8
LAYER-1
 10
6.533966
 20
0.071848
 30
0.000000
  0
VERTEX
  8
LAYER-1
 10
6.549469
 20
0.079227
 30
0.000000
  0
VERTEX
  8
LAYER-1
 10
6.572723
 20
0.079227
 30
0.000000
  0
VERTEX
  8
LAYER-1
 10
6.595977
 20
0.079227
 30
0.000000
  0
VERTEX
  8
LAYER-1
 10
6.623107
 20
0.072283
 30
0.000000
  0
VERTEX
  8
LAYER-1
 10
6.646361
 20
0.058393
 30
0.000000
  0
VERTEX
  8
LAYER-1
 10
6.673490
 20
0.047977
 30
0.000000
  0
VERTEX
  8
LAYER-1
 10
6.700620
 20
0.037560
 30
0.000000
  0
VERTEX
  8
LAYER-1
 10
6.723874
 20
0.037560
 30
0.000000
  0
VERTEX
  8
LAYER-1
 10
6.753966
 20
0.037543
 30
0.000000
  0
VERTEX
  8
LAYER-1
 10
6.778134
 20
0.047977
 30
0.000000
  0
SEQEND
  8
LAYER-1
  0
TEXT
  8
LAYER-1
 62
  0
 10
5.847747
 20
0.547962
 30
0.000000
 40
0.125000
  1
Douille
 72
  5
 11
6.458858
 21
0.547962
 31
0.000000
  0
TEXT
  8
LAYER-1
 62
  0
 10
5.847747
 20
0.353517
 30
0.000000
 40
0.125000
  1
anti-poussiÅre
 72
  5
 11
7.028303
 21
0.353517
 31
0.000000
  0
POLYLINE
  8
LAYER-1
 66
  1
 70
  0
 62
  0
 10
5.840277
 20
0.468115
 30
0.000000
  0
VERTEX
  8
LAYER-1
 10
5.840277
 20
0.468115
 30
0.000000
  0
VERTEX
  8
LAYER-1
 10
3.776411
 20
0.158535
 30
0.000000
  0
SEQEND
  8
LAYER-1
  0
POLYLINE
  8
LAYER-1
 66
  1
 70
  1
 62
  0
  0
VERTEX
  8
LAYER-1
 10
3.756943
 20
0.155615
 30
0.000000
  0
VERTEX
  8
LAYER-1
 10
3.819438
 20
0.207122
 30
0.000000
  0
VERTEX
  8
LAYER-1
 10
3.825619
 20
0.165916
 30
0.000000
  0
VERTEX
  8
LAYER-1
 10
3.831800
 20
0.124711
 30
0.000000
  0
VERTEX
  8
LAYER-1
 10
3.756943
 20
0.155615
 30
0.000000
  0
SEQEND
  8
LAYER-1
  0
TEXT
  8
LAYER-1
 62
  0
 10
1.806080
 20
8.450740
 30
0.000000
 40
0.125000
  1
PORTE ACCORDâON OPAQUE
 72
  5
 11
4.306080
 21
8.450740
 31
0.000000
  0
LINE
  8
LAYER-1
 62
  0
 10
5.906775
 20
7.409073
 30
0.000000
 11
5.906775
 21
7.141034
 31
0.000000
  0
LINE
  8
LAYER-1
 62
  0
 10
5.823653
 20
7.409073
 30
0.000000
 11
6.031775
 21
7.409073
 31
0.000000
  0
LINE
  8
LAYER-1
 62
  0
 10
5.829517
 20
7.141034
 30
0.000000
 11
6.031775
 21
7.141034
 31
0.000000
  0
LINE
  8
LAYER-1
 62
  0
 10
5.936238
 20
7.379610
 30
0.000000
 11
5.877312
 21
7.438536
 31
0.000000
  0
LINE
  8
LAYER-1
 62
  0
 10
5.936238
 20
7.111571
 30
0.000000
 11
5.877312
 21
7.170497
 31
0.000000
  0
TEXT
  8
LAYER-1
 62
  0
 10
5.783283
 20
7.266470
 30
0.000000
 40
0.125000
  1
 
 50
90.000000
  0
TEXT
  8
LAYER-1
 62
  0
 10
6.236636
 20
7.284073
 30
0.000000
 40
0.125000
  1
4"
 72
  5
 11
6.458858
 21
7.284073
 31
0.000000
  0
TEXT
  8
LAYER-1
 62
  0
 10
6.014414
 20
7.089628
 30
0.000000
 40
0.125000
  1
102mm
 72
  5
 11
6.681080
 21
7.089628
 31
0.000000
  0
LINE
  8
LAYER-1
 62
  0
 10
4.513545
 20
7.672283
 30
0.000000
 11
4.923267
 21
7.672283
 31
0.000000
  0
LINE
  8
LAYER-1
 62
  0
 10
4.513545
 20
7.302493
 30
0.000000
 11
4.513545
 21
7.797283
 31
0.000000
  0
LINE
  8
LAYER-1
 62
  0
 10
4.923267
 20
7.300757
 30
0.000000
 11
4.923267
 21
7.797283
 31
0.000000
  0
LINE
  8
LAYER-1
 62
  0
 10
4.543007
 20
7.701746
 30
0.000000
 11
4.484082
 21
7.642820
 31
0.000000
  0
LINE
  8
LAYER-1
 62
  0
 10
4.952730
 20
7.701746
 30
0.000000
 11
4.893804
 21
7.642820
 31
0.000000
  0
TEXT
  8
LAYER-1
 62
  0
 10
4.713561
 20
7.797415
 30
0.000000
 40
0.125000
  1
 
  0
TEXT
  8
LAYER-1
 62
  0
 10
4.597747
 20
8.034073
 30
0.000000
 40
0.125000
  1
6"
 72
  5
 11
4.819969
 21
8.034073
 31
0.000000
  0
TEXT
  8
LAYER-1
 62
  0
 10
4.375525
 20
7.839628
 30
0.000000
 40
0.125000
  1
152mm
 72
  5
 11
5.042191
 21
7.839628
 31
0.000000
  0
ENDSEC
  0
EOF
