  0
SECTION
  2
HEADER
999
MacDraft 5.0\0
  9
$ACADVER
  1
AC1006
  9
$CLAYER
  8
LAYER-1
  9
$EXTMIN
 10
0.000000
 20
0.000000
  9
$EXTMAX
 10
6.830386
 20
9.972380
  9
$FASTZOOM
 70
0
  9
$FILLMODE
 70
1
  0
ENDSEC
  0
SECTION
  2
TABLES
  0
TABLE
  2
LTYPE
 70
16
  0
LTYPE
  2
CONTINUOUS
 70
64
  3
Solid Line
 72
65
 73
0
 40
0.000000
  0
LTYPE
  2
LTYPE01
 70
64
  3
CUSTOM
 72
65
 73
2
 40
0.111111
 49
0.083333
 49
-0.027778
  0
LTYPE
  2
LTYPE02
 70
64
  3
CUSTOM
 72
65
 73
2
 40
0.194444
 49
0.166667
 49
-0.027778
  0
LTYPE
  2
LTYPE03
 70
64
  3
CUSTOM
 72
65
 73
2
 40
0.375000
 49
0.333333
 49
-0.041667
  0
LTYPE
  2
LTYPE04
 70
64
  3
CUSTOM
 72
65
 73
2
 40
0.722222
 49
0.666667
 49
-0.055556
  0
LTYPE
  2
LTYPE05
 70
64
  3
CUSTOM
 72
65
 73
4
 40
0.152778
 49
0.083333
 49
-0.027778
 49
0.013889
 49
-0.027778
  0
LTYPE
  2
LTYPE06
 70
64
  3
CUSTOM
 72
65
 73
4
 40
0.236111
 49
0.166667
 49
-0.027778
 49
0.013889
 49
-0.027778
  0
LTYPE
  2
LTYPE07
 70
64
  3
CUSTOM
 72
65
 73
4
 40
0.444444
 49
0.333333
 49
-0.041667
 49
0.027778
 49
-0.041667
  0
LTYPE
  2
LTYPE08
 70
64
  3
CUSTOM
 72
65
 73
4
 40
0.805556
 49
0.666667
 49
-0.055556
 49
0.027778
 49
-0.055556
  0
LTYPE
  2
LTYPE09
 70
64
  3
CUSTOM
 72
65
 73
6
 40
0.194444
 49
0.083333
 49
-0.027778
 49
0.013889
 49
-0.027778
 49
0.013889
 49
-0.027778
  0
LTYPE
  2
LTYPE10
 70
64
  3
CUSTOM
 72
65
 73
6
 40
0.277778
 49
0.166667
 49
-0.027778
 49
0.013889
 49
-0.027778
 49
0.013889
 49
-0.027778
  0
LTYPE
  2
LTYPE11
 70
64
  3
CUSTOM
 72
65
 73
6
 40
0.500000
 49
0.333333
 49
-0.041667
 49
0.027778
 49
-0.027778
 49
0.027778
 49
-0.041667
  0
LTYPE
  2
LTYPE12
 70
64
  3
CUSTOM
 72
65
 73
6
 40
0.861111
 49
0.666667
 49
-0.055556
 49
0.027778
 49
-0.027778
 49
0.027778
 49
-0.055556
  0
LTYPE
  2
LTYPE13
 70
64
  3
CUSTOM
 72
65
 73
8
 40
0.319444
 49
0.166667
 49
-0.027778
 49
0.013889
 49
-0.027778
 49
0.013889
 49
-0.027778
 49
0.013889
 49
-0.027778
  0
LTYPE
  2
LTYPE14
 70
64
  3
CUSTOM
 72
65
 73
8
 40
0.555556
 49
0.333333
 49
-0.041667
 49
0.027778
 49
-0.027778
 49
0.027778
 49
-0.027778
 49
0.027778
 49
-0.041667
  0
LTYPE
  2
LTYPE15
 70
64
  3
CUSTOM
 72
65
 73
8
 40
0.944444
 49
0.666667
 49
-0.055556
 49
0.027778
 49
-0.041667
 49
0.027778
 49
-0.041667
 49
0.027778
 49
-0.055556
  0
ENDTAB
  0
TABLE
  2
LAYER
 70
1
  0
LAYER
  2
LAYER-1
 70
0
 62
7
  6
CONTINUOUS
  0
ENDTAB
  0
ENDSEC
  0
SECTION
  2
BLOCKS
  0
ENDSEC
  0
SECTION
  2
ENTITIES
  0
POLYLINE
  8
LAYER-1
 66
  1
 70
  0
 62
  0
 10
3.477328
 20
0.212574
 30
0.000000
  0
VERTEX
  8
LAYER-1
 10
3.477328
 20
0.212574
 30
0.000000
  0
VERTEX
  8
LAYER-1
 10
3.477328
 20
0.211383
 30
0.000000
  0
SEQEND
  8
LAYER-1
  0
POLYLINE
  8
LAYER-1
 66
  1
 70
  1
 62
  0
 10
1.305471
 20
0.117407
 30
0.000000
  0
VERTEX
  8
LAYER-1
 10
1.305471
 20
0.117407
 30
0.000000
  0
VERTEX
  8
LAYER-1
 10
1.312416
 20
0.091365
 30
0.000000
  0
VERTEX
  8
LAYER-1
 10
1.337590
 20
0.105253
 30
0.000000
  0
SEQEND
  8
LAYER-1
  0
POLYLINE
  8
LAYER-1
 66
  1
 70
  1
 62
  0
 10
1.495576
 20
0.222438
 30
0.000000
  0
VERTEX
  8
LAYER-1
 10
1.495576
 20
0.222438
 30
0.000000
  0
VERTEX
  8
LAYER-1
 10
1.482556
 20
0.199869
 30
0.000000
  0
VERTEX
  8
LAYER-1
 10
1.512938
 20
0.220701
 30
0.000000
  0
SEQEND
  8
LAYER-1
  0
POLYLINE
  8
LAYER-1
 66
  1
 70
  1
 62
  0
 10
1.141410
 20
0.158206
 30
0.000000
  0
VERTEX
  8
LAYER-1
 10
1.141410
 20
0.158206
 30
0.000000
  0
VERTEX
  8
LAYER-1
 10
1.124917
 20
0.133031
 30
0.000000
  0
VERTEX
  8
LAYER-1
 10
1.139673
 20
0.125219
 30
0.000000
  0
SEQEND
  8
LAYER-1
  0
POLYLINE
  8
LAYER-1
 66
  1
 70
  0
 62
  0
 10
1.308076
 20
0.159075
 30
0.000000
  0
VERTEX
  8
LAYER-1
 10
1.308076
 20
0.159075
 30
0.000000
  0
VERTEX
  8
LAYER-1
 10
1.303736
 20
0.159075
 30
0.000000
  0
VERTEX
  8
LAYER-1
 10
1.300264
 20
0.154733
 30
0.000000
  0
VERTEX
  8
LAYER-1
 10
1.299396
 20
0.149526
 30
0.000000
  0
VERTEX
  8
LAYER-1
 10
1.301132
 20
0.145185
 30
0.000000
  0
VERTEX
  8
LAYER-1
 10
1.305472
 20
0.143450
 30
0.000000
  0
VERTEX
  8
LAYER-1
 10
1.309812
 20
0.143450
 30
0.000000
  0
VERTEX
  8
LAYER-1
 10
1.314153
 20
0.146921
 30
0.000000
  0
VERTEX
  8
LAYER-1
 10
1.314153
 20
0.151262
 30
0.000000
  0
VERTEX
  8
LAYER-1
 10
1.313285
 20
0.155602
 30
0.000000
  0
VERTEX
  8
LAYER-1
 10
1.308944
 20
0.158207
 30
0.000000
  0
SEQEND
  8
LAYER-1
  0
POLYLINE
  8
LAYER-1
 66
  1
 70
  1
 62
  0
 10
0.946097
 20
0.197266
 30
0.000000
  0
VERTEX
  8
LAYER-1
 10
0.946097
 20
0.197266
 30
0.000000
  0
VERTEX
  8
LAYER-1
 10
0.933076
 20
0.174697
 30
0.000000
  0
VERTEX
  8
LAYER-1
 10
0.963458
 20
0.195529
 30
0.000000
  0
SEQEND
  8
LAYER-1
  0
POLYLINE
  8
LAYER-1
 66
  1
 70
  1
 62
  0
 10
1.077875
 20
0.196932
 30
0.000000
  0
VERTEX
  8
LAYER-1
 10
1.077875
 20
0.196932
 30
0.000000
  0
VERTEX
  8
LAYER-1
 10
1.065188
 20
0.177568
 30
0.000000
  0
VERTEX
  8
LAYER-1
 10
1.076539
 20
0.171558
 30
0.000000
  0
SEQEND
  8
LAYER-1
  0
POLYLINE
  8
LAYER-1
 66
  1
 70
  0
 62
  0
 10
1.435680
 20
0.178170
 30
0.000000
  0
VERTEX
  8
LAYER-1
 10
1.435680
 20
0.178170
 30
0.000000
  0
VERTEX
  8
LAYER-1
 10
1.431340
 20
0.178170
 30
0.000000
  0
VERTEX
  8
LAYER-1
 10
1.427868
 20
0.173829
 30
0.000000
  0
VERTEX
  8
LAYER-1
 10
1.427000
 20
0.168621
 30
0.000000
  0
VERTEX
  8
LAYER-1
 10
1.428736
 20
0.164281
 30
0.000000
  0
VERTEX
  8
LAYER-1
 10
1.433076
 20
0.162545
 30
0.000000
  0
VERTEX
  8
LAYER-1
 10
1.437416
 20
0.162545
 30
0.000000
  0
VERTEX
  8
LAYER-1
 10
1.441756
 20
0.166016
 30
0.000000
  0
VERTEX
  8
LAYER-1
 10
1.441756
 20
0.170358
 30
0.000000
  0
VERTEX
  8
LAYER-1
 10
1.440888
 20
0.174698
 30
0.000000
  0
VERTEX
  8
LAYER-1
 10
1.436548
 20
0.177302
 30
0.000000
  0
SEQEND
  8
LAYER-1
  0
POLYLINE
  8
LAYER-1
 66
  1
 70
  0
 62
  0
 10
1.193492
 20
0.152128
 30
0.000000
  0
VERTEX
  8
LAYER-1
 10
1.193492
 20
0.152128
 30
0.000000
  0
VERTEX
  8
LAYER-1
 10
1.189153
 20
0.152128
 30
0.000000
  0
VERTEX
  8
LAYER-1
 10
1.185680
 20
0.147788
 30
0.000000
  0
VERTEX
  8
LAYER-1
 10
1.184812
 20
0.142581
 30
0.000000
  0
VERTEX
  8
LAYER-1
 10
1.186548
 20
0.138240
 30
0.000000
  0
VERTEX
  8
LAYER-1
 10
1.190889
 20
0.136503
 30
0.000000
  0
VERTEX
  8
LAYER-1
 10
1.195229
 20
0.136503
 30
0.000000
  0
VERTEX
  8
LAYER-1
 10
1.199569
 20
0.139976
 30
0.000000
  0
VERTEX
  8
LAYER-1
 10
1.199569
 20
0.144316
 30
0.000000
  0
VERTEX
  8
LAYER-1
 10
1.198701
 20
0.148657
 30
0.000000
  0
VERTEX
  8
LAYER-1
 10
1.194360
 20
0.151260
 30
0.000000
  0
SEQEND
  8
LAYER-1
  0
POLYLINE
  8
LAYER-1
 66
  1
 70
  0
 62
  0
 10
1.029430
 20
0.144316
 30
0.000000
  0
VERTEX
  8
LAYER-1
 10
1.029430
 20
0.144316
 30
0.000000
  0
VERTEX
  8
LAYER-1
 10
1.025090
 20
0.144316
 30
0.000000
  0
VERTEX
  8
LAYER-1
 10
1.021617
 20
0.139976
 30
0.000000
  0
VERTEX
  8
LAYER-1
 10
1.020749
 20
0.134768
 30
0.000000
  0
VERTEX
  8
LAYER-1
 10
1.022485
 20
0.130427
 30
0.000000
  0
VERTEX
  8
LAYER-1
 10
1.026826
 20
0.128691
 30
0.000000
  0
VERTEX
  8
LAYER-1
 10
1.031166
 20
0.128691
 30
0.000000
  0
VERTEX
  8
LAYER-1
 10
1.035506
 20
0.132163
 30
0.000000
  0
VERTEX
  8
LAYER-1
 10
1.035506
 20
0.136503
 30
0.000000
  0
VERTEX
  8
LAYER-1
 10
1.034638
 20
0.140845
 30
0.000000
  0
VERTEX
  8
LAYER-1
 10
1.030298
 20
0.143448
 30
0.000000
  0
SEQEND
  8
LAYER-1
  0
POLYLINE
  8
LAYER-1
 66
  1
 70
  1
 62
  0
 10
1.657469
 20
0.169056
 30
0.000000
  0
VERTEX
  8
LAYER-1
 10
1.657469
 20
0.169056
 30
0.000000
  0
VERTEX
  8
LAYER-1
 10
1.631429
 20
0.162110
 30
0.000000
  0
VERTEX
  8
LAYER-1
 10
1.645316
 20
0.136937
 30
0.000000
  0
SEQEND
  8
LAYER-1
  0
POLYLINE
  8
LAYER-1
 66
  1
 70
  1
 62
  0
 10
1.719013
 20
0.109458
 30
0.000000
  0
VERTEX
  8
LAYER-1
 10
1.719013
 20
0.109458
 30
0.000000
  0
VERTEX
  8
LAYER-1
 10
1.741583
 20
0.096436
 30
0.000000
  0
VERTEX
  8
LAYER-1
 10
1.720750
 20
0.126819
 30
0.000000
  0
SEQEND
  8
LAYER-1
  0
POLYLINE
  8
LAYER-1
 66
  1
 70
  1
 62
  0
 10
1.250351
 20
0.176868
 30
0.000000
  0
VERTEX
  8
LAYER-1
 10
1.250351
 20
0.176868
 30
0.000000
  0
VERTEX
  8
LAYER-1
 10
1.225178
 20
0.193359
 30
0.000000
  0
VERTEX
  8
LAYER-1
 10
1.217365
 20
0.178603
 30
0.000000
  0
SEQEND
  8
LAYER-1
  0
POLYLINE
  8
LAYER-1
 66
  1
 70
  0
 62
  0
 10
1.668755
 20
0.205514
 30
0.000000
  0
VERTEX
  8
LAYER-1
 10
1.668755
 20
0.205514
 30
0.000000
  0
VERTEX
  8
LAYER-1
 10
1.668755
 20
0.209854
 30
0.000000
  0
VERTEX
  8
LAYER-1
 10
1.664414
 20
0.213326
 30
0.000000
  0
VERTEX
  8
LAYER-1
 10
1.659206
 20
0.214194
 30
0.000000
  0
VERTEX
  8
LAYER-1
 10
1.654865
 20
0.212458
 30
0.000000
  0
VERTEX
  8
LAYER-1
 10
1.653130
 20
0.208118
 30
0.000000
  0
VERTEX
  8
LAYER-1
 10
1.653130
 20
0.203778
 30
0.000000
  0
VERTEX
  8
LAYER-1
 10
1.656601
 20
0.199437
 30
0.000000
  0
VERTEX
  8
LAYER-1
 10
1.660942
 20
0.199437
 30
0.000000
  0
VERTEX
  8
LAYER-1
 10
1.665283
 20
0.200306
 30
0.000000
  0
VERTEX
  8
LAYER-1
 10
1.667888
 20
0.204646
 30
0.000000
  0
SEQEND
  8
LAYER-1
  0
POLYLINE
  8
LAYER-1
 66
  1
 70
  1
 62
  0
 10
1.621012
 20
0.181207
 30
0.000000
  0
VERTEX
  8
LAYER-1
 10
1.621012
 20
0.181207
 30
0.000000
  0
VERTEX
  8
LAYER-1
 10
1.598441
 20
0.194227
 30
0.000000
  0
VERTEX
  8
LAYER-1
 10
1.619274
 20
0.163846
 30
0.000000
  0
SEQEND
  8
LAYER-1
  0
POLYLINE
  8
LAYER-1
 66
  1
 70
  1
 62
  0
 10
1.269114
 20
0.193526
 30
0.000000
  0
VERTEX
  8
LAYER-1
 10
1.269114
 20
0.193526
 30
0.000000
  0
VERTEX
  8
LAYER-1
 10
1.249750
 20
0.206212
 30
0.000000
  0
VERTEX
  8
LAYER-1
 10
1.243738
 20
0.194862
 30
0.000000
  0
SEQEND
  8
LAYER-1
  0
POLYLINE
  8
LAYER-1
 66
  1
 70
  0
 62
  0
 10
1.734986
 20
0.069874
 30
0.000000
  0
VERTEX
  8
LAYER-1
 10
1.734986
 20
0.069874
 30
0.000000
  0
VERTEX
  8
LAYER-1
 10
1.734986
 20
0.065535
 30
0.000000
  0
VERTEX
  8
LAYER-1
 10
1.739327
 20
0.062062
 30
0.000000
  0
VERTEX
  8
LAYER-1
 10
1.744535
 20
0.061194
 30
0.000000
  0
VERTEX
  8
LAYER-1
 10
1.748876
 20
0.062930
 30
0.000000
  0
VERTEX
  8
LAYER-1
 10
1.750611
 20
0.067271
 30
0.000000
  0
VERTEX
  8
LAYER-1
 10
1.750611
 20
0.071611
 30
0.000000
  0
VERTEX
  8
LAYER-1
 10
1.747140
 20
0.075951
 30
0.000000
  0
VERTEX
  8
LAYER-1
 10
1.742799
 20
0.075951
 30
0.000000
  0
VERTEX
  8
LAYER-1
 10
1.738458
 20
0.075083
 30
0.000000
  0
VERTEX
  8
LAYER-1
 10
1.735853
 20
0.070742
 30
0.000000
  0
SEQEND
  8
LAYER-1
  0
POLYLINE
  8
LAYER-1
 66
  1
 70
  0
 62
  0
 10
1.244275
 20
0.124784
 30
0.000000
  0
VERTEX
  8
LAYER-1
 10
1.244275
 20
0.124784
 30
0.000000
  0
VERTEX
  8
LAYER-1
 10
1.244275
 20
0.129125
 30
0.000000
  0
VERTEX
  8
LAYER-1
 10
1.239934
 20
0.132596
 30
0.000000
  0
VERTEX
  8
LAYER-1
 10
1.234726
 20
0.133464
 30
0.000000
  0
VERTEX
  8
LAYER-1
 10
1.230385
 20
0.131728
 30
0.000000
  0
VERTEX
  8
LAYER-1
 10
1.228650
 20
0.127388
 30
0.000000
  0
VERTEX
  8
LAYER-1
 10
1.228650
 20
0.123048
 30
0.000000
  0
VERTEX
  8
LAYER-1
 10
1.232121
 20
0.118707
 30
0.000000
  0
VERTEX
  8
LAYER-1
 10
1.236462
 20
0.118707
 30
0.000000
  0
VERTEX
  8
LAYER-1
 10
1.240803
 20
0.119576
 30
0.000000
  0
VERTEX
  8
LAYER-1
 10
1.243408
 20
0.123916
 30
0.000000
  0
SEQEND
  8
LAYER-1
  0
POLYLINE
  8
LAYER-1
 66
  1
 70
  0
 62
  0
 10
1.546359
 20
0.159508
 30
0.000000
  0
VERTEX
  8
LAYER-1
 10
1.546359
 20
0.159508
 30
0.000000
  0
VERTEX
  8
LAYER-1
 10
1.546359
 20
0.163848
 30
0.000000
  0
VERTEX
  8
LAYER-1
 10
1.542018
 20
0.167320
 30
0.000000
  0
VERTEX
  8
LAYER-1
 10
1.536810
 20
0.168188
 30
0.000000
  0
VERTEX
  8
LAYER-1
 10
1.532469
 20
0.166452
 30
0.000000
  0
VERTEX
  8
LAYER-1
 10
1.530733
 20
0.162112
 30
0.000000
  0
VERTEX
  8
LAYER-1
 10
1.530733
 20
0.157772
 30
0.000000
  0
VERTEX
  8
LAYER-1
 10
1.534205
 20
0.153431
 30
0.000000
  0
VERTEX
  8
LAYER-1
 10
1.538546
 20
0.153431
 30
0.000000
  0
VERTEX
  8
LAYER-1
 10
1.542887
 20
0.154299
 30
0.000000
  0
VERTEX
  8
LAYER-1
 10
1.545492
 20
0.158640
 30
0.000000
  0
SEQEND
  8
LAYER-1
  0
POLYLINE
  8
LAYER-1
 66
  1
 70
  1
 62
  0
 10
1.765543
 20
0.151695
 30
0.000000
  0
VERTEX
  8
LAYER-1
 10
1.765543
 20
0.151695
 30
0.000000
  0
VERTEX
  8
LAYER-1
 10
1.772486
 20
0.125654
 30
0.000000
  0
VERTEX
  8
LAYER-1
 10
1.791584
 20
0.141278
 30
0.000000
  0
SEQEND
  8
LAYER-1
  0
POLYLINE
  8
LAYER-1
 66
  1
 70
  1
 62
  0
 10
1.949570
 20
0.173397
 30
0.000000
  0
VERTEX
  8
LAYER-1
 10
1.949570
 20
0.173397
 30
0.000000
  0
VERTEX
  8
LAYER-1
 10
1.936549
 20
0.150827
 30
0.000000
  0
VERTEX
  8
LAYER-1
 10
1.966931
 20
0.171660
 30
0.000000
  0
SEQEND
  8
LAYER-1
  0
POLYLINE
  8
LAYER-1
 66
  1
 70
  1
 62
  0
 10
1.999474
 20
0.071936
 30
0.000000
  0
VERTEX
  8
LAYER-1
 10
1.999474
 20
0.071936
 30
0.000000
  0
VERTEX
  8
LAYER-1
 10
1.982982
 20
0.046763
 30
0.000000
  0
VERTEX
  8
LAYER-1
 10
1.997738
 20
0.038951
 30
0.000000
  0
SEQEND
  8
LAYER-1
  0
POLYLINE
  8
LAYER-1
 66
  1
 70
  0
 62
  0
 10
1.737764
 20
0.176001
 30
0.000000
  0
VERTEX
  8
LAYER-1
 10
1.737764
 20
0.176001
 30
0.000000
  0
VERTEX
  8
LAYER-1
 10
1.733424
 20
0.176001
 30
0.000000
  0
VERTEX
  8
LAYER-1
 10
1.729952
 20
0.171660
 30
0.000000
  0
VERTEX
  8
LAYER-1
 10
1.729084
 20
0.166452
 30
0.000000
  0
VERTEX
  8
LAYER-1
 10
1.730820
 20
0.162112
 30
0.000000
  0
VERTEX
  8
LAYER-1
 10
1.735160
 20
0.160376
 30
0.000000
  0
VERTEX
  8
LAYER-1
 10
1.739500
 20
0.160376
 30
0.000000
  0
VERTEX
  8
LAYER-1
 10
1.743840
 20
0.163847
 30
0.000000
  0
VERTEX
  8
LAYER-1
 10
1.743840
 20
0.168188
 30
0.000000
  0
VERTEX
  8
LAYER-1
 10
1.742972
 20
0.172529
 30
0.000000
  0
VERTEX
  8
LAYER-1
 10
1.738632
 20
0.175133
 30
0.000000
  0
SEQEND
  8
LAYER-1
  0
POLYLINE
  8
LAYER-1
 66
  1
 70
  1
 62
  0
 10
1.775091
 20
0.108292
 30
0.000000
  0
VERTEX
  8
LAYER-1
 10
1.775091
 20
0.108292
 30
0.000000
  0
VERTEX
  8
LAYER-1
 10
1.762070
 20
0.085722
 30
0.000000
  0
VERTEX
  8
LAYER-1
 10
1.792452
 20
0.106556
 30
0.000000
  0
SEQEND
  8
LAYER-1
  0
POLYLINE
  8
LAYER-1
 66
  1
 70
  1
 62
  0
 10
2.030891
 20
0.054045
 30
0.000000
  0
VERTEX
  8
LAYER-1
 10
2.030891
 20
0.054045
 30
0.000000
  0
VERTEX
  8
LAYER-1
 10
2.043578
 20
0.073408
 30
0.000000
  0
VERTEX
  8
LAYER-1
 10
2.032227
 20
0.079420
 30
0.000000
  0
SEQEND
  8
LAYER-1
  0
POLYLINE
  8
LAYER-1
 66
  1
 70
  0
 62
  0
 10
1.930116
 20
0.054492
 30
0.000000
  0
VERTEX
  8
LAYER-1
 10
1.930116
 20
0.054492
 30
0.000000
  0
VERTEX
  8
LAYER-1
 10
1.934457
 20
0.054492
 30
0.000000
  0
VERTEX
  8
LAYER-1
 10
1.937929
 20
0.058832
 30
0.000000
  0
VERTEX
  8
LAYER-1
 10
1.938797
 20
0.064040
 30
0.000000
  0
VERTEX
  8
LAYER-1
 10
1.937061
 20
0.068381
 30
0.000000
  0
VERTEX
  8
LAYER-1
 10
1.932720
 20
0.070117
 30
0.000000
  0
VERTEX
  8
LAYER-1
 10
1.928381
 20
0.070117
 30
0.000000
  0
VERTEX
  8
LAYER-1
 10
1.924040
 20
0.066644
 30
0.000000
  0
VERTEX
  8
LAYER-1
 10
1.924040
 20
0.062304
 30
0.000000
  0
VERTEX
  8
LAYER-1
 10
1.924908
 20
0.057963
 30
0.000000
  0
VERTEX
  8
LAYER-1
 10
1.929248
 20
0.055359
 30
0.000000
  0
SEQEND
  8
LAYER-1
  0
POLYLINE
  8
LAYER-1
 66
  1
 70
  0
 62
  0
 10
1.619621
 20
0.090359
 30
0.000000
  0
VERTEX
  8
LAYER-1
 10
1.619621
 20
0.090359
 30
0.000000
  0
VERTEX
  8
LAYER-1
 10
1.623962
 20
0.090359
 30
0.000000
  0
VERTEX
  8
LAYER-1
 10
1.627433
 20
0.094700
 30
0.000000
  0
VERTEX
  8
LAYER-1
 10
1.628302
 20
0.099908
 30
0.000000
  0
VERTEX
  8
LAYER-1
 10
1.626566
 20
0.104248
 30
0.000000
  0
VERTEX
  8
LAYER-1
 10
1.622226
 20
0.105984
 30
0.000000
  0
VERTEX
  8
LAYER-1
 10
1.617885
 20
0.105984
 30
0.000000
  0
VERTEX
  8
LAYER-1
 10
1.613544
 20
0.102513
 30
0.000000
  0
VERTEX
  8
LAYER-1
 10
1.613544
 20
0.098172
 30
0.000000
  0
VERTEX
  8
LAYER-1
 10
1.614413
 20
0.093831
 30
0.000000
  0
VERTEX
  8
LAYER-1
 10
1.618754
 20
0.091227
 30
0.000000
  0
SEQEND
  8
LAYER-1
  0
POLYLINE
  8
LAYER-1
 66
  1
 70
  1
 62
  0
 10
2.114935
 20
0.156470
 30
0.000000
  0
VERTEX
  8
LAYER-1
 10
2.114935
 20
0.156470
 30
0.000000
  0
VERTEX
  8
LAYER-1
 10
2.088894
 20
0.149525
 30
0.000000
  0
VERTEX
  8
LAYER-1
 10
2.102782
 20
0.124352
 30
0.000000
  0
SEQEND
  8
LAYER-1
  0
POLYLINE
  8
LAYER-1
 66
  1
 70
  1
 62
  0
 10
1.853818
 20
0.116875
 30
0.000000
  0
VERTEX
  8
LAYER-1
 10
1.853818
 20
0.116875
 30
0.000000
  0
VERTEX
  8
LAYER-1
 10
1.831247
 20
0.129896
 30
0.000000
  0
VERTEX
  8
LAYER-1
 10
1.852080
 20
0.099514
 30
0.000000
  0
SEQEND
  8
LAYER-1
  0
POLYLINE
  8
LAYER-1
 66
  1
 70
  1
 62
  0
 10
1.883675
 20
0.039301
 30
0.000000
  0
VERTEX
  8
LAYER-1
 10
1.883675
 20
0.039301
 30
0.000000
  0
VERTEX
  8
LAYER-1
 10
1.908848
 20
0.022807
 30
0.000000
  0
VERTEX
  8
LAYER-1
 10
1.916661
 20
0.037565
 30
0.000000
  0
SEQEND
  8
LAYER-1
  0
POLYLINE
  8
LAYER-1
 66
  1
 70
  0
 62
  0
 10
2.146185
 20
0.205946
 30
0.000000
  0
VERTEX
  8
LAYER-1
 10
2.146185
 20
0.205946
 30
0.000000
  0
VERTEX
  8
LAYER-1
 10
2.146185
 20
0.210287
 30
0.000000
  0
VERTEX
  8
LAYER-1
 10
2.141844
 20
0.213759
 30
0.000000
  0
VERTEX
  8
LAYER-1
 10
2.136636
 20
0.214627
 30
0.000000
  0
VERTEX
  8
LAYER-1
 10
2.132296
 20
0.212891
 30
0.000000
  0
VERTEX
  8
LAYER-1
 10
2.130560
 20
0.208550
 30
0.000000
  0
VERTEX
  8
LAYER-1
 10
2.130560
 20
0.204210
 30
0.000000
  0
VERTEX
  8
LAYER-1
 10
2.134032
 20
0.199870
 30
0.000000
  0
VERTEX
  8
LAYER-1
 10
2.138372
 20
0.199870
 30
0.000000
  0
VERTEX
  8
LAYER-1
 10
2.142713
 20
0.200738
 30
0.000000
  0
VERTEX
  8
LAYER-1
 10
2.145318
 20
0.205078
 30
0.000000
  0
SEQEND
  8
LAYER-1
  0
POLYLINE
  8
LAYER-1
 66
  1
 70
  1
 62
  0
 10
2.078477
 20
0.168621
 30
0.000000
  0
VERTEX
  8
LAYER-1
 10
2.078477
 20
0.168621
 30
0.000000
  0
VERTEX
  8
LAYER-1
 10
2.055907
 20
0.181641
 30
0.000000
  0
VERTEX
  8
LAYER-1
 10
2.076739
 20
0.151260
 30
0.000000
  0
SEQEND
  8
LAYER-1
  0
POLYLINE
  8
LAYER-1
 66
  1
 70
  1
 62
  0
 10
0.847239
 20
0.205244
 30
0.000000
  0
VERTEX
  8
LAYER-1
 10
0.847239
 20
0.205244
 30
0.000000
  0
VERTEX
  8
LAYER-1
 10
0.827875
 20
0.217931
 30
0.000000
  0
VERTEX
  8
LAYER-1
 10
0.821864
 20
0.206580
 30
0.000000
  0
SEQEND
  8
LAYER-1
  0
POLYLINE
  8
LAYER-1
 66
  1
 70
  0
 62
  0
 10
1.858156
 20
0.176771
 30
0.000000
  0
VERTEX
  8
LAYER-1
 10
1.858156
 20
0.176771
 30
0.000000
  0
VERTEX
  8
LAYER-1
 10
1.858156
 20
0.181109
 30
0.000000
  0
VERTEX
  8
LAYER-1
 10
1.853816
 20
0.184582
 30
0.000000
  0
VERTEX
  8
LAYER-1
 10
1.848608
 20
0.185450
 30
0.000000
  0
VERTEX
  8
LAYER-1
 10
1.844267
 20
0.183714
 30
0.000000
  0
VERTEX
  8
LAYER-1
 10
1.842531
 20
0.179375
 30
0.000000
  0
VERTEX
  8
LAYER-1
 10
1.842531
 20
0.175034
 30
0.000000
  0
VERTEX
  8
LAYER-1
 10
1.846004
 20
0.170694
 30
0.000000
  0
VERTEX
  8
LAYER-1
 10
1.850344
 20
0.170694
 30
0.000000
  0
VERTEX
  8
LAYER-1
 10
1.854685
 20
0.171562
 30
0.000000
  0
VERTEX
  8
LAYER-1
 10
1.857289
 20
0.175902
 30
0.000000
  0
SEQEND
  8
LAYER-1
  0
POLYLINE
  8
LAYER-1
 66
  1
 70
  0
 62
  0
 10
0.824136
 20
0.138239
 30
0.000000
  0
VERTEX
  8
LAYER-1
 10
0.824136
 20
0.138239
 30
0.000000
  0
VERTEX
  8
LAYER-1
 10
0.824136
 20
0.142579
 30
0.000000
  0
VERTEX
  8
LAYER-1
 10
0.819796
 20
0.146051
 30
0.000000
  0
VERTEX
  8
LAYER-1
 10
0.814588
 20
0.146919
 30
0.000000
  0
VERTEX
  8
LAYER-1
 10
0.810247
 20
0.145183
 30
0.000000
  0
VERTEX
  8
LAYER-1
 10
0.808511
 20
0.140843
 30
0.000000
  0
VERTEX
  8
LAYER-1
 10
0.808511
 20
0.136503
 30
0.000000
  0
VERTEX
  8
LAYER-1
 10
0.811983
 20
0.132162
 30
0.000000
  0
VERTEX
  8
LAYER-1
 10
0.816324
 20
0.132162
 30
0.000000
  0
VERTEX
  8
LAYER-1
 10
0.820664
 20
0.133030
 30
0.000000
  0
VERTEX
  8
LAYER-1
 10
0.823269
 20
0.137371
 30
0.000000
  0
SEQEND
  8
LAYER-1
  0
POLYLINE
  8
LAYER-1
 66
  1
 70
  0
 62
  0
 10
1.946532
 20
0.205944
 30
0.000000
  0
VERTEX
  8
LAYER-1
 10
1.946532
 20
0.205944
 30
0.000000
  0
VERTEX
  8
LAYER-1
 10
1.946532
 20
0.210284
 30
0.000000
  0
VERTEX
  8
LAYER-1
 10
1.942191
 20
0.213756
 30
0.000000
  0
VERTEX
  8
LAYER-1
 10
1.936983
 20
0.214624
 30
0.000000
  0
VERTEX
  8
LAYER-1
 10
1.932642
 20
0.212888
 30
0.000000
  0
VERTEX
  8
LAYER-1
 10
1.930907
 20
0.208547
 30
0.000000
  0
VERTEX
  8
LAYER-1
 10
1.930907
 20
0.204208
 30
0.000000
  0
VERTEX
  8
LAYER-1
 10
1.934378
 20
0.199866
 30
0.000000
  0
VERTEX
  8
LAYER-1
 10
1.938719
 20
0.199866
 30
0.000000
  0
VERTEX
  8
LAYER-1
 10
1.943060
 20
0.200734
 30
0.000000
  0
VERTEX
  8
LAYER-1
 10
1.945665
 20
0.205076
 30
0.000000
  0
SEQEND
  8
LAYER-1
  0
POLYLINE
  8
LAYER-1
 66
  1
 70
  1
 62
  0
 10
1.505820
 20
0.070479
 30
0.000000
  0
VERTEX
  8
LAYER-1
 10
1.505820
 20
0.070479
 30
0.000000
  0
VERTEX
  8
LAYER-1
 10
1.479778
 20
0.063534
 30
0.000000
  0
VERTEX
  8
LAYER-1
 10
1.493666
 20
0.038361
 30
0.000000
  0
SEQEND
  8
LAYER-1
  0
POLYLINE
  8
LAYER-1
 66
  1
 70
  1
 62
  0
 10
2.352347
 20
0.133900
 30
0.000000
  0
VERTEX
  8
LAYER-1
 10
2.352347
 20
0.133900
 30
0.000000
  0
VERTEX
  8
LAYER-1
 10
2.374917
 20
0.120878
 30
0.000000
  0
VERTEX
  8
LAYER-1
 10
2.354084
 20
0.151260
 30
0.000000
  0
SEQEND
  8
LAYER-1
  0
POLYLINE
  8
LAYER-1
 66
  1
 70
  1
 62
  0
 10
0.961722
 20
0.150826
 30
0.000000
  0
VERTEX
  8
LAYER-1
 10
0.961722
 20
0.150826
 30
0.000000
  0
VERTEX
  8
LAYER-1
 10
0.986896
 20
0.134333
 30
0.000000
  0
VERTEX
  8
LAYER-1
 10
0.994708
 20
0.149090
 30
0.000000
  0
SEQEND
  8
LAYER-1
  0
POLYLINE
  8
LAYER-1
 66
  1
 70
  0
 62
  0
 10
2.280299
 20
0.180771
 30
0.000000
  0
VERTEX
  8
LAYER-1
 10
2.280299
 20
0.180771
 30
0.000000
  0
VERTEX
  8
LAYER-1
 10
2.280299
 20
0.176431
 30
0.000000
  0
VERTEX
  8
LAYER-1
 10
2.284639
 20
0.172959
 30
0.000000
  0
VERTEX
  8
LAYER-1
 10
2.289847
 20
0.172091
 30
0.000000
  0
VERTEX
  8
LAYER-1
 10
2.294188
 20
0.173827
 30
0.000000
  0
VERTEX
  8
LAYER-1
 10
2.295924
 20
0.178168
 30
0.000000
  0
VERTEX
  8
LAYER-1
 10
2.295924
 20
0.182507
 30
0.000000
  0
VERTEX
  8
LAYER-1
 10
2.292452
 20
0.186847
 30
0.000000
  0
VERTEX
  8
LAYER-1
 10
2.288111
 20
0.186847
 30
0.000000
  0
VERTEX
  8
LAYER-1
 10
2.283770
 20
0.185980
 30
0.000000
  0
VERTEX
  8
LAYER-1
 10
2.281167
 20
0.181639
 30
0.000000
  0
SEQEND
  8
LAYER-1
  0
POLYLINE
  8
LAYER-1
 66
  1
 70
  1
 62
  0
 10
2.229951
 20
0.192057
 30
0.000000
  0
VERTEX
  8
LAYER-1
 10
2.229951
 20
0.192057
 30
0.000000
  0
VERTEX
  8
LAYER-1
 10
2.252520
 20
0.179037
 30
0.000000
  0
VERTEX
  8
LAYER-1
 10
2.231688
 20
0.209418
 30
0.000000
  0
SEQEND
  8
LAYER-1
  0
POLYLINE
  8
LAYER-1
 66
  1
 70
  1
 62
  0
 10
0.960320
 20
0.098576
 30
0.000000
  0
VERTEX
  8
LAYER-1
 10
0.960320
 20
0.098576
 30
0.000000
  0
VERTEX
  8
LAYER-1
 10
0.979685
 20
0.085890
 30
0.000000
  0
VERTEX
  8
LAYER-1
 10
0.985696
 20
0.097240
 30
0.000000
  0
SEQEND
  8
LAYER-1
  0
POLYLINE
  8
LAYER-1
 66
  1
 70
  0
 62
  0
 10
1.686462
 20
0.050861
 30
0.000000
  0
VERTEX
  8
LAYER-1
 10
1.686462
 20
0.050861
 30
0.000000
  0
VERTEX
  8
LAYER-1
 10
1.686462
 20
0.055201
 30
0.000000
  0
VERTEX
  8
LAYER-1
 10
1.682121
 20
0.058673
 30
0.000000
  0
VERTEX
  8
LAYER-1
 10
1.676913
 20
0.059541
 30
0.000000
  0
VERTEX
  8
LAYER-1
 10
1.672572
 20
0.057806
 30
0.000000
  0
VERTEX
  8
LAYER-1
 10
1.670837
 20
0.053465
 30
0.000000
  0
VERTEX
  8
LAYER-1
 10
1.670837
 20
0.049124
 30
0.000000
  0
VERTEX
  8
LAYER-1
 10
1.674308
 20
0.044785
 30
0.000000
  0
VERTEX
  8
LAYER-1
 10
1.678649
 20
0.044785
 30
0.000000
  0
VERTEX
  8
LAYER-1
 10
1.682990
 20
0.045653
 30
0.000000
  0
VERTEX
  8
LAYER-1
 10
1.685594
 20
0.049994
 30
0.000000
  0
SEQEND
  8
LAYER-1
  0
POLYLINE
  8
LAYER-1
 66
  1
 70
  0
 62
  0
 10
2.492104
 20
0.133900
 30
0.000000
  0
VERTEX
  8
LAYER-1
 10
2.492104
 20
0.133900
 30
0.000000
  0
VERTEX
  8
LAYER-1
 10
2.492104
 20
0.129559
 30
0.000000
  0
VERTEX
  8
LAYER-1
 10
2.496445
 20
0.126088
 30
0.000000
  0
VERTEX
  8
LAYER-1
 10
2.501652
 20
0.125220
 30
0.000000
  0
VERTEX
  8
LAYER-1
 10
2.505993
 20
0.126956
 30
0.000000
  0
VERTEX
  8
LAYER-1
 10
2.507729
 20
0.131295
 30
0.000000
  0
VERTEX
  8
LAYER-1
 10
2.507729
 20
0.135635
 30
0.000000
  0
VERTEX
  8
LAYER-1
 10
2.504257
 20
0.139977
 30
0.000000
  0
VERTEX
  8
LAYER-1
 10
2.499917
 20
0.139977
 30
0.000000
  0
VERTEX
  8
LAYER-1
 10
2.495576
 20
0.139108
 30
0.000000
  0
VERTEX
  8
LAYER-1
 10
2.492972
 20
0.134768
 30
0.000000
  0
SEQEND
  8
LAYER-1
  0
POLYLINE
  8
LAYER-1
 66
  1
 70
  0
 62
  0
 10
2.326306
 20
0.188587
 30
0.000000
  0
VERTEX
  8
LAYER-1
 10
2.326306
 20
0.188587
 30
0.000000
  0
VERTEX
  8
LAYER-1
 10
2.326306
 20
0.184246
 30
0.000000
  0
VERTEX
  8
LAYER-1
 10
2.330646
 20
0.180774
 30
0.000000
  0
VERTEX
  8
LAYER-1
 10
2.335854
 20
0.179907
 30
0.000000
  0
VERTEX
  8
LAYER-1
 10
2.340195
 20
0.181641
 30
0.000000
  0
VERTEX
  8
LAYER-1
 10
2.341931
 20
0.185982
 30
0.000000
  0
VERTEX
  8
LAYER-1
 10
2.341931
 20
0.190322
 30
0.000000
  0
VERTEX
  8
LAYER-1
 10
2.338459
 20
0.194663
 30
0.000000
  0
VERTEX
  8
LAYER-1
 10
2.334118
 20
0.194663
 30
0.000000
  0
VERTEX
  8
LAYER-1
 10
2.329777
 20
0.193794
 30
0.000000
  0
VERTEX
  8
LAYER-1
 10
2.327173
 20
0.189454
 30
0.000000
  0
SEQEND
  8
LAYER-1
  0
POLYLINE
  8
LAYER-1
 66
  1
 70
  1
 62
  0
 10
2.088459
 20
0.105688
 30
0.000000
  0
VERTEX
  8
LAYER-1
 10
2.088459
 20
0.105688
 30
0.000000
  0
VERTEX
  8
LAYER-1
 10
2.095403
 20
0.079647
 30
0.000000
  0
VERTEX
  8
LAYER-1
 10
2.120577
 20
0.093535
 30
0.000000
  0
SEQEND
  8
LAYER-1
  0
POLYLINE
  8
LAYER-1
 66
  1
 70
  1
 62
  0
 10
2.192973
 20
0.092930
 30
0.000000
  0
VERTEX
  8
LAYER-1
 10
2.192973
 20
0.092930
 30
0.000000
  0
VERTEX
  8
LAYER-1
 10
2.179952
 20
0.070360
 30
0.000000
  0
VERTEX
  8
LAYER-1
 10
2.210334
 20
0.091192
 30
0.000000
  0
SEQEND
  8
LAYER-1
  0
POLYLINE
  8
LAYER-1
 66
  1
 70
  1
 62
  0
 10
1.908938
 20
0.123385
 30
0.000000
  0
VERTEX
  8
LAYER-1
 10
1.908938
 20
0.123385
 30
0.000000
  0
VERTEX
  8
LAYER-1
 10
1.892445
 20
0.098212
 30
0.000000
  0
VERTEX
  8
LAYER-1
 10
1.907202
 20
0.090400
 30
0.000000
  0
SEQEND
  8
LAYER-1
  0
POLYLINE
  8
LAYER-1
 66
  1
 70
  0
 62
  0
 10
2.038980
 20
0.136938
 30
0.000000
  0
VERTEX
  8
LAYER-1
 10
2.038980
 20
0.136938
 30
0.000000
  0
VERTEX
  8
LAYER-1
 10
2.034639
 20
0.136938
 30
0.000000
  0
VERTEX
  8
LAYER-1
 10
2.031168
 20
0.132597
 30
0.000000
  0
VERTEX
  8
LAYER-1
 10
2.030300
 20
0.127390
 30
0.000000
  0
VERTEX
  8
LAYER-1
 10
2.032035
 20
0.123049
 30
0.000000
  0
VERTEX
  8
LAYER-1
 10
2.036376
 20
0.121313
 30
0.000000
  0
VERTEX
  8
LAYER-1
 10
2.040716
 20
0.121313
 30
0.000000
  0
VERTEX
  8
LAYER-1
 10
2.045057
 20
0.124785
 30
0.000000
  0
VERTEX
  8
LAYER-1
 10
2.045057
 20
0.129126
 30
0.000000
  0
VERTEX
  8
LAYER-1
 10
2.044189
 20
0.133466
 30
0.000000
  0
VERTEX
  8
LAYER-1
 10
2.039848
 20
0.136071
 30
0.000000
  0
SEQEND
  8
LAYER-1
  0
POLYLINE
  8
LAYER-1
 66
  1
 70
  1
 62
  0
 10
0.896619
 20
0.213326
 30
0.000000
  0
VERTEX
  8
LAYER-1
 10
0.896619
 20
0.213326
 30
0.000000
  0
VERTEX
  8
LAYER-1
 10
0.883598
 20
0.190755
 30
0.000000
  0
VERTEX
  8
LAYER-1
 10
0.913980
 20
0.211588
 30
0.000000
  0
SEQEND
  8
LAYER-1
  0
POLYLINE
  8
LAYER-1
 66
  1
 70
  1
 62
  0
 10
1.894014
 20
0.156035
 30
0.000000
  0
VERTEX
  8
LAYER-1
 10
1.894014
 20
0.156035
 30
0.000000
  0
VERTEX
  8
LAYER-1
 10
1.881328
 20
0.136671
 30
0.000000
  0
VERTEX
  8
LAYER-1
 10
1.892678
 20
0.130659
 30
0.000000
  0
SEQEND
  8
LAYER-1
  0
POLYLINE
  8
LAYER-1
 66
  1
 70
  0
 62
  0
 10
2.190889
 20
0.138674
 30
0.000000
  0
VERTEX
  8
LAYER-1
 10
2.190889
 20
0.138674
 30
0.000000
  0
VERTEX
  8
LAYER-1
 10
2.186550
 20
0.138674
 30
0.000000
  0
VERTEX
  8
LAYER-1
 10
2.183077
 20
0.134333
 30
0.000000
  0
VERTEX
  8
LAYER-1
 10
2.182209
 20
0.129126
 30
0.000000
  0
VERTEX
  8
LAYER-1
 10
2.183945
 20
0.124785
 30
0.000000
  0
VERTEX
  8
LAYER-1
 10
2.188285
 20
0.123049
 30
0.000000
  0
VERTEX
  8
LAYER-1
 10
2.192626
 20
0.123049
 30
0.000000
  0
VERTEX
  8
LAYER-1
 10
2.196966
 20
0.126521
 30
0.000000
  0
VERTEX
  8
LAYER-1
 10
2.196966
 20
0.130862
 30
0.000000
  0
VERTEX
  8
LAYER-1
 10
2.196098
 20
0.135202
 30
0.000000
  0
VERTEX
  8
LAYER-1
 10
2.191757
 20
0.137807
 30
0.000000
  0
SEQEND
  8
LAYER-1
  0
POLYLINE
  8
LAYER-1
 66
  1
 70
  0
 62
  0
 10
2.250785
 20
0.143882
 30
0.000000
  0
VERTEX
  8
LAYER-1
 10
2.250785
 20
0.143882
 30
0.000000
  0
VERTEX
  8
LAYER-1
 10
2.246445
 20
0.143882
 30
0.000000
  0
VERTEX
  8
LAYER-1
 10
2.242973
 20
0.139541
 30
0.000000
  0
VERTEX
  8
LAYER-1
 10
2.242105
 20
0.134333
 30
0.000000
  0
VERTEX
  8
LAYER-1
 10
2.243841
 20
0.129993
 30
0.000000
  0
VERTEX
  8
LAYER-1
 10
2.248182
 20
0.128257
 30
0.000000
  0
VERTEX
  8
LAYER-1
 10
2.252521
 20
0.128257
 30
0.000000
  0
VERTEX
  8
LAYER-1
 10
2.256862
 20
0.131728
 30
0.000000
  0
VERTEX
  8
LAYER-1
 10
2.256862
 20
0.136069
 30
0.000000
  0
VERTEX
  8
LAYER-1
 10
2.255994
 20
0.140410
 30
0.000000
  0
VERTEX
  8
LAYER-1
 10
2.251653
 20
0.143015
 30
0.000000
  0
SEQEND
  8
LAYER-1
  0
POLYLINE
  8
LAYER-1
 66
  1
 70
  0
 62
  0
 10
0.907035
 20
0.130860
 30
0.000000
  0
VERTEX
  8
LAYER-1
 10
0.907035
 20
0.130860
 30
0.000000
  0
VERTEX
  8
LAYER-1
 10
0.902695
 20
0.130860
 30
0.000000
  0
VERTEX
  8
LAYER-1
 10
0.899223
 20
0.126520
 30
0.000000
  0
VERTEX
  8
LAYER-1
 10
0.898355
 20
0.121312
 30
0.000000
  0
VERTEX
  8
LAYER-1
 10
0.900091
 20
0.116971
 30
0.000000
  0
VERTEX
  8
LAYER-1
 10
0.904432
 20
0.115235
 30
0.000000
  0
VERTEX
  8
LAYER-1
 10
0.908771
 20
0.115235
 30
0.000000
  0
VERTEX
  8
LAYER-1
 10
0.913112
 20
0.118707
 30
0.000000
  0
VERTEX
  8
LAYER-1
 10
0.913112
 20
0.123048
 30
0.000000
  0
VERTEX
  8
LAYER-1
 10
0.912244
 20
0.127389
 30
0.000000
  0
VERTEX
  8
LAYER-1
 10
0.907903
 20
0.129994
 30
0.000000
  0
SEQEND
  8
LAYER-1
  0
POLYLINE
  8
LAYER-1
 66
  1
 70
  1
 62
  0
 10
2.558077
 20
0.170791
 30
0.000000
  0
VERTEX
  8
LAYER-1
 10
2.558077
 20
0.170791
 30
0.000000
  0
VERTEX
  8
LAYER-1
 10
2.565021
 20
0.144750
 30
0.000000
  0
VERTEX
  8
LAYER-1
 10
2.590195
 20
0.158638
 30
0.000000
  0
SEQEND
  8
LAYER-1
  0
POLYLINE
  8
LAYER-1
 66
  1
 70
  1
 62
  0
 10
2.720404
 20
0.199437
 30
0.000000
  0
VERTEX
  8
LAYER-1
 10
2.720404
 20
0.199437
 30
0.000000
  0
VERTEX
  8
LAYER-1
 10
2.707382
 20
0.176868
 30
0.000000
  0
VERTEX
  8
LAYER-1
 10
2.737765
 20
0.197700
 30
0.000000
  0
SEQEND
  8
LAYER-1
  0
POLYLINE
  8
LAYER-1
 66
  1
 70
  1
 62
  0
 10
1.396619
 20
0.150391
 30
0.000000
  0
VERTEX
  8
LAYER-1
 10
1.396619
 20
0.150391
 30
0.000000
  0
VERTEX
  8
LAYER-1
 10
1.380126
 20
0.125218
 30
0.000000
  0
VERTEX
  8
LAYER-1
 10
1.394883
 20
0.117405
 30
0.000000
  0
SEQEND
  8
LAYER-1
  0
POLYLINE
  8
LAYER-1
 66
  1
 70
  0
 62
  0
 10
2.508598
 20
0.202040
 30
0.000000
  0
VERTEX
  8
LAYER-1
 10
2.508598
 20
0.202040
 30
0.000000
  0
VERTEX
  8
LAYER-1
 10
2.504257
 20
0.202040
 30
0.000000
  0
VERTEX
  8
LAYER-1
 10
2.500785
 20
0.197700
 30
0.000000
  0
VERTEX
  8
LAYER-1
 10
2.499917
 20
0.192491
 30
0.000000
  0
VERTEX
  8
LAYER-1
 10
2.501653
 20
0.188151
 30
0.000000
  0
VERTEX
  8
LAYER-1
 10
2.505993
 20
0.186415
 30
0.000000
  0
VERTEX
  8
LAYER-1
 10
2.510334
 20
0.186415
 30
0.000000
  0
VERTEX
  8
LAYER-1
 10
2.514675
 20
0.189887
 30
0.000000
  0
VERTEX
  8
LAYER-1
 10
2.514675
 20
0.194227
 30
0.000000
  0
VERTEX
  8
LAYER-1
 10
2.513806
 20
0.198569
 30
0.000000
  0
VERTEX
  8
LAYER-1
 10
2.509466
 20
0.201172
 30
0.000000
  0
SEQEND
  8
LAYER-1
  0
POLYLINE
  8
LAYER-1
 66
  1
 70
  1
 62
  0
 10
2.545925
 20
0.134332
 30
0.000000
  0
VERTEX
  8
LAYER-1
 10
2.545925
 20
0.134332
 30
0.000000
  0
VERTEX
  8
LAYER-1
 10
2.532903
 20
0.111763
 30
0.000000
  0
VERTEX
  8
LAYER-1
 10
2.563285
 20
0.132595
 30
0.000000
  0
SEQEND
  8
LAYER-1
  0
POLYLINE
  8
LAYER-1
 66
  1
 70
  1
 62
  0
 10
1.104851
 20
0.224703
 30
0.000000
  0
VERTEX
  8
LAYER-1
 10
1.104851
 20
0.224703
 30
0.000000
  0
VERTEX
  8
LAYER-1
 10
1.124216
 20
0.212017
 30
0.000000
  0
VERTEX
  8
LAYER-1
 10
1.130226
 20
0.223367
 30
0.000000
  0
SEQEND
  8
LAYER-1
  0
POLYLINE
  8
LAYER-1
 66
  1
 70
  0
 62
  0
 10
2.660507
 20
0.203776
 30
0.000000
  0
VERTEX
  8
LAYER-1
 10
2.660507
 20
0.203776
 30
0.000000
  0
VERTEX
  8
LAYER-1
 10
2.656167
 20
0.203776
 30
0.000000
  0
VERTEX
  8
LAYER-1
 10
2.652695
 20
0.199435
 30
0.000000
  0
VERTEX
  8
LAYER-1
 10
2.651827
 20
0.194227
 30
0.000000
  0
VERTEX
  8
LAYER-1
 10
2.653563
 20
0.189887
 30
0.000000
  0
VERTEX
  8
LAYER-1
 10
2.657903
 20
0.188151
 30
0.000000
  0
VERTEX
  8
LAYER-1
 10
2.662243
 20
0.188151
 30
0.000000
  0
VERTEX
  8
LAYER-1
 10
2.666584
 20
0.191622
 30
0.000000
  0
VERTEX
  8
LAYER-1
 10
2.666584
 20
0.195964
 30
0.000000
  0
VERTEX
  8
LAYER-1
 10
2.665716
 20
0.200304
 30
0.000000
  0
VERTEX
  8
LAYER-1
 10
2.661375
 20
0.202908
 30
0.000000
  0
SEQEND
  8
LAYER-1
  0
POLYLINE
  8
LAYER-1
 66
  1
 70
  0
 62
  0
 10
1.448702
 20
0.144315
 30
0.000000
  0
VERTEX
  8
LAYER-1
 10
1.448702
 20
0.144315
 30
0.000000
  0
VERTEX
  8
LAYER-1
 10
1.444362
 20
0.144315
 30
0.000000
  0
VERTEX
  8
LAYER-1
 10
1.440890
 20
0.139975
 30
0.000000
  0
VERTEX
  8
LAYER-1
 10
1.440022
 20
0.134766
 30
0.000000
  0
VERTEX
  8
LAYER-1
 10
1.441758
 20
0.130426
 30
0.000000
  0
VERTEX
  8
LAYER-1
 10
1.446097
 20
0.128690
 30
0.000000
  0
VERTEX
  8
LAYER-1
 10
1.450438
 20
0.128690
 30
0.000000
  0
VERTEX
  8
LAYER-1
 10
1.454778
 20
0.132162
 30
0.000000
  0
VERTEX
  8
LAYER-1
 10
1.454778
 20
0.136503
 30
0.000000
  0
VERTEX
  8
LAYER-1
 10
1.453910
 20
0.140844
 30
0.000000
  0
VERTEX
  8
LAYER-1
 10
1.449570
 20
0.143447
 30
0.000000
  0
SEQEND
  8
LAYER-1
  0
POLYLINE
  8
LAYER-1
 66
  1
 70
  0
 62
  0
 10
1.032035
 20
0.120878
 30
0.000000
  0
VERTEX
  8
LAYER-1
 10
1.032035
 20
0.120878
 30
0.000000
  0
VERTEX
  8
LAYER-1
 10
1.027694
 20
0.120878
 30
0.000000
  0
VERTEX
  8
LAYER-1
 10
1.024223
 20
0.116537
 30
0.000000
  0
VERTEX
  8
LAYER-1
 10
1.023355
 20
0.111329
 30
0.000000
  0
VERTEX
  8
LAYER-1
 10
1.025091
 20
0.106989
 30
0.000000
  0
VERTEX
  8
LAYER-1
 10
1.029430
 20
0.105253
 30
0.000000
  0
VERTEX
  8
LAYER-1
 10
1.033771
 20
0.105253
 30
0.000000
  0
VERTEX
  8
LAYER-1
 10
1.038111
 20
0.108725
 30
0.000000
  0
VERTEX
  8
LAYER-1
 10
1.038111
 20
0.113065
 30
0.000000
  0
VERTEX
  8
LAYER-1
 10
1.037243
 20
0.117406
 30
0.000000
  0
VERTEX
  8
LAYER-1
 10
1.032903
 20
0.120010
 30
0.000000
  0
SEQEND
  8
LAYER-1
  0
POLYLINE
  8
LAYER-1
 66
  1
 70
  1
 62
  0
 10
2.999917
 20
0.195095
 30
0.000000
  0
VERTEX
  8
LAYER-1
 10
2.999917
 20
0.195095
 30
0.000000
  0
VERTEX
  8
LAYER-1
 10
3.006862
 20
0.169056
 30
0.000000
  0
VERTEX
  8
LAYER-1
 10
3.032035
 20
0.182943
 30
0.000000
  0
SEQEND
  8
LAYER-1
  0
POLYLINE
  8
LAYER-1
 66
  1
 70
  1
 62
  0
 10
3.162244
 20
0.223743
 30
0.000000
  0
VERTEX
  8
LAYER-1
 10
3.162244
 20
0.223743
 30
0.000000
  0
VERTEX
  8
LAYER-1
 10
3.149222
 20
0.201172
 30
0.000000
  0
VERTEX
  8
LAYER-1
 10
3.179604
 20
0.222005
 30
0.000000
  0
SEQEND
  8
LAYER-1
  0
POLYLINE
  8
LAYER-1
 66
  1
 70
  1
 62
  0
 10
2.390542
 20
0.159507
 30
0.000000
  0
VERTEX
  8
LAYER-1
 10
2.390542
 20
0.159507
 30
0.000000
  0
VERTEX
  8
LAYER-1
 10
2.415715
 20
0.143013
 30
0.000000
  0
VERTEX
  8
LAYER-1
 10
2.423528
 20
0.157771
 30
0.000000
  0
SEQEND
  8
LAYER-1
  0
POLYLINE
  8
LAYER-1
 66
  1
 70
  0
 62
  0
 10
2.960855
 20
0.215931
 30
0.000000
  0
VERTEX
  8
LAYER-1
 10
2.960855
 20
0.215931
 30
0.000000
  0
VERTEX
  8
LAYER-1
 10
2.956514
 20
0.215931
 30
0.000000
  0
VERTEX
  8
LAYER-1
 10
2.953042
 20
0.211589
 30
0.000000
  0
VERTEX
  8
LAYER-1
 10
2.952174
 20
0.206382
 30
0.000000
  0
VERTEX
  8
LAYER-1
 10
2.953910
 20
0.202041
 30
0.000000
  0
VERTEX
  8
LAYER-1
 10
2.958251
 20
0.200306
 30
0.000000
  0
VERTEX
  8
LAYER-1
 10
2.962591
 20
0.200306
 30
0.000000
  0
VERTEX
  8
LAYER-1
 10
2.966931
 20
0.203777
 30
0.000000
  0
VERTEX
  8
LAYER-1
 10
2.966931
 20
0.208118
 30
0.000000
  0
VERTEX
  8
LAYER-1
 10
2.966063
 20
0.212458
 30
0.000000
  0
VERTEX
  8
LAYER-1
 10
2.961722
 20
0.215063
 30
0.000000
  0
SEQEND
  8
LAYER-1
  0
POLYLINE
  8
LAYER-1
 66
  1
 70
  1
 62
  0
 10
2.976480
 20
0.127389
 30
0.000000
  0
VERTEX
  8
LAYER-1
 10
2.976480
 20
0.127389
 30
0.000000
  0
VERTEX
  8
LAYER-1
 10
2.963459
 20
0.104819
 30
0.000000
  0
VERTEX
  8
LAYER-1
 10
2.993841
 20
0.125651
 30
0.000000
  0
SEQEND
  8
LAYER-1
  0
POLYLINE
  8
LAYER-1
 66
  1
 70
  1
 62
  0
 10
3.070931
 20
0.120976
 30
0.000000
  0
VERTEX
  8
LAYER-1
 10
3.070931
 20
0.120976
 30
0.000000
  0
VERTEX
  8
LAYER-1
 10
3.058244
 20
0.101612
 30
0.000000
  0
VERTEX
  8
LAYER-1
 10
3.069595
 20
0.095601
 30
0.000000
  0
SEQEND
  8
LAYER-1
  0
POLYLINE
  8
LAYER-1
 66
  1
 70
  0
 62
  0
 10
3.102347
 20
0.220270
 30
0.000000
  0
VERTEX
  8
LAYER-1
 10
3.102347
 20
0.220270
 30
0.000000
  0
VERTEX
  8
LAYER-1
 10
3.098008
 20
0.220270
 30
0.000000
  0
VERTEX
  8
LAYER-1
 10
3.094535
 20
0.215929
 30
0.000000
  0
VERTEX
  8
LAYER-1
 10
3.093667
 20
0.210721
 30
0.000000
  0
VERTEX
  8
LAYER-1
 10
3.095403
 20
0.206381
 30
0.000000
  0
VERTEX
  8
LAYER-1
 10
3.099744
 20
0.204645
 30
0.000000
  0
VERTEX
  8
LAYER-1
 10
3.104084
 20
0.204645
 30
0.000000
  0
VERTEX
  8
LAYER-1
 10
3.108424
 20
0.208116
 30
0.000000
  0
VERTEX
  8
LAYER-1
 10
3.108424
 20
0.212457
 30
0.000000
  0
VERTEX
  8
LAYER-1
 10
3.107556
 20
0.216798
 30
0.000000
  0
VERTEX
  8
LAYER-1
 10
3.103216
 20
0.219403
 30
0.000000
  0
SEQEND
  8
LAYER-1
  0
POLYLINE
  8
LAYER-1
 66
  1
 70
  0
 62
  0
 10
2.379258
 20
0.212457
 30
0.000000
  0
VERTEX
  8
LAYER-1
 10
2.379258
 20
0.212457
 30
0.000000
  0
VERTEX
  8
LAYER-1
 10
2.379258
 20
0.208116
 30
0.000000
  0
VERTEX
  8
LAYER-1
 10
2.383599
 20
0.204645
 30
0.000000
  0
VERTEX
  8
LAYER-1
 10
2.388806
 20
0.203776
 30
0.000000
  0
VERTEX
  8
LAYER-1
 10
2.393147
 20
0.205512
 30
0.000000
  0
VERTEX
  8
LAYER-1
 10
2.394883
 20
0.209852
 30
0.000000
  0
VERTEX
  8
LAYER-1
 10
2.394883
 20
0.214194
 30
0.000000
  0
VERTEX
  8
LAYER-1
 10
2.391411
 20
0.218534
 30
0.000000
  0
VERTEX
  8
LAYER-1
 10
2.387070
 20
0.218534
 30
0.000000
  0
VERTEX
  8
LAYER-1
 10
2.382729
 20
0.217665
 30
0.000000
  0
VERTEX
  8
LAYER-1
 10
2.380125
 20
0.213325
 30
0.000000
  0
SEQEND
  8
LAYER-1
  0
POLYLINE
  8
LAYER-1
 66
  1
 70
  0
 62
  0
 10
2.942625
 20
0.128255
 30
0.000000
  0
VERTEX
  8
LAYER-1
 10
2.942625
 20
0.128255
 30
0.000000
  0
VERTEX
  8
LAYER-1
 10
2.938284
 20
0.128255
 30
0.000000
  0
VERTEX
  8
LAYER-1
 10
2.934812
 20
0.123914
 30
0.000000
  0
VERTEX
  8
LAYER-1
 10
2.933944
 20
0.118707
 30
0.000000
  0
VERTEX
  8
LAYER-1
 10
2.935680
 20
0.114365
 30
0.000000
  0
VERTEX
  8
LAYER-1
 10
2.940021
 20
0.112630
 30
0.000000
  0
VERTEX
  8
LAYER-1
 10
2.944361
 20
0.112630
 30
0.000000
  0
VERTEX
  8
LAYER-1
 10
2.948701
 20
0.116102
 30
0.000000
  0
VERTEX
  8
LAYER-1
 10
2.948701
 20
0.120443
 30
0.000000
  0
VERTEX
  8
LAYER-1
 10
2.947833
 20
0.124783
 30
0.000000
  0
VERTEX
  8
LAYER-1
 10
2.943493
 20
0.127388
 30
0.000000
  0
SEQEND
  8
LAYER-1
  0
POLYLINE
  8
LAYER-1
 66
  1
 70
  1
 62
  0
 10
2.809814
 20
0.116538
 30
0.000000
  0
VERTEX
  8
LAYER-1
 10
2.809814
 20
0.116538
 30
0.000000
  0
VERTEX
  8
LAYER-1
 10
2.783771
 20
0.109594
 30
0.000000
  0
VERTEX
  8
LAYER-1
 10
2.797660
 20
0.084420
 30
0.000000
  0
SEQEND
  8
LAYER-1
  0
POLYLINE
  8
LAYER-1
 66
  1
 70
  1
 62
  0
 10
1.433078
 20
0.090931
 30
0.000000
  0
VERTEX
  8
LAYER-1
 10
1.433078
 20
0.090931
 30
0.000000
  0
VERTEX
  8
LAYER-1
 10
1.407903
 20
0.107423
 30
0.000000
  0
VERTEX
  8
LAYER-1
 10
1.400091
 20
0.092666
 30
0.000000
  0
SEQEND
  8
LAYER-1
  0
POLYLINE
  8
LAYER-1
 66
  1
 70
  0
 62
  0
 10
2.841064
 20
0.166016
 30
0.000000
  0
VERTEX
  8
LAYER-1
 10
2.841064
 20
0.166016
 30
0.000000
  0
VERTEX
  8
LAYER-1
 10
2.841064
 20
0.170358
 30
0.000000
  0
VERTEX
  8
LAYER-1
 10
2.836723
 20
0.173829
 30
0.000000
  0
VERTEX
  8
LAYER-1
 10
2.831515
 20
0.174697
 30
0.000000
  0
VERTEX
  8
LAYER-1
 10
2.827175
 20
0.172962
 30
0.000000
  0
VERTEX
  8
LAYER-1
 10
2.825439
 20
0.168621
 30
0.000000
  0
VERTEX
  8
LAYER-1
 10
2.825439
 20
0.164281
 30
0.000000
  0
VERTEX
  8
LAYER-1
 10
2.828910
 20
0.159941
 30
0.000000
  0
VERTEX
  8
LAYER-1
 10
2.833251
 20
0.159941
 30
0.000000
  0
VERTEX
  8
LAYER-1
 10
2.837592
 20
0.160808
 30
0.000000
  0
VERTEX
  8
LAYER-1
 10
2.840195
 20
0.165149
 30
0.000000
  0
SEQEND
  8
LAYER-1
  0
POLYLINE
  8
LAYER-1
 66
  1
 70
  1
 62
  0
 10
2.773354
 20
0.128691
 30
0.000000
  0
VERTEX
  8
LAYER-1
 10
2.773354
 20
0.128691
 30
0.000000
  0
VERTEX
  8
LAYER-1
 10
2.750786
 20
0.141712
 30
0.000000
  0
VERTEX
  8
LAYER-1
 10
2.771618
 20
0.111329
 30
0.000000
  0
SEQEND
  8
LAYER-1
  0
POLYLINE
  8
LAYER-1
 66
  1
 70
  1
 62
  0
 10
1.510869
 20
0.110193
 30
0.000000
  0
VERTEX
  8
LAYER-1
 10
1.510869
 20
0.110193
 30
0.000000
  0
VERTEX
  8
LAYER-1
 10
1.491503
 20
0.122880
 30
0.000000
  0
VERTEX
  8
LAYER-1
 10
1.485494
 20
0.111528
 30
0.000000
  0
SEQEND
  8
LAYER-1
  0
POLYLINE
  8
LAYER-1
 66
  1
 70
  0
 62
  0
 10
1.571098
 20
0.098743
 30
0.000000
  0
VERTEX
  8
LAYER-1
 10
1.571098
 20
0.098743
 30
0.000000
  0
VERTEX
  8
LAYER-1
 10
1.571098
 20
0.103082
 30
0.000000
  0
VERTEX
  8
LAYER-1
 10
1.566758
 20
0.106556
 30
0.000000
  0
VERTEX
  8
LAYER-1
 10
1.561550
 20
0.107423
 30
0.000000
  0
VERTEX
  8
LAYER-1
 10
1.557209
 20
0.105687
 30
0.000000
  0
VERTEX
  8
LAYER-1
 10
1.555473
 20
0.101346
 30
0.000000
  0
VERTEX
  8
LAYER-1
 10
1.555473
 20
0.097006
 30
0.000000
  0
VERTEX
  8
LAYER-1
 10
1.558945
 20
0.092666
 30
0.000000
  0
VERTEX
  8
LAYER-1
 10
1.563286
 20
0.092666
 30
0.000000
  0
VERTEX
  8
LAYER-1
 10
1.567626
 20
0.093534
 30
0.000000
  0
VERTEX
  8
LAYER-1
 10
1.570230
 20
0.097875
 30
0.000000
  0
SEQEND
  8
LAYER-1
  0
POLYLINE
  8
LAYER-1
 66
  1
 70
  0
 62
  0
 10
2.690890
 20
0.118274
 30
0.000000
  0
VERTEX
  8
LAYER-1
 10
2.690890
 20
0.118274
 30
0.000000
  0
VERTEX
  8
LAYER-1
 10
2.690890
 20
0.122615
 30
0.000000
  0
VERTEX
  8
LAYER-1
 10
2.686550
 20
0.126087
 30
0.000000
  0
VERTEX
  8
LAYER-1
 10
2.681342
 20
0.126954
 30
0.000000
  0
VERTEX
  8
LAYER-1
 10
2.677001
 20
0.125219
 30
0.000000
  0
VERTEX
  8
LAYER-1
 10
2.675265
 20
0.120878
 30
0.000000
  0
VERTEX
  8
LAYER-1
 10
2.675265
 20
0.116538
 30
0.000000
  0
VERTEX
  8
LAYER-1
 10
2.678737
 20
0.112197
 30
0.000000
  0
VERTEX
  8
LAYER-1
 10
2.683078
 20
0.112197
 30
0.000000
  0
VERTEX
  8
LAYER-1
 10
2.687418
 20
0.113066
 30
0.000000
  0
VERTEX
  8
LAYER-1
 10
2.690021
 20
0.117406
 30
0.000000
  0
SEQEND
  8
LAYER-1
  0
POLYLINE
  8
LAYER-1
 66
  1
 70
  1
 62
  0
 10
2.883597
 20
0.119577
 30
0.000000
  0
VERTEX
  8
LAYER-1
 10
2.883597
 20
0.119577
 30
0.000000
  0
VERTEX
  8
LAYER-1
 10
2.876653
 20
0.145618
 30
0.000000
  0
VERTEX
  8
LAYER-1
 10
2.851480
 20
0.131731
 30
0.000000
  0
SEQEND
  8
LAYER-1
  0
POLYLINE
  8
LAYER-1
 66
  1
 70
  1
 62
  0
 10
2.330646
 20
0.106556
 30
0.000000
  0
VERTEX
  8
LAYER-1
 10
2.330646
 20
0.106556
 30
0.000000
  0
VERTEX
  8
LAYER-1
 10
2.308076
 20
0.119577
 30
0.000000
  0
VERTEX
  8
LAYER-1
 10
2.328908
 20
0.089194
 30
0.000000
  0
SEQEND
  8
LAYER-1
  0
POLYLINE
  8
LAYER-1
 66
  1
 70
  1
 62
  0
 10
3.108425
 20
0.130862
 30
0.000000
  0
VERTEX
  8
LAYER-1
 10
3.108425
 20
0.130862
 30
0.000000
  0
VERTEX
  8
LAYER-1
 10
3.124918
 20
0.156035
 30
0.000000
  0
VERTEX
  8
LAYER-1
 10
3.110161
 20
0.163847
 30
0.000000
  0
SEQEND
  8
LAYER-1
  0
POLYLINE
  8
LAYER-1
 66
  1
 70
  0
 62
  0
 10
3.243841
 20
0.098740
 30
0.000000
  0
VERTEX
  8
LAYER-1
 10
3.243841
 20
0.098740
 30
0.000000
  0
VERTEX
  8
LAYER-1
 10
3.248181
 20
0.098740
 30
0.000000
  0
VERTEX
  8
LAYER-1
 10
3.251653
 20
0.103082
 30
0.000000
  0
VERTEX
  8
LAYER-1
 10
3.252521
 20
0.108289
 30
0.000000
  0
VERTEX
  8
LAYER-1
 10
3.250785
 20
0.112630
 30
0.000000
  0
VERTEX
  8
LAYER-1
 10
3.246444
 20
0.114365
 30
0.000000
  0
VERTEX
  8
LAYER-1
 10
3.242104
 20
0.114365
 30
0.000000
  0
VERTEX
  8
LAYER-1
 10
3.237764
 20
0.110894
 30
0.000000
  0
VERTEX
  8
LAYER-1
 10
3.237764
 20
0.106553
 30
0.000000
  0
VERTEX
  8
LAYER-1
 10
3.238632
 20
0.102213
 30
0.000000
  0
VERTEX
  8
LAYER-1
 10
3.242972
 20
0.099608
 30
0.000000
  0
SEQEND
  8
LAYER-1
  0
POLYLINE
  8
LAYER-1
 66
  1
 70
  1
 62
  0
 10
2.895750
 20
0.156035
 30
0.000000
  0
VERTEX
  8
LAYER-1
 10
2.895750
 20
0.156035
 30
0.000000
  0
VERTEX
  8
LAYER-1
 10
2.908771
 20
0.178606
 30
0.000000
  0
VERTEX
  8
LAYER-1
 10
2.878389
 20
0.157772
 30
0.000000
  0
SEQEND
  8
LAYER-1
  0
POLYLINE
  8
LAYER-1
 66
  1
 70
  1
 62
  0
 10
3.149390
 20
0.106890
 30
0.000000
  0
VERTEX
  8
LAYER-1
 10
3.149390
 20
0.106890
 30
0.000000
  0
VERTEX
  8
LAYER-1
 10
3.162076
 20
0.126255
 30
0.000000
  0
VERTEX
  8
LAYER-1
 10
3.150726
 20
0.132266
 30
0.000000
  0
SEQEND
  8
LAYER-1
  0
POLYLINE
  8
LAYER-1
 66
  1
 70
  0
 62
  0
 10
2.470402
 20
0.166452
 30
0.000000
  0
VERTEX
  8
LAYER-1
 10
2.470402
 20
0.166452
 30
0.000000
  0
VERTEX
  8
LAYER-1
 10
2.470402
 20
0.170791
 30
0.000000
  0
VERTEX
  8
LAYER-1
 10
2.466061
 20
0.174265
 30
0.000000
  0
VERTEX
  8
LAYER-1
 10
2.460854
 20
0.175132
 30
0.000000
  0
VERTEX
  8
LAYER-1
 10
2.456513
 20
0.173396
 30
0.000000
  0
VERTEX
  8
LAYER-1
 10
2.454777
 20
0.169056
 30
0.000000
  0
VERTEX
  8
LAYER-1
 10
2.454777
 20
0.164714
 30
0.000000
  0
VERTEX
  8
LAYER-1
 10
2.458249
 20
0.160376
 30
0.000000
  0
VERTEX
  8
LAYER-1
 10
2.462589
 20
0.160376
 30
0.000000
  0
VERTEX
  8
LAYER-1
 10
2.466930
 20
0.161243
 30
0.000000
  0
VERTEX
  8
LAYER-1
 10
2.469535
 20
0.165583
 30
0.000000
  0
SEQEND
  8
LAYER-1
  0
POLYLINE
  8
LAYER-1
 66
  1
 70
  0
 62
  0
 10
3.056341
 20
0.136938
 30
0.000000
  0
VERTEX
  8
LAYER-1
 10
3.056341
 20
0.136938
 30
0.000000
  0
VERTEX
  8
LAYER-1
 10
3.060682
 20
0.136938
 30
0.000000
  0
VERTEX
  8
LAYER-1
 10
3.064154
 20
0.141279
 30
0.000000
  0
VERTEX
  8
LAYER-1
 10
3.065022
 20
0.146487
 30
0.000000
  0
VERTEX
  8
LAYER-1
 10
3.063286
 20
0.150827
 30
0.000000
  0
VERTEX
  8
LAYER-1
 10
3.058945
 20
0.152563
 30
0.000000
  0
VERTEX
  8
LAYER-1
 10
3.054605
 20
0.152563
 30
0.000000
  0
VERTEX
  8
LAYER-1
 10
3.050265
 20
0.149091
 30
0.000000
  0
VERTEX
  8
LAYER-1
 10
3.050265
 20
0.144751
 30
0.000000
  0
VERTEX
  8
LAYER-1
 10
3.051133
 20
0.140410
 30
0.000000
  0
VERTEX
  8
LAYER-1
 10
3.055474
 20
0.137806
 30
0.000000
  0
SEQEND
  8
LAYER-1
  0
POLYLINE
  8
LAYER-1
 66
  1
 70
  0
 62
  0
 10
3.220404
 20
0.144751
 30
0.000000
  0
VERTEX
  8
LAYER-1
 10
3.220404
 20
0.144751
 30
0.000000
  0
VERTEX
  8
LAYER-1
 10
3.224744
 20
0.144751
 30
0.000000
  0
VERTEX
  8
LAYER-1
 10
3.228216
 20
0.149091
 30
0.000000
  0
VERTEX
  8
LAYER-1
 10
3.229084
 20
0.154299
 30
0.000000
  0
VERTEX
  8
LAYER-1
 10
3.227348
 20
0.158640
 30
0.000000
  0
VERTEX
  8
LAYER-1
 10
3.223007
 20
0.160376
 30
0.000000
  0
VERTEX
  8
LAYER-1
 10
3.218668
 20
0.160376
 30
0.000000
  0
VERTEX
  8
LAYER-1
 10
3.214327
 20
0.156904
 30
0.000000
  0
VERTEX
  8
LAYER-1
 10
3.214327
 20
0.152563
 30
0.000000
  0
VERTEX
  8
LAYER-1
 10
3.215195
 20
0.148222
 30
0.000000
  0
VERTEX
  8
LAYER-1
 10
3.219536
 20
0.145618
 30
0.000000
  0
SEQEND
  8
LAYER-1
  0
POLYLINE
  8
LAYER-1
 66
  1
 70
  1
 62
  0
 10
3.627521
 20
0.143015
 30
0.000000
  0
VERTEX
  8
LAYER-1
 10
3.627521
 20
0.143015
 30
0.000000
  0
VERTEX
  8
LAYER-1
 10
3.634465
 20
0.116973
 30
0.000000
  0
VERTEX
  8
LAYER-1
 10
3.659638
 20
0.130862
 30
0.000000
  0
SEQEND
  8
LAYER-1
  0
POLYLINE
  8
LAYER-1
 66
  1
 70
  1
 62
  0
 10
3.793753
 20
0.097008
 30
0.000000
  0
VERTEX
  8
LAYER-1
 10
3.793753
 20
0.097008
 30
0.000000
  0
VERTEX
  8
LAYER-1
 10
3.780732
 20
0.074438
 30
0.000000
  0
VERTEX
  8
LAYER-1
 10
3.811115
 20
0.095271
 30
0.000000
  0
SEQEND
  8
LAYER-1
  0
POLYLINE
  8
LAYER-1
 66
  1
 70
  1
 62
  0
 10
3.678735
 20
0.187281
 30
0.000000
  0
VERTEX
  8
LAYER-1
 10
3.678735
 20
0.187281
 30
0.000000
  0
VERTEX
  8
LAYER-1
 10
3.662243
 20
0.162108
 30
0.000000
  0
VERTEX
  8
LAYER-1
 10
3.676999
 20
0.154295
 30
0.000000
  0
SEQEND
  8
LAYER-1
  0
POLYLINE
  8
LAYER-1
 66
  1
 70
  0
 62
  0
 10
3.593666
 20
0.174265
 30
0.000000
  0
VERTEX
  8
LAYER-1
 10
3.593666
 20
0.174265
 30
0.000000
  0
VERTEX
  8
LAYER-1
 10
3.589325
 20
0.174265
 30
0.000000
  0
VERTEX
  8
LAYER-1
 10
3.585853
 20
0.169924
 30
0.000000
  0
VERTEX
  8
LAYER-1
 10
3.584984
 20
0.164716
 30
0.000000
  0
VERTEX
  8
LAYER-1
 10
3.586721
 20
0.160376
 30
0.000000
  0
VERTEX
  8
LAYER-1
 10
3.591062
 20
0.158640
 30
0.000000
  0
VERTEX
  8
LAYER-1
 10
3.595401
 20
0.158640
 30
0.000000
  0
VERTEX
  8
LAYER-1
 10
3.599741
 20
0.162112
 30
0.000000
  0
VERTEX
  8
LAYER-1
 10
3.599741
 20
0.166452
 30
0.000000
  0
VERTEX
  8
LAYER-1
 10
3.598873
 20
0.170793
 30
0.000000
  0
VERTEX
  8
LAYER-1
 10
3.594533
 20
0.173397
 30
0.000000
  0
SEQEND
  8
LAYER-1
  0
POLYLINE
  8
LAYER-1
 66
  1
 70
  1
 62
  0
 10
3.577172
 20
0.114366
 30
0.000000
  0
VERTEX
  8
LAYER-1
 10
3.577172
 20
0.114366
 30
0.000000
  0
VERTEX
  8
LAYER-1
 10
3.564152
 20
0.091797
 30
0.000000
  0
VERTEX
  8
LAYER-1
 10
3.594533
 20
0.112630
 30
0.000000
  0
SEQEND
  8
LAYER-1
  0
POLYLINE
  8
LAYER-1
 66
  1
 70
  1
 62
  0
 10
3.632627
 20
0.212719
 30
0.000000
  0
VERTEX
  8
LAYER-1
 10
3.632627
 20
0.212719
 30
0.000000
  0
VERTEX
  8
LAYER-1
 10
3.651993
 20
0.200033
 30
0.000000
  0
VERTEX
  8
LAYER-1
 10
3.658003
 20
0.211383
 30
0.000000
  0
SEQEND
  8
LAYER-1
  0
POLYLINE
  8
LAYER-1
 66
  1
 70
  0
 62
  0
 10
3.517275
 20
0.163969
 30
0.000000
  0
VERTEX
  8
LAYER-1
 10
3.517275
 20
0.163969
 30
0.000000
  0
VERTEX
  8
LAYER-1
 10
3.512936
 20
0.163969
 30
0.000000
  0
VERTEX
  8
LAYER-1
 10
3.509463
 20
0.159629
 30
0.000000
  0
VERTEX
  8
LAYER-1
 10
3.508597
 20
0.154421
 30
0.000000
  0
VERTEX
  8
LAYER-1
 10
3.510332
 20
0.150080
 30
0.000000
  0
VERTEX
  8
LAYER-1
 10
3.514672
 20
0.148344
 30
0.000000
  0
VERTEX
  8
LAYER-1
 10
3.519012
 20
0.148344
 30
0.000000
  0
VERTEX
  8
LAYER-1
 10
3.523352
 20
0.151816
 30
0.000000
  0
VERTEX
  8
LAYER-1
 10
3.523352
 20
0.156157
 30
0.000000
  0
VERTEX
  8
LAYER-1
 10
3.522484
 20
0.160498
 30
0.000000
  0
VERTEX
  8
LAYER-1
 10
3.518144
 20
0.163101
 30
0.000000
  0
SEQEND
  8
LAYER-1
  0
POLYLINE
  8
LAYER-1
 66
  1
 70
  0
 62
  0
 10
3.894015
 20
0.136065
 30
0.000000
  0
VERTEX
  8
LAYER-1
 10
3.894015
 20
0.136065
 30
0.000000
  0
VERTEX
  8
LAYER-1
 10
3.889676
 20
0.136065
 30
0.000000
  0
VERTEX
  8
LAYER-1
 10
3.886203
 20
0.131725
 30
0.000000
  0
VERTEX
  8
LAYER-1
 10
3.885335
 20
0.126517
 30
0.000000
  0
VERTEX
  8
LAYER-1
 10
3.887071
 20
0.122176
 30
0.000000
  0
VERTEX
  8
LAYER-1
 10
3.891412
 20
0.120440
 30
0.000000
  0
VERTEX
  8
LAYER-1
 10
3.895751
 20
0.120440
 30
0.000000
  0
VERTEX
  8
LAYER-1
 10
3.900092
 20
0.123912
 30
0.000000
  0
VERTEX
  8
LAYER-1
 10
3.900092
 20
0.128253
 30
0.000000
  0
VERTEX
  8
LAYER-1
 10
3.899224
 20
0.132594
 30
0.000000
  0
VERTEX
  8
LAYER-1
 10
3.894883
 20
0.135197
 30
0.000000
  0
SEQEND
  8
LAYER-1
  0
POLYLINE
  8
LAYER-1
 66
  1
 70
  0
 62
  0
 10
3.625784
 20
0.107422
 30
0.000000
  0
VERTEX
  8
LAYER-1
 10
3.625784
 20
0.107422
 30
0.000000
  0
VERTEX
  8
LAYER-1
 10
3.621444
 20
0.107422
 30
0.000000
  0
VERTEX
  8
LAYER-1
 10
3.617971
 20
0.103082
 30
0.000000
  0
VERTEX
  8
LAYER-1
 10
3.617103
 20
0.097874
 30
0.000000
  0
VERTEX
  8
LAYER-1
 10
3.618839
 20
0.093533
 30
0.000000
  0
VERTEX
  8
LAYER-1
 10
3.623180
 20
0.091797
 30
0.000000
  0
VERTEX
  8
LAYER-1
 10
3.627519
 20
0.091797
 30
0.000000
  0
VERTEX
  8
LAYER-1
 10
3.631860
 20
0.095269
 30
0.000000
  0
VERTEX
  8
LAYER-1
 10
3.631860
 20
0.099609
 30
0.000000
  0
VERTEX
  8
LAYER-1
 10
3.630992
 20
0.103951
 30
0.000000
  0
VERTEX
  8
LAYER-1
 10
3.626651
 20
0.106554
 30
0.000000
  0
SEQEND
  8
LAYER-1
  0
POLYLINE
  8
LAYER-1
 66
  1
 70
  1
 62
  0
 10
3.423962
 20
0.166885
 30
0.000000
  0
VERTEX
  8
LAYER-1
 10
3.423962
 20
0.166885
 30
0.000000
  0
VERTEX
  8
LAYER-1
 10
3.397921
 20
0.159941
 30
0.000000
  0
VERTEX
  8
LAYER-1
 10
3.411808
 20
0.134768
 30
0.000000
  0
SEQEND
  8
LAYER-1
  0
POLYLINE
  8
LAYER-1
 66
  1
 70
  1
 62
  0
 10
3.331081
 20
0.115670
 30
0.000000
  0
VERTEX
  8
LAYER-1
 10
3.331081
 20
0.115670
 30
0.000000
  0
VERTEX
  8
LAYER-1
 10
3.308510
 20
0.128691
 30
0.000000
  0
VERTEX
  8
LAYER-1
 10
3.329343
 20
0.098309
 30
0.000000
  0
SEQEND
  8
LAYER-1
  0
POLYLINE
  8
LAYER-1
 66
  1
 70
  1
 62
  0
 10
3.294622
 20
0.160806
 30
0.000000
  0
VERTEX
  8
LAYER-1
 10
3.294622
 20
0.160806
 30
0.000000
  0
VERTEX
  8
LAYER-1
 10
3.269448
 20
0.177299
 30
0.000000
  0
VERTEX
  8
LAYER-1
 10
3.261636
 20
0.162543
 30
0.000000
  0
SEQEND
  8
LAYER-1
  0
POLYLINE
  8
LAYER-1
 66
  1
 70
  0
 62
  0
 10
3.455212
 20
0.216364
 30
0.000000
  0
VERTEX
  8
LAYER-1
 10
3.455212
 20
0.216364
 30
0.000000
  0
VERTEX
  8
LAYER-1
 10
3.455212
 20
0.220704
 30
0.000000
  0
VERTEX
  8
LAYER-1
 10
3.450871
 20
0.224176
 30
0.000000
  0
VERTEX
  8
LAYER-1
 10
3.445663
 20
0.225044
 30
0.000000
  0
VERTEX
  8
LAYER-1
 10
3.441322
 20
0.223308
 30
0.000000
  0
VERTEX
  8
LAYER-1
 10
3.439587
 20
0.218968
 30
0.000000
  0
VERTEX
  8
LAYER-1
 10
3.439587
 20
0.214628
 30
0.000000
  0
VERTEX
  8
LAYER-1
 10
3.443058
 20
0.210287
 30
0.000000
  0
VERTEX
  8
LAYER-1
 10
3.447399
 20
0.210287
 30
0.000000
  0
VERTEX
  8
LAYER-1
 10
3.451740
 20
0.211155
 30
0.000000
  0
VERTEX
  8
LAYER-1
 10
3.454344
 20
0.215496
 30
0.000000
  0
SEQEND
  8
LAYER-1
  0
POLYLINE
  8
LAYER-1
 66
  1
 70
  1
 62
  0
 10
3.387504
 20
0.179038
 30
0.000000
  0
VERTEX
  8
LAYER-1
 10
3.387504
 20
0.179038
 30
0.000000
  0
VERTEX
  8
LAYER-1
 10
3.364934
 20
0.192058
 30
0.000000
  0
VERTEX
  8
LAYER-1
 10
3.385766
 20
0.161677
 30
0.000000
  0
SEQEND
  8
LAYER-1
  0
POLYLINE
  8
LAYER-1
 66
  1
 70
  1
 62
  0
 10
3.339158
 20
0.186078
 30
0.000000
  0
VERTEX
  8
LAYER-1
 10
3.339158
 20
0.186078
 30
0.000000
  0
VERTEX
  8
LAYER-1
 10
3.326472
 20
0.166716
 30
0.000000
  0
VERTEX
  8
LAYER-1
 10
3.337822
 20
0.160705
 30
0.000000
  0
SEQEND
  8
LAYER-1
  0
POLYLINE
  8
LAYER-1
 66
  1
 70
  0
 62
  0
 10
3.456947
 20
0.088760
 30
0.000000
  0
VERTEX
  8
LAYER-1
 10
3.456947
 20
0.088760
 30
0.000000
  0
VERTEX
  8
LAYER-1
 10
3.456947
 20
0.093100
 30
0.000000
  0
VERTEX
  8
LAYER-1
 10
3.452607
 20
0.096572
 30
0.000000
  0
VERTEX
  8
LAYER-1
 10
3.447399
 20
0.097440
 30
0.000000
  0
VERTEX
  8
LAYER-1
 10
3.443058
 20
0.095704
 30
0.000000
  0
VERTEX
  8
LAYER-1
 10
3.441322
 20
0.091364
 30
0.000000
  0
VERTEX
  8
LAYER-1
 10
3.441322
 20
0.087023
 30
0.000000
  0
VERTEX
  8
LAYER-1
 10
3.444794
 20
0.082683
 30
0.000000
  0
VERTEX
  8
LAYER-1
 10
3.449135
 20
0.082683
 30
0.000000
  0
VERTEX
  8
LAYER-1
 10
3.453476
 20
0.083551
 30
0.000000
  0
VERTEX
  8
LAYER-1
 10
3.456081
 20
0.087891
 30
0.000000
  0
SEQEND
  8
LAYER-1
  0
POLYLINE
  8
LAYER-1
 66
  1
 70
  0
 62
  0
 10
3.375350
 20
0.089628
 30
0.000000
  0
VERTEX
  8
LAYER-1
 10
3.375350
 20
0.089628
 30
0.000000
  0
VERTEX
  8
LAYER-1
 10
3.375350
 20
0.093969
 30
0.000000
  0
VERTEX
  8
LAYER-1
 10
3.371009
 20
0.097440
 30
0.000000
  0
VERTEX
  8
LAYER-1
 10
3.365802
 20
0.098308
 30
0.000000
  0
VERTEX
  8
LAYER-1
 10
3.361462
 20
0.096572
 30
0.000000
  0
VERTEX
  8
LAYER-1
 10
3.359726
 20
0.092232
 30
0.000000
  0
VERTEX
  8
LAYER-1
 10
3.359726
 20
0.087891
 30
0.000000
  0
VERTEX
  8
LAYER-1
 10
3.363197
 20
0.083551
 30
0.000000
  0
VERTEX
  8
LAYER-1
 10
3.367538
 20
0.083551
 30
0.000000
  0
VERTEX
  8
LAYER-1
 10
3.371878
 20
0.084419
 30
0.000000
  0
VERTEX
  8
LAYER-1
 10
3.374483
 20
0.088760
 30
0.000000
  0
SEQEND
  8
LAYER-1
  0
POLYLINE
  8
LAYER-1
 66
  1
 70
  0
 62
  0
 10
3.305038
 20
0.199870
 30
0.000000
  0
VERTEX
  8
LAYER-1
 10
3.305038
 20
0.199870
 30
0.000000
  0
VERTEX
  8
LAYER-1
 10
3.305038
 20
0.204210
 30
0.000000
  0
VERTEX
  8
LAYER-1
 10
3.300698
 20
0.207682
 30
0.000000
  0
VERTEX
  8
LAYER-1
 10
3.295490
 20
0.208550
 30
0.000000
  0
VERTEX
  8
LAYER-1
 10
3.291150
 20
0.206814
 30
0.000000
  0
VERTEX
  8
LAYER-1
 10
3.289413
 20
0.202474
 30
0.000000
  0
VERTEX
  8
LAYER-1
 10
3.289413
 20
0.198134
 30
0.000000
  0
VERTEX
  8
LAYER-1
 10
3.292885
 20
0.193793
 30
0.000000
  0
VERTEX
  8
LAYER-1
 10
3.297226
 20
0.193793
 30
0.000000
  0
VERTEX
  8
LAYER-1
 10
3.301567
 20
0.194661
 30
0.000000
  0
VERTEX
  8
LAYER-1
 10
3.304172
 20
0.199002
 30
0.000000
  0
SEQEND
  8
LAYER-1
  0
POLYLINE
  8
LAYER-1
 66
  1
 70
  1
 62
  0
 10
4.087590
 20
0.189454
 30
0.000000
  0
VERTEX
  8
LAYER-1
 10
4.087590
 20
0.189454
 30
0.000000
  0
VERTEX
  8
LAYER-1
 10
4.094535
 20
0.163414
 30
0.000000
  0
VERTEX
  8
LAYER-1
 10
4.119708
 20
0.177302
 30
0.000000
  0
SEQEND
  8
LAYER-1
  0
POLYLINE
  8
LAYER-1
 66
  1
 70
  1
 62
  0
 10
4.249917
 20
0.218101
 30
0.000000
  0
VERTEX
  8
LAYER-1
 10
4.249917
 20
0.218101
 30
0.000000
  0
VERTEX
  8
LAYER-1
 10
4.236896
 20
0.195531
 30
0.000000
  0
VERTEX
  8
LAYER-1
 10
4.267278
 20
0.216364
 30
0.000000
  0
SEQEND
  8
LAYER-1
  0
POLYLINE
  8
LAYER-1
 66
  1
 70
  1
 62
  0
 10
4.229084
 20
0.133030
 30
0.000000
  0
VERTEX
  8
LAYER-1
 10
4.229084
 20
0.133030
 30
0.000000
  0
VERTEX
  8
LAYER-1
 10
4.212591
 20
0.107856
 30
0.000000
  0
VERTEX
  8
LAYER-1
 10
4.227348
 20
0.100043
 30
0.000000
  0
SEQEND
  8
LAYER-1
  0
POLYLINE
  8
LAYER-1
 66
  1
 70
  0
 62
  0
 10
4.038111
 20
0.220704
 30
0.000000
  0
VERTEX
  8
LAYER-1
 10
4.038111
 20
0.220704
 30
0.000000
  0
VERTEX
  8
LAYER-1
 10
4.033771
 20
0.220704
 30
0.000000
  0
VERTEX
  8
LAYER-1
 10
4.030299
 20
0.216364
 30
0.000000
  0
VERTEX
  8
LAYER-1
 10
4.029431
 20
0.211156
 30
0.000000
  0
VERTEX
  8
LAYER-1
 10
4.031167
 20
0.206815
 30
0.000000
  0
VERTEX
  8
LAYER-1
 10
4.035507
 20
0.205079
 30
0.000000
  0
VERTEX
  8
LAYER-1
 10
4.039847
 20
0.205079
 30
0.000000
  0
VERTEX
  8
LAYER-1
 10
4.044188
 20
0.208551
 30
0.000000
  0
VERTEX
  8
LAYER-1
 10
4.044188
 20
0.212891
 30
0.000000
  0
VERTEX
  8
LAYER-1
 10
4.043320
 20
0.217233
 30
0.000000
  0
VERTEX
  8
LAYER-1
 10
4.038979
 20
0.219837
 30
0.000000
  0
SEQEND
  8
LAYER-1
  0
POLYLINE
  8
LAYER-1
 66
  1
 70
  1
 62
  0
 10
4.059377
 20
0.152562
 30
0.000000
  0
VERTEX
  8
LAYER-1
 10
4.059377
 20
0.152562
 30
0.000000
  0
VERTEX
  8
LAYER-1
 10
4.081947
 20
0.139541
 30
0.000000
  0
VERTEX
  8
LAYER-1
 10
4.061114
 20
0.169922
 30
0.000000
  0
SEQEND
  8
LAYER-1
  0
POLYLINE
  8
LAYER-1
 66
  1
 70
  1
 62
  0
 10
4.176032
 20
0.144581
 30
0.000000
  0
VERTEX
  8
LAYER-1
 10
4.176032
 20
0.144581
 30
0.000000
  0
VERTEX
  8
LAYER-1
 10
4.195397
 20
0.131894
 30
0.000000
  0
VERTEX
  8
LAYER-1
 10
4.201407
 20
0.143245
 30
0.000000
  0
SEQEND
  8
LAYER-1
  0
POLYLINE
  8
LAYER-1
 66
  1
 70
  0
 62
  0
 10
4.190021
 20
0.222440
 30
0.000000
  0
VERTEX
  8
LAYER-1
 10
4.190021
 20
0.222440
 30
0.000000
  0
VERTEX
  8
LAYER-1
 10
4.185681
 20
0.222440
 30
0.000000
  0
VERTEX
  8
LAYER-1
 10
4.182209
 20
0.218100
 30
0.000000
  0
VERTEX
  8
LAYER-1
 10
4.181341
 20
0.212891
 30
0.000000
  0
VERTEX
  8
LAYER-1
 10
4.183076
 20
0.208551
 30
0.000000
  0
VERTEX
  8
LAYER-1
 10
4.187417
 20
0.206815
 30
0.000000
  0
VERTEX
  8
LAYER-1
 10
4.191758
 20
0.206815
 30
0.000000
  0
VERTEX
  8
LAYER-1
 10
4.196097
 20
0.210287
 30
0.000000
  0
VERTEX
  8
LAYER-1
 10
4.196097
 20
0.214628
 30
0.000000
  0
VERTEX
  8
LAYER-1
 10
4.195229
 20
0.218969
 30
0.000000
  0
VERTEX
  8
LAYER-1
 10
4.190889
 20
0.221572
 30
0.000000
  0
SEQEND
  8
LAYER-1
  0
POLYLINE
  8
LAYER-1
 66
  1
 70
  0
 62
  0
 10
4.274223
 20
0.095703
 30
0.000000
  0
VERTEX
  8
LAYER-1
 10
4.274223
 20
0.095703
 30
0.000000
  0
VERTEX
  8
LAYER-1
 10
4.269883
 20
0.095703
 30
0.000000
  0
VERTEX
  8
LAYER-1
 10
4.266411
 20
0.091363
 30
0.000000
  0
VERTEX
  8
LAYER-1
 10
4.265543
 20
0.086155
 30
0.000000
  0
VERTEX
  8
LAYER-1
 10
4.267279
 20
0.081814
 30
0.000000
  0
VERTEX
  8
LAYER-1
 10
4.271619
 20
0.080078
 30
0.000000
  0
VERTEX
  8
LAYER-1
 10
4.275959
 20
0.080078
 30
0.000000
  0
VERTEX
  8
LAYER-1
 10
4.280300
 20
0.083550
 30
0.000000
  0
VERTEX
  8
LAYER-1
 10
4.280300
 20
0.087891
 30
0.000000
  0
VERTEX
  8
LAYER-1
 10
4.279431
 20
0.092232
 30
0.000000
  0
VERTEX
  8
LAYER-1
 10
4.275091
 20
0.094835
 30
0.000000
  0
SEQEND
  8
LAYER-1
  0
POLYLINE
  8
LAYER-1
 66
  1
 70
  0
 62
  0
 10
4.120577
 20
0.150389
 30
0.000000
  0
VERTEX
  8
LAYER-1
 10
4.120577
 20
0.150389
 30
0.000000
  0
VERTEX
  8
LAYER-1
 10
4.116236
 20
0.150389
 30
0.000000
  0
VERTEX
  8
LAYER-1
 10
4.112765
 20
0.146048
 30
0.000000
  0
VERTEX
  8
LAYER-1
 10
4.111897
 20
0.140840
 30
0.000000
  0
VERTEX
  8
LAYER-1
 10
4.113632
 20
0.136500
 30
0.000000
  0
VERTEX
  8
LAYER-1
 10
4.117972
 20
0.134764
 30
0.000000
  0
VERTEX
  8
LAYER-1
 10
4.122313
 20
0.134764
 30
0.000000
  0
VERTEX
  8
LAYER-1
 10
4.126653
 20
0.138235
 30
0.000000
  0
VERTEX
  8
LAYER-1
 10
4.126653
 20
0.142576
 30
0.000000
  0
VERTEX
  8
LAYER-1
 10
4.125785
 20
0.146918
 30
0.000000
  0
VERTEX
  8
LAYER-1
 10
4.121445
 20
0.149521
 30
0.000000
  0
SEQEND
  8
LAYER-1
  0
POLYLINE
  8
LAYER-1
 66
  1
 70
  1
 62
  0
 10
3.955647
 20
0.159070
 30
0.000000
  0
VERTEX
  8
LAYER-1
 10
3.955647
 20
0.159070
 30
0.000000
  0
VERTEX
  8
LAYER-1
 10
3.948702
 20
0.185109
 30
0.000000
  0
VERTEX
  8
LAYER-1
 10
3.923528
 20
0.171224
 30
0.000000
  0
SEQEND
  8
LAYER-1
  0
POLYLINE
  8
LAYER-1
 66
  1
 70
  1
 62
  0
 10
3.544622
 20
0.190753
 30
0.000000
  0
VERTEX
  8
LAYER-1
 10
3.544622
 20
0.190753
 30
0.000000
  0
VERTEX
  8
LAYER-1
 10
3.557642
 20
0.213324
 30
0.000000
  0
VERTEX
  8
LAYER-1
 10
3.527261
 20
0.192490
 30
0.000000
  0
SEQEND
  8
LAYER-1
  0
POLYLINE
  8
LAYER-1
 66
  1
 70
  1
 62
  0
 10
3.841930
 20
0.184245
 30
0.000000
  0
VERTEX
  8
LAYER-1
 10
3.841930
 20
0.184245
 30
0.000000
  0
VERTEX
  8
LAYER-1
 10
3.858424
 20
0.209418
 30
0.000000
  0
VERTEX
  8
LAYER-1
 10
3.843666
 20
0.217231
 30
0.000000
  0
SEQEND
  8
LAYER-1
  0
POLYLINE
  8
LAYER-1
 66
  1
 70
  0
 62
  0
 10
4.005125
 20
0.127820
 30
0.000000
  0
VERTEX
  8
LAYER-1
 10
4.005125
 20
0.127820
 30
0.000000
  0
VERTEX
  8
LAYER-1
 10
4.009466
 20
0.127820
 30
0.000000
  0
VERTEX
  8
LAYER-1
 10
4.012938
 20
0.132161
 30
0.000000
  0
VERTEX
  8
LAYER-1
 10
4.013807
 20
0.137369
 30
0.000000
  0
VERTEX
  8
LAYER-1
 10
4.012071
 20
0.141709
 30
0.000000
  0
VERTEX
  8
LAYER-1
 10
4.007730
 20
0.143445
 30
0.000000
  0
VERTEX
  8
LAYER-1
 10
4.003390
 20
0.143445
 30
0.000000
  0
VERTEX
  8
LAYER-1
 10
3.999049
 20
0.139974
 30
0.000000
  0
VERTEX
  8
LAYER-1
 10
3.999049
 20
0.135633
 30
0.000000
  0
VERTEX
  8
LAYER-1
 10
3.999918
 20
0.131293
 30
0.000000
  0
VERTEX
  8
LAYER-1
 10
4.004258
 20
0.128688
 30
0.000000
  0
SEQEND
  8
LAYER-1
  0
POLYLINE
  8
LAYER-1
 66
  1
 70
  1
 62
  0
 10
3.959118
 20
0.124350
 30
0.000000
  0
VERTEX
  8
LAYER-1
 10
3.959118
 20
0.124350
 30
0.000000
  0
VERTEX
  8
LAYER-1
 10
3.972140
 20
0.146920
 30
0.000000
  0
VERTEX
  8
LAYER-1
 10
3.941757
 20
0.126088
 30
0.000000
  0
SEQEND
  8
LAYER-1
  0
POLYLINE
  8
LAYER-1
 66
  1
 70
  1
 62
  0
 10
3.904532
 20
0.165750
 30
0.000000
  0
VERTEX
  8
LAYER-1
 10
3.904532
 20
0.165750
 30
0.000000
  0
VERTEX
  8
LAYER-1
 10
3.885167
 20
0.178438
 30
0.000000
  0
VERTEX
  8
LAYER-1
 10
3.879156
 20
0.167086
 30
0.000000
  0
SEQEND
  8
LAYER-1
  0
POLYLINE
  8
LAYER-1
 66
  1
 70
  0
 62
  0
 10
3.881426
 20
0.062406
 30
0.000000
  0
VERTEX
  8
LAYER-1
 10
3.881426
 20
0.062406
 30
0.000000
  0
VERTEX
  8
LAYER-1
 10
3.885766
 20
0.062406
 30
0.000000
  0
VERTEX
  8
LAYER-1
 10
3.889238
 20
0.066747
 30
0.000000
  0
VERTEX
  8
LAYER-1
 10
3.890107
 20
0.071955
 30
0.000000
  0
VERTEX
  8
LAYER-1
 10
3.888371
 20
0.076295
 30
0.000000
  0
VERTEX
  8
LAYER-1
 10
3.884031
 20
0.078031
 30
0.000000
  0
VERTEX
  8
LAYER-1
 10
3.879690
 20
0.078031
 30
0.000000
  0
VERTEX
  8
LAYER-1
 10
3.875349
 20
0.074560
 30
0.000000
  0
VERTEX
  8
LAYER-1
 10
3.875349
 20
0.070218
 30
0.000000
  0
VERTEX
  8
LAYER-1
 10
3.876218
 20
0.065878
 30
0.000000
  0
VERTEX
  8
LAYER-1
 10
3.880559
 20
0.063273
 30
0.000000
  0
SEQEND
  8
LAYER-1
  0
POLYLINE
  8
LAYER-1
 66
  1
 70
  0
 62
  0
 10
3.791582
 20
0.205200
 30
0.000000
  0
VERTEX
  8
LAYER-1
 10
3.791582
 20
0.205200
 30
0.000000
  0
VERTEX
  8
LAYER-1
 10
3.795923
 20
0.205200
 30
0.000000
  0
VERTEX
  8
LAYER-1
 10
3.799395
 20
0.209541
 30
0.000000
  0
VERTEX
  8
LAYER-1
 10
3.800262
 20
0.214749
 30
0.000000
  0
VERTEX
  8
LAYER-1
 10
3.798526
 20
0.219090
 30
0.000000
  0
VERTEX
  8
LAYER-1
 10
3.794185
 20
0.220825
 30
0.000000
  0
VERTEX
  8
LAYER-1
 10
3.789847
 20
0.220825
 30
0.000000
  0
VERTEX
  8
LAYER-1
 10
3.785506
 20
0.217354
 30
0.000000
  0
VERTEX
  8
LAYER-1
 10
3.785506
 20
0.213013
 30
0.000000
  0
VERTEX
  8
LAYER-1
 10
3.786373
 20
0.208672
 30
0.000000
  0
VERTEX
  8
LAYER-1
 10
3.790713
 20
0.206067
 30
0.000000
  0
SEQEND
  8
LAYER-1
  0
POLYLINE
  8
LAYER-1
 66
  1
 70
  0
 62
  0
 10
3.953910
 20
0.198134
 30
0.000000
  0
VERTEX
  8
LAYER-1
 10
3.953910
 20
0.198134
 30
0.000000
  0
VERTEX
  8
LAYER-1
 10
3.958251
 20
0.198134
 30
0.000000
  0
VERTEX
  8
LAYER-1
 10
3.961723
 20
0.202475
 30
0.000000
  0
VERTEX
  8
LAYER-1
 10
3.962590
 20
0.207682
 30
0.000000
  0
VERTEX
  8
LAYER-1
 10
3.960854
 20
0.212023
 30
0.000000
  0
VERTEX
  8
LAYER-1
 10
3.956513
 20
0.213759
 30
0.000000
  0
VERTEX
  8
LAYER-1
 10
3.952175
 20
0.213759
 30
0.000000
  0
VERTEX
  8
LAYER-1
 10
3.947834
 20
0.210287
 30
0.000000
  0
VERTEX
  8
LAYER-1
 10
3.947834
 20
0.205946
 30
0.000000
  0
VERTEX
  8
LAYER-1
 10
3.948701
 20
0.201606
 30
0.000000
  0
VERTEX
  8
LAYER-1
 10
3.953042
 20
0.199001
 30
0.000000
  0
SEQEND
  8
LAYER-1
  0
POLYLINE
  8
LAYER-1
 66
  1
 70
  1
 62
  0
 10
4.709986
 20
0.167320
 30
0.000000
  0
VERTEX
  8
LAYER-1
 10
4.709986
 20
0.167320
 30
0.000000
  0
VERTEX
  8
LAYER-1
 10
4.716930
 20
0.141279
 30
0.000000
  0
VERTEX
  8
LAYER-1
 10
4.742104
 20
0.155167
 30
0.000000
  0
SEQEND
  8
LAYER-1
  0
POLYLINE
  8
LAYER-1
 66
  1
 70
  1
 62
  0
 10
4.836721
 20
0.202910
 30
0.000000
  0
VERTEX
  8
LAYER-1
 10
4.836721
 20
0.202910
 30
0.000000
  0
VERTEX
  8
LAYER-1
 10
4.823700
 20
0.180341
 30
0.000000
  0
VERTEX
  8
LAYER-1
 10
4.854082
 20
0.201173
 30
0.000000
  0
SEQEND
  8
LAYER-1
  0
POLYLINE
  8
LAYER-1
 66
  1
 70
  1
 62
  0
 10
4.512071
 20
0.191626
 30
0.000000
  0
VERTEX
  8
LAYER-1
 10
4.512071
 20
0.191626
 30
0.000000
  0
VERTEX
  8
LAYER-1
 10
4.495578
 20
0.166452
 30
0.000000
  0
VERTEX
  8
LAYER-1
 10
4.510335
 20
0.158640
 30
0.000000
  0
SEQEND
  8
LAYER-1
  0
POLYLINE
  8
LAYER-1
 66
  1
 70
  0
 62
  0
 10
4.622313
 20
0.183815
 30
0.000000
  0
VERTEX
  8
LAYER-1
 10
4.622313
 20
0.183815
 30
0.000000
  0
VERTEX
  8
LAYER-1
 10
4.617972
 20
0.183815
 30
0.000000
  0
VERTEX
  8
LAYER-1
 10
4.614500
 20
0.179476
 30
0.000000
  0
VERTEX
  8
LAYER-1
 10
4.613631
 20
0.174267
 30
0.000000
  0
VERTEX
  8
LAYER-1
 10
4.615367
 20
0.169927
 30
0.000000
  0
VERTEX
  8
LAYER-1
 10
4.619708
 20
0.168191
 30
0.000000
  0
VERTEX
  8
LAYER-1
 10
4.624049
 20
0.168191
 30
0.000000
  0
VERTEX
  8
LAYER-1
 10
4.628388
 20
0.171663
 30
0.000000
  0
VERTEX
  8
LAYER-1
 10
4.628388
 20
0.176003
 30
0.000000
  0
VERTEX
  8
LAYER-1
 10
4.627521
 20
0.180344
 30
0.000000
  0
VERTEX
  8
LAYER-1
 10
4.623180
 20
0.182947
 30
0.000000
  0
SEQEND
  8
LAYER-1
  0
POLYLINE
  8
LAYER-1
 66
  1
 70
  1
 62
  0
 10
4.651827
 20
0.137806
 30
0.000000
  0
VERTEX
  8
LAYER-1
 10
4.651827
 20
0.137806
 30
0.000000
  0
VERTEX
  8
LAYER-1
 10
4.638806
 20
0.115237
 30
0.000000
  0
VERTEX
  8
LAYER-1
 10
4.669188
 20
0.136069
 30
0.000000
  0
SEQEND
  8
LAYER-1
  0
POLYLINE
  8
LAYER-1
 66
  1
 70
  1
 62
  0
 10
4.859125
 20
0.138338
 30
0.000000
  0
VERTEX
  8
LAYER-1
 10
4.859125
 20
0.138338
 30
0.000000
  0
VERTEX
  8
LAYER-1
 10
4.846438
 20
0.118973
 30
0.000000
  0
VERTEX
  8
LAYER-1
 10
4.857789
 20
0.112963
 30
0.000000
  0
SEQEND
  8
LAYER-1
  0
POLYLINE
  8
LAYER-1
 66
  1
 70
  0
 62
  0
 10
4.766408
 20
0.207250
 30
0.000000
  0
VERTEX
  8
LAYER-1
 10
4.766408
 20
0.207250
 30
0.000000
  0
VERTEX
  8
LAYER-1
 10
4.762068
 20
0.207250
 30
0.000000
  0
VERTEX
  8
LAYER-1
 10
4.758596
 20
0.202909
 30
0.000000
  0
VERTEX
  8
LAYER-1
 10
4.757728
 20
0.197701
 30
0.000000
  0
VERTEX
  8
LAYER-1
 10
4.759463
 20
0.193360
 30
0.000000
  0
VERTEX
  8
LAYER-1
 10
4.763803
 20
0.191625
 30
0.000000
  0
VERTEX
  8
LAYER-1
 10
4.768144
 20
0.191625
 30
0.000000
  0
VERTEX
  8
LAYER-1
 10
4.772485
 20
0.195096
 30
0.000000
  0
VERTEX
  8
LAYER-1
 10
4.772485
 20
0.199437
 30
0.000000
  0
VERTEX
  8
LAYER-1
 10
4.771616
 20
0.203778
 30
0.000000
  0
VERTEX
  8
LAYER-1
 10
4.767276
 20
0.206382
 30
0.000000
  0
SEQEND
  8
LAYER-1
  0
POLYLINE
  8
LAYER-1
 66
  1
 70
  0
 62
  0
 10
4.553737
 20
0.197701
 30
0.000000
  0
VERTEX
  8
LAYER-1
 10
4.553737
 20
0.197701
 30
0.000000
  0
VERTEX
  8
LAYER-1
 10
4.549397
 20
0.197701
 30
0.000000
  0
VERTEX
  8
LAYER-1
 10
4.545925
 20
0.193359
 30
0.000000
  0
VERTEX
  8
LAYER-1
 10
4.545057
 20
0.188152
 30
0.000000
  0
VERTEX
  8
LAYER-1
 10
4.546794
 20
0.183812
 30
0.000000
  0
VERTEX
  8
LAYER-1
 10
4.551133
 20
0.182076
 30
0.000000
  0
VERTEX
  8
LAYER-1
 10
4.555474
 20
0.182076
 30
0.000000
  0
VERTEX
  8
LAYER-1
 10
4.559814
 20
0.185547
 30
0.000000
  0
VERTEX
  8
LAYER-1
 10
4.559814
 20
0.189888
 30
0.000000
  0
VERTEX
  8
LAYER-1
 10
4.558946
 20
0.194228
 30
0.000000
  0
VERTEX
  8
LAYER-1
 10
4.554606
 20
0.196832
 30
0.000000
  0
SEQEND
  8
LAYER-1
  0
POLYLINE
  8
LAYER-1
 66
  1
 70
  0
 62
  0
 10
4.801133
 20
0.169921
 30
0.000000
  0
VERTEX
  8
LAYER-1
 10
4.801133
 20
0.169921
 30
0.000000
  0
VERTEX
  8
LAYER-1
 10
4.796793
 20
0.169921
 30
0.000000
  0
VERTEX
  8
LAYER-1
 10
4.793321
 20
0.165581
 30
0.000000
  0
VERTEX
  8
LAYER-1
 10
4.792453
 20
0.160372
 30
0.000000
  0
VERTEX
  8
LAYER-1
 10
4.794189
 20
0.156032
 30
0.000000
  0
VERTEX
  8
LAYER-1
 10
4.798530
 20
0.154296
 30
0.000000
  0
VERTEX
  8
LAYER-1
 10
4.802870
 20
0.154296
 30
0.000000
  0
VERTEX
  8
LAYER-1
 10
4.807209
 20
0.157768
 30
0.000000
  0
VERTEX
  8
LAYER-1
 10
4.807209
 20
0.162109
 30
0.000000
  0
VERTEX
  8
LAYER-1
 10
4.806343
 20
0.166450
 30
0.000000
  0
VERTEX
  8
LAYER-1
 10
4.802002
 20
0.169053
 30
0.000000
  0
SEQEND
  8
LAYER-1
  0
POLYLINE
  8
LAYER-1
 66
  1
 70
  1
 62
  0
 10
4.415716
 20
0.116537
 30
0.000000
  0
VERTEX
  8
LAYER-1
 10
4.415716
 20
0.116537
 30
0.000000
  0
VERTEX
  8
LAYER-1
 10
4.408772
 20
0.142577
 30
0.000000
  0
VERTEX
  8
LAYER-1
 10
4.383598
 20
0.128690
 30
0.000000
  0
SEQEND
  8
LAYER-1
  0
POLYLINE
  8
LAYER-1
 66
  1
 70
  1
 62
  0
 10
4.263806
 20
0.157333
 30
0.000000
  0
VERTEX
  8
LAYER-1
 10
4.263806
 20
0.157333
 30
0.000000
  0
VERTEX
  8
LAYER-1
 10
4.276827
 20
0.179904
 30
0.000000
  0
VERTEX
  8
LAYER-1
 10
4.246445
 20
0.159071
 30
0.000000
  0
SEQEND
  8
LAYER-1
  0
POLYLINE
  8
LAYER-1
 66
  1
 70
  1
 62
  0
 10
4.347140
 20
0.117408
 30
0.000000
  0
VERTEX
  8
LAYER-1
 10
4.347140
 20
0.117408
 30
0.000000
  0
VERTEX
  8
LAYER-1
 10
4.363633
 20
0.142582
 30
0.000000
  0
VERTEX
  8
LAYER-1
 10
4.348876
 20
0.150394
 30
0.000000
  0
SEQEND
  8
LAYER-1
  0
POLYLINE
  8
LAYER-1
 66
  1
 70
  0
 62
  0
 10
4.521620
 20
0.119145
 30
0.000000
  0
VERTEX
  8
LAYER-1
 10
4.521620
 20
0.119145
 30
0.000000
  0
VERTEX
  8
LAYER-1
 10
4.525961
 20
0.119145
 30
0.000000
  0
VERTEX
  8
LAYER-1
 10
4.529433
 20
0.123485
 30
0.000000
  0
VERTEX
  8
LAYER-1
 10
4.530301
 20
0.128693
 30
0.000000
  0
VERTEX
  8
LAYER-1
 10
4.528565
 20
0.133034
 30
0.000000
  0
VERTEX
  8
LAYER-1
 10
4.524224
 20
0.134770
 30
0.000000
  0
VERTEX
  8
LAYER-1
 10
4.519884
 20
0.134770
 30
0.000000
  0
VERTEX
  8
LAYER-1
 10
4.515544
 20
0.131298
 30
0.000000
  0
VERTEX
  8
LAYER-1
 10
4.515544
 20
0.126957
 30
0.000000
  0
VERTEX
  8
LAYER-1
 10
4.516412
 20
0.122616
 30
0.000000
  0
VERTEX
  8
LAYER-1
 10
4.520752
 20
0.120012
 30
0.000000
  0
SEQEND
  8
LAYER-1
  0
POLYLINE
  8
LAYER-1
 66
  1
 70
  1
 62
  0
 10
4.473007
 20
0.133900
 30
0.000000
  0
VERTEX
  8
LAYER-1
 10
4.473007
 20
0.133900
 30
0.000000
  0
VERTEX
  8
LAYER-1
 10
4.486028
 20
0.156470
 30
0.000000
  0
VERTEX
  8
LAYER-1
 10
4.455647
 20
0.135638
 30
0.000000
  0
SEQEND
  8
LAYER-1
  0
POLYLINE
  8
LAYER-1
 66
  1
 70
  1
 62
  0
 10
4.362064
 20
0.169825
 30
0.000000
  0
VERTEX
  8
LAYER-1
 10
4.362064
 20
0.169825
 30
0.000000
  0
VERTEX
  8
LAYER-1
 10
4.374750
 20
0.189188
 30
0.000000
  0
VERTEX
  8
LAYER-1
 10
4.363400
 20
0.195199
 30
0.000000
  0
SEQEND
  8
LAYER-1
  0
POLYLINE
  8
LAYER-1
 66
  1
 70
  0
 62
  0
 10
4.317712
 20
0.201295
 30
0.000000
  0
VERTEX
  8
LAYER-1
 10
4.317712
 20
0.201295
 30
0.000000
  0
VERTEX
  8
LAYER-1
 10
4.322052
 20
0.201295
 30
0.000000
  0
VERTEX
  8
LAYER-1
 10
4.325524
 20
0.205636
 30
0.000000
  0
VERTEX
  8
LAYER-1
 10
4.326392
 20
0.210843
 30
0.000000
  0
VERTEX
  8
LAYER-1
 10
4.324656
 20
0.215185
 30
0.000000
  0
VERTEX
  8
LAYER-1
 10
4.320315
 20
0.216920
 30
0.000000
  0
VERTEX
  8
LAYER-1
 10
4.315975
 20
0.216920
 30
0.000000
  0
VERTEX
  8
LAYER-1
 10
4.311635
 20
0.213448
 30
0.000000
  0
VERTEX
  8
LAYER-1
 10
4.311635
 20
0.209107
 30
0.000000
  0
VERTEX
  8
LAYER-1
 10
4.312503
 20
0.204767
 30
0.000000
  0
VERTEX
  8
LAYER-1
 10
4.316844
 20
0.202162
 30
0.000000
  0
SEQEND
  8
LAYER-1
  0
POLYLINE
  8
LAYER-1
 66
  1
 70
  0
 62
  0
 10
4.295056
 20
0.123484
 30
0.000000
  0
VERTEX
  8
LAYER-1
 10
4.295056
 20
0.123484
 30
0.000000
  0
VERTEX
  8
LAYER-1
 10
4.299397
 20
0.123484
 30
0.000000
  0
VERTEX
  8
LAYER-1
 10
4.302869
 20
0.127825
 30
0.000000
  0
VERTEX
  8
LAYER-1
 10
4.303737
 20
0.133033
 30
0.000000
  0
VERTEX
  8
LAYER-1
 10
4.302001
 20
0.137373
 30
0.000000
  0
VERTEX
  8
LAYER-1
 10
4.297660
 20
0.139109
 30
0.000000
  0
VERTEX
  8
LAYER-1
 10
4.293320
 20
0.139109
 30
0.000000
  0
VERTEX
  8
LAYER-1
 10
4.288979
 20
0.135638
 30
0.000000
  0
VERTEX
  8
LAYER-1
 10
4.288979
 20
0.131297
 30
0.000000
  0
VERTEX
  8
LAYER-1
 10
4.289847
 20
0.126957
 30
0.000000
  0
VERTEX
  8
LAYER-1
 10
4.294188
 20
0.124352
 30
0.000000
  0
SEQEND
  8
LAYER-1
  0
POLYLINE
  8
LAYER-1
 66
  1
 70
  0
 62
  0
 10
4.459119
 20
0.200740
 30
0.000000
  0
VERTEX
  8
LAYER-1
 10
4.459119
 20
0.200740
 30
0.000000
  0
VERTEX
  8
LAYER-1
 10
4.463460
 20
0.200740
 30
0.000000
  0
VERTEX
  8
LAYER-1
 10
4.466932
 20
0.205081
 30
0.000000
  0
VERTEX
  8
LAYER-1
 10
4.467800
 20
0.210288
 30
0.000000
  0
VERTEX
  8
LAYER-1
 10
4.466064
 20
0.214628
 30
0.000000
  0
VERTEX
  8
LAYER-1
 10
4.461723
 20
0.216365
 30
0.000000
  0
VERTEX
  8
LAYER-1
 10
4.457383
 20
0.216365
 30
0.000000
  0
VERTEX
  8
LAYER-1
 10
4.453043
 20
0.212893
 30
0.000000
  0
VERTEX
  8
LAYER-1
 10
4.453043
 20
0.208552
 30
0.000000
  0
VERTEX
  8
LAYER-1
 10
4.453910
 20
0.204212
 30
0.000000
  0
VERTEX
  8
LAYER-1
 10
4.458251
 20
0.201607
 30
0.000000
  0
SEQEND
  8
LAYER-1
  0
POLYLINE
  8
LAYER-1
 66
  1
 70
  1
 62
  0
 10
4.910937
 20
0.157337
 30
0.000000
  0
VERTEX
  8
LAYER-1
 10
4.910937
 20
0.157337
 30
0.000000
  0
VERTEX
  8
LAYER-1
 10
4.936978
 20
0.164281
 30
0.000000
  0
VERTEX
  8
LAYER-1
 10
4.923090
 20
0.189453
 30
0.000000
  0
SEQEND
  8
LAYER-1
  0
POLYLINE
  8
LAYER-1
 66
  1
 70
  1
 62
  0
 10
4.593232
 20
0.210288
 30
0.000000
  0
VERTEX
  8
LAYER-1
 10
4.593232
 20
0.210288
 30
0.000000
  0
VERTEX
  8
LAYER-1
 10
4.615802
 20
0.197266
 30
0.000000
  0
VERTEX
  8
LAYER-1
 10
4.594969
 20
0.227649
 30
0.000000
  0
SEQEND
  8
LAYER-1
  0
POLYLINE
  8
LAYER-1
 66
  1
 70
  1
 62
  0
 10
5.529861
 20
0.115666
 30
0.000000
  0
VERTEX
  8
LAYER-1
 10
5.529861
 20
0.115666
 30
0.000000
  0
VERTEX
  8
LAYER-1
 10
5.555036
 20
0.099173
 30
0.000000
  0
VERTEX
  8
LAYER-1
 10
5.562848
 20
0.113931
 30
0.000000
  0
SEQEND
  8
LAYER-1
  0
POLYLINE
  8
LAYER-1
 66
  1
 70
  0
 62
  0
 10
5.351042
 20
0.124349
 30
0.000000
  0
VERTEX
  8
LAYER-1
 10
5.351042
 20
0.124349
 30
0.000000
  0
VERTEX
  8
LAYER-1
 10
5.351042
 20
0.120009
 30
0.000000
  0
VERTEX
  8
LAYER-1
 10
5.355383
 20
0.116536
 30
0.000000
  0
VERTEX
  8
LAYER-1
 10
5.360591
 20
0.115669
 30
0.000000
  0
VERTEX
  8
LAYER-1
 10
5.364931
 20
0.117405
 30
0.000000
  0
VERTEX
  8
LAYER-1
 10
5.366667
 20
0.121745
 30
0.000000
  0
VERTEX
  8
LAYER-1
 10
5.366667
 20
0.126085
 30
0.000000
  0
VERTEX
  8
LAYER-1
 10
5.363196
 20
0.130425
 30
0.000000
  0
VERTEX
  8
LAYER-1
 10
5.358855
 20
0.130425
 30
0.000000
  0
VERTEX
  8
LAYER-1
 10
5.354514
 20
0.129557
 30
0.000000
  0
VERTEX
  8
LAYER-1
 10
5.351910
 20
0.125218
 30
0.000000
  0
SEQEND
  8
LAYER-1
  0
POLYLINE
  8
LAYER-1
 66
  1
 70
  1
 62
  0
 10
4.981250
 20
0.144314
 30
0.000000
  0
VERTEX
  8
LAYER-1
 10
4.981250
 20
0.144314
 30
0.000000
  0
VERTEX
  8
LAYER-1
 10
5.003820
 20
0.131294
 30
0.000000
  0
VERTEX
  8
LAYER-1
 10
4.982987
 20
0.161675
 30
0.000000
  0
SEQEND
  8
LAYER-1
  0
POLYLINE
  8
LAYER-1
 66
  1
 70
  1
 62
  0
 10
4.944258
 20
0.215329
 30
0.000000
  0
VERTEX
  8
LAYER-1
 10
4.944258
 20
0.215329
 30
0.000000
  0
VERTEX
  8
LAYER-1
 10
4.963623
 20
0.202642
 30
0.000000
  0
VERTEX
  8
LAYER-1
 10
4.969634
 20
0.213993
 30
0.000000
  0
SEQEND
  8
LAYER-1
  0
POLYLINE
  8
LAYER-1
 66
  1
 70
  0
 62
  0
 10
4.588893
 20
0.150393
 30
0.000000
  0
VERTEX
  8
LAYER-1
 10
4.588893
 20
0.150393
 30
0.000000
  0
VERTEX
  8
LAYER-1
 10
4.588893
 20
0.146053
 30
0.000000
  0
VERTEX
  8
LAYER-1
 10
4.593233
 20
0.142581
 30
0.000000
  0
VERTEX
  8
LAYER-1
 10
4.598441
 20
0.141713
 30
0.000000
  0
VERTEX
  8
LAYER-1
 10
4.602782
 20
0.143448
 30
0.000000
  0
VERTEX
  8
LAYER-1
 10
4.604518
 20
0.147789
 30
0.000000
  0
VERTEX
  8
LAYER-1
 10
4.604518
 20
0.152128
 30
0.000000
  0
VERTEX
  8
LAYER-1
 10
4.601046
 20
0.156470
 30
0.000000
  0
VERTEX
  8
LAYER-1
 10
4.596705
 20
0.156470
 30
0.000000
  0
VERTEX
  8
LAYER-1
 10
4.592364
 20
0.155602
 30
0.000000
  0
VERTEX
  8
LAYER-1
 10
4.589760
 20
0.151260
 30
0.000000
  0
SEQEND
  8
LAYER-1
  0
POLYLINE
  8
LAYER-1
 66
  1
 70
  0
 62
  0
 10
4.995139
 20
0.112197
 30
0.000000
  0
VERTEX
  8
LAYER-1
 10
4.995139
 20
0.112197
 30
0.000000
  0
VERTEX
  8
LAYER-1
 10
4.995139
 20
0.107857
 30
0.000000
  0
VERTEX
  8
LAYER-1
 10
4.999480
 20
0.104385
 30
0.000000
  0
VERTEX
  8
LAYER-1
 10
5.004687
 20
0.103516
 30
0.000000
  0
VERTEX
  8
LAYER-1
 10
5.009028
 20
0.105253
 30
0.000000
  0
VERTEX
  8
LAYER-1
 10
5.010764
 20
0.109593
 30
0.000000
  0
VERTEX
  8
LAYER-1
 10
5.010764
 20
0.113933
 30
0.000000
  0
VERTEX
  8
LAYER-1
 10
5.007292
 20
0.118274
 30
0.000000
  0
VERTEX
  8
LAYER-1
 10
5.002951
 20
0.118274
 30
0.000000
  0
VERTEX
  8
LAYER-1
 10
4.998611
 20
0.117405
 30
0.000000
  0
VERTEX
  8
LAYER-1
 10
4.996006
 20
0.113065
 30
0.000000
  0
SEQEND
  8
LAYER-1
  0
POLYLINE
  8
LAYER-1
 66
  1
 70
  0
 62
  0
 10
5.063715
 20
0.147788
 30
0.000000
  0
VERTEX
  8
LAYER-1
 10
5.063715
 20
0.147788
 30
0.000000
  0
VERTEX
  8
LAYER-1
 10
5.063715
 20
0.143447
 30
0.000000
  0
VERTEX
  8
LAYER-1
 10
5.068056
 20
0.139976
 30
0.000000
  0
VERTEX
  8
LAYER-1
 10
5.073264
 20
0.139107
 30
0.000000
  0
VERTEX
  8
LAYER-1
 10
5.077605
 20
0.140844
 30
0.000000
  0
VERTEX
  8
LAYER-1
 10
5.079341
 20
0.145183
 30
0.000000
  0
VERTEX
  8
LAYER-1
 10
5.079341
 20
0.149524
 30
0.000000
  0
VERTEX
  8
LAYER-1
 10
5.075868
 20
0.153865
 30
0.000000
  0
VERTEX
  8
LAYER-1
 10
5.071528
 20
0.153865
 30
0.000000
  0
VERTEX
  8
LAYER-1
 10
5.067187
 20
0.152996
 30
0.000000
  0
VERTEX
  8
LAYER-1
 10
5.064583
 20
0.148656
 30
0.000000
  0
SEQEND
  8
LAYER-1
  0
POLYLINE
  8
LAYER-1
 66
  1
 70
  1
 62
  0
 10
5.103126
 20
0.169056
 30
0.000000
  0
VERTEX
  8
LAYER-1
 10
5.103126
 20
0.169056
 30
0.000000
  0
VERTEX
  8
LAYER-1
 10
5.110071
 20
0.143015
 30
0.000000
  0
VERTEX
  8
LAYER-1
 10
5.135244
 20
0.156902
 30
0.000000
  0
SEQEND
  8
LAYER-1
  0
POLYLINE
  8
LAYER-1
 66
  1
 70
  1
 62
  0
 10
5.264671
 20
0.197701
 30
0.000000
  0
VERTEX
  8
LAYER-1
 10
5.264671
 20
0.197701
 30
0.000000
  0
VERTEX
  8
LAYER-1
 10
5.251650
 20
0.175132
 30
0.000000
  0
VERTEX
  8
LAYER-1
 10
5.282032
 20
0.195964
 30
0.000000
  0
SEQEND
  8
LAYER-1
  0
POLYLINE
  8
LAYER-1
 66
  1
 70
  1
 62
  0
 10
5.657032
 20
0.168183
 30
0.000000
  0
VERTEX
  8
LAYER-1
 10
5.657032
 20
0.168183
 30
0.000000
  0
VERTEX
  8
LAYER-1
 10
5.640539
 20
0.143010
 30
0.000000
  0
VERTEX
  8
LAYER-1
 10
5.655296
 20
0.135197
 30
0.000000
  0
SEQEND
  8
LAYER-1
  0
POLYLINE
  8
LAYER-1
 66
  1
 70
  0
 62
  0
 10
5.052865
 20
0.200304
 30
0.000000
  0
VERTEX
  8
LAYER-1
 10
5.052865
 20
0.200304
 30
0.000000
  0
VERTEX
  8
LAYER-1
 10
5.048525
 20
0.200304
 30
0.000000
  0
VERTEX
  8
LAYER-1
 10
5.045053
 20
0.195964
 30
0.000000
  0
VERTEX
  8
LAYER-1
 10
5.044185
 20
0.190756
 30
0.000000
  0
VERTEX
  8
LAYER-1
 10
5.045921
 20
0.186415
 30
0.000000
  0
VERTEX
  8
LAYER-1
 10
5.050262
 20
0.184679
 30
0.000000
  0
VERTEX
  8
LAYER-1
 10
5.054601
 20
0.184679
 30
0.000000
  0
VERTEX
  8
LAYER-1
 10
5.058942
 20
0.188151
 30
0.000000
  0
VERTEX
  8
LAYER-1
 10
5.058942
 20
0.192491
 30
0.000000
  0
VERTEX
  8
LAYER-1
 10
5.058074
 20
0.196832
 30
0.000000
  0
VERTEX
  8
LAYER-1
 10
5.053733
 20
0.199437
 30
0.000000
  0
SEQEND
  8
LAYER-1
  0
POLYLINE
  8
LAYER-1
 66
  1
 70
  1
 62
  0
 10
5.116235
 20
0.123916
 30
0.000000
  0
VERTEX
  8
LAYER-1
 10
5.116235
 20
0.123916
 30
0.000000
  0
VERTEX
  8
LAYER-1
 10
5.103214
 20
0.101345
 30
0.000000
  0
VERTEX
  8
LAYER-1
 10
5.133596
 20
0.122178
 30
0.000000
  0
SEQEND
  8
LAYER-1
  0
POLYLINE
  8
LAYER-1
 66
  1
 70
  1
 62
  0
 10
5.184978
 20
0.101678
 30
0.000000
  0
VERTEX
  8
LAYER-1
 10
5.184978
 20
0.101678
 30
0.000000
  0
VERTEX
  8
LAYER-1
 10
5.197665
 20
0.121042
 30
0.000000
  0
VERTEX
  8
LAYER-1
 10
5.186314
 20
0.127053
 30
0.000000
  0
SEQEND
  8
LAYER-1
  0
POLYLINE
  8
LAYER-1
 66
  1
 70
  0
 62
  0
 10
5.204775
 20
0.202040
 30
0.000000
  0
VERTEX
  8
LAYER-1
 10
5.204775
 20
0.202040
 30
0.000000
  0
VERTEX
  8
LAYER-1
 10
5.200436
 20
0.202040
 30
0.000000
  0
VERTEX
  8
LAYER-1
 10
5.196963
 20
0.197700
 30
0.000000
  0
VERTEX
  8
LAYER-1
 10
5.196095
 20
0.192491
 30
0.000000
  0
VERTEX
  8
LAYER-1
 10
5.197831
 20
0.188151
 30
0.000000
  0
VERTEX
  8
LAYER-1
 10
5.202171
 20
0.186415
 30
0.000000
  0
VERTEX
  8
LAYER-1
 10
5.206512
 20
0.186415
 30
0.000000
  0
VERTEX
  8
LAYER-1
 10
5.210852
 20
0.189887
 30
0.000000
  0
VERTEX
  8
LAYER-1
 10
5.210852
 20
0.194227
 30
0.000000
  0
VERTEX
  8
LAYER-1
 10
5.209984
 20
0.198569
 30
0.000000
  0
VERTEX
  8
LAYER-1
 10
5.205643
 20
0.201173
 30
0.000000
  0
SEQEND
  8
LAYER-1
  0
POLYLINE
  8
LAYER-1
 66
  1
 70
  0
 62
  0
 10
5.709115
 20
0.162107
 30
0.000000
  0
VERTEX
  8
LAYER-1
 10
5.709115
 20
0.162107
 30
0.000000
  0
VERTEX
  8
LAYER-1
 10
5.704774
 20
0.162107
 30
0.000000
  0
VERTEX
  8
LAYER-1
 10
5.701302
 20
0.157766
 30
0.000000
  0
VERTEX
  8
LAYER-1
 10
5.700434
 20
0.152558
 30
0.000000
  0
VERTEX
  8
LAYER-1
 10
5.702170
 20
0.148218
 30
0.000000
  0
VERTEX
  8
LAYER-1
 10
5.706511
 20
0.146482
 30
0.000000
  0
VERTEX
  8
LAYER-1
 10
5.710851
 20
0.146482
 30
0.000000
  0
VERTEX
  8
LAYER-1
 10
5.715192
 20
0.149953
 30
0.000000
  0
VERTEX
  8
LAYER-1
 10
5.715192
 20
0.154294
 30
0.000000
  0
VERTEX
  8
LAYER-1
 10
5.714324
 20
0.158635
 30
0.000000
  0
VERTEX
  8
LAYER-1
 10
5.709983
 20
0.161240
 30
0.000000
  0
SEQEND
  8
LAYER-1
  0
POLYLINE
  8
LAYER-1
 66
  1
 70
  0
 62
  0
 10
5.617970
 20
0.129989
 30
0.000000
  0
VERTEX
  8
LAYER-1
 10
5.617970
 20
0.129989
 30
0.000000
  0
VERTEX
  8
LAYER-1
 10
5.613630
 20
0.129989
 30
0.000000
  0
VERTEX
  8
LAYER-1
 10
5.610158
 20
0.125648
 30
0.000000
  0
VERTEX
  8
LAYER-1
 10
5.609290
 20
0.120440
 30
0.000000
  0
VERTEX
  8
LAYER-1
 10
5.611025
 20
0.116100
 30
0.000000
  0
VERTEX
  8
LAYER-1
 10
5.615366
 20
0.114364
 30
0.000000
  0
VERTEX
  8
LAYER-1
 10
5.619706
 20
0.114364
 30
0.000000
  0
VERTEX
  8
LAYER-1
 10
5.624047
 20
0.117835
 30
0.000000
  0
VERTEX
  8
LAYER-1
 10
5.624047
 20
0.122176
 30
0.000000
  0
VERTEX
  8
LAYER-1
 10
5.623179
 20
0.126517
 30
0.000000
  0
VERTEX
  8
LAYER-1
 10
5.618838
 20
0.129122
 30
0.000000
  0
SEQEND
  8
LAYER-1
  0
POLYLINE
  8
LAYER-1
 66
  1
 70
  1
 62
  0
 10
5.302866
 20
0.184246
 30
0.000000
  0
VERTEX
  8
LAYER-1
 10
5.302866
 20
0.184246
 30
0.000000
  0
VERTEX
  8
LAYER-1
 10
5.328906
 20
0.191191
 30
0.000000
  0
VERTEX
  8
LAYER-1
 10
5.315019
 20
0.216365
 30
0.000000
  0
SEQEND
  8
LAYER-1
  0
POLYLINE
  8
LAYER-1
 66
  1
 70
  0
 62
  0
 10
5.271616
 20
0.134768
 30
0.000000
  0
VERTEX
  8
LAYER-1
 10
5.271616
 20
0.134768
 30
0.000000
  0
VERTEX
  8
LAYER-1
 10
5.271616
 20
0.130428
 30
0.000000
  0
VERTEX
  8
LAYER-1
 10
5.275956
 20
0.126956
 30
0.000000
  0
VERTEX
  8
LAYER-1
 10
5.281164
 20
0.126088
 30
0.000000
  0
VERTEX
  8
LAYER-1
 10
5.285505
 20
0.127825
 30
0.000000
  0
VERTEX
  8
LAYER-1
 10
5.287241
 20
0.132164
 30
0.000000
  0
VERTEX
  8
LAYER-1
 10
5.287241
 20
0.136504
 30
0.000000
  0
VERTEX
  8
LAYER-1
 10
5.283769
 20
0.140845
 30
0.000000
  0
VERTEX
  8
LAYER-1
 10
5.279428
 20
0.140845
 30
0.000000
  0
VERTEX
  8
LAYER-1
 10
5.275088
 20
0.139977
 30
0.000000
  0
VERTEX
  8
LAYER-1
 10
5.272483
 20
0.135637
 30
0.000000
  0
SEQEND
  8
LAYER-1
  0
POLYLINE
  8
LAYER-1
 66
  1
 70
  1
 62
  0
 10
5.366668
 20
0.148222
 30
0.000000
  0
VERTEX
  8
LAYER-1
 10
5.366668
 20
0.148222
 30
0.000000
  0
VERTEX
  8
LAYER-1
 10
5.379689
 20
0.170793
 30
0.000000
  0
VERTEX
  8
LAYER-1
 10
5.349308
 20
0.149960
 30
0.000000
  0
SEQEND
  8
LAYER-1
  0
POLYLINE
  8
LAYER-1
 66
  1
 70
  0
 62
  0
 10
5.421789
 20
0.182510
 30
0.000000
  0
VERTEX
  8
LAYER-1
 10
5.421789
 20
0.182510
 30
0.000000
  0
VERTEX
  8
LAYER-1
 10
5.421789
 20
0.178171
 30
0.000000
  0
VERTEX
  8
LAYER-1
 10
5.426130
 20
0.174700
 30
0.000000
  0
VERTEX
  8
LAYER-1
 10
5.431338
 20
0.173831
 30
0.000000
  0
VERTEX
  8
LAYER-1
 10
5.435678
 20
0.175567
 30
0.000000
  0
VERTEX
  8
LAYER-1
 10
5.437414
 20
0.179907
 30
0.000000
  0
VERTEX
  8
LAYER-1
 10
5.437414
 20
0.184246
 30
0.000000
  0
VERTEX
  8
LAYER-1
 10
5.433943
 20
0.188588
 30
0.000000
  0
VERTEX
  8
LAYER-1
 10
5.429602
 20
0.188588
 30
0.000000
  0
VERTEX
  8
LAYER-1
 10
5.425261
 20
0.187719
 30
0.000000
  0
VERTEX
  8
LAYER-1
 10
5.422656
 20
0.183378
 30
0.000000
  0
SEQEND
  8
LAYER-1
  0
POLYLINE
  8
LAYER-1
 66
  1
 70
  1
 62
  0
 10
6.167712
 20
0.198915
 30
0.000000
  0
VERTEX
  8
LAYER-1
 10
6.167712
 20
0.198915
 30
0.000000
  0
VERTEX
  8
LAYER-1
 10
6.160767
 20
0.224957
 30
0.000000
  0
VERTEX
  8
LAYER-1
 10
6.135594
 20
0.211068
 30
0.000000
  0
SEQEND
  8
LAYER-1
  0
POLYLINE
  8
LAYER-1
 66
  1
 70
  0
 62
  0
 10
6.208252
 20
0.072701
 30
0.000000
  0
VERTEX
  8
LAYER-1
 10
6.208252
 20
0.072701
 30
0.000000
  0
VERTEX
  8
LAYER-1
 10
6.212591
 20
0.072701
 30
0.000000
  0
VERTEX
  8
LAYER-1
 10
6.216064
 20
0.077041
 30
0.000000
  0
VERTEX
  8
LAYER-1
 10
6.216931
 20
0.082249
 30
0.000000
  0
VERTEX
  8
LAYER-1
 10
6.215195
 20
0.086589
 30
0.000000
  0
VERTEX
  8
LAYER-1
 10
6.210855
 20
0.088326
 30
0.000000
  0
VERTEX
  8
LAYER-1
 10
6.206515
 20
0.088326
 30
0.000000
  0
VERTEX
  8
LAYER-1
 10
6.202175
 20
0.084853
 30
0.000000
  0
VERTEX
  8
LAYER-1
 10
6.202175
 20
0.080513
 30
0.000000
  0
VERTEX
  8
LAYER-1
 10
6.203043
 20
0.076172
 30
0.000000
  0
VERTEX
  8
LAYER-1
 10
6.207383
 20
0.073569
 30
0.000000
  0
SEQEND
  8
LAYER-1
  0
POLYLINE
  8
LAYER-1
 66
  1
 70
  1
 62
  0
 10
5.504688
 20
0.105687
 30
0.000000
  0
VERTEX
  8
LAYER-1
 10
5.504688
 20
0.105687
 30
0.000000
  0
VERTEX
  8
LAYER-1
 10
5.517708
 20
0.128257
 30
0.000000
  0
VERTEX
  8
LAYER-1
 10
5.487327
 20
0.107424
 30
0.000000
  0
SEQEND
  8
LAYER-1
  0
POLYLINE
  8
LAYER-1
 66
  1
 70
  0
 62
  0
 10
5.548440
 20
0.184020
 30
0.000000
  0
VERTEX
  8
LAYER-1
 10
5.548440
 20
0.184020
 30
0.000000
  0
VERTEX
  8
LAYER-1
 10
5.552781
 20
0.184020
 30
0.000000
  0
VERTEX
  8
LAYER-1
 10
5.556253
 20
0.188360
 30
0.000000
  0
VERTEX
  8
LAYER-1
 10
5.557122
 20
0.193568
 30
0.000000
  0
VERTEX
  8
LAYER-1
 10
5.555385
 20
0.197909
 30
0.000000
  0
VERTEX
  8
LAYER-1
 10
5.551045
 20
0.199645
 30
0.000000
  0
VERTEX
  8
LAYER-1
 10
5.546704
 20
0.199645
 30
0.000000
  0
VERTEX
  8
LAYER-1
 10
5.542363
 20
0.196173
 30
0.000000
  0
VERTEX
  8
LAYER-1
 10
5.542363
 20
0.191833
 30
0.000000
  0
VERTEX
  8
LAYER-1
 10
5.543232
 20
0.187492
 30
0.000000
  0
VERTEX
  8
LAYER-1
 10
5.547572
 20
0.184887
 30
0.000000
  0
SEQEND
  8
LAYER-1
  0
POLYLINE
  8
LAYER-1
 66
  1
 70
  1
 62
  0
 10
6.088026
 20
0.114803
 30
0.000000
  0
VERTEX
  8
LAYER-1
 10
6.088026
 20
0.114803
 30
0.000000
  0
VERTEX
  8
LAYER-1
 10
6.061985
 20
0.107858
 30
0.000000
  0
VERTEX
  8
LAYER-1
 10
6.075873
 20
0.082684
 30
0.000000
  0
SEQEND
  8
LAYER-1
  0
POLYLINE
  8
LAYER-1
 66
  1
 70
  0
 62
  0
 10
5.453039
 20
0.129561
 30
0.000000
  0
VERTEX
  8
LAYER-1
 10
5.453039
 20
0.129561
 30
0.000000
  0
VERTEX
  8
LAYER-1
 10
5.453039
 20
0.133900
 30
0.000000
  0
VERTEX
  8
LAYER-1
 10
5.448699
 20
0.137373
 30
0.000000
  0
VERTEX
  8
LAYER-1
 10
5.443491
 20
0.138240
 30
0.000000
  0
VERTEX
  8
LAYER-1
 10
5.439150
 20
0.136504
 30
0.000000
  0
VERTEX
  8
LAYER-1
 10
5.437414
 20
0.132164
 30
0.000000
  0
VERTEX
  8
LAYER-1
 10
5.437414
 20
0.127823
 30
0.000000
  0
VERTEX
  8
LAYER-1
 10
5.440886
 20
0.123484
 30
0.000000
  0
VERTEX
  8
LAYER-1
 10
5.445227
 20
0.123484
 30
0.000000
  0
VERTEX
  8
LAYER-1
 10
5.449568
 20
0.124352
 30
0.000000
  0
VERTEX
  8
LAYER-1
 10
5.452171
 20
0.128692
 30
0.000000
  0
SEQEND
  8
LAYER-1
  0
POLYLINE
  8
LAYER-1
 66
  1
 70
  1
 62
  0
 10
6.036810
 20
0.104387
 30
0.000000
  0
VERTEX
  8
LAYER-1
 10
6.036810
 20
0.104387
 30
0.000000
  0
VERTEX
  8
LAYER-1
 10
6.009032
 20
0.120878
 30
0.000000
  0
VERTEX
  8
LAYER-1
 10
6.029865
 20
0.090497
 30
0.000000
  0
SEQEND
  8
LAYER-1
  0
POLYLINE
  8
LAYER-1
 66
  1
 70
  0
 62
  0
 10
5.747309
 20
0.185978
 30
0.000000
  0
VERTEX
  8
LAYER-1
 10
5.747309
 20
0.185978
 30
0.000000
  0
VERTEX
  8
LAYER-1
 10
5.747309
 20
0.190319
 30
0.000000
  0
VERTEX
  8
LAYER-1
 10
5.742969
 20
0.193791
 30
0.000000
  0
VERTEX
  8
LAYER-1
 10
5.737761
 20
0.194660
 30
0.000000
  0
VERTEX
  8
LAYER-1
 10
5.733420
 20
0.192922
 30
0.000000
  0
VERTEX
  8
LAYER-1
 10
5.731684
 20
0.188583
 30
0.000000
  0
VERTEX
  8
LAYER-1
 10
5.731684
 20
0.184243
 30
0.000000
  0
VERTEX
  8
LAYER-1
 10
5.735156
 20
0.179903
 30
0.000000
  0
VERTEX
  8
LAYER-1
 10
5.739497
 20
0.179903
 30
0.000000
  0
VERTEX
  8
LAYER-1
 10
5.743838
 20
0.180771
 30
0.000000
  0
VERTEX
  8
LAYER-1
 10
5.746442
 20
0.185109
 30
0.000000
  0
SEQEND
  8
LAYER-1
  0
POLYLINE
  8
LAYER-1
 66
  1
 70
  1
 62
  0
 10
6.317973
 20
0.092494
 30
0.000000
  0
VERTEX
  8
LAYER-1
 10
6.317973
 20
0.092494
 30
0.000000
  0
VERTEX
  8
LAYER-1
 10
6.311028
 20
0.118535
 30
0.000000
  0
VERTEX
  8
LAYER-1
 10
6.285854
 20
0.104647
 30
0.000000
  0
SEQEND
  8
LAYER-1
  0
POLYLINE
  8
LAYER-1
 66
  1
 70
  0
 62
  0
 10
6.407817
 20
0.192753
 30
0.000000
  0
VERTEX
  8
LAYER-1
 10
6.407817
 20
0.192753
 30
0.000000
  0
VERTEX
  8
LAYER-1
 10
6.412158
 20
0.192753
 30
0.000000
  0
VERTEX
  8
LAYER-1
 10
6.415630
 20
0.197094
 30
0.000000
  0
VERTEX
  8
LAYER-1
 10
6.416497
 20
0.202302
 30
0.000000
  0
VERTEX
  8
LAYER-1
 10
6.414761
 20
0.206642
 30
0.000000
  0
VERTEX
  8
LAYER-1
 10
6.410422
 20
0.208378
 30
0.000000
  0
VERTEX
  8
LAYER-1
 10
6.406082
 20
0.208378
 30
0.000000
  0
VERTEX
  8
LAYER-1
 10
6.401741
 20
0.204906
 30
0.000000
  0
VERTEX
  8
LAYER-1
 10
6.401741
 20
0.200566
 30
0.000000
  0
VERTEX
  8
LAYER-1
 10
6.402610
 20
0.196225
 30
0.000000
  0
VERTEX
  8
LAYER-1
 10
6.406949
 20
0.193621
 30
0.000000
  0
SEQEND
  8
LAYER-1
  0
POLYLINE
  8
LAYER-1
 66
  1
 70
  1
 62
  0
 10
6.393060
 20
0.227910
 30
0.000000
  0
VERTEX
  8
LAYER-1
 10
6.393060
 20
0.227910
 30
0.000000
  0
VERTEX
  8
LAYER-1
 10
6.367017
 20
0.220965
 30
0.000000
  0
VERTEX
  8
LAYER-1
 10
6.380906
 20
0.195791
 30
0.000000
  0
SEQEND
  8
LAYER-1
  0
POLYLINE
  8
LAYER-1
 66
  1
 70
  1
 62
  0
 10
5.641841
 20
0.086594
 30
0.000000
  0
VERTEX
  8
LAYER-1
 10
5.641841
 20
0.086594
 30
0.000000
  0
VERTEX
  8
LAYER-1
 10
5.654861
 20
0.109163
 30
0.000000
  0
VERTEX
  8
LAYER-1
 10
5.624480
 20
0.088330
 30
0.000000
  0
SEQEND
  8
LAYER-1
  0
POLYLINE
  8
LAYER-1
 66
  1
 70
  0
 62
  0
 10
5.638368
 20
0.193362
 30
0.000000
  0
VERTEX
  8
LAYER-1
 10
5.638368
 20
0.193362
 30
0.000000
  0
VERTEX
  8
LAYER-1
 10
5.642709
 20
0.193362
 30
0.000000
  0
VERTEX
  8
LAYER-1
 10
5.646181
 20
0.197702
 30
0.000000
  0
VERTEX
  8
LAYER-1
 10
5.647050
 20
0.202910
 30
0.000000
  0
VERTEX
  8
LAYER-1
 10
5.645314
 20
0.207251
 30
0.000000
  0
VERTEX
  8
LAYER-1
 10
5.640973
 20
0.208987
 30
0.000000
  0
VERTEX
  8
LAYER-1
 10
5.636633
 20
0.208987
 30
0.000000
  0
VERTEX
  8
LAYER-1
 10
5.632292
 20
0.205515
 30
0.000000
  0
VERTEX
  8
LAYER-1
 10
5.632292
 20
0.201174
 30
0.000000
  0
VERTEX
  8
LAYER-1
 10
5.633161
 20
0.196833
 30
0.000000
  0
VERTEX
  8
LAYER-1
 10
5.637502
 20
0.194229
 30
0.000000
  0
SEQEND
  8
LAYER-1
  0
POLYLINE
  8
LAYER-1
 66
  1
 70
  1
 62
  0
 10
5.591059
 20
0.172094
 30
0.000000
  0
VERTEX
  8
LAYER-1
 10
5.591059
 20
0.172094
 30
0.000000
  0
VERTEX
  8
LAYER-1
 10
5.616234
 20
0.155601
 30
0.000000
  0
VERTEX
  8
LAYER-1
 10
5.624047
 20
0.170358
 30
0.000000
  0
SEQEND
  8
LAYER-1
  0
POLYLINE
  8
LAYER-1
 66
  1
 70
  1
 62
  0
 10
5.577706
 20
0.144481
 30
0.000000
  0
VERTEX
  8
LAYER-1
 10
5.577706
 20
0.144481
 30
0.000000
  0
VERTEX
  8
LAYER-1
 10
5.558342
 20
0.157169
 30
0.000000
  0
VERTEX
  8
LAYER-1
 10
5.552331
 20
0.145817
 30
0.000000
  0
SEQEND
  8
LAYER-1
  0
POLYLINE
  8
LAYER-1
 66
  1
 70
  1
 62
  0
 10
1.354951
 20
0.203343
 30
0.000000
  0
VERTEX
  8
LAYER-1
 10
1.354951
 20
0.203343
 30
0.000000
  0
VERTEX
  8
LAYER-1
 10
1.341930
 20
0.180773
 30
0.000000
  0
VERTEX
  8
LAYER-1
 10
1.372311
 20
0.201606
 30
0.000000
  0
SEQEND
  8
LAYER-1
  0
POLYLINE
  8
LAYER-1
 66
  1
 70
  1
 62
  0
 10
5.904430
 20
0.130429
 30
0.000000
  0
VERTEX
  8
LAYER-1
 10
5.904430
 20
0.130429
 30
0.000000
  0
VERTEX
  8
LAYER-1
 10
5.927000
 20
0.117408
 30
0.000000
  0
VERTEX
  8
LAYER-1
 10
5.906167
 20
0.147790
 30
0.000000
  0
SEQEND
  8
LAYER-1
  0
POLYLINE
  8
LAYER-1
 66
  1
 70
  0
 62
  0
 10
5.832382
 20
0.177301
 30
0.000000
  0
VERTEX
  8
LAYER-1
 10
5.832382
 20
0.177301
 30
0.000000
  0
VERTEX
  8
LAYER-1
 10
5.832382
 20
0.172960
 30
0.000000
  0
VERTEX
  8
LAYER-1
 10
5.836722
 20
0.169489
 30
0.000000
  0
VERTEX
  8
LAYER-1
 10
5.841930
 20
0.168621
 30
0.000000
  0
VERTEX
  8
LAYER-1
 10
5.846271
 20
0.170357
 30
0.000000
  0
VERTEX
  8
LAYER-1
 10
5.848007
 20
0.174697
 30
0.000000
  0
VERTEX
  8
LAYER-1
 10
5.848007
 20
0.179037
 30
0.000000
  0
VERTEX
  8
LAYER-1
 10
5.844535
 20
0.183377
 30
0.000000
  0
VERTEX
  8
LAYER-1
 10
5.840194
 20
0.183377
 30
0.000000
  0
VERTEX
  8
LAYER-1
 10
5.835854
 20
0.182509
 30
0.000000
  0
VERTEX
  8
LAYER-1
 10
5.833250
 20
0.178169
 30
0.000000
  0
SEQEND
  8
LAYER-1
  0
POLYLINE
  8
LAYER-1
 66
  1
 70
  1
 62
  0
 10
5.782034
 20
0.188587
 30
0.000000
  0
VERTEX
  8
LAYER-1
 10
5.782034
 20
0.188587
 30
0.000000
  0
VERTEX
  8
LAYER-1
 10
5.804604
 20
0.175566
 30
0.000000
  0
VERTEX
  8
LAYER-1
 10
5.783771
 20
0.205947
 30
0.000000
  0
SEQEND
  8
LAYER-1
  0
POLYLINE
  8
LAYER-1
 66
  1
 70
  0
 62
  0
 10
6.044187
 20
0.130429
 30
0.000000
  0
VERTEX
  8
LAYER-1
 10
6.044187
 20
0.130429
 30
0.000000
  0
VERTEX
  8
LAYER-1
 10
6.044187
 20
0.126088
 30
0.000000
  0
VERTEX
  8
LAYER-1
 10
6.048528
 20
0.122616
 30
0.000000
  0
VERTEX
  8
LAYER-1
 10
6.053736
 20
0.121748
 30
0.000000
  0
VERTEX
  8
LAYER-1
 10
6.058077
 20
0.123484
 30
0.000000
  0
VERTEX
  8
LAYER-1
 10
6.059812
 20
0.127825
 30
0.000000
  0
VERTEX
  8
LAYER-1
 10
6.059812
 20
0.132165
 30
0.000000
  0
VERTEX
  8
LAYER-1
 10
6.056341
 20
0.136506
 30
0.000000
  0
VERTEX
  8
LAYER-1
 10
6.052000
 20
0.136506
 30
0.000000
  0
VERTEX
  8
LAYER-1
 10
6.047659
 20
0.135637
 30
0.000000
  0
VERTEX
  8
LAYER-1
 10
6.045055
 20
0.131297
 30
0.000000
  0
SEQEND
  8
LAYER-1
  0
POLYLINE
  8
LAYER-1
 66
  1
 70
  0
 62
  0
 10
5.878389
 20
0.185115
 30
0.000000
  0
VERTEX
  8
LAYER-1
 10
5.878389
 20
0.185115
 30
0.000000
  0
VERTEX
  8
LAYER-1
 10
5.878389
 20
0.180775
 30
0.000000
  0
VERTEX
  8
LAYER-1
 10
5.882730
 20
0.177304
 30
0.000000
  0
VERTEX
  8
LAYER-1
 10
5.887937
 20
0.176436
 30
0.000000
  0
VERTEX
  8
LAYER-1
 10
5.892278
 20
0.178172
 30
0.000000
  0
VERTEX
  8
LAYER-1
 10
5.894014
 20
0.182510
 30
0.000000
  0
VERTEX
  8
LAYER-1
 10
5.894014
 20
0.186852
 30
0.000000
  0
VERTEX
  8
LAYER-1
 10
5.890542
 20
0.191192
 30
0.000000
  0
VERTEX
  8
LAYER-1
 10
5.886202
 20
0.191192
 30
0.000000
  0
VERTEX
  8
LAYER-1
 10
5.881861
 20
0.190323
 30
0.000000
  0
VERTEX
  8
LAYER-1
 10
5.879256
 20
0.185983
 30
0.000000
  0
SEQEND
  8
LAYER-1
  0
POLYLINE
  8
LAYER-1
 66
  1
 70
  1
 62
  0
 10
5.802869
 20
0.120446
 30
0.000000
  0
VERTEX
  8
LAYER-1
 10
5.802869
 20
0.120446
 30
0.000000
  0
VERTEX
  8
LAYER-1
 10
5.789847
 20
0.097876
 30
0.000000
  0
VERTEX
  8
LAYER-1
 10
5.820230
 20
0.118708
 30
0.000000
  0
SEQEND
  8
LAYER-1
  0
POLYLINE
  8
LAYER-1
 66
  1
 70
  0
 62
  0
 10
5.729168
 20
0.112581
 30
0.000000
  0
VERTEX
  8
LAYER-1
 10
5.729168
 20
0.112581
 30
0.000000
  0
VERTEX
  8
LAYER-1
 10
5.724829
 20
0.112581
 30
0.000000
  0
VERTEX
  8
LAYER-1
 10
5.721355
 20
0.108240
 30
0.000000
  0
VERTEX
  8
LAYER-1
 10
5.720488
 20
0.103032
 30
0.000000
  0
VERTEX
  8
LAYER-1
 10
5.722223
 20
0.098691
 30
0.000000
  0
VERTEX
  8
LAYER-1
 10
5.726564
 20
0.096956
 30
0.000000
  0
VERTEX
  8
LAYER-1
 10
5.730905
 20
0.096956
 30
0.000000
  0
VERTEX
  8
LAYER-1
 10
5.735245
 20
0.100427
 30
0.000000
  0
VERTEX
  8
LAYER-1
 10
5.735245
 20
0.104769
 30
0.000000
  0
VERTEX
  8
LAYER-1
 10
5.734377
 20
0.109109
 30
0.000000
  0
VERTEX
  8
LAYER-1
 10
5.730036
 20
0.111714
 30
0.000000
  0
SEQEND
  8
LAYER-1
  0
POLYLINE
  8
LAYER-1
 66
  1
 70
  0
 62
  0
 10
5.802869
 20
0.150826
 30
0.000000
  0
VERTEX
  8
LAYER-1
 10
5.802869
 20
0.150826
 30
0.000000
  0
VERTEX
  8
LAYER-1
 10
5.798528
 20
0.150826
 30
0.000000
  0
VERTEX
  8
LAYER-1
 10
5.795056
 20
0.146485
 30
0.000000
  0
VERTEX
  8
LAYER-1
 10
5.794188
 20
0.141278
 30
0.000000
  0
VERTEX
  8
LAYER-1
 10
5.795924
 20
0.136937
 30
0.000000
  0
VERTEX
  8
LAYER-1
 10
5.800265
 20
0.135201
 30
0.000000
  0
VERTEX
  8
LAYER-1
 10
5.804605
 20
0.135201
 30
0.000000
  0
VERTEX
  8
LAYER-1
 10
5.808946
 20
0.138673
 30
0.000000
  0
VERTEX
  8
LAYER-1
 10
5.808946
 20
0.143014
 30
0.000000
  0
VERTEX
  8
LAYER-1
 10
5.808077
 20
0.147354
 30
0.000000
  0
VERTEX
  8
LAYER-1
 10
5.803737
 20
0.149959
 30
0.000000
  0
SEQEND
  8
LAYER-1
  0
POLYLINE
  8
LAYER-1
 66
  1
 70
  1
 62
  0
 10
6.110160
 20
0.167320
 30
0.000000
  0
VERTEX
  8
LAYER-1
 10
6.110160
 20
0.167320
 30
0.000000
  0
VERTEX
  8
LAYER-1
 10
6.117105
 20
0.141279
 30
0.000000
  0
VERTEX
  8
LAYER-1
 10
6.142278
 20
0.155167
 30
0.000000
  0
SEQEND
  8
LAYER-1
  0
POLYLINE
  8
LAYER-1
 66
  1
 70
  1
 62
  0
 10
6.272486
 20
0.195965
 30
0.000000
  0
VERTEX
  8
LAYER-1
 10
6.272486
 20
0.195965
 30
0.000000
  0
VERTEX
  8
LAYER-1
 10
6.259465
 20
0.173397
 30
0.000000
  0
VERTEX
  8
LAYER-1
 10
6.289847
 20
0.194228
 30
0.000000
  0
SEQEND
  8
LAYER-1
  0
POLYLINE
  8
LAYER-1
 66
  1
 70
  0
 62
  0
 10
6.060681
 20
0.198569
 30
0.000000
  0
VERTEX
  8
LAYER-1
 10
6.060681
 20
0.198569
 30
0.000000
  0
VERTEX
  8
LAYER-1
 10
6.056341
 20
0.198569
 30
0.000000
  0
VERTEX
  8
LAYER-1
 10
6.052869
 20
0.194228
 30
0.000000
  0
VERTEX
  8
LAYER-1
 10
6.052000
 20
0.189021
 30
0.000000
  0
VERTEX
  8
LAYER-1
 10
6.053737
 20
0.184681
 30
0.000000
  0
VERTEX
  8
LAYER-1
 10
6.058077
 20
0.182944
 30
0.000000
  0
VERTEX
  8
LAYER-1
 10
6.062417
 20
0.182944
 30
0.000000
  0
VERTEX
  8
LAYER-1
 10
6.066758
 20
0.186416
 30
0.000000
  0
VERTEX
  8
LAYER-1
 10
6.066758
 20
0.190757
 30
0.000000
  0
VERTEX
  8
LAYER-1
 10
6.065889
 20
0.195097
 30
0.000000
  0
VERTEX
  8
LAYER-1
 10
6.061549
 20
0.197701
 30
0.000000
  0
SEQEND
  8
LAYER-1
  0
POLYLINE
  8
LAYER-1
 66
  1
 70
  1
 62
  0
 10
6.170926
 20
0.130862
 30
0.000000
  0
VERTEX
  8
LAYER-1
 10
6.170926
 20
0.130862
 30
0.000000
  0
VERTEX
  8
LAYER-1
 10
6.157905
 20
0.108292
 30
0.000000
  0
VERTEX
  8
LAYER-1
 10
6.188287
 20
0.129125
 30
0.000000
  0
SEQEND
  8
LAYER-1
  0
POLYLINE
  8
LAYER-1
 66
  1
 70
  0
 62
  0
 10
6.212590
 20
0.200306
 30
0.000000
  0
VERTEX
  8
LAYER-1
 10
6.212590
 20
0.200306
 30
0.000000
  0
VERTEX
  8
LAYER-1
 10
6.208249
 20
0.200306
 30
0.000000
  0
VERTEX
  8
LAYER-1
 10
6.204778
 20
0.195964
 30
0.000000
  0
VERTEX
  8
LAYER-1
 10
6.203910
 20
0.190757
 30
0.000000
  0
VERTEX
  8
LAYER-1
 10
6.205646
 20
0.186416
 30
0.000000
  0
VERTEX
  8
LAYER-1
 10
6.209986
 20
0.184681
 30
0.000000
  0
VERTEX
  8
LAYER-1
 10
6.214326
 20
0.184681
 30
0.000000
  0
VERTEX
  8
LAYER-1
 10
6.218667
 20
0.188152
 30
0.000000
  0
VERTEX
  8
LAYER-1
 10
6.218667
 20
0.192493
 30
0.000000
  0
VERTEX
  8
LAYER-1
 10
6.217799
 20
0.196833
 30
0.000000
  0
VERTEX
  8
LAYER-1
 10
6.213458
 20
0.199437
 30
0.000000
  0
SEQEND
  8
LAYER-1
  0
POLYLINE
  8
LAYER-1
 66
  1
 70
  1
 62
  0
 10
6.551999
 20
0.191625
 30
0.000000
  0
VERTEX
  8
LAYER-1
 10
6.551999
 20
0.191625
 30
0.000000
  0
VERTEX
  8
LAYER-1
 10
6.558944
 20
0.165585
 30
0.000000
  0
VERTEX
  8
LAYER-1
 10
6.584117
 20
0.179472
 30
0.000000
  0
SEQEND
  8
LAYER-1
  0
POLYLINE
  8
LAYER-1
 66
  1
 70
  1
 62
  0
 10
6.714326
 20
0.220272
 30
0.000000
  0
VERTEX
  8
LAYER-1
 10
6.714326
 20
0.220272
 30
0.000000
  0
VERTEX
  8
LAYER-1
 10
6.701305
 20
0.197701
 30
0.000000
  0
VERTEX
  8
LAYER-1
 10
6.731687
 20
0.218534
 30
0.000000
  0
SEQEND
  8
LAYER-1
  0
POLYLINE
  8
LAYER-1
 66
  1
 70
  1
 62
  0
 10
5.942626
 20
0.156036
 30
0.000000
  0
VERTEX
  8
LAYER-1
 10
5.942626
 20
0.156036
 30
0.000000
  0
VERTEX
  8
LAYER-1
 10
5.967799
 20
0.139542
 30
0.000000
  0
VERTEX
  8
LAYER-1
 10
5.975612
 20
0.154300
 30
0.000000
  0
SEQEND
  8
LAYER-1
  0
POLYLINE
  8
LAYER-1
 66
  1
 70
  0
 62
  0
 10
6.512936
 20
0.212459
 30
0.000000
  0
VERTEX
  8
LAYER-1
 10
6.512936
 20
0.212459
 30
0.000000
  0
VERTEX
  8
LAYER-1
 10
6.508596
 20
0.212459
 30
0.000000
  0
VERTEX
  8
LAYER-1
 10
6.505124
 20
0.208119
 30
0.000000
  0
VERTEX
  8
LAYER-1
 10
6.504256
 20
0.202911
 30
0.000000
  0
VERTEX
  8
LAYER-1
 10
6.505992
 20
0.198570
 30
0.000000
  0
VERTEX
  8
LAYER-1
 10
6.510333
 20
0.196834
 30
0.000000
  0
VERTEX
  8
LAYER-1
 10
6.514672
 20
0.196834
 30
0.000000
  0
VERTEX
  8
LAYER-1
 10
6.519013
 20
0.200306
 30
0.000000
  0
VERTEX
  8
LAYER-1
 10
6.519013
 20
0.204647
 30
0.000000
  0
VERTEX
  8
LAYER-1
 10
6.518145
 20
0.208988
 30
0.000000
  0
VERTEX
  8
LAYER-1
 10
6.513805
 20
0.211592
 30
0.000000
  0
SEQEND
  8
LAYER-1
  0
POLYLINE
  8
LAYER-1
 66
  1
 70
  1
 62
  0
 10
6.528562
 20
0.123918
 30
0.000000
  0
VERTEX
  8
LAYER-1
 10
6.528562
 20
0.123918
 30
0.000000
  0
VERTEX
  8
LAYER-1
 10
6.515541
 20
0.101347
 30
0.000000
  0
VERTEX
  8
LAYER-1
 10
6.545924
 20
0.122181
 30
0.000000
  0
SEQEND
  8
LAYER-1
  0
POLYLINE
  8
LAYER-1
 66
  1
 70
  1
 62
  0
 10
6.623014
 20
0.138335
 30
0.000000
  0
VERTEX
  8
LAYER-1
 10
6.623014
 20
0.138335
 30
0.000000
  0
VERTEX
  8
LAYER-1
 10
6.610327
 20
0.118972
 30
0.000000
  0
VERTEX
  8
LAYER-1
 10
6.621677
 20
0.112961
 30
0.000000
  0
SEQEND
  8
LAYER-1
  0
POLYLINE
  8
LAYER-1
 66
  1
 70
  0
 62
  0
 10
6.654430
 20
0.216799
 30
0.000000
  0
VERTEX
  8
LAYER-1
 10
6.654430
 20
0.216799
 30
0.000000
  0
VERTEX
  8
LAYER-1
 10
6.650090
 20
0.216799
 30
0.000000
  0
VERTEX
  8
LAYER-1
 10
6.646617
 20
0.212458
 30
0.000000
  0
VERTEX
  8
LAYER-1
 10
6.645749
 20
0.207251
 30
0.000000
  0
VERTEX
  8
LAYER-1
 10
6.647486
 20
0.202910
 30
0.000000
  0
VERTEX
  8
LAYER-1
 10
6.651826
 20
0.201174
 30
0.000000
  0
VERTEX
  8
LAYER-1
 10
6.656167
 20
0.201174
 30
0.000000
  0
VERTEX
  8
LAYER-1
 10
6.660506
 20
0.204646
 30
0.000000
  0
VERTEX
  8
LAYER-1
 10
6.660506
 20
0.208987
 30
0.000000
  0
VERTEX
  8
LAYER-1
 10
6.659639
 20
0.213327
 30
0.000000
  0
VERTEX
  8
LAYER-1
 10
6.655298
 20
0.215932
 30
0.000000
  0
SEQEND
  8
LAYER-1
  0
POLYLINE
  8
LAYER-1
 66
  1
 70
  0
 62
  0
 10
5.931341
 20
0.208987
 30
0.000000
  0
VERTEX
  8
LAYER-1
 10
5.931341
 20
0.208987
 30
0.000000
  0
VERTEX
  8
LAYER-1
 10
5.931341
 20
0.204646
 30
0.000000
  0
VERTEX
  8
LAYER-1
 10
5.935682
 20
0.201174
 30
0.000000
  0
VERTEX
  8
LAYER-1
 10
5.940890
 20
0.200306
 30
0.000000
  0
VERTEX
  8
LAYER-1
 10
5.945231
 20
0.202041
 30
0.000000
  0
VERTEX
  8
LAYER-1
 10
5.946966
 20
0.206382
 30
0.000000
  0
VERTEX
  8
LAYER-1
 10
5.946966
 20
0.210722
 30
0.000000
  0
VERTEX
  8
LAYER-1
 10
5.943495
 20
0.215063
 30
0.000000
  0
VERTEX
  8
LAYER-1
 10
5.939154
 20
0.215063
 30
0.000000
  0
VERTEX
  8
LAYER-1
 10
5.934813
 20
0.214194
 30
0.000000
  0
VERTEX
  8
LAYER-1
 10
5.932209
 20
0.209853
 30
0.000000
  0
SEQEND
  8
LAYER-1
  0
POLYLINE
  8
LAYER-1
 66
  1
 70
  0
 62
  0
 10
6.494706
 20
0.124784
 30
0.000000
  0
VERTEX
  8
LAYER-1
 10
6.494706
 20
0.124784
 30
0.000000
  0
VERTEX
  8
LAYER-1
 10
6.490366
 20
0.124784
 30
0.000000
  0
VERTEX
  8
LAYER-1
 10
6.486894
 20
0.120444
 30
0.000000
  0
VERTEX
  8
LAYER-1
 10
6.486026
 20
0.115235
 30
0.000000
  0
VERTEX
  8
LAYER-1
 10
6.487762
 20
0.110895
 30
0.000000
  0
VERTEX
  8
LAYER-1
 10
6.492103
 20
0.109159
 30
0.000000
  0
VERTEX
  8
LAYER-1
 10
6.496443
 20
0.109159
 30
0.000000
  0
VERTEX
  8
LAYER-1
 10
6.500783
 20
0.112631
 30
0.000000
  0
VERTEX
  8
LAYER-1
 10
6.500783
 20
0.116971
 30
0.000000
  0
VERTEX
  8
LAYER-1
 10
6.499915
 20
0.121312
 30
0.000000
  0
VERTEX
  8
LAYER-1
 10
6.495575
 20
0.123917
 30
0.000000
  0
SEQEND
  8
LAYER-1
  0
POLYLINE
  8
LAYER-1
 66
  1
 70
  0
 62
  0
 10
6.393146
 20
0.162546
 30
0.000000
  0
VERTEX
  8
LAYER-1
 10
6.393146
 20
0.162546
 30
0.000000
  0
VERTEX
  8
LAYER-1
 10
6.393146
 20
0.166887
 30
0.000000
  0
VERTEX
  8
LAYER-1
 10
6.388805
 20
0.170358
 30
0.000000
  0
VERTEX
  8
LAYER-1
 10
6.383597
 20
0.171227
 30
0.000000
  0
VERTEX
  8
LAYER-1
 10
6.379257
 20
0.169490
 30
0.000000
  0
VERTEX
  8
LAYER-1
 10
6.377521
 20
0.165150
 30
0.000000
  0
VERTEX
  8
LAYER-1
 10
6.377521
 20
0.160810
 30
0.000000
  0
VERTEX
  8
LAYER-1
 10
6.380993
 20
0.156470
 30
0.000000
  0
VERTEX
  8
LAYER-1
 10
6.385334
 20
0.156470
 30
0.000000
  0
VERTEX
  8
LAYER-1
 10
6.389674
 20
0.157338
 30
0.000000
  0
VERTEX
  8
LAYER-1
 10
6.392277
 20
0.161678
 30
0.000000
  0
SEQEND
  8
LAYER-1
  0
POLYLINE
  8
LAYER-1
 66
  1
 70
  1
 62
  0
 10
6.325437
 20
0.149525
 30
0.000000
  0
VERTEX
  8
LAYER-1
 10
6.325437
 20
0.149525
 30
0.000000
  0
VERTEX
  8
LAYER-1
 10
6.302868
 20
0.162545
 30
0.000000
  0
VERTEX
  8
LAYER-1
 10
6.323701
 20
0.132163
 30
0.000000
  0
SEQEND
  8
LAYER-1
  0
POLYLINE
  8
LAYER-1
 66
  1
 70
  0
 62
  0
 10
6.242973
 20
0.114803
 30
0.000000
  0
VERTEX
  8
LAYER-1
 10
6.242973
 20
0.114803
 30
0.000000
  0
VERTEX
  8
LAYER-1
 10
6.242973
 20
0.119144
 30
0.000000
  0
VERTEX
  8
LAYER-1
 10
6.238633
 20
0.122615
 30
0.000000
  0
VERTEX
  8
LAYER-1
 10
6.233425
 20
0.123483
 30
0.000000
  0
VERTEX
  8
LAYER-1
 10
6.229084
 20
0.121747
 30
0.000000
  0
VERTEX
  8
LAYER-1
 10
6.227348
 20
0.117408
 30
0.000000
  0
VERTEX
  8
LAYER-1
 10
6.227348
 20
0.113067
 30
0.000000
  0
VERTEX
  8
LAYER-1
 10
6.230820
 20
0.108727
 30
0.000000
  0
VERTEX
  8
LAYER-1
 10
6.235161
 20
0.108727
 30
0.000000
  0
VERTEX
  8
LAYER-1
 10
6.239502
 20
0.109595
 30
0.000000
  0
VERTEX
  8
LAYER-1
 10
6.242104
 20
0.113935
 30
0.000000
  0
SEQEND
  8
LAYER-1
  0
POLYLINE
  8
LAYER-1
 66
  1
 70
  1
 62
  0
 10
6.433250
 20
0.105081
 30
0.000000
  0
VERTEX
  8
LAYER-1
 10
6.433250
 20
0.105081
 30
0.000000
  0
VERTEX
  8
LAYER-1
 10
6.426306
 20
0.131122
 30
0.000000
  0
VERTEX
  8
LAYER-1
 10
6.401132
 20
0.117235
 30
0.000000
  0
SEQEND
  8
LAYER-1
  0
POLYLINE
  8
LAYER-1
 66
  1
 70
  1
 62
  0
 10
6.454777
 20
0.159508
 30
0.000000
  0
VERTEX
  8
LAYER-1
 10
6.454777
 20
0.159508
 30
0.000000
  0
VERTEX
  8
LAYER-1
 10
6.467798
 20
0.182077
 30
0.000000
  0
VERTEX
  8
LAYER-1
 10
6.437416
 20
0.161246
 30
0.000000
  0
SEQEND
  8
LAYER-1
  0
POLYLINE
  8
LAYER-1
 66
  1
 70
  1
 62
  0
 10
5.882730
 20
0.103084
 30
0.000000
  0
VERTEX
  8
LAYER-1
 10
5.882730
 20
0.103084
 30
0.000000
  0
VERTEX
  8
LAYER-1
 10
5.860159
 20
0.116107
 30
0.000000
  0
VERTEX
  8
LAYER-1
 10
5.880992
 20
0.085723
 30
0.000000
  0
SEQEND
  8
LAYER-1
  0
POLYLINE
  8
LAYER-1
 66
  1
 70
  1
 62
  0
 10
6.660508
 20
0.127391
 30
0.000000
  0
VERTEX
  8
LAYER-1
 10
6.660508
 20
0.127391
 30
0.000000
  0
VERTEX
  8
LAYER-1
 10
6.677000
 20
0.152564
 30
0.000000
  0
VERTEX
  8
LAYER-1
 10
6.662243
 20
0.160377
 30
0.000000
  0
SEQEND
  8
LAYER-1
  0
POLYLINE
  8
LAYER-1
 66
  1
 70
  0
 62
  0
 10
6.691408
 20
0.053987
 30
0.000000
  0
VERTEX
  8
LAYER-1
 10
6.691408
 20
0.053987
 30
0.000000
  0
VERTEX
  8
LAYER-1
 10
6.695748
 20
0.053987
 30
0.000000
  0
VERTEX
  8
LAYER-1
 10
6.699220
 20
0.058328
 30
0.000000
  0
VERTEX
  8
LAYER-1
 10
6.700088
 20
0.063535
 30
0.000000
  0
VERTEX
  8
LAYER-1
 10
6.698352
 20
0.067876
 30
0.000000
  0
VERTEX
  8
LAYER-1
 10
6.694011
 20
0.069612
 30
0.000000
  0
VERTEX
  8
LAYER-1
 10
6.689672
 20
0.069612
 30
0.000000
  0
VERTEX
  8
LAYER-1
 10
6.685331
 20
0.066140
 30
0.000000
  0
VERTEX
  8
LAYER-1
 10
6.685331
 20
0.061800
 30
0.000000
  0
VERTEX
  8
LAYER-1
 10
6.686199
 20
0.057459
 30
0.000000
  0
VERTEX
  8
LAYER-1
 10
6.690540
 20
0.054854
 30
0.000000
  0
SEQEND
  8
LAYER-1
  0
POLYLINE
  8
LAYER-1
 66
  1
 70
  0
 62
  0
 10
6.667971
 20
0.079166
 30
0.000000
  0
VERTEX
  8
LAYER-1
 10
6.667971
 20
0.079166
 30
0.000000
  0
VERTEX
  8
LAYER-1
 10
6.672312
 20
0.079166
 30
0.000000
  0
VERTEX
  8
LAYER-1
 10
6.675784
 20
0.083507
 30
0.000000
  0
VERTEX
  8
LAYER-1
 10
6.676652
 20
0.088715
 30
0.000000
  0
VERTEX
  8
LAYER-1
 10
6.674916
 20
0.093055
 30
0.000000
  0
VERTEX
  8
LAYER-1
 10
6.670575
 20
0.094791
 30
0.000000
  0
VERTEX
  8
LAYER-1
 10
6.666235
 20
0.094791
 30
0.000000
  0
VERTEX
  8
LAYER-1
 10
6.661894
 20
0.091320
 30
0.000000
  0
VERTEX
  8
LAYER-1
 10
6.661894
 20
0.086978
 30
0.000000
  0
VERTEX
  8
LAYER-1
 10
6.662763
 20
0.082638
 30
0.000000
  0
VERTEX
  8
LAYER-1
 10
6.667103
 20
0.080033
 30
0.000000
  0
SEQEND
  8
LAYER-1
  0
POLYLINE
  8
LAYER-1
 66
  1
 70
  1
 62
  0
 10
6.742189
 20
0.095222
 30
0.000000
  0
VERTEX
  8
LAYER-1
 10
6.742189
 20
0.095222
 30
0.000000
  0
VERTEX
  8
LAYER-1
 10
6.717016
 20
0.111715
 30
0.000000
  0
VERTEX
  8
LAYER-1
 10
6.709203
 20
0.096958
 30
0.000000
  0
SEQEND
  8
LAYER-1
  0
POLYLINE
  8
LAYER-1
 66
  1
 70
  0
 62
  0
 10
6.752606
 20
0.134286
 30
0.000000
  0
VERTEX
  8
LAYER-1
 10
6.752606
 20
0.134286
 30
0.000000
  0
VERTEX
  8
LAYER-1
 10
6.752606
 20
0.138627
 30
0.000000
  0
VERTEX
  8
LAYER-1
 10
6.748266
 20
0.142098
 30
0.000000
  0
VERTEX
  8
LAYER-1
 10
6.743058
 20
0.142966
 30
0.000000
  0
VERTEX
  8
LAYER-1
 10
6.738717
 20
0.141231
 30
0.000000
  0
VERTEX
  8
LAYER-1
 10
6.736981
 20
0.136890
 30
0.000000
  0
VERTEX
  8
LAYER-1
 10
6.736981
 20
0.132551
 30
0.000000
  0
VERTEX
  8
LAYER-1
 10
6.740453
 20
0.128209
 30
0.000000
  0
VERTEX
  8
LAYER-1
 10
6.744793
 20
0.128209
 30
0.000000
  0
VERTEX
  8
LAYER-1
 10
6.749134
 20
0.129077
 30
0.000000
  0
VERTEX
  8
LAYER-1
 10
6.751740
 20
0.133419
 30
0.000000
  0
SEQEND
  8
LAYER-1
  0
POLYLINE
  8
LAYER-1
 66
  1
 70
  1
 62
  0
 10
6.699129
 20
0.140138
 30
0.000000
  0
VERTEX
  8
LAYER-1
 10
6.699129
 20
0.140138
 30
0.000000
  0
VERTEX
  8
LAYER-1
 10
6.711816
 20
0.159502
 30
0.000000
  0
VERTEX
  8
LAYER-1
 10
6.700465
 20
0.165513
 30
0.000000
  0
SEQEND
  8
LAYER-1
  0
POLYLINE
  8
LAYER-1
 66
  1
 70
  0
 62
  0
 10
6.022486
 20
0.169925
 30
0.000000
  0
VERTEX
  8
LAYER-1
 10
6.022486
 20
0.169925
 30
0.000000
  0
VERTEX
  8
LAYER-1
 10
6.022486
 20
0.174264
 30
0.000000
  0
VERTEX
  8
LAYER-1
 10
6.018145
 20
0.177738
 30
0.000000
  0
VERTEX
  8
LAYER-1
 10
6.012937
 20
0.178604
 30
0.000000
  0
VERTEX
  8
LAYER-1
 10
6.008597
 20
0.176869
 30
0.000000
  0
VERTEX
  8
LAYER-1
 10
6.006861
 20
0.172528
 30
0.000000
  0
VERTEX
  8
LAYER-1
 10
6.006861
 20
0.168187
 30
0.000000
  0
VERTEX
  8
LAYER-1
 10
6.010333
 20
0.163848
 30
0.000000
  0
VERTEX
  8
LAYER-1
 10
6.014673
 20
0.163848
 30
0.000000
  0
VERTEX
  8
LAYER-1
 10
6.019014
 20
0.164715
 30
0.000000
  0
VERTEX
  8
LAYER-1
 10
6.021619
 20
0.169056
 30
0.000000
  0
SEQEND
  8
LAYER-1
  0
POLYLINE
  8
LAYER-1
 66
  1
 70
  0
 62
  0
 10
6.608424
 20
0.133467
 30
0.000000
  0
VERTEX
  8
LAYER-1
 10
6.608424
 20
0.133467
 30
0.000000
  0
VERTEX
  8
LAYER-1
 10
6.612765
 20
0.133467
 30
0.000000
  0
VERTEX
  8
LAYER-1
 10
6.616236
 20
0.137808
 30
0.000000
  0
VERTEX
  8
LAYER-1
 10
6.617104
 20
0.143016
 30
0.000000
  0
VERTEX
  8
LAYER-1
 10
6.615368
 20
0.147357
 30
0.000000
  0
VERTEX
  8
LAYER-1
 10
6.611028
 20
0.149092
 30
0.000000
  0
VERTEX
  8
LAYER-1
 10
6.606688
 20
0.149092
 30
0.000000
  0
VERTEX
  8
LAYER-1
 10
6.602347
 20
0.145621
 30
0.000000
  0
VERTEX
  8
LAYER-1
 10
6.602347
 20
0.141279
 30
0.000000
  0
VERTEX
  8
LAYER-1
 10
6.603215
 20
0.136939
 30
0.000000
  0
VERTEX
  8
LAYER-1
 10
6.607556
 20
0.134334
 30
0.000000
  0
SEQEND
  8
LAYER-1
  0
POLYLINE
  8
LAYER-1
 66
  1
 70
  1
 62
  0
 10
0.866060
 20
0.137149
 30
0.000000
  0
VERTEX
  8
LAYER-1
 10
0.866060
 20
0.137149
 30
0.000000
  0
VERTEX
  8
LAYER-1
 10
0.843490
 20
0.150169
 30
0.000000
  0
VERTEX
  8
LAYER-1
 10
0.864322
 20
0.119787
 30
0.000000
  0
SEQEND
  8
LAYER-1
  0
POLYLINE
  8
LAYER-1
 66
  1
 70
  0
 62
  0
 10
0.854776
 20
0.070308
 30
0.000000
  0
VERTEX
  8
LAYER-1
 10
0.854776
 20
0.070308
 30
0.000000
  0
VERTEX
  8
LAYER-1
 10
0.854776
 20
0.074647
 30
0.000000
  0
VERTEX
  8
LAYER-1
 10
0.850435
 20
0.078121
 30
0.000000
  0
VERTEX
  8
LAYER-1
 10
0.845228
 20
0.078987
 30
0.000000
  0
VERTEX
  8
LAYER-1
 10
0.840887
 20
0.077252
 30
0.000000
  0
VERTEX
  8
LAYER-1
 10
0.839151
 20
0.072911
 30
0.000000
  0
VERTEX
  8
LAYER-1
 10
0.839151
 20
0.068570
 30
0.000000
  0
VERTEX
  8
LAYER-1
 10
0.842623
 20
0.064231
 30
0.000000
  0
VERTEX
  8
LAYER-1
 10
0.846963
 20
0.064231
 30
0.000000
  0
VERTEX
  8
LAYER-1
 10
0.851304
 20
0.065098
 30
0.000000
  0
VERTEX
  8
LAYER-1
 10
0.853909
 20
0.069439
 30
0.000000
  0
SEQEND
  8
LAYER-1
  0
POLYLINE
  8
LAYER-1
 66
  1
 70
  1
 62
  0
 10
1.132815
 20
0.059107
 30
0.000000
  0
VERTEX
  8
LAYER-1
 10
1.132815
 20
0.059107
 30
0.000000
  0
VERTEX
  8
LAYER-1
 10
1.149309
 20
0.084282
 30
0.000000
  0
VERTEX
  8
LAYER-1
 10
1.134551
 20
0.092094
 30
0.000000
  0
SEQEND
  8
LAYER-1
  0
POLYLINE
  8
LAYER-1
 66
  1
 70
  1
 62
  0
 10
1.180725
 20
0.074202
 30
0.000000
  0
VERTEX
  8
LAYER-1
 10
1.180725
 20
0.074202
 30
0.000000
  0
VERTEX
  8
LAYER-1
 10
1.193412
 20
0.093567
 30
0.000000
  0
VERTEX
  8
LAYER-1
 10
1.182061
 20
0.099577
 30
0.000000
  0
SEQEND
  8
LAYER-1
  0
POLYLINE
  8
LAYER-1
 66
  1
 70
  0
 62
  0
 10
1.244794
 20
0.050429
 30
0.000000
  0
VERTEX
  8
LAYER-1
 10
1.244794
 20
0.050429
 30
0.000000
  0
VERTEX
  8
LAYER-1
 10
1.249135
 20
0.050429
 30
0.000000
  0
VERTEX
  8
LAYER-1
 10
1.252607
 20
0.054771
 30
0.000000
  0
VERTEX
  8
LAYER-1
 10
1.253475
 20
0.059978
 30
0.000000
  0
VERTEX
  8
LAYER-1
 10
1.251739
 20
0.064319
 30
0.000000
  0
VERTEX
  8
LAYER-1
 10
1.247398
 20
0.066054
 30
0.000000
  0
VERTEX
  8
LAYER-1
 10
1.243059
 20
0.066054
 30
0.000000
  0
VERTEX
  8
LAYER-1
 10
1.238718
 20
0.062583
 30
0.000000
  0
VERTEX
  8
LAYER-1
 10
1.238718
 20
0.058242
 30
0.000000
  0
VERTEX
  8
LAYER-1
 10
1.239586
 20
0.053902
 30
0.000000
  0
VERTEX
  8
LAYER-1
 10
1.243926
 20
0.051298
 30
0.000000
  0
SEQEND
  8
LAYER-1
  0
POLYLINE
  8
LAYER-1
 66
  1
 70
  1
 62
  0
 10
1.278648
 20
0.113363
 30
0.000000
  0
VERTEX
  8
LAYER-1
 10
1.278648
 20
0.113363
 30
0.000000
  0
VERTEX
  8
LAYER-1
 10
1.252607
 20
0.106417
 30
0.000000
  0
VERTEX
  8
LAYER-1
 10
1.266495
 20
0.081245
 30
0.000000
  0
SEQEND
  8
LAYER-1
  0
POLYLINE
  8
LAYER-1
 66
  1
 70
  0
 62
  0
 10
2.646530
 20
0.081069
 30
0.000000
  0
VERTEX
  8
LAYER-1
 10
2.646530
 20
0.081069
 30
0.000000
  0
VERTEX
  8
LAYER-1
 10
2.646530
 20
0.085410
 30
0.000000
  0
VERTEX
  8
LAYER-1
 10
2.642189
 20
0.088882
 30
0.000000
  0
VERTEX
  8
LAYER-1
 10
2.636982
 20
0.089750
 30
0.000000
  0
VERTEX
  8
LAYER-1
 10
2.632641
 20
0.088014
 30
0.000000
  0
VERTEX
  8
LAYER-1
 10
2.630905
 20
0.083674
 30
0.000000
  0
VERTEX
  8
LAYER-1
 10
2.630905
 20
0.079334
 30
0.000000
  0
VERTEX
  8
LAYER-1
 10
2.634377
 20
0.074993
 30
0.000000
  0
VERTEX
  8
LAYER-1
 10
2.638718
 20
0.074993
 30
0.000000
  0
VERTEX
  8
LAYER-1
 10
2.643058
 20
0.075862
 30
0.000000
  0
VERTEX
  8
LAYER-1
 10
2.645662
 20
0.080201
 30
0.000000
  0
SEQEND
  8
LAYER-1
  0
POLYLINE
  8
LAYER-1
 66
  1
 70
  1
 62
  0
 10
2.580558
 20
0.044178
 30
0.000000
  0
VERTEX
  8
LAYER-1
 10
2.580558
 20
0.044178
 30
0.000000
  0
VERTEX
  8
LAYER-1
 10
2.573613
 20
0.070219
 30
0.000000
  0
VERTEX
  8
LAYER-1
 10
2.548439
 20
0.056331
 30
0.000000
  0
SEQEND
  8
LAYER-1
  0
POLYLINE
  8
LAYER-1
 66
  1
 70
  1
 62
  0
 10
2.592710
 20
0.080637
 30
0.000000
  0
VERTEX
  8
LAYER-1
 10
2.592710
 20
0.080637
 30
0.000000
  0
VERTEX
  8
LAYER-1
 10
2.605731
 20
0.103206
 30
0.000000
  0
VERTEX
  8
LAYER-1
 10
2.575349
 20
0.082374
 30
0.000000
  0
SEQEND
  8
LAYER-1
  0
POLYLINE
  8
LAYER-1
 66
  1
 70
  0
 62
  0
 10
2.428909
 20
0.091487
 30
0.000000
  0
VERTEX
  8
LAYER-1
 10
2.428909
 20
0.091487
 30
0.000000
  0
VERTEX
  8
LAYER-1
 10
2.424568
 20
0.091487
 30
0.000000
  0
VERTEX
  8
LAYER-1
 10
2.421096
 20
0.087146
 30
0.000000
  0
VERTEX
  8
LAYER-1
 10
2.420228
 20
0.081938
 30
0.000000
  0
VERTEX
  8
LAYER-1
 10
2.421964
 20
0.077598
 30
0.000000
  0
VERTEX
  8
LAYER-1
 10
2.426305
 20
0.075862
 30
0.000000
  0
VERTEX
  8
LAYER-1
 10
2.430645
 20
0.075862
 30
0.000000
  0
VERTEX
  8
LAYER-1
 10
2.434985
 20
0.079334
 30
0.000000
  0
VERTEX
  8
LAYER-1
 10
2.434985
 20
0.083674
 30
0.000000
  0
VERTEX
  8
LAYER-1
 10
2.434117
 20
0.088015
 30
0.000000
  0
VERTEX
  8
LAYER-1
 10
2.429777
 20
0.090619
 30
0.000000
  0
SEQEND
  8
LAYER-1
  0
POLYLINE
  8
LAYER-1
 66
  1
 70
  1
 62
  0
 10
2.508770
 20
0.054160
 30
0.000000
  0
VERTEX
  8
LAYER-1
 10
2.508770
 20
0.054160
 30
0.000000
  0
VERTEX
  8
LAYER-1
 10
2.486199
 20
0.067182
 30
0.000000
  0
VERTEX
  8
LAYER-1
 10
2.507032
 20
0.036799
 30
0.000000
  0
SEQEND
  8
LAYER-1
  0
POLYLINE
  8
LAYER-1
 66
  1
 70
  1
 62
  0
 10
3.103741
 20
0.055010
 30
0.000000
  0
VERTEX
  8
LAYER-1
 10
3.103741
 20
0.055010
 30
0.000000
  0
VERTEX
  8
LAYER-1
 10
3.116762
 20
0.077582
 30
0.000000
  0
VERTEX
  8
LAYER-1
 10
3.086380
 20
0.056748
 30
0.000000
  0
SEQEND
  8
LAYER-1
  0
POLYLINE
  8
LAYER-1
 66
  1
 70
  1
 62
  0
 10
3.009291
 20
0.061423
 30
0.000000
  0
VERTEX
  8
LAYER-1
 10
3.009291
 20
0.061423
 30
0.000000
  0
VERTEX
  8
LAYER-1
 10
3.021978
 20
0.080788
 30
0.000000
  0
VERTEX
  8
LAYER-1
 10
3.010627
 20
0.086799
 30
0.000000
  0
SEQEND
  8
LAYER-1
  0
POLYLINE
  8
LAYER-1
 66
  1
 70
  0
 62
  0
 10
3.137597
 20
0.054144
 30
0.000000
  0
VERTEX
  8
LAYER-1
 10
3.137597
 20
0.054144
 30
0.000000
  0
VERTEX
  8
LAYER-1
 10
3.141937
 20
0.054144
 30
0.000000
  0
VERTEX
  8
LAYER-1
 10
3.145409
 20
0.058484
 30
0.000000
  0
VERTEX
  8
LAYER-1
 10
3.146277
 20
0.063692
 30
0.000000
  0
VERTEX
  8
LAYER-1
 10
3.144541
 20
0.068033
 30
0.000000
  0
VERTEX
  8
LAYER-1
 10
3.140200
 20
0.069769
 30
0.000000
  0
VERTEX
  8
LAYER-1
 10
3.135860
 20
0.069769
 30
0.000000
  0
VERTEX
  8
LAYER-1
 10
3.131520
 20
0.066297
 30
0.000000
  0
VERTEX
  8
LAYER-1
 10
3.131520
 20
0.061957
 30
0.000000
  0
VERTEX
  8
LAYER-1
 10
3.132388
 20
0.057615
 30
0.000000
  0
VERTEX
  8
LAYER-1
 10
3.136728
 20
0.055010
 30
0.000000
  0
SEQEND
  8
LAYER-1
  0
POLYLINE
  8
LAYER-1
 66
  1
 70
  0
 62
  0
 10
3.023880
 20
0.045460
 30
0.000000
  0
VERTEX
  8
LAYER-1
 10
3.023880
 20
0.045460
 30
0.000000
  0
VERTEX
  8
LAYER-1
 10
3.019539
 20
0.045460
 30
0.000000
  0
VERTEX
  8
LAYER-1
 10
3.016067
 20
0.041120
 30
0.000000
  0
VERTEX
  8
LAYER-1
 10
3.015199
 20
0.035912
 30
0.000000
  0
VERTEX
  8
LAYER-1
 10
3.016935
 20
0.031571
 30
0.000000
  0
VERTEX
  8
LAYER-1
 10
3.021276
 20
0.029835
 30
0.000000
  0
VERTEX
  8
LAYER-1
 10
3.025616
 20
0.029835
 30
0.000000
  0
VERTEX
  8
LAYER-1
 10
3.029956
 20
0.033307
 30
0.000000
  0
VERTEX
  8
LAYER-1
 10
3.029956
 20
0.037648
 30
0.000000
  0
VERTEX
  8
LAYER-1
 10
3.029089
 20
0.041989
 30
0.000000
  0
VERTEX
  8
LAYER-1
 10
3.024748
 20
0.044593
 30
0.000000
  0
SEQEND
  8
LAYER-1
  0
POLYLINE
  8
LAYER-1
 66
  1
 70
  1
 62
  0
 10
2.864933
 20
0.058762
 30
0.000000
  0
VERTEX
  8
LAYER-1
 10
2.864933
 20
0.058762
 30
0.000000
  0
VERTEX
  8
LAYER-1
 10
2.877954
 20
0.081332
 30
0.000000
  0
VERTEX
  8
LAYER-1
 10
2.847572
 20
0.060499
 30
0.000000
  0
SEQEND
  8
LAYER-1
  0
POLYLINE
  8
LAYER-1
 66
  1
 70
  0
 62
  0
 10
2.898788
 20
0.057894
 30
0.000000
  0
VERTEX
  8
LAYER-1
 10
2.898788
 20
0.057894
 30
0.000000
  0
VERTEX
  8
LAYER-1
 10
2.903129
 20
0.057894
 30
0.000000
  0
VERTEX
  8
LAYER-1
 10
2.906601
 20
0.062235
 30
0.000000
  0
VERTEX
  8
LAYER-1
 10
2.907469
 20
0.067443
 30
0.000000
  0
VERTEX
  8
LAYER-1
 10
2.905733
 20
0.071783
 30
0.000000
  0
VERTEX
  8
LAYER-1
 10
2.901392
 20
0.073519
 30
0.000000
  0
VERTEX
  8
LAYER-1
 10
2.897053
 20
0.073519
 30
0.000000
  0
VERTEX
  8
LAYER-1
 10
2.892712
 20
0.070047
 30
0.000000
  0
VERTEX
  8
LAYER-1
 10
2.892712
 20
0.065707
 30
0.000000
  0
VERTEX
  8
LAYER-1
 10
2.893580
 20
0.061366
 30
0.000000
  0
VERTEX
  8
LAYER-1
 10
2.897921
 20
0.058762
 30
0.000000
  0
SEQEND
  8
LAYER-1
  0
POLYLINE
  8
LAYER-1
 66
  1
 70
  1
 62
  0
 10
3.497050
 20
0.093832
 30
0.000000
  0
VERTEX
  8
LAYER-1
 10
3.497050
 20
0.093832
 30
0.000000
  0
VERTEX
  8
LAYER-1
 10
3.519620
 20
0.080811
 30
0.000000
  0
VERTEX
  8
LAYER-1
 10
3.498788
 20
0.111192
 30
0.000000
  0
SEQEND
  8
LAYER-1
  0
POLYLINE
  8
LAYER-1
 66
  1
 70
  0
 62
  0
 10
3.496183
 20
0.059976
 30
0.000000
  0
VERTEX
  8
LAYER-1
 10
3.496183
 20
0.059976
 30
0.000000
  0
VERTEX
  8
LAYER-1
 10
3.496183
 20
0.055635
 30
0.000000
  0
VERTEX
  8
LAYER-1
 10
3.500523
 20
0.052164
 30
0.000000
  0
VERTEX
  8
LAYER-1
 10
3.505731
 20
0.051296
 30
0.000000
  0
VERTEX
  8
LAYER-1
 10
3.510072
 20
0.053032
 30
0.000000
  0
VERTEX
  8
LAYER-1
 10
3.511807
 20
0.057372
 30
0.000000
  0
VERTEX
  8
LAYER-1
 10
3.511807
 20
0.061712
 30
0.000000
  0
VERTEX
  8
LAYER-1
 10
3.508336
 20
0.066053
 30
0.000000
  0
VERTEX
  8
LAYER-1
 10
3.503995
 20
0.066053
 30
0.000000
  0
VERTEX
  8
LAYER-1
 10
3.499655
 20
0.065185
 30
0.000000
  0
VERTEX
  8
LAYER-1
 10
3.497050
 20
0.060844
 30
0.000000
  0
SEQEND
  8
LAYER-1
  0
POLYLINE
  8
LAYER-1
 66
  1
 70
  1
 62
  0
 10
4.046529
 20
0.125861
 30
0.000000
  0
VERTEX
  8
LAYER-1
 10
4.046529
 20
0.125861
 30
0.000000
  0
VERTEX
  8
LAYER-1
 10
4.053474
 20
0.099820
 30
0.000000
  0
VERTEX
  8
LAYER-1
 10
4.078647
 20
0.113708
 30
0.000000
  0
SEQEND
  8
LAYER-1
  0
POLYLINE
  8
LAYER-1
 66
  1
 70
  1
 62
  0
 10
4.018316
 20
0.088967
 30
0.000000
  0
VERTEX
  8
LAYER-1
 10
4.018316
 20
0.088967
 30
0.000000
  0
VERTEX
  8
LAYER-1
 10
4.040886
 20
0.075947
 30
0.000000
  0
VERTEX
  8
LAYER-1
 10
4.020053
 20
0.106328
 30
0.000000
  0
SEQEND
  8
LAYER-1
  0
POLYLINE
  8
LAYER-1
 66
  1
 70
  1
 62
  0
 10
4.134971
 20
0.080988
 30
0.000000
  0
VERTEX
  8
LAYER-1
 10
4.134971
 20
0.080988
 30
0.000000
  0
VERTEX
  8
LAYER-1
 10
4.154336
 20
0.068300
 30
0.000000
  0
VERTEX
  8
LAYER-1
 10
4.160346
 20
0.079652
 30
0.000000
  0
SEQEND
  8
LAYER-1
  0
POLYLINE
  8
LAYER-1
 66
  1
 70
  0
 62
  0
 10
4.079516
 20
0.086795
 30
0.000000
  0
VERTEX
  8
LAYER-1
 10
4.079516
 20
0.086795
 30
0.000000
  0
VERTEX
  8
LAYER-1
 10
4.075175
 20
0.086795
 30
0.000000
  0
VERTEX
  8
LAYER-1
 10
4.071704
 20
0.082454
 30
0.000000
  0
VERTEX
  8
LAYER-1
 10
4.070836
 20
0.077247
 30
0.000000
  0
VERTEX
  8
LAYER-1
 10
4.072572
 20
0.072906
 30
0.000000
  0
VERTEX
  8
LAYER-1
 10
4.076911
 20
0.071170
 30
0.000000
  0
VERTEX
  8
LAYER-1
 10
4.081252
 20
0.071170
 30
0.000000
  0
VERTEX
  8
LAYER-1
 10
4.085592
 20
0.074642
 30
0.000000
  0
VERTEX
  8
LAYER-1
 10
4.085592
 20
0.078983
 30
0.000000
  0
VERTEX
  8
LAYER-1
 10
4.084724
 20
0.083323
 30
0.000000
  0
VERTEX
  8
LAYER-1
 10
4.080384
 20
0.085927
 30
0.000000
  0
SEQEND
  8
LAYER-1
  0
POLYLINE
  8
LAYER-1
 66
  1
 70
  0
 62
  0
 10
3.964064
 20
0.064227
 30
0.000000
  0
VERTEX
  8
LAYER-1
 10
3.964064
 20
0.064227
 30
0.000000
  0
VERTEX
  8
LAYER-1
 10
3.968405
 20
0.064227
 30
0.000000
  0
VERTEX
  8
LAYER-1
 10
3.971877
 20
0.068567
 30
0.000000
  0
VERTEX
  8
LAYER-1
 10
3.972746
 20
0.073775
 30
0.000000
  0
VERTEX
  8
LAYER-1
 10
3.971010
 20
0.078116
 30
0.000000
  0
VERTEX
  8
LAYER-1
 10
3.966669
 20
0.079852
 30
0.000000
  0
VERTEX
  8
LAYER-1
 10
3.962329
 20
0.079852
 30
0.000000
  0
VERTEX
  8
LAYER-1
 10
3.957988
 20
0.076380
 30
0.000000
  0
VERTEX
  8
LAYER-1
 10
3.957988
 20
0.072039
 30
0.000000
  0
VERTEX
  8
LAYER-1
 10
3.958857
 20
0.067698
 30
0.000000
  0
VERTEX
  8
LAYER-1
 10
3.963197
 20
0.065093
 30
0.000000
  0
SEQEND
  8
LAYER-1
  0
POLYLINE
  8
LAYER-1
 66
  1
 70
  1
 62
  0
 10
4.450712
 20
0.034539
 30
0.000000
  0
VERTEX
  8
LAYER-1
 10
4.450712
 20
0.034539
 30
0.000000
  0
VERTEX
  8
LAYER-1
 10
4.443767
 20
0.060581
 30
0.000000
  0
VERTEX
  8
LAYER-1
 10
4.418594
 20
0.046693
 30
0.000000
  0
SEQEND
  8
LAYER-1
  0
POLYLINE
  8
LAYER-1
 66
  1
 70
  1
 62
  0
 10
4.478924
 20
0.071433
 30
0.000000
  0
VERTEX
  8
LAYER-1
 10
4.478924
 20
0.071433
 30
0.000000
  0
VERTEX
  8
LAYER-1
 10
4.456355
 20
0.084454
 30
0.000000
  0
VERTEX
  8
LAYER-1
 10
4.477188
 20
0.054073
 30
0.000000
  0
SEQEND
  8
LAYER-1
  0
POLYLINE
  8
LAYER-1
 66
  1
 70
  1
 62
  0
 10
4.362270
 20
0.079414
 30
0.000000
  0
VERTEX
  8
LAYER-1
 10
4.362270
 20
0.079414
 30
0.000000
  0
VERTEX
  8
LAYER-1
 10
4.342905
 20
0.092101
 30
0.000000
  0
VERTEX
  8
LAYER-1
 10
4.336895
 20
0.080750
 30
0.000000
  0
SEQEND
  8
LAYER-1
  0
POLYLINE
  8
LAYER-1
 66
  1
 70
  0
 62
  0
 10
4.417725
 20
0.073606
 30
0.000000
  0
VERTEX
  8
LAYER-1
 10
4.417725
 20
0.073606
 30
0.000000
  0
VERTEX
  8
LAYER-1
 10
4.422066
 20
0.073606
 30
0.000000
  0
VERTEX
  8
LAYER-1
 10
4.425538
 20
0.077946
 30
0.000000
  0
VERTEX
  8
LAYER-1
 10
4.426405
 20
0.083154
 30
0.000000
  0
VERTEX
  8
LAYER-1
 10
4.424669
 20
0.087495
 30
0.000000
  0
VERTEX
  8
LAYER-1
 10
4.420330
 20
0.089231
 30
0.000000
  0
VERTEX
  8
LAYER-1
 10
4.415989
 20
0.089231
 30
0.000000
  0
VERTEX
  8
LAYER-1
 10
4.411648
 20
0.085759
 30
0.000000
  0
VERTEX
  8
LAYER-1
 10
4.411648
 20
0.081418
 30
0.000000
  0
VERTEX
  8
LAYER-1
 10
4.412517
 20
0.077077
 30
0.000000
  0
VERTEX
  8
LAYER-1
 10
4.416857
 20
0.074474
 30
0.000000
  0
SEQEND
  8
LAYER-1
  0
POLYLINE
  8
LAYER-1
 66
  1
 70
  0
 62
  0
 10
4.533176
 20
0.096174
 30
0.000000
  0
VERTEX
  8
LAYER-1
 10
4.533176
 20
0.096174
 30
0.000000
  0
VERTEX
  8
LAYER-1
 10
4.528836
 20
0.096174
 30
0.000000
  0
VERTEX
  8
LAYER-1
 10
4.525364
 20
0.091833
 30
0.000000
  0
VERTEX
  8
LAYER-1
 10
4.524495
 20
0.086626
 30
0.000000
  0
VERTEX
  8
LAYER-1
 10
4.526231
 20
0.082286
 30
0.000000
  0
VERTEX
  8
LAYER-1
 10
4.530572
 20
0.080549
 30
0.000000
  0
VERTEX
  8
LAYER-1
 10
4.534913
 20
0.080549
 30
0.000000
  0
VERTEX
  8
LAYER-1
 10
4.539253
 20
0.084021
 30
0.000000
  0
VERTEX
  8
LAYER-1
 10
4.539253
 20
0.088362
 30
0.000000
  0
VERTEX
  8
LAYER-1
 10
4.538384
 20
0.092702
 30
0.000000
  0
VERTEX
  8
LAYER-1
 10
4.534044
 20
0.095307
 30
0.000000
  0
SEQEND
  8
LAYER-1
  0
POLYLINE
  8
LAYER-1
 66
  1
 70
  1
 62
  0
 10
4.703055
 20
0.018133
 30
0.000000
  0
VERTEX
  8
LAYER-1
 10
4.703055
 20
0.018133
 30
0.000000
  0
VERTEX
  8
LAYER-1
 10
4.696110
 20
0.044174
 30
0.000000
  0
VERTEX
  8
LAYER-1
 10
4.670937
 20
0.030286
 30
0.000000
  0
SEQEND
  8
LAYER-1
  0
POLYLINE
  8
LAYER-1
 66
  1
 70
  1
 62
  0
 10
4.731267
 20
0.055027
 30
0.000000
  0
VERTEX
  8
LAYER-1
 10
4.731267
 20
0.055027
 30
0.000000
  0
VERTEX
  8
LAYER-1
 10
4.708698
 20
0.068047
 30
0.000000
  0
VERTEX
  8
LAYER-1
 10
4.729530
 20
0.037666
 30
0.000000
  0
SEQEND
  8
LAYER-1
  0
POLYLINE
  8
LAYER-1
 66
  1
 70
  1
 62
  0
 10
4.614614
 20
0.063007
 30
0.000000
  0
VERTEX
  8
LAYER-1
 10
4.614614
 20
0.063007
 30
0.000000
  0
VERTEX
  8
LAYER-1
 10
4.595249
 20
0.075695
 30
0.000000
  0
VERTEX
  8
LAYER-1
 10
4.589238
 20
0.064343
 30
0.000000
  0
SEQEND
  8
LAYER-1
  0
POLYLINE
  8
LAYER-1
 66
  1
 70
  0
 62
  0
 10
4.670068
 20
0.057199
 30
0.000000
  0
VERTEX
  8
LAYER-1
 10
4.670068
 20
0.057199
 30
0.000000
  0
VERTEX
  8
LAYER-1
 10
4.674409
 20
0.057199
 30
0.000000
  0
VERTEX
  8
LAYER-1
 10
4.677881
 20
0.061540
 30
0.000000
  0
VERTEX
  8
LAYER-1
 10
4.678749
 20
0.066748
 30
0.000000
  0
VERTEX
  8
LAYER-1
 10
4.677013
 20
0.071088
 30
0.000000
  0
VERTEX
  8
LAYER-1
 10
4.672673
 20
0.072824
 30
0.000000
  0
VERTEX
  8
LAYER-1
 10
4.668332
 20
0.072824
 30
0.000000
  0
VERTEX
  8
LAYER-1
 10
4.663992
 20
0.069353
 30
0.000000
  0
VERTEX
  8
LAYER-1
 10
4.663992
 20
0.065012
 30
0.000000
  0
VERTEX
  8
LAYER-1
 10
4.664861
 20
0.060671
 30
0.000000
  0
VERTEX
  8
LAYER-1
 10
4.669200
 20
0.058067
 30
0.000000
  0
SEQEND
  8
LAYER-1
  0
POLYLINE
  8
LAYER-1
 66
  1
 70
  0
 62
  0
 10
4.785519
 20
0.079768
 30
0.000000
  0
VERTEX
  8
LAYER-1
 10
4.785519
 20
0.079768
 30
0.000000
  0
VERTEX
  8
LAYER-1
 10
4.781179
 20
0.079768
 30
0.000000
  0
VERTEX
  8
LAYER-1
 10
4.777707
 20
0.075428
 30
0.000000
  0
VERTEX
  8
LAYER-1
 10
4.776838
 20
0.070219
 30
0.000000
  0
VERTEX
  8
LAYER-1
 10
4.778574
 20
0.065879
 30
0.000000
  0
VERTEX
  8
LAYER-1
 10
4.782914
 20
0.064143
 30
0.000000
  0
VERTEX
  8
LAYER-1
 10
4.787255
 20
0.064143
 30
0.000000
  0
VERTEX
  8
LAYER-1
 10
4.791596
 20
0.067615
 30
0.000000
  0
VERTEX
  8
LAYER-1
 10
4.791596
 20
0.071955
 30
0.000000
  0
VERTEX
  8
LAYER-1
 10
4.790727
 20
0.076296
 30
0.000000
  0
VERTEX
  8
LAYER-1
 10
4.786386
 20
0.078901
 30
0.000000
  0
SEQEND
  8
LAYER-1
  0
POLYLINE
  8
LAYER-1
 66
  1
 70
  1
 62
  0
 10
4.923614
 20
0.117182
 30
0.000000
  0
VERTEX
  8
LAYER-1
 10
4.923614
 20
0.117182
 30
0.000000
  0
VERTEX
  8
LAYER-1
 10
4.930559
 20
0.091141
 30
0.000000
  0
VERTEX
  8
LAYER-1
 10
4.955732
 20
0.105029
 30
0.000000
  0
SEQEND
  8
LAYER-1
  0
POLYLINE
  8
LAYER-1
 66
  1
 70
  1
 62
  0
 10
4.895401
 20
0.080288
 30
0.000000
  0
VERTEX
  8
LAYER-1
 10
4.895401
 20
0.080288
 30
0.000000
  0
VERTEX
  8
LAYER-1
 10
4.917971
 20
0.067268
 30
0.000000
  0
VERTEX
  8
LAYER-1
 10
4.897138
 20
0.097649
 30
0.000000
  0
SEQEND
  8
LAYER-1
  0
POLYLINE
  8
LAYER-1
 66
  1
 70
  0
 62
  0
 10
4.841149
 20
0.055547
 30
0.000000
  0
VERTEX
  8
LAYER-1
 10
4.841149
 20
0.055547
 30
0.000000
  0
VERTEX
  8
LAYER-1
 10
4.845490
 20
0.055547
 30
0.000000
  0
VERTEX
  8
LAYER-1
 10
4.848962
 20
0.059887
 30
0.000000
  0
VERTEX
  8
LAYER-1
 10
4.849831
 20
0.065096
 30
0.000000
  0
VERTEX
  8
LAYER-1
 10
4.848095
 20
0.069436
 30
0.000000
  0
VERTEX
  8
LAYER-1
 10
4.843754
 20
0.071172
 30
0.000000
  0
VERTEX
  8
LAYER-1
 10
4.839414
 20
0.071172
 30
0.000000
  0
VERTEX
  8
LAYER-1
 10
4.835072
 20
0.067700
 30
0.000000
  0
VERTEX
  8
LAYER-1
 10
4.835072
 20
0.063360
 30
0.000000
  0
VERTEX
  8
LAYER-1
 10
4.835941
 20
0.059018
 30
0.000000
  0
VERTEX
  8
LAYER-1
 10
4.840282
 20
0.056414
 30
0.000000
  0
SEQEND
  8
LAYER-1
  0
POLYLINE
  8
LAYER-1
 66
  1
 70
  1
 62
  0
 10
5.476737
 20
0.229298
 30
0.000000
  0
VERTEX
  8
LAYER-1
 10
5.476737
 20
0.229298
 30
0.000000
  0
VERTEX
  8
LAYER-1
 10
5.483681
 20
0.203258
 30
0.000000
  0
VERTEX
  8
LAYER-1
 10
5.508855
 20
0.217145
 30
0.000000
  0
SEQEND
  8
LAYER-1
  0
POLYLINE
  8
LAYER-1
 66
  1
 70
  1
 62
  0
 10
5.489845
 20
0.184159
 30
0.000000
  0
VERTEX
  8
LAYER-1
 10
5.489845
 20
0.184159
 30
0.000000
  0
VERTEX
  8
LAYER-1
 10
5.476824
 20
0.161590
 30
0.000000
  0
VERTEX
  8
LAYER-1
 10
5.507206
 20
0.182421
 30
0.000000
  0
SEQEND
  8
LAYER-1
  0
POLYLINE
  8
LAYER-1
 66
  1
 70
  1
 62
  0
 10
5.181340
 20
0.152684
 30
0.000000
  0
VERTEX
  8
LAYER-1
 10
5.181340
 20
0.152684
 30
0.000000
  0
VERTEX
  8
LAYER-1
 10
5.174396
 20
0.178724
 30
0.000000
  0
VERTEX
  8
LAYER-1
 10
5.149222
 20
0.164836
 30
0.000000
  0
SEQEND
  8
LAYER-1
  0
POLYLINE
  8
LAYER-1
 66
  1
 70
  1
 62
  0
 10
5.168231
 20
0.197822
 30
0.000000
  0
VERTEX
  8
LAYER-1
 10
5.168231
 20
0.197822
 30
0.000000
  0
VERTEX
  8
LAYER-1
 10
5.181253
 20
0.220392
 30
0.000000
  0
VERTEX
  8
LAYER-1
 10
5.150870
 20
0.199560
 30
0.000000
  0
SEQEND
  8
LAYER-1
  0
POLYLINE
  8
LAYER-1
 66
  1
 70
  1
 62
  0
 10
5.686112
 20
0.054854
 30
0.000000
  0
VERTEX
  8
LAYER-1
 10
5.686112
 20
0.054854
 30
0.000000
  0
VERTEX
  8
LAYER-1
 10
5.712152
 20
0.061800
 30
0.000000
  0
VERTEX
  8
LAYER-1
 10
5.698265
 20
0.086973
 30
0.000000
  0
SEQEND
  8
LAYER-1
  0
POLYLINE
  8
LAYER-1
 66
  1
 70
  1
 62
  0
 10
5.731251
 20
0.067963
 30
0.000000
  0
VERTEX
  8
LAYER-1
 10
5.731251
 20
0.067963
 30
0.000000
  0
VERTEX
  8
LAYER-1
 10
5.753821
 20
0.054943
 30
0.000000
  0
VERTEX
  8
LAYER-1
 10
5.732989
 20
0.085324
 30
0.000000
  0
SEQEND
  8
LAYER-1
  0
ARC
  8
LAYER-1
 62
  0
 10
5.459082
 20
8.908726
 30
0.000000
 40
0.254425
 50
270.000000
 51
90.000000
  0
POLYLINE
  8
LAYER-1
 66
  1
 70
  0
 62
  0
 10
5.459082
 20
9.163151
 30
0.000000
  0
VERTEX
  8
LAYER-1
 10
5.459082
 20
9.163151
 30
0.000000
  0
VERTEX
  8
LAYER-1
 10
1.794160
 20
9.163151
 30
0.000000
  0
SEQEND
  8
LAYER-1
  0
POLYLINE
  8
LAYER-1
 66
  1
 70
  0
 62
  0
 10
1.794160
 20
9.163151
 30
0.000000
  0
VERTEX
  8
LAYER-1
 10
1.794160
 20
9.163151
 30
0.000000
  0
VERTEX
  8
LAYER-1
 10
1.794160
 20
8.654302
 30
0.000000
  0
SEQEND
  8
LAYER-1
  0
POLYLINE
  8
LAYER-1
 66
  1
 70
  0
 62
  0
 10
5.459082
 20
8.654302
 30
0.000000
  0
VERTEX
  8
LAYER-1
 10
5.459082
 20
8.654302
 30
0.000000
  0
VERTEX
  8
LAYER-1
 10
1.794160
 20
8.654302
 30
0.000000
  0
SEQEND
  8
LAYER-1
  0
TEXT
  8
LAYER-1
 62
  0
 10
3.597747
 20
9.450740
 30
0.000000
 40
0.333333
  1
MobilFlex
 72
  5
 11
5.750525
 21
9.450740
 31
0.000000
  0
POLYLINE
  8
LAYER-1
 66
  1
 70
  1
 62
  0
  0
VERTEX
  8
LAYER-1
 10
1.795663
 20
9.970713
 30
0.000000
  0
VERTEX
  8
LAYER-1
 10
2.033511
 20
9.970713
 30
0.000000
  0
VERTEX
  8
LAYER-1
 10
2.033511
 20
9.453769
 30
0.000000
  0
VERTEX
  8
LAYER-1
 10
1.795663
 20
9.453769
 30
0.000000
  0
SEQEND
  8
LAYER-1
  0
POLYLINE
  8
LAYER-1
 66
  1
 70
  1
 62
  0
  0
VERTEX
  8
LAYER-1
 10
2.108163
 20
9.970713
 30
0.000000
  0
VERTEX
  8
LAYER-1
 10
2.346011
 20
9.970713
 30
0.000000
  0
VERTEX
  8
LAYER-1
 10
2.346011
 20
9.453769
 30
0.000000
  0
VERTEX
  8
LAYER-1
 10
2.108163
 20
9.453769
 30
0.000000
  0
SEQEND
  8
LAYER-1
  0
POLYLINE
  8
LAYER-1
 66
  1
 70
  1
 62
  0
  0
VERTEX
  8
LAYER-1
 10
2.408511
 20
9.970713
 30
0.000000
  0
VERTEX
  8
LAYER-1
 10
2.646358
 20
9.970713
 30
0.000000
  0
VERTEX
  8
LAYER-1
 10
2.646358
 20
9.453769
 30
0.000000
  0
VERTEX
  8
LAYER-1
 10
2.408511
 20
9.453769
 30
0.000000
  0
SEQEND
  8
LAYER-1
  0
POLYLINE
  8
LAYER-1
 66
  1
 70
  1
 62
  0
  0
VERTEX
  8
LAYER-1
 10
2.712330
 20
9.970713
 30
0.000000
  0
VERTEX
  8
LAYER-1
 10
2.950177
 20
9.970713
 30
0.000000
  0
VERTEX
  8
LAYER-1
 10
2.950177
 20
9.453769
 30
0.000000
  0
VERTEX
  8
LAYER-1
 10
2.712330
 20
9.453769
 30
0.000000
  0
SEQEND
  8
LAYER-1
  0
POLYLINE
  8
LAYER-1
 66
  1
 70
  1
 62
  0
  0
VERTEX
  8
LAYER-1
 10
3.029170
 20
9.966799
 30
0.000000
  0
VERTEX
  8
LAYER-1
 10
3.404605
 20
9.966799
 30
0.000000
  0
VERTEX
  8
LAYER-1
 10
3.404605
 20
9.828778
 30
0.000000
  0
VERTEX
  8
LAYER-1
 10
3.029170
 20
9.828778
 30
0.000000
  0
SEQEND
  8
LAYER-1
  0
POLYLINE
  8
LAYER-1
 66
  1
 70
  1
 62
  0
  0
VERTEX
  8
LAYER-1
 10
3.028737
 20
9.739368
 30
0.000000
  0
VERTEX
  8
LAYER-1
 10
3.336896
 20
9.739368
 30
0.000000
  0
VERTEX
  8
LAYER-1
 10
3.336896
 20
9.605253
 30
0.000000
  0
VERTEX
  8
LAYER-1
 10
3.028737
 20
9.605253
 30
0.000000
  0
SEQEND
  8
LAYER-1
  0
POLYLINE
  8
LAYER-1
 66
  1
 70
  1
 62
  0
  0
VERTEX
  8
LAYER-1
 10
1.795663
 20
9.369142
 30
0.000000
  0
VERTEX
  8
LAYER-1
 10
5.714066
 20
9.369142
 30
0.000000
  0
VERTEX
  8
LAYER-1
 10
5.714066
 20
9.325740
 30
0.000000
  0
VERTEX
  8
LAYER-1
 10
1.795663
 20
9.325740
 30
0.000000
  0
SEQEND
  8
LAYER-1
  0
POLYLINE
  8
LAYER-1
 66
  1
 70
  0
 62
  0
 10
5.773594
 20
7.413294
 30
0.000000
  0
VERTEX
  8
LAYER-1
 10
5.773594
 20
7.413294
 30
0.000000
  0
VERTEX
  8
LAYER-1
 10
1.754731
 20
7.413430
 30
0.000000
  0
VERTEX
  8
LAYER-1
 10
1.754731
 20
0.346217
 30
0.000000
  0
VERTEX
  8
LAYER-1
 10
5.773594
 20
0.346217
 30
0.000000
  0
VERTEX
  8
LAYER-1
 10
5.773594
 20
7.413430
 30
0.000000
  0
SEQEND
  8
LAYER-1
  0
POLYLINE
  8
LAYER-1
 66
  1
 70
  1
 62
  0
  0
VERTEX
  8
LAYER-1
 10
3.789743
 20
7.479853
 30
0.000000
  0
VERTEX
  8
LAYER-1
 10
3.814838
 20
7.479853
 30
0.000000
  0
VERTEX
  8
LAYER-1
 10
3.814838
 20
7.413535
 30
0.000000
  0
VERTEX
  8
LAYER-1
 10
3.789743
 20
7.413535
 30
0.000000
  0
SEQEND
  8
LAYER-1
  0
POLYLINE
  8
LAYER-1
 66
  1
 70
  1
 62
  0
  0
VERTEX
  8
LAYER-1
 10
1.827407
 20
7.413441
 30
0.000000
  0
VERTEX
  8
LAYER-1
 10
2.152040
 20
7.413441
 30
0.000000
  0
VERTEX
  8
LAYER-1
 10
2.152040
 20
7.143442
 30
0.000000
  0
VERTEX
  8
LAYER-1
 10
1.827407
 20
7.143442
 30
0.000000
  0
SEQEND
  8
LAYER-1
  0
POLYLINE
  8
LAYER-1
 66
  1
 70
  1
 62
  0
  0
VERTEX
  8
LAYER-1
 10
2.647531
 20
7.413441
 30
0.000000
  0
VERTEX
  8
LAYER-1
 10
2.972161
 20
7.413441
 30
0.000000
  0
VERTEX
  8
LAYER-1
 10
2.972161
 20
7.143442
 30
0.000000
  0
VERTEX
  8
LAYER-1
 10
2.647531
 20
7.143442
 30
0.000000
  0
SEQEND
  8
LAYER-1
  0
POLYLINE
  8
LAYER-1
 66
  1
 70
  0
 62
  0
 10
2.794423
 20
7.413516
 30
0.000000
  0
VERTEX
  8
LAYER-1
 10
2.794423
 20
7.413516
 30
0.000000
  0
VERTEX
  8
LAYER-1
 10
2.794423
 20
7.143985
 30
0.000000
  0
SEQEND
  8
LAYER-1
  0
POLYLINE
  8
LAYER-1
 66
  1
 70
  0
 62
  0
 10
2.831502
 20
7.413516
 30
0.000000
  0
VERTEX
  8
LAYER-1
 10
2.831502
 20
7.413516
 30
0.000000
  0
VERTEX
  8
LAYER-1
 10
2.831502
 20
7.143985
 30
0.000000
  0
SEQEND
  8
LAYER-1
  0
POLYLINE
  8
LAYER-1
 66
  1
 70
  0
 62
  0
 10
1.972756
 20
7.413516
 30
0.000000
  0
VERTEX
  8
LAYER-1
 10
1.972756
 20
7.413516
 30
0.000000
  0
VERTEX
  8
LAYER-1
 10
1.972756
 20
7.143985
 30
0.000000
  0
SEQEND
  8
LAYER-1
  0
POLYLINE
  8
LAYER-1
 66
  1
 70
  0
 62
  0
 10
2.011318
 20
7.413516
 30
0.000000
  0
VERTEX
  8
LAYER-1
 10
2.011318
 20
7.413516
 30
0.000000
  0
VERTEX
  8
LAYER-1
 10
2.011318
 20
7.143985
 30
0.000000
  0
SEQEND
  8
LAYER-1
  0
POLYLINE
  8
LAYER-1
 66
  1
 70
  1
 62
  0
  0
VERTEX
  8
LAYER-1
 10
2.168533
 20
7.419376
 30
0.000000
  0
VERTEX
  8
LAYER-1
 10
2.223409
 20
7.419376
 30
0.000000
  0
VERTEX
  8
LAYER-1
 10
2.223409
 20
7.413516
 30
0.000000
  0
VERTEX
  8
LAYER-1
 10
2.168533
 20
7.413516
 30
0.000000
  0
SEQEND
  8
LAYER-1
  0
POLYLINE
  8
LAYER-1
 66
  1
 70
  0
 62
  0
 10
2.177431
 20
7.346133
 30
0.000000
  0
VERTEX
  8
LAYER-1
 10
2.177431
 20
7.346133
 30
0.000000
  0
VERTEX
  8
LAYER-1
 10
2.213027
 20
7.346133
 30
0.000000
  0
SEQEND
  8
LAYER-1
  0
POLYLINE
  8
LAYER-1
 66
  1
 70
  0
 62
  0
 10
2.177431
 20
7.217228
 30
0.000000
  0
VERTEX
  8
LAYER-1
 10
2.177431
 20
7.217228
 30
0.000000
  0
VERTEX
  8
LAYER-1
 10
2.213027
 20
7.217228
 30
0.000000
  0
SEQEND
  8
LAYER-1
  0
POLYLINE
  8
LAYER-1
 66
  1
 70
  1
 62
  0
  0
VERTEX
  8
LAYER-1
 10
2.985747
 20
7.419376
 30
0.000000
  0
VERTEX
  8
LAYER-1
 10
3.040623
 20
7.419376
 30
0.000000
  0
VERTEX
  8
LAYER-1
 10
3.040623
 20
7.413516
 30
0.000000
  0
VERTEX
  8
LAYER-1
 10
2.985747
 20
7.413516
 30
0.000000
  0
SEQEND
  8
LAYER-1
  0
POLYLINE
  8
LAYER-1
 66
  1
 70
  0
 62
  0
 10
2.996130
 20
7.346133
 30
0.000000
  0
VERTEX
  8
LAYER-1
 10
2.996130
 20
7.346133
 30
0.000000
  0
VERTEX
  8
LAYER-1
 10
3.031725
 20
7.346133
 30
0.000000
  0
SEQEND
  8
LAYER-1
  0
POLYLINE
  8
LAYER-1
 66
  1
 70
  0
 62
  0
 10
2.996130
 20
7.217227
 30
0.000000
  0
VERTEX
  8
LAYER-1
 10
2.996130
 20
7.217227
 30
0.000000
  0
VERTEX
  8
LAYER-1
 10
3.031725
 20
7.217227
 30
0.000000
  0
SEQEND
  8
LAYER-1
  0
POLYLINE
  8
LAYER-1
 66
  1
 70
  0
 62
  0
 10
1.827407
 20
7.413441
 30
0.000000
  0
VERTEX
  8
LAYER-1
 10
1.827407
 20
7.413441
 30
0.000000
  0
VERTEX
  8
LAYER-1
 10
1.827407
 20
0.346650
 30
0.000000
  0
SEQEND
  8
LAYER-1
  0
POLYLINE
  8
LAYER-1
 66
  1
 70
  0
 62
  0
 10
2.152040
 20
7.413441
 30
0.000000
  0
VERTEX
  8
LAYER-1
 10
2.152040
 20
7.413441
 30
0.000000
  0
VERTEX
  8
LAYER-1
 10
2.152040
 20
0.346650
 30
0.000000
  0
SEQEND
  8
LAYER-1
  0
POLYLINE
  8
LAYER-1
 66
  1
 70
  0
 62
  0
 10
2.237469
 20
7.413441
 30
0.000000
  0
VERTEX
  8
LAYER-1
 10
2.237469
 20
7.413441
 30
0.000000
  0
VERTEX
  8
LAYER-1
 10
2.237469
 20
0.346650
 30
0.000000
  0
SEQEND
  8
LAYER-1
  0
POLYLINE
  8
LAYER-1
 66
  1
 70
  0
 62
  0
 10
2.177431
 20
7.413441
 30
0.000000
  0
VERTEX
  8
LAYER-1
 10
2.177431
 20
7.413441
 30
0.000000
  0
VERTEX
  8
LAYER-1
 10
2.177431
 20
0.346650
 30
0.000000
  0
SEQEND
  8
LAYER-1
  0
POLYLINE
  8
LAYER-1
 66
  1
 70
  0
 62
  0
 10
2.213027
 20
7.413441
 30
0.000000
  0
VERTEX
  8
LAYER-1
 10
2.213027
 20
7.413441
 30
0.000000
  0
VERTEX
  8
LAYER-1
 10
2.213027
 20
0.346650
 30
0.000000
  0
SEQEND
  8
LAYER-1
  0
POLYLINE
  8
LAYER-1
 66
  1
 70
  1
 62
  0
  0
VERTEX
  8
LAYER-1
 10
2.167049
 20
0.346725
 30
0.000000
  0
VERTEX
  8
LAYER-1
 10
2.221925
 20
0.346725
 30
0.000000
  0
VERTEX
  8
LAYER-1
 10
2.221925
 20
0.340866
 30
0.000000
  0
VERTEX
  8
LAYER-1
 10
2.167049
 20
0.340866
 30
0.000000
  0
SEQEND
  8
LAYER-1
  0
POLYLINE
  8
LAYER-1
 66
  1
 70
  0
 62
  0
 10
2.213027
 20
0.419968
 30
0.000000
  0
VERTEX
  8
LAYER-1
 10
2.213027
 20
0.419968
 30
0.000000
  0
VERTEX
  8
LAYER-1
 10
2.177431
 20
0.419968
 30
0.000000
  0
SEQEND
  8
LAYER-1
  0
POLYLINE
  8
LAYER-1
 66
  1
 70
  0
 62
  0
 10
2.213027
 20
0.548874
 30
0.000000
  0
VERTEX
  8
LAYER-1
 10
2.213027
 20
0.548874
 30
0.000000
  0
VERTEX
  8
LAYER-1
 10
2.177431
 20
0.548874
 30
0.000000
  0
SEQEND
  8
LAYER-1
  0
POLYLINE
  8
LAYER-1
 66
  1
 70
  0
 62
  0
 10
2.177431
 20
0.623858
 30
0.000000
  0
VERTEX
  8
LAYER-1
 10
2.177431
 20
0.623858
 30
0.000000
  0
VERTEX
  8
LAYER-1
 10
2.213027
 20
0.623858
 30
0.000000
  0
SEQEND
  8
LAYER-1
  0
POLYLINE
  8
LAYER-1
 66
  1
 70
  0
 62
  0
 10
2.177431
 20
1.470538
 30
0.000000
  0
VERTEX
  8
LAYER-1
 10
2.177431
 20
1.470538
 30
0.000000
  0
VERTEX
  8
LAYER-1
 10
2.213027
 20
1.470538
 30
0.000000
  0
SEQEND
  8
LAYER-1
  0
POLYLINE
  8
LAYER-1
 66
  1
 70
  0
 62
  0
 10
2.177431
 20
2.308427
 30
0.000000
  0
VERTEX
  8
LAYER-1
 10
2.177431
 20
2.308427
 30
0.000000
  0
VERTEX
  8
LAYER-1
 10
2.213027
 20
2.308427
 30
0.000000
  0
SEQEND
  8
LAYER-1
  0
POLYLINE
  8
LAYER-1
 66
  1
 70
  0
 62
  0
 10
2.177431
 20
3.158029
 30
0.000000
  0
VERTEX
  8
LAYER-1
 10
2.177431
 20
3.158029
 30
0.000000
  0
VERTEX
  8
LAYER-1
 10
2.213027
 20
3.158029
 30
0.000000
  0
SEQEND
  8
LAYER-1
  0
POLYLINE
  8
LAYER-1
 66
  1
 70
  0
 62
  0
 10
2.213027
 20
4.000315
 30
0.000000
  0
VERTEX
  8
LAYER-1
 10
2.213027
 20
4.000315
 30
0.000000
  0
VERTEX
  8
LAYER-1
 10
2.177431
 20
4.000315
 30
0.000000
  0
SEQEND
  8
LAYER-1
  0
POLYLINE
  8
LAYER-1
 66
  1
 70
  0
 62
  0
 10
2.562102
 20
7.413441
 30
0.000000
  0
VERTEX
  8
LAYER-1
 10
2.562102
 20
7.413441
 30
0.000000
  0
VERTEX
  8
LAYER-1
 10
2.562102
 20
0.346650
 30
0.000000
  0
SEQEND
  8
LAYER-1
  0
POLYLINE
  8
LAYER-1
 66
  1
 70
  0
 62
  0
 10
2.647531
 20
7.413441
 30
0.000000
  0
VERTEX
  8
LAYER-1
 10
2.647531
 20
7.413441
 30
0.000000
  0
VERTEX
  8
LAYER-1
 10
2.647531
 20
0.346650
 30
0.000000
  0
SEQEND
  8
LAYER-1
  0
POLYLINE
  8
LAYER-1
 66
  1
 70
  0
 62
  0
 10
2.972161
 20
7.413441
 30
0.000000
  0
VERTEX
  8
LAYER-1
 10
2.972161
 20
7.413441
 30
0.000000
  0
VERTEX
  8
LAYER-1
 10
2.972161
 20
0.346650
 30
0.000000
  0
SEQEND
  8
LAYER-1
  0
POLYLINE
  8
LAYER-1
 66
  1
 70
  0
 62
  0
 10
3.057591
 20
7.413441
 30
0.000000
  0
VERTEX
  8
LAYER-1
 10
3.057591
 20
7.413441
 30
0.000000
  0
VERTEX
  8
LAYER-1
 10
3.057591
 20
0.346650
 30
0.000000
  0
SEQEND
  8
LAYER-1
  0
POLYLINE
  8
LAYER-1
 66
  1
 70
  0
 62
  0
 10
3.382222
 20
7.413441
 30
0.000000
  0
VERTEX
  8
LAYER-1
 10
3.382222
 20
7.413441
 30
0.000000
  0
VERTEX
  8
LAYER-1
 10
3.382222
 20
0.346650
 30
0.000000
  0
SEQEND
  8
LAYER-1
  0
POLYLINE
  8
LAYER-1
 66
  1
 70
  0
 62
  0
 10
3.464803
 20
7.413441
 30
0.000000
  0
VERTEX
  8
LAYER-1
 10
3.464803
 20
7.413441
 30
0.000000
  0
VERTEX
  8
LAYER-1
 10
3.464803
 20
0.346650
 30
0.000000
  0
SEQEND
  8
LAYER-1
  0
POLYLINE
  8
LAYER-1
 66
  1
 70
  0
 62
  0
 10
1.791812
 20
7.413441
 30
0.000000
  0
VERTEX
  8
LAYER-1
 10
1.791812
 20
7.413441
 30
0.000000
  0
VERTEX
  8
LAYER-1
 10
1.791812
 20
0.346650
 30
0.000000
  0
SEQEND
  8
LAYER-1
  0
POLYLINE
  8
LAYER-1
 66
  1
 70
  0
 62
  0
 10
2.604579
 20
7.413441
 30
0.000000
  0
VERTEX
  8
LAYER-1
 10
2.604579
 20
7.413441
 30
0.000000
  0
VERTEX
  8
LAYER-1
 10
2.604579
 20
0.346650
 30
0.000000
  0
SEQEND
  8
LAYER-1
  0
POLYLINE
  8
LAYER-1
 66
  1
 70
  0
 62
  0
 10
2.996130
 20
7.413441
 30
0.000000
  0
VERTEX
  8
LAYER-1
 10
2.996130
 20
7.413441
 30
0.000000
  0
VERTEX
  8
LAYER-1
 10
2.996130
 20
0.346650
 30
0.000000
  0
SEQEND
  8
LAYER-1
  0
POLYLINE
  8
LAYER-1
 66
  1
 70
  0
 62
  0
 10
3.031725
 20
7.413441
 30
0.000000
  0
VERTEX
  8
LAYER-1
 10
3.031725
 20
7.413441
 30
0.000000
  0
VERTEX
  8
LAYER-1
 10
3.031725
 20
0.346650
 30
0.000000
  0
SEQEND
  8
LAYER-1
  0
POLYLINE
  8
LAYER-1
 66
  1
 70
  0
 62
  0
 10
3.423277
 20
7.413441
 30
0.000000
  0
VERTEX
  8
LAYER-1
 10
3.423277
 20
7.413441
 30
0.000000
  0
VERTEX
  8
LAYER-1
 10
3.423277
 20
0.346650
 30
0.000000
  0
SEQEND
  8
LAYER-1
  0
POLYLINE
  8
LAYER-1
 66
  1
 70
  1
 62
  0
  0
VERTEX
  8
LAYER-1
 10
2.984262
 20
0.346725
 30
0.000000
  0
VERTEX
  8
LAYER-1
 10
3.039140
 20
0.346725
 30
0.000000
  0
VERTEX
  8
LAYER-1
 10
3.039140
 20
0.340866
 30
0.000000
  0
VERTEX
  8
LAYER-1
 10
2.984262
 20
0.340866
 30
0.000000
  0
SEQEND
  8
LAYER-1
  0
POLYLINE
  8
LAYER-1
 66
  1
 70
  0
 62
  0
 10
3.031725
 20
0.419968
 30
0.000000
  0
VERTEX
  8
LAYER-1
 10
3.031725
 20
0.419968
 30
0.000000
  0
VERTEX
  8
LAYER-1
 10
2.996130
 20
0.419968
 30
0.000000
  0
SEQEND
  8
LAYER-1
  0
POLYLINE
  8
LAYER-1
 66
  1
 70
  0
 62
  0
 10
3.031725
 20
0.548874
 30
0.000000
  0
VERTEX
  8
LAYER-1
 10
3.031725
 20
0.548874
 30
0.000000
  0
VERTEX
  8
LAYER-1
 10
2.996130
 20
0.548874
 30
0.000000
  0
SEQEND
  8
LAYER-1
  0
POLYLINE
  8
LAYER-1
 66
  1
 70
  0
 62
  0
 10
2.996130
 20
0.623858
 30
0.000000
  0
VERTEX
  8
LAYER-1
 10
2.996130
 20
0.623858
 30
0.000000
  0
VERTEX
  8
LAYER-1
 10
3.031725
 20
0.623858
 30
0.000000
  0
SEQEND
  8
LAYER-1
  0
POLYLINE
  8
LAYER-1
 66
  1
 70
  0
 62
  0
 10
2.996130
 20
1.470538
 30
0.000000
  0
VERTEX
  8
LAYER-1
 10
2.996130
 20
1.470538
 30
0.000000
  0
VERTEX
  8
LAYER-1
 10
3.031725
 20
1.470538
 30
0.000000
  0
SEQEND
  8
LAYER-1
  0
POLYLINE
  8
LAYER-1
 66
  1
 70
  0
 62
  0
 10
2.996130
 20
2.308427
 30
0.000000
  0
VERTEX
  8
LAYER-1
 10
2.996130
 20
2.308427
 30
0.000000
  0
VERTEX
  8
LAYER-1
 10
3.031725
 20
2.308427
 30
0.000000
  0
SEQEND
  8
LAYER-1
  0
POLYLINE
  8
LAYER-1
 66
  1
 70
  0
 62
  0
 10
2.996130
 20
3.158029
 30
0.000000
  0
VERTEX
  8
LAYER-1
 10
2.996130
 20
3.158029
 30
0.000000
  0
VERTEX
  8
LAYER-1
 10
3.031725
 20
3.158029
 30
0.000000
  0
SEQEND
  8
LAYER-1
  0
POLYLINE
  8
LAYER-1
 66
  1
 70
  0
 62
  0
 10
3.031725
 20
4.000315
 30
0.000000
  0
VERTEX
  8
LAYER-1
 10
3.031725
 20
4.000315
 30
0.000000
  0
VERTEX
  8
LAYER-1
 10
2.996130
 20
4.000315
 30
0.000000
  0
SEQEND
  8
LAYER-1
  0
POLYLINE
  8
LAYER-1
 66
  1
 70
  0
 62
  0
 10
2.178083
 20
4.851316
 30
0.000000
  0
VERTEX
  8
LAYER-1
 10
2.178083
 20
4.851316
 30
0.000000
  0
VERTEX
  8
LAYER-1
 10
2.213679
 20
4.851316
 30
0.000000
  0
SEQEND
  8
LAYER-1
  0
POLYLINE
  8
LAYER-1
 66
  1
 70
  0
 62
  0
 10
2.178083
 20
5.695065
 30
0.000000
  0
VERTEX
  8
LAYER-1
 10
2.178083
 20
5.695065
 30
0.000000
  0
VERTEX
  8
LAYER-1
 10
2.213679
 20
5.695065
 30
0.000000
  0
SEQEND
  8
LAYER-1
  0
POLYLINE
  8
LAYER-1
 66
  1
 70
  0
 62
  0
 10
2.178083
 20
6.540284
 30
0.000000
  0
VERTEX
  8
LAYER-1
 10
2.178083
 20
6.540284
 30
0.000000
  0
VERTEX
  8
LAYER-1
 10
2.213679
 20
6.540284
 30
0.000000
  0
SEQEND
  8
LAYER-1
  0
POLYLINE
  8
LAYER-1
 66
  1
 70
  0
 62
  0
 10
2.995953
 20
6.540284
 30
0.000000
  0
VERTEX
  8
LAYER-1
 10
2.995953
 20
6.540284
 30
0.000000
  0
VERTEX
  8
LAYER-1
 10
3.031548
 20
6.540284
 30
0.000000
  0
SEQEND
  8
LAYER-1
  0
POLYLINE
  8
LAYER-1
 66
  1
 70
  0
 62
  0
 10
3.644087
 20
6.540208
 30
0.000000
  0
VERTEX
  8
LAYER-1
 10
3.644087
 20
6.540208
 30
0.000000
  0
VERTEX
  8
LAYER-1
 10
3.679681
 20
6.540208
 30
0.000000
  0
SEQEND
  8
LAYER-1
  0
POLYLINE
  8
LAYER-1
 66
  1
 70
  0
 62
  0
 10
5.350243
 20
6.540284
 30
0.000000
  0
VERTEX
  8
LAYER-1
 10
5.350243
 20
6.540284
 30
0.000000
  0
VERTEX
  8
LAYER-1
 10
5.314648
 20
6.540284
 30
0.000000
  0
SEQEND
  8
LAYER-1
  0
POLYLINE
  8
LAYER-1
 66
  1
 70
  0
 62
  0
 10
4.532368
 20
6.540284
 30
0.000000
  0
VERTEX
  8
LAYER-1
 10
4.532368
 20
6.540284
 30
0.000000
  0
VERTEX
  8
LAYER-1
 10
4.496777
 20
6.540284
 30
0.000000
  0
SEQEND
  8
LAYER-1
  0
POLYLINE
  8
LAYER-1
 66
  1
 70
  0
 62
  0
 10
3.884230
 20
6.540208
 30
0.000000
  0
VERTEX
  8
LAYER-1
 10
3.884230
 20
6.540208
 30
0.000000
  0
VERTEX
  8
LAYER-1
 10
3.848638
 20
6.540208
 30
0.000000
  0
SEQEND
  8
LAYER-1
  0
POLYLINE
  8
LAYER-1
 66
  1
 70
  0
 62
  0
 10
2.995953
 20
4.851316
 30
0.000000
  0
VERTEX
  8
LAYER-1
 10
2.995953
 20
4.851316
 30
0.000000
  0
VERTEX
  8
LAYER-1
 10
3.031548
 20
4.851316
 30
0.000000
  0
SEQEND
  8
LAYER-1
  0
POLYLINE
  8
LAYER-1
 66
  1
 70
  0
 62
  0
 10
2.995953
 20
5.695065
 30
0.000000
  0
VERTEX
  8
LAYER-1
 10
2.995953
 20
5.695065
 30
0.000000
  0
VERTEX
  8
LAYER-1
 10
3.031548
 20
5.695065
 30
0.000000
  0
SEQEND
  8
LAYER-1
  0
POLYLINE
  8
LAYER-1
 66
  1
 70
  1
 62
  0
  0
VERTEX
  8
LAYER-1
 10
3.633881
 20
7.419300
 30
0.000000
  0
VERTEX
  8
LAYER-1
 10
3.688758
 20
7.419300
 30
0.000000
  0
VERTEX
  8
LAYER-1
 10
3.688758
 20
7.413439
 30
0.000000
  0
VERTEX
  8
LAYER-1
 10
3.633881
 20
7.413439
 30
0.000000
  0
SEQEND
  8
LAYER-1
  0
POLYLINE
  8
LAYER-1
 66
  1
 70
  0
 62
  0
 10
3.644264
 20
7.346057
 30
0.000000
  0
VERTEX
  8
LAYER-1
 10
3.644264
 20
7.346057
 30
0.000000
  0
VERTEX
  8
LAYER-1
 10
3.679858
 20
7.346057
 30
0.000000
  0
SEQEND
  8
LAYER-1
  0
POLYLINE
  8
LAYER-1
 66
  1
 70
  0
 62
  0
 10
3.644264
 20
7.217150
 30
0.000000
  0
VERTEX
  8
LAYER-1
 10
3.644264
 20
7.217150
 30
0.000000
  0
VERTEX
  8
LAYER-1
 10
3.679858
 20
7.217150
 30
0.000000
  0
SEQEND
  8
LAYER-1
  0
POLYLINE
  8
LAYER-1
 66
  1
 70
  0
 62
  0
 10
3.644264
 20
7.413365
 30
0.000000
  0
VERTEX
  8
LAYER-1
 10
3.644264
 20
7.413365
 30
0.000000
  0
VERTEX
  8
LAYER-1
 10
3.644264
 20
0.346650
 30
0.000000
  0
SEQEND
  8
LAYER-1
  0
POLYLINE
  8
LAYER-1
 66
  1
 70
  0
 62
  0
 10
3.679858
 20
0.419891
 30
0.000000
  0
VERTEX
  8
LAYER-1
 10
3.679858
 20
0.419891
 30
0.000000
  0
VERTEX
  8
LAYER-1
 10
3.644264
 20
0.419891
 30
0.000000
  0
SEQEND
  8
LAYER-1
  0
POLYLINE
  8
LAYER-1
 66
  1
 70
  0
 62
  0
 10
3.679858
 20
0.548797
 30
0.000000
  0
VERTEX
  8
LAYER-1
 10
3.679858
 20
0.548797
 30
0.000000
  0
VERTEX
  8
LAYER-1
 10
3.644264
 20
0.548797
 30
0.000000
  0
SEQEND
  8
LAYER-1
  0
POLYLINE
  8
LAYER-1
 66
  1
 70
  0
 62
  0
 10
3.644264
 20
0.623779
 30
0.000000
  0
VERTEX
  8
LAYER-1
 10
3.644264
 20
0.623779
 30
0.000000
  0
VERTEX
  8
LAYER-1
 10
3.679860
 20
0.623779
 30
0.000000
  0
SEQEND
  8
LAYER-1
  0
POLYLINE
  8
LAYER-1
 66
  1
 70
  0
 62
  0
 10
3.644264
 20
1.470462
 30
0.000000
  0
VERTEX
  8
LAYER-1
 10
3.644264
 20
1.470462
 30
0.000000
  0
VERTEX
  8
LAYER-1
 10
3.679860
 20
1.470462
 30
0.000000
  0
SEQEND
  8
LAYER-1
  0
POLYLINE
  8
LAYER-1
 66
  1
 70
  0
 62
  0
 10
3.644264
 20
2.308350
 30
0.000000
  0
VERTEX
  8
LAYER-1
 10
3.644264
 20
2.308350
 30
0.000000
  0
VERTEX
  8
LAYER-1
 10
3.679860
 20
2.308350
 30
0.000000
  0
SEQEND
  8
LAYER-1
  0
POLYLINE
  8
LAYER-1
 66
  1
 70
  0
 62
  0
 10
3.644264
 20
3.157954
 30
0.000000
  0
VERTEX
  8
LAYER-1
 10
3.644264
 20
3.157954
 30
0.000000
  0
VERTEX
  8
LAYER-1
 10
3.679860
 20
3.157954
 30
0.000000
  0
SEQEND
  8
LAYER-1
  0
POLYLINE
  8
LAYER-1
 66
  1
 70
  0
 62
  0
 10
3.679860
 20
4.000239
 30
0.000000
  0
VERTEX
  8
LAYER-1
 10
3.679860
 20
4.000239
 30
0.000000
  0
VERTEX
  8
LAYER-1
 10
3.644264
 20
4.000239
 30
0.000000
  0
SEQEND
  8
LAYER-1
  0
POLYLINE
  8
LAYER-1
 66
  1
 70
  0
 62
  0
 10
3.644087
 20
4.851240
 30
0.000000
  0
VERTEX
  8
LAYER-1
 10
3.644087
 20
4.851240
 30
0.000000
  0
VERTEX
  8
LAYER-1
 10
3.679681
 20
4.851240
 30
0.000000
  0
SEQEND
  8
LAYER-1
  0
POLYLINE
  8
LAYER-1
 66
  1
 70
  0
 62
  0
 10
3.644087
 20
5.694989
 30
0.000000
  0
VERTEX
  8
LAYER-1
 10
3.644087
 20
5.694989
 30
0.000000
  0
VERTEX
  8
LAYER-1
 10
3.679681
 20
5.694989
 30
0.000000
  0
SEQEND
  8
LAYER-1
  0
POLYLINE
  8
LAYER-1
 66
  1
 70
  1
 62
  0
  0
VERTEX
  8
LAYER-1
 10
3.632401
 20
0.346650
 30
0.000000
  0
VERTEX
  8
LAYER-1
 10
3.687275
 20
0.346650
 30
0.000000
  0
VERTEX
  8
LAYER-1
 10
3.687275
 20
0.340791
 30
0.000000
  0
VERTEX
  8
LAYER-1
 10
3.632401
 20
0.340791
 30
0.000000
  0
SEQEND
  8
LAYER-1
  0
POLYLINE
  8
LAYER-1
 66
  1
 70
  1
 62
  0
  0
VERTEX
  8
LAYER-1
 10
3.678791
 20
7.413441
 30
0.000000
  0
VERTEX
  8
LAYER-1
 10
3.848465
 20
7.413441
 30
0.000000
  0
VERTEX
  8
LAYER-1
 10
3.848465
 20
0.346458
 30
0.000000
  0
VERTEX
  8
LAYER-1
 10
3.678791
 20
0.346458
 30
0.000000
  0
SEQEND
  8
LAYER-1
  0
POLYLINE
  8
LAYER-1
 66
  1
 70
  1
 62
  0
  0
VERTEX
  8
LAYER-1
 10
5.376286
 20
7.413440
 30
0.000000
  0
VERTEX
  8
LAYER-1
 10
5.700918
 20
7.413440
 30
0.000000
  0
VERTEX
  8
LAYER-1
 10
5.700918
 20
7.143441
 30
0.000000
  0
VERTEX
  8
LAYER-1
 10
5.376286
 20
7.143441
 30
0.000000
  0
SEQEND
  8
LAYER-1
  0
POLYLINE
  8
LAYER-1
 66
  1
 70
  1
 62
  0
  0
VERTEX
  8
LAYER-1
 10
4.556162
 20
7.413440
 30
0.000000
  0
VERTEX
  8
LAYER-1
 10
4.880793
 20
7.413440
 30
0.000000
  0
VERTEX
  8
LAYER-1
 10
4.880793
 20
7.143441
 30
0.000000
  0
VERTEX
  8
LAYER-1
 10
4.556162
 20
7.143441
 30
0.000000
  0
SEQEND
  8
LAYER-1
  0
POLYLINE
  8
LAYER-1
 66
  1
 70
  0
 62
  0
 10
4.733902
 20
7.413515
 30
0.000000
  0
VERTEX
  8
LAYER-1
 10
4.733902
 20
7.413515
 30
0.000000
  0
VERTEX
  8
LAYER-1
 10
4.733902
 20
7.143984
 30
0.000000
  0
SEQEND
  8
LAYER-1
  0
POLYLINE
  8
LAYER-1
 66
  1
 70
  0
 62
  0
 10
4.696826
 20
7.413515
 30
0.000000
  0
VERTEX
  8
LAYER-1
 10
4.696826
 20
7.413515
 30
0.000000
  0
VERTEX
  8
LAYER-1
 10
4.696826
 20
7.143984
 30
0.000000
  0
SEQEND
  8
LAYER-1
  0
POLYLINE
  8
LAYER-1
 66
  1
 70
  0
 62
  0
 10
5.555570
 20
7.413515
 30
0.000000
  0
VERTEX
  8
LAYER-1
 10
5.555570
 20
7.413515
 30
0.000000
  0
VERTEX
  8
LAYER-1
 10
5.555570
 20
7.143984
 30
0.000000
  0
SEQEND
  8
LAYER-1
  0
POLYLINE
  8
LAYER-1
 66
  1
 70
  0
 62
  0
 10
5.517009
 20
7.413515
 30
0.000000
  0
VERTEX
  8
LAYER-1
 10
5.517009
 20
7.413515
 30
0.000000
  0
VERTEX
  8
LAYER-1
 10
5.517009
 20
7.143984
 30
0.000000
  0
SEQEND
  8
LAYER-1
  0
POLYLINE
  8
LAYER-1
 66
  1
 70
  1
 62
  0
  0
VERTEX
  8
LAYER-1
 10
5.304916
 20
7.419376
 30
0.000000
  0
VERTEX
  8
LAYER-1
 10
5.359791
 20
7.419376
 30
0.000000
  0
VERTEX
  8
LAYER-1
 10
5.359791
 20
7.413515
 30
0.000000
  0
VERTEX
  8
LAYER-1
 10
5.304916
 20
7.413515
 30
0.000000
  0
SEQEND
  8
LAYER-1
  0
POLYLINE
  8
LAYER-1
 66
  1
 70
  0
 62
  0
 10
5.350897
 20
7.346133
 30
0.000000
  0
VERTEX
  8
LAYER-1
 10
5.350897
 20
7.346133
 30
0.000000
  0
VERTEX
  8
LAYER-1
 10
5.315299
 20
7.346133
 30
0.000000
  0
SEQEND
  8
LAYER-1
  0
POLYLINE
  8
LAYER-1
 66
  1
 70
  0
 62
  0
 10
5.350897
 20
7.217228
 30
0.000000
  0
VERTEX
  8
LAYER-1
 10
5.350897
 20
7.217228
 30
0.000000
  0
VERTEX
  8
LAYER-1
 10
5.315299
 20
7.217228
 30
0.000000
  0
SEQEND
  8
LAYER-1
  0
POLYLINE
  8
LAYER-1
 66
  1
 70
  1
 62
  0
  0
VERTEX
  8
LAYER-1
 10
4.487698
 20
7.419376
 30
0.000000
  0
VERTEX
  8
LAYER-1
 10
4.542577
 20
7.419376
 30
0.000000
  0
VERTEX
  8
LAYER-1
 10
4.542577
 20
7.413515
 30
0.000000
  0
VERTEX
  8
LAYER-1
 10
4.487698
 20
7.413515
 30
0.000000
  0
SEQEND
  8
LAYER-1
  0
POLYLINE
  8
LAYER-1
 66
  1
 70
  0
 62
  0
 10
4.532191
 20
7.346133
 30
0.000000
  0
VERTEX
  8
LAYER-1
 10
4.532191
 20
7.346133
 30
0.000000
  0
VERTEX
  8
LAYER-1
 10
4.496600
 20
7.346133
 30
0.000000
  0
SEQEND
  8
LAYER-1
  0
POLYLINE
  8
LAYER-1
 66
  1
 70
  0
 62
  0
 10
4.532191
 20
7.217226
 30
0.000000
  0
VERTEX
  8
LAYER-1
 10
4.532191
 20
7.217226
 30
0.000000
  0
VERTEX
  8
LAYER-1
 10
4.496600
 20
7.217226
 30
0.000000
  0
SEQEND
  8
LAYER-1
  0
POLYLINE
  8
LAYER-1
 66
  1
 70
  0
 62
  0
 10
5.700918
 20
7.413440
 30
0.000000
  0
VERTEX
  8
LAYER-1
 10
5.700918
 20
7.413440
 30
0.000000
  0
VERTEX
  8
LAYER-1
 10
5.700918
 20
0.346650
 30
0.000000
  0
SEQEND
  8
LAYER-1
  0
POLYLINE
  8
LAYER-1
 66
  1
 70
  0
 62
  0
 10
5.376286
 20
7.413440
 30
0.000000
  0
VERTEX
  8
LAYER-1
 10
5.376286
 20
7.413440
 30
0.000000
  0
VERTEX
  8
LAYER-1
 10
5.376286
 20
0.346650
 30
0.000000
  0
SEQEND
  8
LAYER-1
  0
POLYLINE
  8
LAYER-1
 66
  1
 70
  0
 62
  0
 10
5.290855
 20
7.413440
 30
0.000000
  0
VERTEX
  8
LAYER-1
 10
5.290855
 20
7.413440
 30
0.000000
  0
VERTEX
  8
LAYER-1
 10
5.290855
 20
0.346650
 30
0.000000
  0
SEQEND
  8
LAYER-1
  0
POLYLINE
  8
LAYER-1
 66
  1
 70
  0
 62
  0
 10
5.350897
 20
7.413440
 30
0.000000
  0
VERTEX
  8
LAYER-1
 10
5.350897
 20
7.413440
 30
0.000000
  0
VERTEX
  8
LAYER-1
 10
5.350897
 20
0.346650
 30
0.000000
  0
SEQEND
  8
LAYER-1
  0
POLYLINE
  8
LAYER-1
 66
  1
 70
  0
 62
  0
 10
5.315299
 20
7.413440
 30
0.000000
  0
VERTEX
  8
LAYER-1
 10
5.315299
 20
7.413440
 30
0.000000
  0
VERTEX
  8
LAYER-1
 10
5.315299
 20
0.346650
 30
0.000000
  0
SEQEND
  8
LAYER-1
  0
POLYLINE
  8
LAYER-1
 66
  1
 70
  1
 62
  0
  0
VERTEX
  8
LAYER-1
 10
5.306401
 20
0.346725
 30
0.000000
  0
VERTEX
  8
LAYER-1
 10
5.361276
 20
0.346725
 30
0.000000
  0
VERTEX
  8
LAYER-1
 10
5.361276
 20
0.340866
 30
0.000000
  0
VERTEX
  8
LAYER-1
 10
5.306401
 20
0.340866
 30
0.000000
  0
SEQEND
  8
LAYER-1
  0
POLYLINE
  8
LAYER-1
 66
  1
 70
  0
 62
  0
 10
5.315299
 20
0.419968
 30
0.000000
  0
VERTEX
  8
LAYER-1
 10
5.315299
 20
0.419968
 30
0.000000
  0
VERTEX
  8
LAYER-1
 10
5.350897
 20
0.419968
 30
0.000000
  0
SEQEND
  8
LAYER-1
  0
POLYLINE
  8
LAYER-1
 66
  1
 70
  0
 62
  0
 10
5.315299
 20
0.548874
 30
0.000000
  0
VERTEX
  8
LAYER-1
 10
5.315299
 20
0.548874
 30
0.000000
  0
VERTEX
  8
LAYER-1
 10
5.350897
 20
0.548874
 30
0.000000
  0
SEQEND
  8
LAYER-1
  0
POLYLINE
  8
LAYER-1
 66
  1
 70
  0
 62
  0
 10
5.350897
 20
0.623858
 30
0.000000
  0
VERTEX
  8
LAYER-1
 10
5.350897
 20
0.623858
 30
0.000000
  0
VERTEX
  8
LAYER-1
 10
5.315299
 20
0.623858
 30
0.000000
  0
SEQEND
  8
LAYER-1
  0
POLYLINE
  8
LAYER-1
 66
  1
 70
  0
 62
  0
 10
5.350897
 20
1.470538
 30
0.000000
  0
VERTEX
  8
LAYER-1
 10
5.350897
 20
1.470538
 30
0.000000
  0
VERTEX
  8
LAYER-1
 10
5.315299
 20
1.470538
 30
0.000000
  0
SEQEND
  8
LAYER-1
  0
POLYLINE
  8
LAYER-1
 66
  1
 70
  0
 62
  0
 10
5.350897
 20
2.308427
 30
0.000000
  0
VERTEX
  8
LAYER-1
 10
5.350897
 20
2.308427
 30
0.000000
  0
VERTEX
  8
LAYER-1
 10
5.315299
 20
2.308427
 30
0.000000
  0
SEQEND
  8
LAYER-1
  0
POLYLINE
  8
LAYER-1
 66
  1
 70
  0
 62
  0
 10
5.350897
 20
3.158029
 30
0.000000
  0
VERTEX
  8
LAYER-1
 10
5.350897
 20
3.158029
 30
0.000000
  0
VERTEX
  8
LAYER-1
 10
5.315299
 20
3.158029
 30
0.000000
  0
SEQEND
  8
LAYER-1
  0
POLYLINE
  8
LAYER-1
 66
  1
 70
  0
 62
  0
 10
5.315299
 20
4.000315
 30
0.000000
  0
VERTEX
  8
LAYER-1
 10
5.315299
 20
4.000315
 30
0.000000
  0
VERTEX
  8
LAYER-1
 10
5.350897
 20
4.000315
 30
0.000000
  0
SEQEND
  8
LAYER-1
  0
POLYLINE
  8
LAYER-1
 66
  1
 70
  0
 62
  0
 10
4.966223
 20
7.413440
 30
0.000000
  0
VERTEX
  8
LAYER-1
 10
4.966223
 20
7.413440
 30
0.000000
  0
VERTEX
  8
LAYER-1
 10
4.966223
 20
0.346650
 30
0.000000
  0
SEQEND
  8
LAYER-1
  0
POLYLINE
  8
LAYER-1
 66
  1
 70
  0
 62
  0
 10
4.880793
 20
7.413440
 30
0.000000
  0
VERTEX
  8
LAYER-1
 10
4.880793
 20
7.413440
 30
0.000000
  0
VERTEX
  8
LAYER-1
 10
4.880793
 20
0.346650
 30
0.000000
  0
SEQEND
  8
LAYER-1
  0
POLYLINE
  8
LAYER-1
 66
  1
 70
  0
 62
  0
 10
4.556162
 20
7.413440
 30
0.000000
  0
VERTEX
  8
LAYER-1
 10
4.556162
 20
7.413440
 30
0.000000
  0
VERTEX
  8
LAYER-1
 10
4.556162
 20
0.346650
 30
0.000000
  0
SEQEND
  8
LAYER-1
  0
POLYLINE
  8
LAYER-1
 66
  1
 70
  0
 62
  0
 10
4.470730
 20
7.413440
 30
0.000000
  0
VERTEX
  8
LAYER-1
 10
4.470730
 20
7.413440
 30
0.000000
  0
VERTEX
  8
LAYER-1
 10
4.470730
 20
0.346650
 30
0.000000
  0
SEQEND
  8
LAYER-1
  0
POLYLINE
  8
LAYER-1
 66
  1
 70
  0
 62
  0
 10
4.146100
 20
7.413440
 30
0.000000
  0
VERTEX
  8
LAYER-1
 10
4.146100
 20
7.413440
 30
0.000000
  0
VERTEX
  8
LAYER-1
 10
4.146100
 20
0.346650
 30
0.000000
  0
SEQEND
  8
LAYER-1
  0
POLYLINE
  8
LAYER-1
 66
  1
 70
  0
 62
  0
 10
4.063516
 20
7.413440
 30
0.000000
  0
VERTEX
  8
LAYER-1
 10
4.063516
 20
7.413440
 30
0.000000
  0
VERTEX
  8
LAYER-1
 10
4.063516
 20
0.346650
 30
0.000000
  0
SEQEND
  8
LAYER-1
  0
POLYLINE
  8
LAYER-1
 66
  1
 70
  0
 62
  0
 10
5.736515
 20
7.413440
 30
0.000000
  0
VERTEX
  8
LAYER-1
 10
5.736515
 20
7.413440
 30
0.000000
  0
VERTEX
  8
LAYER-1
 10
5.736515
 20
0.346650
 30
0.000000
  0
SEQEND
  8
LAYER-1
  0
POLYLINE
  8
LAYER-1
 66
  1
 70
  0
 62
  0
 10
4.923748
 20
7.413440
 30
0.000000
  0
VERTEX
  8
LAYER-1
 10
4.923748
 20
7.413440
 30
0.000000
  0
VERTEX
  8
LAYER-1
 10
4.923748
 20
0.346650
 30
0.000000
  0
SEQEND
  8
LAYER-1
  0
POLYLINE
  8
LAYER-1
 66
  1
 70
  0
 62
  0
 10
4.532191
 20
7.413440
 30
0.000000
  0
VERTEX
  8
LAYER-1
 10
4.532191
 20
7.413440
 30
0.000000
  0
VERTEX
  8
LAYER-1
 10
4.532191
 20
0.346650
 30
0.000000
  0
SEQEND
  8
LAYER-1
  0
POLYLINE
  8
LAYER-1
 66
  1
 70
  0
 62
  0
 10
4.496600
 20
7.413440
 30
0.000000
  0
VERTEX
  8
LAYER-1
 10
4.496600
 20
7.413440
 30
0.000000
  0
VERTEX
  8
LAYER-1
 10
4.496600
 20
0.346650
 30
0.000000
  0
SEQEND
  8
LAYER-1
  0
POLYLINE
  8
LAYER-1
 66
  1
 70
  0
 62
  0
 10
4.105042
 20
7.413440
 30
0.000000
  0
VERTEX
  8
LAYER-1
 10
4.105042
 20
7.413440
 30
0.000000
  0
VERTEX
  8
LAYER-1
 10
4.105042
 20
0.346650
 30
0.000000
  0
SEQEND
  8
LAYER-1
  0
POLYLINE
  8
LAYER-1
 66
  1
 70
  1
 62
  0
  0
VERTEX
  8
LAYER-1
 10
4.489183
 20
0.346725
 30
0.000000
  0
VERTEX
  8
LAYER-1
 10
4.544061
 20
0.346725
 30
0.000000
  0
VERTEX
  8
LAYER-1
 10
4.544061
 20
0.340866
 30
0.000000
  0
VERTEX
  8
LAYER-1
 10
4.489183
 20
0.340866
 30
0.000000
  0
SEQEND
  8
LAYER-1
  0
POLYLINE
  8
LAYER-1
 66
  1
 70
  0
 62
  0
 10
4.496600
 20
0.419968
 30
0.000000
  0
VERTEX
  8
LAYER-1
 10
4.496600
 20
0.419968
 30
0.000000
  0
VERTEX
  8
LAYER-1
 10
4.532191
 20
0.419968
 30
0.000000
  0
SEQEND
  8
LAYER-1
  0
POLYLINE
  8
LAYER-1
 66
  1
 70
  0
 62
  0
 10
4.496600
 20
0.548874
 30
0.000000
  0
VERTEX
  8
LAYER-1
 10
4.496600
 20
0.548874
 30
0.000000
  0
VERTEX
  8
LAYER-1
 10
4.532191
 20
0.548874
 30
0.000000
  0
SEQEND
  8
LAYER-1
  0
POLYLINE
  8
LAYER-1
 66
  1
 70
  0
 62
  0
 10
4.532191
 20
0.623858
 30
0.000000
  0
VERTEX
  8
LAYER-1
 10
4.532191
 20
0.623858
 30
0.000000
  0
VERTEX
  8
LAYER-1
 10
4.496600
 20
0.623858
 30
0.000000
  0
SEQEND
  8
LAYER-1
  0
POLYLINE
  8
LAYER-1
 66
  1
 70
  0
 62
  0
 10
4.532191
 20
1.470538
 30
0.000000
  0
VERTEX
  8
LAYER-1
 10
4.532191
 20
1.470538
 30
0.000000
  0
VERTEX
  8
LAYER-1
 10
4.496600
 20
1.470538
 30
0.000000
  0
SEQEND
  8
LAYER-1
  0
POLYLINE
  8
LAYER-1
 66
  1
 70
  0
 62
  0
 10
4.532191
 20
2.308427
 30
0.000000
  0
VERTEX
  8
LAYER-1
 10
4.532191
 20
2.308427
 30
0.000000
  0
VERTEX
  8
LAYER-1
 10
4.496600
 20
2.308427
 30
0.000000
  0
SEQEND
  8
LAYER-1
  0
POLYLINE
  8
LAYER-1
 66
  1
 70
  0
 62
  0
 10
4.532191
 20
3.158029
 30
0.000000
  0
VERTEX
  8
LAYER-1
 10
4.532191
 20
3.158029
 30
0.000000
  0
VERTEX
  8
LAYER-1
 10
4.496600
 20
3.158029
 30
0.000000
  0
SEQEND
  8
LAYER-1
  0
POLYLINE
  8
LAYER-1
 66
  1
 70
  0
 62
  0
 10
4.496600
 20
4.000315
 30
0.000000
  0
VERTEX
  8
LAYER-1
 10
4.496600
 20
4.000315
 30
0.000000
  0
VERTEX
  8
LAYER-1
 10
4.532191
 20
4.000315
 30
0.000000
  0
SEQEND
  8
LAYER-1
  0
POLYLINE
  8
LAYER-1
 66
  1
 70
  0
 62
  0
 10
5.350243
 20
4.851316
 30
0.000000
  0
VERTEX
  8
LAYER-1
 10
5.350243
 20
4.851316
 30
0.000000
  0
VERTEX
  8
LAYER-1
 10
5.314648
 20
4.851316
 30
0.000000
  0
SEQEND
  8
LAYER-1
  0
POLYLINE
  8
LAYER-1
 66
  1
 70
  0
 62
  0
 10
5.350243
 20
5.695065
 30
0.000000
  0
VERTEX
  8
LAYER-1
 10
5.350243
 20
5.695065
 30
0.000000
  0
VERTEX
  8
LAYER-1
 10
5.314648
 20
5.695065
 30
0.000000
  0
SEQEND
  8
LAYER-1
  0
POLYLINE
  8
LAYER-1
 66
  1
 70
  0
 62
  0
 10
4.532368
 20
4.851316
 30
0.000000
  0
VERTEX
  8
LAYER-1
 10
4.532368
 20
4.851316
 30
0.000000
  0
VERTEX
  8
LAYER-1
 10
4.496777
 20
4.851316
 30
0.000000
  0
SEQEND
  8
LAYER-1
  0
POLYLINE
  8
LAYER-1
 66
  1
 70
  0
 62
  0
 10
4.532368
 20
5.695065
 30
0.000000
  0
VERTEX
  8
LAYER-1
 10
4.532368
 20
5.695065
 30
0.000000
  0
VERTEX
  8
LAYER-1
 10
4.496777
 20
5.695065
 30
0.000000
  0
SEQEND
  8
LAYER-1
  0
POLYLINE
  8
LAYER-1
 66
  1
 70
  1
 62
  0
  0
VERTEX
  8
LAYER-1
 10
3.839560
 20
7.419300
 30
0.000000
  0
VERTEX
  8
LAYER-1
 10
3.894437
 20
7.419300
 30
0.000000
  0
VERTEX
  8
LAYER-1
 10
3.894437
 20
7.413439
 30
0.000000
  0
VERTEX
  8
LAYER-1
 10
3.839560
 20
7.413439
 30
0.000000
  0
SEQEND
  8
LAYER-1
  0
POLYLINE
  8
LAYER-1
 66
  1
 70
  0
 62
  0
 10
3.884052
 20
7.346056
 30
0.000000
  0
VERTEX
  8
LAYER-1
 10
3.884052
 20
7.346056
 30
0.000000
  0
VERTEX
  8
LAYER-1
 10
3.848461
 20
7.346056
 30
0.000000
  0
SEQEND
  8
LAYER-1
  0
POLYLINE
  8
LAYER-1
 66
  1
 70
  0
 62
  0
 10
3.884052
 20
7.217150
 30
0.000000
  0
VERTEX
  8
LAYER-1
 10
3.884052
 20
7.217150
 30
0.000000
  0
VERTEX
  8
LAYER-1
 10
3.848461
 20
7.217150
 30
0.000000
  0
SEQEND
  8
LAYER-1
  0
POLYLINE
  8
LAYER-1
 66
  1
 70
  0
 62
  0
 10
3.884052
 20
7.413364
 30
0.000000
  0
VERTEX
  8
LAYER-1
 10
3.884052
 20
7.413364
 30
0.000000
  0
VERTEX
  8
LAYER-1
 10
3.884052
 20
0.346650
 30
0.000000
  0
SEQEND
  8
LAYER-1
  0
POLYLINE
  8
LAYER-1
 66
  1
 70
  0
 62
  0
 10
3.848461
 20
0.419891
 30
0.000000
  0
VERTEX
  8
LAYER-1
 10
3.848461
 20
0.419891
 30
0.000000
  0
VERTEX
  8
LAYER-1
 10
3.884052
 20
0.419891
 30
0.000000
  0
SEQEND
  8
LAYER-1
  0
POLYLINE
  8
LAYER-1
 66
  1
 70
  0
 62
  0
 10
3.848461
 20
0.548797
 30
0.000000
  0
VERTEX
  8
LAYER-1
 10
3.848461
 20
0.548797
 30
0.000000
  0
VERTEX
  8
LAYER-1
 10
3.884052
 20
0.548797
 30
0.000000
  0
SEQEND
  8
LAYER-1
  0
POLYLINE
  8
LAYER-1
 66
  1
 70
  0
 62
  0
 10
3.884052
 20
0.623779
 30
0.000000
  0
VERTEX
  8
LAYER-1
 10
3.884052
 20
0.623779
 30
0.000000
  0
VERTEX
  8
LAYER-1
 10
3.848458
 20
0.623779
 30
0.000000
  0
SEQEND
  8
LAYER-1
  0
POLYLINE
  8
LAYER-1
 66
  1
 70
  0
 62
  0
 10
3.884052
 20
1.470462
 30
0.000000
  0
VERTEX
  8
LAYER-1
 10
3.884052
 20
1.470462
 30
0.000000
  0
VERTEX
  8
LAYER-1
 10
3.848458
 20
1.470462
 30
0.000000
  0
SEQEND
  8
LAYER-1
  0
POLYLINE
  8
LAYER-1
 66
  1
 70
  0
 62
  0
 10
3.884052
 20
2.308350
 30
0.000000
  0
VERTEX
  8
LAYER-1
 10
3.884052
 20
2.308350
 30
0.000000
  0
VERTEX
  8
LAYER-1
 10
3.848458
 20
2.308350
 30
0.000000
  0
SEQEND
  8
LAYER-1
  0
POLYLINE
  8
LAYER-1
 66
  1
 70
  0
 62
  0
 10
3.884052
 20
3.157954
 30
0.000000
  0
VERTEX
  8
LAYER-1
 10
3.884052
 20
3.157954
 30
0.000000
  0
VERTEX
  8
LAYER-1
 10
3.848458
 20
3.157954
 30
0.000000
  0
SEQEND
  8
LAYER-1
  0
POLYLINE
  8
LAYER-1
 66
  1
 70
  0
 62
  0
 10
3.848458
 20
4.000239
 30
0.000000
  0
VERTEX
  8
LAYER-1
 10
3.848458
 20
4.000239
 30
0.000000
  0
VERTEX
  8
LAYER-1
 10
3.884052
 20
4.000239
 30
0.000000
  0
SEQEND
  8
LAYER-1
  0
POLYLINE
  8
LAYER-1
 66
  1
 70
  0
 62
  0
 10
3.884230
 20
4.851240
 30
0.000000
  0
VERTEX
  8
LAYER-1
 10
3.884230
 20
4.851240
 30
0.000000
  0
VERTEX
  8
LAYER-1
 10
3.848638
 20
4.851240
 30
0.000000
  0
SEQEND
  8
LAYER-1
  0
POLYLINE
  8
LAYER-1
 66
  1
 70
  0
 62
  0
 10
3.884230
 20
5.694989
 30
0.000000
  0
VERTEX
  8
LAYER-1
 10
3.884230
 20
5.694989
 30
0.000000
  0
VERTEX
  8
LAYER-1
 10
3.848638
 20
5.694989
 30
0.000000
  0
SEQEND
  8
LAYER-1
  0
POLYLINE
  8
LAYER-1
 66
  1
 70
  1
 62
  0
  0
VERTEX
  8
LAYER-1
 10
3.841044
 20
0.346650
 30
0.000000
  0
VERTEX
  8
LAYER-1
 10
3.895916
 20
0.346650
 30
0.000000
  0
VERTEX
  8
LAYER-1
 10
3.895916
 20
0.340791
 30
0.000000
  0
VERTEX
  8
LAYER-1
 10
3.841044
 20
0.340791
 30
0.000000
  0
SEQEND
  8
LAYER-1
  0
TEXT
  8
LAYER-1
 62
  7
 10
2.000525
 20
8.770184
 30
0.000000
 40
0.187500
  1
Elevazione modello Global
 72
  5
 11
5.236636
 21
8.770184
 31
0.000000
  0
LINE
  8
LAYER-1
 62
  0
 10
6.764414
 20
7.479073
 30
0.000000
 11
0.764414
 21
7.479073
 31
0.000000
  0
LINE
  8
LAYER-1
 62
  0
 10
6.764414
 20
7.589072
 30
0.000000
 11
0.764414
 21
7.589072
 31
0.000000
  0
LINE
  8
LAYER-1
 62
  0
 10
1.327783
 20
7.480579
 30
0.000000
 11
1.327783
 21
7.590558
 31
0.000000
  0
LINE
  8
LAYER-1
 62
  0
 10
1.268415
 20
7.480579
 30
0.000000
 11
1.452783
 21
7.480579
 31
0.000000
  0
LINE
  8
LAYER-1
 62
  0
 10
1.268755
 20
7.590558
 30
0.000000
 11
1.452783
 21
7.590558
 31
0.000000
  0
LINE
  8
LAYER-1
 62
  0
 10
1.327783
 20
7.590558
 30
0.000000
 11
1.327783
 21
7.225043
 31
0.000000
  0
LINE
  8
LAYER-1
 62
  0
 10
1.298320
 20
7.510042
 30
0.000000
 11
1.357246
 21
7.451116
 31
0.000000
  0
LINE
  8
LAYER-1
 62
  0
 10
1.298320
 20
7.620021
 30
0.000000
 11
1.357246
 21
7.561094
 31
0.000000
  0
TEXT
  8
LAYER-1
 62
  0
 10
1.315923
 20
7.096627
 30
0.000000
 40
0.125000
  1
 
  0
TEXT
  8
LAYER-1
 62
  0
 10
1.069969
 20
6.853517
 30
0.000000
 40
0.125000
  1
1-
 72
  5
 11
1.292191
 21
6.853517
 31
0.000000
  0
TEXT
  8
LAYER-1
 62
  0
 10
1.292191
 20
6.853517
 30
0.000000
 40
0.104167
  1
9/16
 72
  5
 11
1.653303
 21
6.853517
 31
0.000000
  0
TEXT
  8
LAYER-1
 62
  0
 10
1.653303
 20
6.853517
 30
0.000000
 40
0.125000
  1
"
 72
  5
 11
1.778303
 21
6.853517
 31
0.000000
  0
TEXT
  8
LAYER-1
 62
  0
 10
1.069969
 20
6.659073
 30
0.000000
 40
0.125000
  1
40mm
 72
  5
 11
1.639414
 21
6.659073
 31
0.000000
  0
TEXT
  8
LAYER-1
 62
  0
 10
2.472747
 20
7.909073
 30
0.000000
 40
0.125000
  1
Montante
 72
  5
 11
3.236636
 21
7.909073
 31
0.000000
  0
TEXT
  8
LAYER-1
 62
  0
 10
2.472747
 20
7.714628
 30
0.000000
 40
0.125000
  1
intermedio #4
 72
  5
 11
3.597747
 21
7.714628
 31
0.000000
  0
POLYLINE
  8
LAYER-1
 66
  1
 70
  0
 62
  0
 10
3.515282
 20
7.745877
 30
0.000000
  0
VERTEX
  8
LAYER-1
 10
3.515282
 20
7.745877
 30
0.000000
  0
VERTEX
  8
LAYER-1
 10
3.756357
 20
7.430782
 30
0.000000
  0
SEQEND
  8
LAYER-1
  0
POLYLINE
  8
LAYER-1
 66
  1
 70
  1
 62
  0
  0
VERTEX
  8
LAYER-1
 10
3.768319
 20
7.415148
 30
0.000000
  0
VERTEX
  8
LAYER-1
 10
3.693029
 20
7.444983
 30
0.000000
  0
VERTEX
  8
LAYER-1
 10
3.726121
 20
7.470301
 30
0.000000
  0
VERTEX
  8
LAYER-1
 10
3.759213
 20
7.495620
 30
0.000000
  0
VERTEX
  8
LAYER-1
 10
3.768319
 20
7.415148
 30
0.000000
  0
SEQEND
  8
LAYER-1
  0
POLYLINE
  8
LAYER-1
 66
  1
 70
  0
 62
  0
 40
0.027778
 41
0.027778
 10
3.680799
 20
0.240680
 30
0.000000
  0
VERTEX
  8
LAYER-1
 10
3.680799
 20
0.240680
 30
0.000000
  0
VERTEX
  8
LAYER-1
 10
0.764414
 20
0.240680
 30
0.000000
  0
SEQEND
  8
LAYER-1
  0
POLYLINE
  8
LAYER-1
 66
  1
 70
  0
 62
  0
 40
0.027778
 41
0.027778
 10
3.774417
 20
0.240680
 30
0.000000
  0
VERTEX
  8
LAYER-1
 10
3.774417
 20
0.240680
 30
0.000000
  0
VERTEX
  8
LAYER-1
 10
6.771358
 20
0.240680
 30
0.000000
  0
SEQEND
  8
LAYER-1
  0
POLYLINE
  8
LAYER-1
 66
  1
 70
  1
 62
  0
  0
VERTEX
  8
LAYER-1
 10
3.711181
 20
0.346458
 30
0.000000
  0
VERTEX
  8
LAYER-1
 10
3.744738
 20
0.346458
 30
0.000000
  0
VERTEX
  8
LAYER-1
 10
3.744738
 20
0.250953
 30
0.000000
  0
VERTEX
  8
LAYER-1
 10
3.711181
 20
0.250953
 30
0.000000
  0
SEQEND
  8
LAYER-1
  0
POLYLINE
  8
LAYER-1
 66
  1
 70
  0
 62
  0
 10
3.731222
 20
2.457414
 30
0.000000
  0
VERTEX
  8
LAYER-1
 10
3.731222
 20
2.457414
 30
0.000000
  0
VERTEX
  8
LAYER-1
 10
3.731222
 20
2.457414
 30
0.000000
  0
SEQEND
  8
LAYER-1
  0
POLYLINE
  8
LAYER-1
 66
  1
 70
  0
 62
  0
 10
3.739187
 20
2.449449
 30
0.000000
  0
VERTEX
  8
LAYER-1
 10
3.739187
 20
2.449449
 30
0.000000
  0
VERTEX
  8
LAYER-1
 10
3.739187
 20
2.199906
 30
0.000000
  0
SEQEND
  8
LAYER-1
  0
POLYLINE
  8
LAYER-1
 66
  1
 70
  0
 62
  0
 10
3.731222
 20
2.191942
 30
0.000000
  0
VERTEX
  8
LAYER-1
 10
3.731222
 20
2.191942
 30
0.000000
  0
VERTEX
  8
LAYER-1
 10
3.731222
 20
2.191942
 30
0.000000
  0
SEQEND
  8
LAYER-1
  0
POLYLINE
  8
LAYER-1
 66
  1
 70
  0
 62
  0
 10
3.723257
 20
2.199906
 30
0.000000
  0
VERTEX
  8
LAYER-1
 10
3.723257
 20
2.199906
 30
0.000000
  0
VERTEX
  8
LAYER-1
 10
3.723257
 20
2.449449
 30
0.000000
  0
SEQEND
  8
LAYER-1
  0
ARC
  8
LAYER-1
 62
  0
 10
3.731222
 20
2.449449
 30
0.000000
 40
0.007964
 50
270.000000
 51
0.000000
  0
ARC
  8
LAYER-1
 62
  0
 10
3.731222
 20
2.199906
 30
0.000000
 40
0.007964
 50
0.000000
 51
90.000000
  0
ARC
  8
LAYER-1
 62
  0
 10
3.731222
 20
2.199906
 30
0.000000
 40
0.007964
 50
90.000000
 51
180.000000
  0
ARC
  8
LAYER-1
 62
  0
 10
3.731222
 20
2.449449
 30
0.000000
 40
0.007964
 50
180.000000
 51
270.000000
  0
CIRCLE
  8
LAYER-1
 62
  0
 10
3.731555
 20
2.194594
 30
0.000000
 40
0.022565
  0
CIRCLE
  8
LAYER-1
 62
  0
 10
3.731555
 20
2.194594
 30
0.000000
 40
0.016522
  0
CIRCLE
  8
LAYER-1
 62
  0
 10
3.731555
 20
2.194594
 30
0.000000
 40
0.013746
  0
CIRCLE
  8
LAYER-1
 62
  0
 10
3.731555
 20
2.194594
 30
0.000000
 40
0.008860
  0
POLYLINE
  8
LAYER-1
 66
  1
 70
  0
 62
  0
 10
3.681277
 20
0.243292
 30
0.000000
  0
VERTEX
  8
LAYER-1
 10
3.681277
 20
0.243292
 30
0.000000
  0
VERTEX
  8
LAYER-1
 10
3.694055
 20
0.250857
 30
0.000000
  0
SEQEND
  8
LAYER-1
  0
POLYLINE
  8
LAYER-1
 66
  1
 70
  0
 62
  0
 10
3.681277
 20
0.243292
 30
0.000000
  0
VERTEX
  8
LAYER-1
 10
3.681277
 20
0.243292
 30
0.000000
  0
VERTEX
  8
LAYER-1
 10
3.681277
 20
0.241727
 30
0.000000
  0
SEQEND
  8
LAYER-1
  0
POLYLINE
  8
LAYER-1
 66
  1
 70
  1
 62
  0
  0
VERTEX
  8
LAYER-1
 10
3.699721
 20
0.241714
 30
0.000000
  0
VERTEX
  8
LAYER-1
 10
3.756307
 20
0.241714
 30
0.000000
  0
VERTEX
  8
LAYER-1
 10
3.756307
 20
0.054051
 30
0.000000
  0
VERTEX
  8
LAYER-1
 10
3.699721
 20
0.054051
 30
0.000000
  0
SEQEND
  8
LAYER-1
  0
POLYLINE
  8
LAYER-1
  6
LTYPE01
 66
  1
 70
  1
 62
  0
  0
VERTEX
  8
LAYER-1
  6
LTYPE01
 10
3.704415
 20
0.250839
 30
0.000000
  0
VERTEX
  8
LAYER-1
  6
LTYPE01
 10
3.751355
 20
0.250839
 30
0.000000
  0
VERTEX
  8
LAYER-1
  6
LTYPE01
 10
3.751355
 20
0.063611
 30
0.000000
  0
VERTEX
  8
LAYER-1
  6
LTYPE01
 10
3.704415
 20
0.063611
 30
0.000000
  0
SEQEND
  8
LAYER-1
  0
POLYLINE
  8
LAYER-1
 66
  1
 70
  0
 62
  0
 10
3.681277
 20
0.241727
 30
0.000000
  0
VERTEX
  8
LAYER-1
 10
3.681277
 20
0.241727
 30
0.000000
  0
VERTEX
  8
LAYER-1
 10
3.774894
 20
0.241727
 30
0.000000
  0
SEQEND
  8
LAYER-1
  0
POLYLINE
  8
LAYER-1
 66
  1
 70
  0
 62
  0
 10
3.774894
 20
0.241727
 30
0.000000
  0
VERTEX
  8
LAYER-1
 10
3.774894
 20
0.241727
 30
0.000000
  0
VERTEX
  8
LAYER-1
 10
3.774894
 20
0.243292
 30
0.000000
  0
SEQEND
  8
LAYER-1
  0
POLYLINE
  8
LAYER-1
 66
  1
 70
  0
 62
  0
 10
3.774894
 20
0.243292
 30
0.000000
  0
VERTEX
  8
LAYER-1
 10
3.774894
 20
0.243292
 30
0.000000
  0
VERTEX
  8
LAYER-1
 10
3.761855
 20
0.250857
 30
0.000000
  0
SEQEND
  8
LAYER-1
  0
POLYLINE
  8
LAYER-1
  6
LTYPE02
 66
  1
 70
  0
 62
  0
  6
LTYPE02
 10
3.705659
 20
0.150068
 30
0.000000
  0
VERTEX
  8
LAYER-1
  6
LTYPE02
 10
3.705659
 20
0.150068
 30
0.000000
  0
VERTEX
  8
LAYER-1
  6
LTYPE02
 10
3.705659
 20
0.116170
 30
0.000000
  0
SEQEND
  8
LAYER-1
  0
POLYLINE
  8
LAYER-1
  6
LTYPE02
 66
  1
 70
  0
 62
  0
  6
LTYPE02
 10
3.709568
 20
0.150068
 30
0.000000
  0
VERTEX
  8
LAYER-1
  6
LTYPE02
 10
3.709568
 20
0.150068
 30
0.000000
  0
VERTEX
  8
LAYER-1
  6
LTYPE02
 10
3.705659
 20
0.150068
 30
0.000000
  0
SEQEND
  8
LAYER-1
  0
POLYLINE
  8
LAYER-1
  6
LTYPE02
 66
  1
 70
  0
 62
  0
  6
LTYPE02
 10
3.709568
 20
0.150068
 30
0.000000
  0
VERTEX
  8
LAYER-1
  6
LTYPE02
 10
3.709568
 20
0.150068
 30
0.000000
  0
VERTEX
  8
LAYER-1
  6
LTYPE02
 10
3.709568
 20
0.154502
 30
0.000000
  0
SEQEND
  8
LAYER-1
  0
POLYLINE
  8
LAYER-1
  6
LTYPE02
 66
  1
 70
  0
 62
  0
  6
LTYPE02
 10
3.709568
 20
0.154502
 30
0.000000
  0
VERTEX
  8
LAYER-1
  6
LTYPE02
 10
3.709568
 20
0.154502
 30
0.000000
  0
VERTEX
  8
LAYER-1
  6
LTYPE02
 10
3.746827
 20
0.154502
 30
0.000000
  0
SEQEND
  8
LAYER-1
  0
POLYLINE
  8
LAYER-1
  6
LTYPE02
 66
  1
 70
  0
 62
  0
  6
LTYPE02
 10
3.705659
 20
0.116170
 30
0.000000
  0
VERTEX
  8
LAYER-1
  6
LTYPE02
 10
3.705659
 20
0.116170
 30
0.000000
  0
VERTEX
  8
LAYER-1
  6
LTYPE02
 10
3.749991
 20
0.116170
 30
0.000000
  0
SEQEND
  8
LAYER-1
  0
POLYLINE
  8
LAYER-1
  6
LTYPE02
 66
  1
 70
  0
 62
  0
  6
LTYPE02
 10
3.749991
 20
0.116170
 30
0.000000
  0
VERTEX
  8
LAYER-1
  6
LTYPE02
 10
3.749991
 20
0.116170
 30
0.000000
  0
VERTEX
  8
LAYER-1
  6
LTYPE02
 10
3.749991
 20
0.150068
 30
0.000000
  0
SEQEND
  8
LAYER-1
  0
POLYLINE
  8
LAYER-1
  6
LTYPE02
 66
  1
 70
  0
 62
  0
  6
LTYPE02
 10
3.746827
 20
0.150068
 30
0.000000
  0
VERTEX
  8
LAYER-1
  6
LTYPE02
 10
3.746827
 20
0.150068
 30
0.000000
  0
VERTEX
  8
LAYER-1
  6
LTYPE02
 10
3.749991
 20
0.150068
 30
0.000000
  0
SEQEND
  8
LAYER-1
  0
POLYLINE
  8
LAYER-1
  6
LTYPE02
 66
  1
 70
  0
 62
  0
  6
LTYPE02
 10
3.746827
 20
0.154502
 30
0.000000
  0
VERTEX
  8
LAYER-1
  6
LTYPE02
 10
3.746827
 20
0.154502
 30
0.000000
  0
VERTEX
  8
LAYER-1
  6
LTYPE02
 10
3.746827
 20
0.150068
 30
0.000000
  0
SEQEND
  8
LAYER-1
  0
POLYLINE
  8
LAYER-1
  6
LTYPE01
 66
  1
 70
  1
 62
  0
  0
VERTEX
  8
LAYER-1
  6
LTYPE01
 10
3.710797
 20
0.116024
 30
0.000000
  0
VERTEX
  8
LAYER-1
  6
LTYPE01
 10
3.745218
 20
0.116024
 30
0.000000
  0
VERTEX
  8
LAYER-1
  6
LTYPE01
 10
3.745218
 20
0.063870
 30
0.000000
  0
VERTEX
  8
LAYER-1
  6
LTYPE01
 10
3.710797
 20
0.063870
 30
0.000000
  0
SEQEND
  8
LAYER-1
  0
POLYLINE
  8
LAYER-1
  6
LTYPE02
 66
  1
 70
  0
 62
  0
  6
LTYPE02
 10
3.745218
 20
0.116024
 30
0.000000
  0
VERTEX
  8
LAYER-1
  6
LTYPE02
 10
3.745218
 20
0.116024
 30
0.000000
  0
VERTEX
  8
LAYER-1
  6
LTYPE02
 10
3.710797
 20
0.113156
 30
0.000000
  0
SEQEND
  8
LAYER-1
  0
POLYLINE
  8
LAYER-1
  6
LTYPE02
 66
  1
 70
  0
 62
  0
  6
LTYPE02
 10
3.745218
 20
0.114459
 30
0.000000
  0
VERTEX
  8
LAYER-1
  6
LTYPE02
 10
3.745218
 20
0.114459
 30
0.000000
  0
VERTEX
  8
LAYER-1
  6
LTYPE02
 10
3.710797
 20
0.111332
 30
0.000000
  0
SEQEND
  8
LAYER-1
  0
POLYLINE
  8
LAYER-1
  6
LTYPE02
 66
  1
 70
  0
 62
  0
  6
LTYPE02
 10
3.745218
 20
0.111070
 30
0.000000
  0
VERTEX
  8
LAYER-1
  6
LTYPE02
 10
3.745218
 20
0.111070
 30
0.000000
  0
VERTEX
  8
LAYER-1
  6
LTYPE02
 10
3.710797
 20
0.108200
 30
0.000000
  0
SEQEND
  8
LAYER-1
  0
POLYLINE
  8
LAYER-1
  6
LTYPE02
 66
  1
 70
  0
 62
  0
  6
LTYPE02
 10
3.745218
 20
0.109505
 30
0.000000
  0
VERTEX
  8
LAYER-1
  6
LTYPE02
 10
3.745218
 20
0.109505
 30
0.000000
  0
VERTEX
  8
LAYER-1
  6
LTYPE02
 10
3.710797
 20
0.106375
 30
0.000000
  0
SEQEND
  8
LAYER-1
  0
POLYLINE
  8
LAYER-1
  6
LTYPE02
 66
  1
 70
  0
 62
  0
  6
LTYPE02
 10
3.745218
 20
0.105921
 30
0.000000
  0
VERTEX
  8
LAYER-1
  6
LTYPE02
 10
3.745218
 20
0.105921
 30
0.000000
  0
VERTEX
  8
LAYER-1
  6
LTYPE02
 10
3.710797
 20
0.103052
 30
0.000000
  0
SEQEND
  8
LAYER-1
  0
POLYLINE
  8
LAYER-1
  6
LTYPE02
 66
  1
 70
  0
 62
  0
  6
LTYPE02
 10
3.745218
 20
0.104357
 30
0.000000
  0
VERTEX
  8
LAYER-1
  6
LTYPE02
 10
3.745218
 20
0.104357
 30
0.000000
  0
VERTEX
  8
LAYER-1
  6
LTYPE02
 10
3.710797
 20
0.101228
 30
0.000000
  0
SEQEND
  8
LAYER-1
  0
POLYLINE
  8
LAYER-1
  6
LTYPE02
 66
  1
 70
  0
 62
  0
  6
LTYPE02
 10
3.745154
 20
0.101422
 30
0.000000
  0
VERTEX
  8
LAYER-1
  6
LTYPE02
 10
3.745154
 20
0.101422
 30
0.000000
  0
VERTEX
  8
LAYER-1
  6
LTYPE02
 10
3.710732
 20
0.098553
 30
0.000000
  0
SEQEND
  8
LAYER-1
  0
POLYLINE
  8
LAYER-1
  6
LTYPE02
 66
  1
 70
  0
 62
  0
  6
LTYPE02
 10
3.745154
 20
0.099859
 30
0.000000
  0
VERTEX
  8
LAYER-1
  6
LTYPE02
 10
3.745154
 20
0.099859
 30
0.000000
  0
VERTEX
  8
LAYER-1
  6
LTYPE02
 10
3.710732
 20
0.096729
 30
0.000000
  0
SEQEND
  8
LAYER-1
  0
POLYLINE
  8
LAYER-1
  6
LTYPE02
 66
  1
 70
  0
 62
  0
  6
LTYPE02
 10
3.745154
 20
0.096598
 30
0.000000
  0
VERTEX
  8
LAYER-1
  6
LTYPE02
 10
3.745154
 20
0.096598
 30
0.000000
  0
VERTEX
  8
LAYER-1
  6
LTYPE02
 10
3.710732
 20
0.093730
 30
0.000000
  0
SEQEND
  8
LAYER-1
  0
POLYLINE
  8
LAYER-1
  6
LTYPE02
 66
  1
 70
  0
 62
  0
  6
LTYPE02
 10
3.745154
 20
0.095033
 30
0.000000
  0
VERTEX
  8
LAYER-1
  6
LTYPE02
 10
3.745154
 20
0.095033
 30
0.000000
  0
VERTEX
  8
LAYER-1
  6
LTYPE02
 10
3.710732
 20
0.091904
 30
0.000000
  0
SEQEND
  8
LAYER-1
  0
POLYLINE
  8
LAYER-1
  6
LTYPE02
 66
  1
 70
  0
 62
  0
  6
LTYPE02
 10
3.745154
 20
0.091643
 30
0.000000
  0
VERTEX
  8
LAYER-1
  6
LTYPE02
 10
3.745154
 20
0.091643
 30
0.000000
  0
VERTEX
  8
LAYER-1
  6
LTYPE02
 10
3.710732
 20
0.088774
 30
0.000000
  0
SEQEND
  8
LAYER-1
  0
POLYLINE
  8
LAYER-1
  6
LTYPE02
 66
  1
 70
  0
 62
  0
  6
LTYPE02
 10
3.745154
 20
0.090079
 30
0.000000
  0
VERTEX
  8
LAYER-1
  6
LTYPE02
 10
3.745154
 20
0.090079
 30
0.000000
  0
VERTEX
  8
LAYER-1
  6
LTYPE02
 10
3.710732
 20
0.086948
 30
0.000000
  0
SEQEND
  8
LAYER-1
  0
POLYLINE
  8
LAYER-1
  6
LTYPE02
 66
  1
 70
  0
 62
  0
  6
LTYPE02
 10
3.745154
 20
0.086493
 30
0.000000
  0
VERTEX
  8
LAYER-1
  6
LTYPE02
 10
3.745154
 20
0.086493
 30
0.000000
  0
VERTEX
  8
LAYER-1
  6
LTYPE02
 10
3.710732
 20
0.083624
 30
0.000000
  0
SEQEND
  8
LAYER-1
  0
POLYLINE
  8
LAYER-1
  6
LTYPE02
 66
  1
 70
  0
 62
  0
  6
LTYPE02
 10
3.745154
 20
0.084928
 30
0.000000
  0
VERTEX
  8
LAYER-1
  6
LTYPE02
 10
3.745154
 20
0.084928
 30
0.000000
  0
VERTEX
  8
LAYER-1
  6
LTYPE02
 10
3.710732
 20
0.081800
 30
0.000000
  0
SEQEND
  8
LAYER-1
  0
POLYLINE
  8
LAYER-1
  6
LTYPE02
 66
  1
 70
  0
 62
  0
  6
LTYPE02
 10
3.745089
 20
0.081994
 30
0.000000
  0
VERTEX
  8
LAYER-1
  6
LTYPE02
 10
3.745089
 20
0.081994
 30
0.000000
  0
VERTEX
  8
LAYER-1
  6
LTYPE02
 10
3.710667
 20
0.079126
 30
0.000000
  0
SEQEND
  8
LAYER-1
  0
POLYLINE
  8
LAYER-1
  6
LTYPE02
 66
  1
 70
  0
 62
  0
  6
LTYPE02
 10
3.745089
 20
0.080431
 30
0.000000
  0
VERTEX
  8
LAYER-1
  6
LTYPE02
 10
3.745089
 20
0.080431
 30
0.000000
  0
VERTEX
  8
LAYER-1
  6
LTYPE02
 10
3.710667
 20
0.077302
 30
0.000000
  0
SEQEND
  8
LAYER-1
  0
POLYLINE
  8
LAYER-1
  6
LTYPE02
 66
  1
 70
  0
 62
  0
  6
LTYPE02
 10
3.745218
 20
0.077627
 30
0.000000
  0
VERTEX
  8
LAYER-1
  6
LTYPE02
 10
3.745218
 20
0.077627
 30
0.000000
  0
VERTEX
  8
LAYER-1
  6
LTYPE02
 10
3.710797
 20
0.074758
 30
0.000000
  0
SEQEND
  8
LAYER-1
  0
POLYLINE
  8
LAYER-1
  6
LTYPE02
 66
  1
 70
  0
 62
  0
  6
LTYPE02
 10
3.745218
 20
0.076062
 30
0.000000
  0
VERTEX
  8
LAYER-1
  6
LTYPE02
 10
3.745218
 20
0.076062
 30
0.000000
  0
VERTEX
  8
LAYER-1
  6
LTYPE02
 10
3.710797
 20
0.072934
 30
0.000000
  0
SEQEND
  8
LAYER-1
  0
POLYLINE
  8
LAYER-1
  6
LTYPE02
 66
  1
 70
  0
 62
  0
  6
LTYPE02
 10
3.745218
 20
0.072673
 30
0.000000
  0
VERTEX
  8
LAYER-1
  6
LTYPE02
 10
3.745218
 20
0.072673
 30
0.000000
  0
VERTEX
  8
LAYER-1
  6
LTYPE02
 10
3.710797
 20
0.069804
 30
0.000000
  0
SEQEND
  8
LAYER-1
  0
POLYLINE
  8
LAYER-1
  6
LTYPE02
 66
  1
 70
  0
 62
  0
  6
LTYPE02
 10
3.745218
 20
0.071108
 30
0.000000
  0
VERTEX
  8
LAYER-1
  6
LTYPE02
 10
3.745218
 20
0.071108
 30
0.000000
  0
VERTEX
  8
LAYER-1
  6
LTYPE02
 10
3.710797
 20
0.067978
 30
0.000000
  0
SEQEND
  8
LAYER-1
  0
POLYLINE
  8
LAYER-1
  6
LTYPE02
 66
  1
 70
  0
 62
  0
  6
LTYPE02
 10
3.745218
 20
0.067523
 30
0.000000
  0
VERTEX
  8
LAYER-1
  6
LTYPE02
 10
3.745218
 20
0.067523
 30
0.000000
  0
VERTEX
  8
LAYER-1
  6
LTYPE02
 10
3.710797
 20
0.064652
 30
0.000000
  0
SEQEND
  8
LAYER-1
  0
POLYLINE
  8
LAYER-1
  6
LTYPE02
 66
  1
 70
  0
 62
  0
  6
LTYPE02
 10
3.745218
 20
0.065958
 30
0.000000
  0
VERTEX
  8
LAYER-1
  6
LTYPE02
 10
3.745218
 20
0.065958
 30
0.000000
  0
VERTEX
  8
LAYER-1
  6
LTYPE02
 10
3.722206
 20
0.063870
 30
0.000000
  0
SEQEND
  8
LAYER-1
  0
POLYLINE
  8
LAYER-1
  6
LTYPE02
 66
  1
 70
  0
 62
  0
  6
LTYPE02
 10
3.711788
 20
0.175234
 30
0.000000
  0
VERTEX
  8
LAYER-1
  6
LTYPE02
 10
3.711788
 20
0.175234
 30
0.000000
  0
VERTEX
  8
LAYER-1
  6
LTYPE02
 10
3.711788
 20
0.250857
 30
0.000000
  0
SEQEND
  8
LAYER-1
  0
POLYLINE
  8
LAYER-1
  6
LTYPE02
 66
  1
 70
  0
 62
  0
  6
LTYPE02
 10
3.744122
 20
0.175234
 30
0.000000
  0
VERTEX
  8
LAYER-1
  6
LTYPE02
 10
3.744122
 20
0.175234
 30
0.000000
  0
VERTEX
  8
LAYER-1
  6
LTYPE02
 10
3.744122
 20
0.250857
 30
0.000000
  0
SEQEND
  8
LAYER-1
  0
POLYLINE
  8
LAYER-1
  6
LTYPE01
 66
  1
 70
  0
 62
  0
  6
LTYPE01
 10
3.711788
 20
0.175234
 30
0.000000
  0
VERTEX
  8
LAYER-1
  6
LTYPE01
 10
3.711788
 20
0.175234
 30
0.000000
  0
VERTEX
  8
LAYER-1
  6
LTYPE01
 10
3.714555
 20
0.165771
 30
0.000000
  0
VERTEX
  8
LAYER-1
  6
LTYPE01
 10
3.725987
 20
0.161036
 30
0.000000
  0
VERTEX
  8
LAYER-1
  6
LTYPE01
 10
3.737419
 20
0.165771
 30
0.000000
  0
VERTEX
  8
LAYER-1
  6
LTYPE01
 10
3.744123
 20
0.175234
 30
0.000000
  0
SEQEND
  8
LAYER-1
  0
POLYLINE
  8
LAYER-1
 66
  1
 70
  0
 62
  0
 10
3.694055
 20
0.250857
 30
0.000000
  0
VERTEX
  8
LAYER-1
 10
3.694055
 20
0.250857
 30
0.000000
  0
VERTEX
  8
LAYER-1
 10
3.761855
 20
0.250857
 30
0.000000
  0
SEQEND
  8
LAYER-1
  0
POLYLINE
  8
LAYER-1
 66
  1
 70
  1
 62
  0
  0
VERTEX
  8
LAYER-1
 10
2.800872
 20
7.479819
 30
0.000000
  0
VERTEX
  8
LAYER-1
 10
2.825967
 20
7.479819
 30
0.000000
  0
VERTEX
  8
LAYER-1
 10
2.825967
 20
7.413501
 30
0.000000
  0
VERTEX
  8
LAYER-1
 10
2.800872
 20
7.413501
 30
0.000000
  0
SEQEND
  8
LAYER-1
  0
POLYLINE
  8
LAYER-1
 66
  1
 70
  1
 62
  0
  0
VERTEX
  8
LAYER-1
 10
1.979692
 20
7.479819
 30
0.000000
  0
VERTEX
  8
LAYER-1
 10
2.004787
 20
7.479819
 30
0.000000
  0
VERTEX
  8
LAYER-1
 10
2.004787
 20
7.413501
 30
0.000000
  0
VERTEX
  8
LAYER-1
 10
1.979692
 20
7.413501
 30
0.000000
  0
SEQEND
  8
LAYER-1
  0
POLYLINE
  8
LAYER-1
 66
  1
 70
  1
 62
  0
  0
VERTEX
  8
LAYER-1
 10
4.702781
 20
7.479819
 30
0.000000
  0
VERTEX
  8
LAYER-1
 10
4.727876
 20
7.479819
 30
0.000000
  0
VERTEX
  8
LAYER-1
 10
4.727876
 20
7.413501
 30
0.000000
  0
VERTEX
  8
LAYER-1
 10
4.702781
 20
7.413501
 30
0.000000
  0
SEQEND
  8
LAYER-1
  0
POLYLINE
  8
LAYER-1
 66
  1
 70
  1
 62
  0
  0
VERTEX
  8
LAYER-1
 10
5.523962
 20
7.479819
 30
0.000000
  0
VERTEX
  8
LAYER-1
 10
5.549057
 20
7.479819
 30
0.000000
  0
VERTEX
  8
LAYER-1
 10
5.549057
 20
7.413501
 30
0.000000
  0
VERTEX
  8
LAYER-1
 10
5.523962
 20
7.413501
 30
0.000000
  0
SEQEND
  8
LAYER-1
  0
POLYLINE
  8
LAYER-1
 66
  1
 70
  0
 62
  0
 10
2.178083
 20
7.143496
 30
0.000000
  0
VERTEX
  8
LAYER-1
 10
2.178083
 20
7.143496
 30
0.000000
  0
VERTEX
  8
LAYER-1
 10
2.213679
 20
7.143496
 30
0.000000
  0
SEQEND
  8
LAYER-1
  0
POLYLINE
  8
LAYER-1
 66
  1
 70
  0
 62
  0
 10
2.995953
 20
7.143496
 30
0.000000
  0
VERTEX
  8
LAYER-1
 10
2.995953
 20
7.143496
 30
0.000000
  0
VERTEX
  8
LAYER-1
 10
3.031548
 20
7.143496
 30
0.000000
  0
SEQEND
  8
LAYER-1
  0
POLYLINE
  8
LAYER-1
 66
  1
 70
  0
 62
  0
 10
3.644087
 20
7.143420
 30
0.000000
  0
VERTEX
  8
LAYER-1
 10
3.644087
 20
7.143420
 30
0.000000
  0
VERTEX
  8
LAYER-1
 10
3.679681
 20
7.143420
 30
0.000000
  0
SEQEND
  8
LAYER-1
  0
POLYLINE
  8
LAYER-1
 66
  1
 70
  0
 62
  0
 10
5.350243
 20
7.143495
 30
0.000000
  0
VERTEX
  8
LAYER-1
 10
5.350243
 20
7.143495
 30
0.000000
  0
VERTEX
  8
LAYER-1
 10
5.314648
 20
7.143495
 30
0.000000
  0
SEQEND
  8
LAYER-1
  0
POLYLINE
  8
LAYER-1
 66
  1
 70
  0
 62
  0
 10
4.532368
 20
7.143495
 30
0.000000
  0
VERTEX
  8
LAYER-1
 10
4.532368
 20
7.143495
 30
0.000000
  0
VERTEX
  8
LAYER-1
 10
4.496777
 20
7.143495
 30
0.000000
  0
SEQEND
  8
LAYER-1
  0
POLYLINE
  8
LAYER-1
 66
  1
 70
  0
 62
  0
 10
3.884230
 20
7.143419
 30
0.000000
  0
VERTEX
  8
LAYER-1
 10
3.884230
 20
7.143419
 30
0.000000
  0
VERTEX
  8
LAYER-1
 10
3.848638
 20
7.143419
 30
0.000000
  0
SEQEND
  8
LAYER-1
  0
TEXT
  8
LAYER-1
 62
  0
 10
1.083858
 20
7.075740
 30
0.000000
 40
0.125000
  1
Guida
 72
  5
 11
1.611636
 21
7.075740
 31
0.000000
  0
TEXT
  8
LAYER-1
 62
  0
 10
5.889414
 20
5.561851
 30
0.000000
 40
0.125000
  1
Pannello in
 72
  5
 11
6.819969
 21
5.561851
 31
0.000000
  0
TEXT
  8
LAYER-1
 62
  0
 10
5.889414
 20
5.367406
 30
0.000000
 40
0.125000
  1
alluminio
 72
  5
 11
6.667191
 21
5.367406
 31
0.000000
  0
POLYLINE
  8
LAYER-1
 66
  1
 70
  0
 62
  0
 10
5.823007
 20
5.474177
 30
0.000000
  0
VERTEX
  8
LAYER-1
 10
5.823007
 20
5.474177
 30
0.000000
  0
VERTEX
  8
LAYER-1
 10
5.581931
 20
5.789271
 30
0.000000
  0
SEQEND
  8
LAYER-1
  0
POLYLINE
  8
LAYER-1
 66
  1
 70
  1
 62
  0
  0
VERTEX
  8
LAYER-1
 10
5.569970
 20
5.804906
 30
0.000000
  0
VERTEX
  8
LAYER-1
 10
5.645259
 20
5.775071
 30
0.000000
  0
VERTEX
  8
LAYER-1
 10
5.612167
 20
5.749752
 30
0.000000
  0
VERTEX
  8
LAYER-1
 10
5.579075
 20
5.724433
 30
0.000000
  0
VERTEX
  8
LAYER-1
 10
5.569970
 20
5.804906
 30
0.000000
  0
SEQEND
  8
LAYER-1
  0
POLYLINE
  8
LAYER-1
 66
  1
 70
  0
 62
  0
 10
0.013889
 20
5.133888
 30
0.000000
  0
VERTEX
  8
LAYER-1
 10
0.013889
 20
5.133888
 30
0.000000
  0
VERTEX
  8
LAYER-1
 10
0.013889
 20
3.435410
 30
0.000000
  0
SEQEND
  8
LAYER-1
  0
POLYLINE
  8
LAYER-1
 66
  1
 70
  0
 62
  0
 10
0.031292
 20
5.133888
 30
0.000000
  0
VERTEX
  8
LAYER-1
 10
0.031292
 20
5.133888
 30
0.000000
  0
VERTEX
  8
LAYER-1
 10
0.031292
 20
3.435410
 30
0.000000
  0
SEQEND
  8
LAYER-1
  0
POLYLINE
  8
LAYER-1
 66
  1
 70
  0
 62
  0
 10
0.145694
 20
5.133888
 30
0.000000
  0
VERTEX
  8
LAYER-1
 10
0.145694
 20
5.133888
 30
0.000000
  0
VERTEX
  8
LAYER-1
 10
0.145694
 20
3.435410
 30
0.000000
  0
SEQEND
  8
LAYER-1
  0
POLYLINE
  8
LAYER-1
 66
  1
 70
  0
 62
  0
 10
0.163098
 20
5.133888
 30
0.000000
  0
VERTEX
  8
LAYER-1
 10
0.163098
 20
5.133888
 30
0.000000
  0
VERTEX
  8
LAYER-1
 10
0.163098
 20
3.435410
 30
0.000000
  0
SEQEND
  8
LAYER-1
  0
POLYLINE
  8
LAYER-1
 66
  1
 70
  0
 62
  0
 10
0.162271
 20
5.133888
 30
0.000000
  0
VERTEX
  8
LAYER-1
 10
0.162271
 20
5.133888
 30
0.000000
  0
VERTEX
  8
LAYER-1
 10
0.162271
 20
3.435410
 30
0.000000
  0
SEQEND
  8
LAYER-1
  0
POLYLINE
  8
LAYER-1
 66
  1
 70
  0
 62
  0
 10
0.179675
 20
5.133888
 30
0.000000
  0
VERTEX
  8
LAYER-1
 10
0.179675
 20
5.133888
 30
0.000000
  0
VERTEX
  8
LAYER-1
 10
0.179675
 20
3.435410
 30
0.000000
  0
SEQEND
  8
LAYER-1
  0
POLYLINE
  8
LAYER-1
 66
  1
 70
  0
 62
  0
 10
0.294077
 20
5.133888
 30
0.000000
  0
VERTEX
  8
LAYER-1
 10
0.294077
 20
5.133888
 30
0.000000
  0
VERTEX
  8
LAYER-1
 10
0.294077
 20
3.435410
 30
0.000000
  0
SEQEND
  8
LAYER-1
  0
POLYLINE
  8
LAYER-1
 66
  1
 70
  0
 62
  0
 10
0.311480
 20
5.133888
 30
0.000000
  0
VERTEX
  8
LAYER-1
 10
0.311480
 20
5.133888
 30
0.000000
  0
VERTEX
  8
LAYER-1
 10
0.311480
 20
3.435410
 30
0.000000
  0
SEQEND
  8
LAYER-1
  0
POLYLINE
  8
LAYER-1
 66
  1
 70
  0
 62
  0
 10
0.310653
 20
5.133888
 30
0.000000
  0
VERTEX
  8
LAYER-1
 10
0.310653
 20
5.133888
 30
0.000000
  0
VERTEX
  8
LAYER-1
 10
0.310653
 20
3.435410
 30
0.000000
  0
SEQEND
  8
LAYER-1
  0
POLYLINE
  8
LAYER-1
 66
  1
 70
  0
 62
  0
 10
0.328057
 20
5.133888
 30
0.000000
  0
VERTEX
  8
LAYER-1
 10
0.328057
 20
5.133888
 30
0.000000
  0
VERTEX
  8
LAYER-1
 10
0.328057
 20
3.435410
 30
0.000000
  0
SEQEND
  8
LAYER-1
  0
POLYLINE
  8
LAYER-1
 66
  1
 70
  0
 62
  0
 10
0.442459
 20
5.133888
 30
0.000000
  0
VERTEX
  8
LAYER-1
 10
0.442459
 20
5.133888
 30
0.000000
  0
VERTEX
  8
LAYER-1
 10
0.442459
 20
3.435410
 30
0.000000
  0
SEQEND
  8
LAYER-1
  0
POLYLINE
  8
LAYER-1
 66
  1
 70
  0
 62
  0
 10
0.459861
 20
5.133888
 30
0.000000
  0
VERTEX
  8
LAYER-1
 10
0.459861
 20
5.133888
 30
0.000000
  0
VERTEX
  8
LAYER-1
 10
0.459861
 20
3.435410
 30
0.000000
  0
SEQEND
  8
LAYER-1
  0
POLYLINE
  8
LAYER-1
 66
  1
 70
  0
 62
  0
 10
0.459034
 20
5.133888
 30
0.000000
  0
VERTEX
  8
LAYER-1
 10
0.459034
 20
5.133888
 30
0.000000
  0
VERTEX
  8
LAYER-1
 10
0.459034
 20
3.435410
 30
0.000000
  0
SEQEND
  8
LAYER-1
  0
POLYLINE
  8
LAYER-1
 66
  1
 70
  0
 62
  0
 10
0.476437
 20
5.133888
 30
0.000000
  0
VERTEX
  8
LAYER-1
 10
0.476437
 20
5.133888
 30
0.000000
  0
VERTEX
  8
LAYER-1
 10
0.476437
 20
3.435410
 30
0.000000
  0
SEQEND
  8
LAYER-1
  0
POLYLINE
  8
LAYER-1
 66
  1
 70
  0
 62
  0
 10
0.590839
 20
5.133888
 30
0.000000
  0
VERTEX
  8
LAYER-1
 10
0.590839
 20
5.133888
 30
0.000000
  0
VERTEX
  8
LAYER-1
 10
0.590839
 20
3.435410
 30
0.000000
  0
SEQEND
  8
LAYER-1
  0
POLYLINE
  8
LAYER-1
 66
  1
 70
  0
 62
  0
 10
0.608244
 20
5.133888
 30
0.000000
  0
VERTEX
  8
LAYER-1
 10
0.608244
 20
5.133888
 30
0.000000
  0
VERTEX
  8
LAYER-1
 10
0.608244
 20
3.435410
 30
0.000000
  0
SEQEND
  8
LAYER-1
  0
POLYLINE
  8
LAYER-1
 66
  1
 70
  0
 62
  0
 10
0.607415
 20
5.133888
 30
0.000000
  0
VERTEX
  8
LAYER-1
 10
0.607415
 20
5.133888
 30
0.000000
  0
VERTEX
  8
LAYER-1
 10
0.607415
 20
3.435410
 30
0.000000
  0
SEQEND
  8
LAYER-1
  0
POLYLINE
  8
LAYER-1
 66
  1
 70
  0
 62
  0
 10
0.624820
 20
5.133888
 30
0.000000
  0
VERTEX
  8
LAYER-1
 10
0.624820
 20
5.133888
 30
0.000000
  0
VERTEX
  8
LAYER-1
 10
0.624820
 20
3.435410
 30
0.000000
  0
SEQEND
  8
LAYER-1
  0
POLYLINE
  8
LAYER-1
 66
  1
 70
  0
 62
  0
 10
0.739220
 20
5.133888
 30
0.000000
  0
VERTEX
  8
LAYER-1
 10
0.739220
 20
5.133888
 30
0.000000
  0
VERTEX
  8
LAYER-1
 10
0.739220
 20
3.435410
 30
0.000000
  0
SEQEND
  8
LAYER-1
  0
POLYLINE
  8
LAYER-1
 66
  1
 70
  0
 62
  0
 10
0.756625
 20
5.133888
 30
0.000000
  0
VERTEX
  8
LAYER-1
 10
0.756625
 20
5.133888
 30
0.000000
  0
VERTEX
  8
LAYER-1
 10
0.756625
 20
3.435410
 30
0.000000
  0
SEQEND
  8
LAYER-1
  0
POLYLINE
  8
LAYER-1
 66
  1
 70
  0
 62
  0
 10
0.755797
 20
5.133888
 30
0.000000
  0
VERTEX
  8
LAYER-1
 10
0.755797
 20
5.133888
 30
0.000000
  0
VERTEX
  8
LAYER-1
 10
0.755797
 20
3.435410
 30
0.000000
  0
SEQEND
  8
LAYER-1
  0
POLYLINE
  8
LAYER-1
 66
  1
 70
  0
 62
  0
 10
0.773200
 20
5.133888
 30
0.000000
  0
VERTEX
  8
LAYER-1
 10
0.773200
 20
5.133888
 30
0.000000
  0
VERTEX
  8
LAYER-1
 10
0.773200
 20
3.435410
 30
0.000000
  0
SEQEND
  8
LAYER-1
  0
POLYLINE
  8
LAYER-1
 66
  1
 70
  0
 62
  0
 10
0.887603
 20
5.133888
 30
0.000000
  0
VERTEX
  8
LAYER-1
 10
0.887603
 20
5.133888
 30
0.000000
  0
VERTEX
  8
LAYER-1
 10
0.887603
 20
3.435410
 30
0.000000
  0
SEQEND
  8
LAYER-1
  0
POLYLINE
  8
LAYER-1
 66
  1
 70
  0
 62
  0
 10
0.905008
 20
5.133888
 30
0.000000
  0
VERTEX
  8
LAYER-1
 10
0.905008
 20
5.133888
 30
0.000000
  0
VERTEX
  8
LAYER-1
 10
0.905008
 20
3.435410
 30
0.000000
  0
SEQEND
  8
LAYER-1
  0
POLYLINE
  8
LAYER-1
 66
  1
 70
  0
 62
  0
 10
0.904180
 20
5.133888
 30
0.000000
  0
VERTEX
  8
LAYER-1
 10
0.904180
 20
5.133888
 30
0.000000
  0
VERTEX
  8
LAYER-1
 10
0.904180
 20
3.435410
 30
0.000000
  0
SEQEND
  8
LAYER-1
  0
POLYLINE
  8
LAYER-1
 66
  1
 70
  0
 62
  0
 10
0.921583
 20
5.133888
 30
0.000000
  0
VERTEX
  8
LAYER-1
 10
0.921583
 20
5.133888
 30
0.000000
  0
VERTEX
  8
LAYER-1
 10
0.921583
 20
3.435410
 30
0.000000
  0
SEQEND
  8
LAYER-1
  0
POLYLINE
  8
LAYER-1
 66
  1
 70
  0
 62
  0
 10
1.035985
 20
5.133888
 30
0.000000
  0
VERTEX
  8
LAYER-1
 10
1.035985
 20
5.133888
 30
0.000000
  0
VERTEX
  8
LAYER-1
 10
1.035985
 20
3.435410
 30
0.000000
  0
SEQEND
  8
LAYER-1
  0
POLYLINE
  8
LAYER-1
 66
  1
 70
  0
 62
  0
 10
1.053388
 20
5.133888
 30
0.000000
  0
VERTEX
  8
LAYER-1
 10
1.053388
 20
5.133888
 30
0.000000
  0
VERTEX
  8
LAYER-1
 10
1.053388
 20
3.435410
 30
0.000000
  0
SEQEND
  8
LAYER-1
  0
POLYLINE
  8
LAYER-1
 66
  1
 70
  1
 62
  0
  0
VERTEX
  8
LAYER-1
 10
0.031292
 20
5.133228
 30
0.000000
  0
VERTEX
  8
LAYER-1
 10
0.145759
 20
5.133228
 30
0.000000
  0
VERTEX
  8
LAYER-1
 10
0.145759
 20
3.436832
 30
0.000000
  0
VERTEX
  8
LAYER-1
 10
0.031292
 20
3.436832
 30
0.000000
  0
SEQEND
  8
LAYER-1
  0
POLYLINE
  8
LAYER-1
 66
  1
 70
  1
 62
  0
  0
VERTEX
  8
LAYER-1
 10
0.179593
 20
5.029196
 30
0.000000
  0
VERTEX
  8
LAYER-1
 10
0.294205
 20
5.029196
 30
0.000000
  0
VERTEX
  8
LAYER-1
 10
0.294205
 20
3.436764
 30
0.000000
  0
VERTEX
  8
LAYER-1
 10
0.179593
 20
3.436764
 30
0.000000
  0
SEQEND
  8
LAYER-1
  0
POLYLINE
  8
LAYER-1
 66
  1
 70
  1
 62
  0
  0
VERTEX
  8
LAYER-1
 10
0.476338
 20
5.029196
 30
0.000000
  0
VERTEX
  8
LAYER-1
 10
0.590803
 20
5.029196
 30
0.000000
  0
VERTEX
  8
LAYER-1
 10
0.590803
 20
3.436764
 30
0.000000
  0
VERTEX
  8
LAYER-1
 10
0.476338
 20
3.436764
 30
0.000000
  0
SEQEND
  8
LAYER-1
  0
POLYLINE
  8
LAYER-1
 66
  1
 70
  1
 62
  0
  0
VERTEX
  8
LAYER-1
 10
0.773228
 20
5.029196
 30
0.000000
  0
VERTEX
  8
LAYER-1
 10
0.887695
 20
5.029196
 30
0.000000
  0
VERTEX
  8
LAYER-1
 10
0.887695
 20
3.436764
 30
0.000000
  0
VERTEX
  8
LAYER-1
 10
0.773228
 20
3.436764
 30
0.000000
  0
SEQEND
  8
LAYER-1
  0
POLYLINE
  8
LAYER-1
 66
  1
 70
  1
 62
  0
  0
VERTEX
  8
LAYER-1
 10
0.328038
 20
5.133228
 30
0.000000
  0
VERTEX
  8
LAYER-1
 10
0.442504
 20
5.133228
 30
0.000000
  0
VERTEX
  8
LAYER-1
 10
0.442504
 20
3.436832
 30
0.000000
  0
VERTEX
  8
LAYER-1
 10
0.328038
 20
3.436832
 30
0.000000
  0
SEQEND
  8
LAYER-1
  0
POLYLINE
  8
LAYER-1
 66
  1
 70
  1
 62
  0
  0
VERTEX
  8
LAYER-1
 10
0.624929
 20
5.133228
 30
0.000000
  0
VERTEX
  8
LAYER-1
 10
0.739247
 20
5.133228
 30
0.000000
  0
VERTEX
  8
LAYER-1
 10
0.739247
 20
3.436832
 30
0.000000
  0
VERTEX
  8
LAYER-1
 10
0.624929
 20
3.436832
 30
0.000000
  0
SEQEND
  8
LAYER-1
  0
POLYLINE
  8
LAYER-1
 66
  1
 70
  1
 62
  0
  0
VERTEX
  8
LAYER-1
 10
0.921676
 20
5.133228
 30
0.000000
  0
VERTEX
  8
LAYER-1
 10
1.035995
 20
5.133228
 30
0.000000
  0
VERTEX
  8
LAYER-1
 10
1.035995
 20
3.436832
 30
0.000000
  0
VERTEX
  8
LAYER-1
 10
0.921676
 20
3.436832
 30
0.000000
  0
SEQEND
  8
LAYER-1
  0
POLYLINE
  8
LAYER-1
 66
  1
 70
  0
 62
  0
 10
0.013889
 20
5.133888
 30
0.000000
  0
VERTEX
  8
LAYER-1
 10
0.013889
 20
5.133888
 30
0.000000
  0
VERTEX
  8
LAYER-1
 10
1.053388
 20
5.133888
 30
0.000000
  0
SEQEND
  8
LAYER-1
  0
POLYLINE
  8
LAYER-1
 66
  1
 70
  0
 62
  0
 10
0.013889
 20
3.435410
 30
0.000000
  0
VERTEX
  8
LAYER-1
 10
0.013889
 20
3.435410
 30
0.000000
  0
VERTEX
  8
LAYER-1
 10
1.053388
 20
3.435410
 30
0.000000
  0
SEQEND
  8
LAYER-1
  0
TEXT
  8
LAYER-1
 62
  0
 10
0.208858
 20
3.228517
 30
0.000000
 40
0.104167
  1
GLOBAL
 72
  5
 11
0.861636
 21
3.228517
 31
0.000000
  0
TEXT
  8
LAYER-1
 62
  0
 10
0.153303
 20
3.131295
 30
0.000000
 40
0.083333
  1
(Opaco Solido)
 72
  5
 11
0.931080
 21
3.131295
 31
0.000000
  0
POLYLINE
  8
LAYER-1
 66
  1
 70
  1
 62
  0
  0
VERTEX
  8
LAYER-1
 10
0.179894
 20
5.133817
 30
0.000000
  0
VERTEX
  8
LAYER-1
 10
0.294505
 20
5.133817
 30
0.000000
  0
VERTEX
  8
LAYER-1
 10
0.294505
 20
5.030183
 30
0.000000
  0
VERTEX
  8
LAYER-1
 10
0.179894
 20
5.030183
 30
0.000000
  0
SEQEND
  8
LAYER-1
  0
POLYLINE
  8
LAYER-1
 66
  1
 70
  1
 62
  0
  0
VERTEX
  8
LAYER-1
 10
0.476639
 20
5.133817
 30
0.000000
  0
VERTEX
  8
LAYER-1
 10
0.591104
 20
5.133817
 30
0.000000
  0
VERTEX
  8
LAYER-1
 10
0.591104
 20
5.030183
 30
0.000000
  0
VERTEX
  8
LAYER-1
 10
0.476639
 20
5.030183
 30
0.000000
  0
SEQEND
  8
LAYER-1
  0
POLYLINE
  8
LAYER-1
 66
  1
 70
  1
 62
  0
  0
VERTEX
  8
LAYER-1
 10
0.773529
 20
5.133817
 30
0.000000
  0
VERTEX
  8
LAYER-1
 10
0.887995
 20
5.133817
 30
0.000000
  0
VERTEX
  8
LAYER-1
 10
0.887995
 20
5.030183
 30
0.000000
  0
VERTEX
  8
LAYER-1
 10
0.773529
 20
5.030183
 30
0.000000
  0
SEQEND
  8
LAYER-1
  0
POLYLINE
  8
LAYER-1
 66
  1
 70
  0
 62
  7
 10
0.179894
 20
5.030183
 30
0.000000
  0
VERTEX
  8
LAYER-1
 10
0.179894
 20
5.030183
 30
0.000000
  0
VERTEX
  8
LAYER-1
 10
0.294505
 20
5.030183
 30
0.000000
  0
SEQEND
  8
LAYER-1
  0
POLYLINE
  8
LAYER-1
 66
  1
 70
  0
 62
  7
 10
0.476639
 20
5.030183
 30
0.000000
  0
VERTEX
  8
LAYER-1
 10
0.476639
 20
5.030183
 30
0.000000
  0
VERTEX
  8
LAYER-1
 10
0.591104
 20
5.030183
 30
0.000000
  0
SEQEND
  8
LAYER-1
  0
POLYLINE
  8
LAYER-1
 66
  1
 70
  0
 62
  7
 10
0.773529
 20
5.030183
 30
0.000000
  0
VERTEX
  8
LAYER-1
 10
0.773529
 20
5.030183
 30
0.000000
  0
VERTEX
  8
LAYER-1
 10
0.887995
 20
5.030183
 30
0.000000
  0
SEQEND
  8
LAYER-1
  0
POLYLINE
  8
LAYER-1
 66
  1
 70
  0
 62
  7
 10
0.229958
 20
5.133822
 30
0.000000
  0
VERTEX
  8
LAYER-1
 10
0.229958
 20
5.133822
 30
0.000000
  0
VERTEX
  8
LAYER-1
 10
0.229958
 20
5.030517
 30
0.000000
  0
SEQEND
  8
LAYER-1
  0
POLYLINE
  8
LAYER-1
 66
  1
 70
  0
 62
  7
 10
0.241878
 20
5.133822
 30
0.000000
  0
VERTEX
  8
LAYER-1
 10
0.241878
 20
5.133822
 30
0.000000
  0
VERTEX
  8
LAYER-1
 10
0.241878
 20
5.030517
 30
0.000000
  0
SEQEND
  8
LAYER-1
  0
POLYLINE
  8
LAYER-1
 66
  1
 70
  0
 62
  7
 10
0.527954
 20
5.135411
 30
0.000000
  0
VERTEX
  8
LAYER-1
 10
0.527954
 20
5.135411
 30
0.000000
  0
VERTEX
  8
LAYER-1
 10
0.527954
 20
5.032105
 30
0.000000
  0
SEQEND
  8
LAYER-1
  0
POLYLINE
  8
LAYER-1
 66
  1
 70
  0
 62
  7
 10
0.539873
 20
5.135411
 30
0.000000
  0
VERTEX
  8
LAYER-1
 10
0.539873
 20
5.135411
 30
0.000000
  0
VERTEX
  8
LAYER-1
 10
0.539873
 20
5.032105
 30
0.000000
  0
SEQEND
  8
LAYER-1
  0
POLYLINE
  8
LAYER-1
 66
  1
 70
  0
 62
  7
 10
0.825155
 20
5.133028
 30
0.000000
  0
VERTEX
  8
LAYER-1
 10
0.825155
 20
5.133028
 30
0.000000
  0
VERTEX
  8
LAYER-1
 10
0.825155
 20
5.029723
 30
0.000000
  0
SEQEND
  8
LAYER-1
  0
POLYLINE
  8
LAYER-1
 66
  1
 70
  0
 62
  7
 10
0.837075
 20
5.133028
 30
0.000000
  0
VERTEX
  8
LAYER-1
 10
0.837075
 20
5.133028
 30
0.000000
  0
VERTEX
  8
LAYER-1
 10
0.837075
 20
5.029723
 30
0.000000
  0
SEQEND
  8
LAYER-1
  0
POLYLINE
  8
LAYER-1
 66
  1
 70
  0
 62
  0
 10
0.771443
 20
0.037543
 30
0.000000
  0
VERTEX
  8
LAYER-1
 10
0.771443
 20
0.037543
 30
0.000000
  0
VERTEX
  8
LAYER-1
 10
0.797983
 20
0.034087
 30
0.000000
  0
VERTEX
  8
LAYER-1
 10
0.817362
 20
0.034087
 30
0.000000
  0
VERTEX
  8
LAYER-1
 10
0.836740
 20
0.037560
 30
0.000000
  0
VERTEX
  8
LAYER-1
 10
0.856118
 20
0.037560
 30
0.000000
  0
VERTEX
  8
LAYER-1
 10
0.902626
 20
0.044504
 30
0.000000
  0
VERTEX
  8
LAYER-1
 10
0.937507
 20
0.054921
 30
0.000000
  0
VERTEX
  8
LAYER-1
 10
0.959792
 20
0.059261
 30
0.000000
  0
VERTEX
  8
LAYER-1
 10
0.981593
 20
0.060998
 30
0.000000
  0
VERTEX
  8
LAYER-1
 10
1.011145
 20
0.058393
 30
0.000000
  0
VERTEX
  8
LAYER-1
 10
1.042150
 20
0.054921
 30
0.000000
  0
VERTEX
  8
LAYER-1
 10
1.069280
 20
0.047977
 30
0.000000
  0
VERTEX
  8
LAYER-1
 10
1.088658
 20
0.044504
 30
0.000000
  0
VERTEX
  8
LAYER-1
 10
1.119663
 20
0.041033
 30
0.000000
  0
VERTEX
  8
LAYER-1
 10
1.139042
 20
0.037560
 30
0.000000
  0
VERTEX
  8
LAYER-1
 10
1.162296
 20
0.034087
 30
0.000000
  0
VERTEX
  8
LAYER-1
 10
1.189425
 20
0.034087
 30
0.000000
  0
VERTEX
  8
LAYER-1
 10
1.216555
 20
0.034087
 30
0.000000
  0
VERTEX
  8
LAYER-1
 10
1.239809
 20
0.034087
 30
0.000000
  0
VERTEX
  8
LAYER-1
 10
1.263063
 20
0.030616
 30
0.000000
  0
VERTEX
  8
LAYER-1
 10
1.301821
 20
0.030616
 30
0.000000
  0
VERTEX
  8
LAYER-1
 10
1.332827
 20
0.030616
 30
0.000000
  0
VERTEX
  8
LAYER-1
 10
1.352204
 20
0.027143
 30
0.000000
  0
VERTEX
  8
LAYER-1
 10
1.383210
 20
0.023671
 30
0.000000
  0
VERTEX
  8
LAYER-1
 10
1.414216
 20
0.020198
 30
0.000000
  0
VERTEX
  8
LAYER-1
 10
1.452972
 20
0.020198
 30
0.000000
  0
VERTEX
  8
LAYER-1
 10
1.483978
 20
0.020198
 30
0.000000
  0
VERTEX
  8
LAYER-1
 10
1.522734
 20
0.020198
 30
0.000000
  0
VERTEX
  8
LAYER-1
 10
1.553739
 20
0.027143
 30
0.000000
  0
VERTEX
  8
LAYER-1
 10
1.576993
 20
0.027143
 30
0.000000
  0
VERTEX
  8
LAYER-1
 10
1.596371
 20
0.030616
 30
0.000000
  0
VERTEX
  8
LAYER-1
 10
1.619626
 20
0.030616
 30
0.000000
  0
VERTEX
  8
LAYER-1
 10
1.639004
 20
0.030616
 30
0.000000
  0
VERTEX
  8
LAYER-1
 10
1.681636
 20
0.030616
 30
0.000000
  0
VERTEX
  8
LAYER-1
 10
1.728145
 20
0.023671
 30
0.000000
  0
VERTEX
  8
LAYER-1
 10
1.770776
 20
0.020198
 30
0.000000
  0
VERTEX
  8
LAYER-1
 10
1.832787
 20
0.013254
 30
0.000000
  0
VERTEX
  8
LAYER-1
 10
1.890922
 20
0.006310
 30
0.000000
  0
VERTEX
  8
LAYER-1
 10
1.941305
 20
0.006310
 30
0.000000
  0
VERTEX
  8
LAYER-1
 10
1.968435
 20
0.006310
 30
0.000000
  0
VERTEX
  8
LAYER-1
 10
2.003316
 20
0.006310
 30
0.000000
  0
VERTEX
  8
LAYER-1
 10
2.023663
 20
0.007178
 30
0.000000
  0
VERTEX
  8
LAYER-1
 10
2.060966
 20
0.009348
 30
0.000000
  0
VERTEX
  8
LAYER-1
 10
2.107959
 20
0.020198
 30
0.000000
  0
VERTEX
  8
LAYER-1
 10
2.150591
 20
0.034087
 30
0.000000
  0
VERTEX
  8
LAYER-1
 10
2.185472
 20
0.044504
 30
0.000000
  0
VERTEX
  8
LAYER-1
 10
2.212602
 20
0.054921
 30
0.000000
  0
VERTEX
  8
LAYER-1
 10
2.235856
 20
0.061866
 30
0.000000
  0
VERTEX
  8
LAYER-1
 10
2.259110
 20
0.061866
 30
0.000000
  0
VERTEX
  8
LAYER-1
 10
2.282364
 20
0.061866
 30
0.000000
  0
VERTEX
  8
LAYER-1
 10
2.305618
 20
0.061866
 30
0.000000
  0
VERTEX
  8
LAYER-1
 10
2.340499
 20
0.054921
 30
0.000000
  0
VERTEX
  8
LAYER-1
 10
2.371504
 20
0.047977
 30
0.000000
  0
VERTEX
  8
LAYER-1
 10
2.394758
 20
0.041033
 30
0.000000
  0
VERTEX
  8
LAYER-1
 10
2.414136
 20
0.037560
 30
0.000000
  0
VERTEX
  8
LAYER-1
 10
2.437390
 20
0.030616
 30
0.000000
  0
VERTEX
  8
LAYER-1
 10
2.456768
 20
0.023671
 30
0.000000
  0
VERTEX
  8
LAYER-1
 10
2.480022
 20
0.020198
 30
0.000000
  0
VERTEX
  8
LAYER-1
 10
2.499401
 20
0.020198
 30
0.000000
  0
VERTEX
  8
LAYER-1
 10
2.530406
 20
0.016727
 30
0.000000
  0
VERTEX
  8
LAYER-1
 10
2.557536
 20
0.016727
 30
0.000000
  0
VERTEX
  8
LAYER-1
 10
2.592417
 20
0.016727
 30
0.000000
  0
VERTEX
  8
LAYER-1
 10
2.619546
 20
0.020198
 30
0.000000
  0
VERTEX
  8
LAYER-1
 10
2.654428
 20
0.030616
 30
0.000000
  0
VERTEX
  8
LAYER-1
 10
2.673805
 20
0.030616
 30
0.000000
  0
VERTEX
  8
LAYER-1
 10
2.697060
 20
0.030616
 30
0.000000
  0
VERTEX
  8
LAYER-1
 10
2.716438
 20
0.030616
 30
0.000000
  0
VERTEX
  8
LAYER-1
 10
2.739692
 20
0.034087
 30
0.000000
  0
VERTEX
  8
LAYER-1
 10
2.762946
 20
0.037560
 30
0.000000
  0
VERTEX
  8
LAYER-1
 10
2.793951
 20
0.037560
 30
0.000000
  0
VERTEX
  8
LAYER-1
 10
2.824957
 20
0.037560
 30
0.000000
  0
VERTEX
  8
LAYER-1
 10
2.848210
 20
0.037560
 30
0.000000
  0
VERTEX
  8
LAYER-1
 10
2.871464
 20
0.037560
 30
0.000000
  0
VERTEX
  8
LAYER-1
 10
2.890843
 20
0.034087
 30
0.000000
  0
VERTEX
  8
LAYER-1
 10
2.910222
 20
0.030616
 30
0.000000
  0
VERTEX
  8
LAYER-1
 10
2.929600
 20
0.027143
 30
0.000000
  0
VERTEX
  8
LAYER-1
 10
2.948978
 20
0.023671
 30
0.000000
  0
VERTEX
  8
LAYER-1
 10
2.979984
 20
0.016727
 30
0.000000
  0
VERTEX
  8
LAYER-1
 10
3.003237
 20
0.013254
 30
0.000000
  0
VERTEX
  8
LAYER-1
 10
3.026491
 20
0.013254
 30
0.000000
  0
VERTEX
  8
LAYER-1
 10
3.045869
 20
0.013254
 30
0.000000
  0
VERTEX
  8
LAYER-1
 10
3.072999
 20
0.013254
 30
0.000000
  0
VERTEX
  8
LAYER-1
 10
3.104004
 20
0.016727
 30
0.000000
  0
VERTEX
  8
LAYER-1
 10
3.158263
 20
0.027143
 30
0.000000
  0
VERTEX
  8
LAYER-1
 10
3.204771
 20
0.037560
 30
0.000000
  0
VERTEX
  8
LAYER-1
 10
3.247403
 20
0.044504
 30
0.000000
  0
VERTEX
  8
LAYER-1
 10
3.278409
 20
0.047977
 30
0.000000
  0
VERTEX
  8
LAYER-1
 10
3.317165
 20
0.051448
 30
0.000000
  0
VERTEX
  8
LAYER-1
 10
3.348171
 20
0.054921
 30
0.000000
  0
VERTEX
  8
LAYER-1
 10
3.373847
 20
0.055790
 30
0.000000
  0
VERTEX
  8
LAYER-1
 10
3.391287
 20
0.053619
 30
0.000000
  0
VERTEX
  8
LAYER-1
 10
3.412604
 20
0.048845
 30
0.000000
  0
VERTEX
  8
LAYER-1
 10
3.433435
 20
0.037560
 30
0.000000
  0
VERTEX
  8
LAYER-1
 10
3.456689
 20
0.034087
 30
0.000000
  0
VERTEX
  8
LAYER-1
 10
3.476068
 20
0.034087
 30
0.000000
  0
VERTEX
  8
LAYER-1
 10
3.495446
 20
0.034087
 30
0.000000
  0
VERTEX
  8
LAYER-1
 10
3.514826
 20
0.034087
 30
0.000000
  0
VERTEX
  8
LAYER-1
 10
3.545831
 20
0.034087
 30
0.000000
  0
VERTEX
  8
LAYER-1
 10
3.569085
 20
0.034087
 30
0.000000
  0
VERTEX
  8
LAYER-1
 10
3.592339
 20
0.034087
 30
0.000000
  0
VERTEX
  8
LAYER-1
 10
3.611718
 20
0.034087
 30
0.000000
  0
VERTEX
  8
LAYER-1
 10
3.634972
 20
0.034087
 30
0.000000
  0
VERTEX
  8
LAYER-1
 10
3.658226
 20
0.034087
 30
0.000000
  0
VERTEX
  8
LAYER-1
 10
3.677604
 20
0.034087
 30
0.000000
  0
VERTEX
  8
LAYER-1
 10
3.704734
 20
0.034087
 30
0.000000
  0
VERTEX
  8
LAYER-1
 10
3.727987
 20
0.030616
 30
0.000000
  0
VERTEX
  8
LAYER-1
 10
3.750273
 20
0.022803
 30
0.000000
  0
VERTEX
  8
LAYER-1
 10
3.790967
 20
0.020198
 30
0.000000
  0
VERTEX
  8
LAYER-1
 10
3.828755
 20
0.023671
 30
0.000000
  0
VERTEX
  8
LAYER-1
 10
3.848133
 20
0.030616
 30
0.000000
  0
VERTEX
  8
LAYER-1
 10
3.871387
 20
0.037560
 30
0.000000
  0
VERTEX
  8
LAYER-1
 10
3.891251
 20
0.041467
 30
0.000000
  0
VERTEX
  8
LAYER-1
 10
3.914020
 20
0.047977
 30
0.000000
  0
VERTEX
  8
LAYER-1
 10
3.937272
 20
0.047977
 30
0.000000
  0
VERTEX
  8
LAYER-1
 10
3.960527
 20
0.044504
 30
0.000000
  0
VERTEX
  8
LAYER-1
 10
3.983782
 20
0.044504
 30
0.000000
  0
VERTEX
  8
LAYER-1
 10
4.007035
 20
0.044504
 30
0.000000
  0
VERTEX
  8
LAYER-1
 10
4.026415
 20
0.041033
 30
0.000000
  0
VERTEX
  8
LAYER-1
 10
4.053544
 20
0.041033
 30
0.000000
  0
VERTEX
  8
LAYER-1
 10
4.084549
 20
0.041033
 30
0.000000
  0
VERTEX
  8
LAYER-1
 10
4.115554
 20
0.047977
 30
0.000000
  0
VERTEX
  8
LAYER-1
 10
4.134933
 20
0.051448
 30
0.000000
  0
VERTEX
  8
LAYER-1
 10
4.162062
 20
0.051448
 30
0.000000
  0
VERTEX
  8
LAYER-1
 10
4.185316
 20
0.054921
 30
0.000000
  0
VERTEX
  8
LAYER-1
 10
4.216321
 20
0.058393
 30
0.000000
  0
VERTEX
  8
LAYER-1
 10
4.239575
 20
0.058393
 30
0.000000
  0
VERTEX
  8
LAYER-1
 10
4.270581
 20
0.054921
 30
0.000000
  0
VERTEX
  8
LAYER-1
 10
4.313213
 20
0.044504
 30
0.000000
  0
VERTEX
  8
LAYER-1
 10
4.344218
 20
0.034087
 30
0.000000
  0
VERTEX
  8
LAYER-1
 10
4.379100
 20
0.023671
 30
0.000000
  0
VERTEX
  8
LAYER-1
 10
4.422217
 20
0.016726
 30
0.000000
  0
VERTEX
  8
LAYER-1
 10
4.469693
 20
0.017593
 30
0.000000
  0
VERTEX
  8
LAYER-1
 10
4.524921
 20
0.020198
 30
0.000000
  0
VERTEX
  8
LAYER-1
 10
4.592261
 20
0.020198
 30
0.000000
  0
VERTEX
  8
LAYER-1
 10
4.637800
 20
0.008914
 30
0.000000
  0
VERTEX
  8
LAYER-1
 10
4.667836
 20
0.002836
 30
0.000000
  0
VERTEX
  8
LAYER-1
 10
4.691090
 20
0.001968
 30
0.000000
  0
VERTEX
  8
LAYER-1
 10
4.725972
 20
0.001970
 30
0.000000
  0
VERTEX
  8
LAYER-1
 10
4.751163
 20
0.006310
 30
0.000000
  0
VERTEX
  8
LAYER-1
 10
4.778293
 20
0.016727
 30
0.000000
  0
VERTEX
  8
LAYER-1
 10
4.813174
 20
0.023671
 30
0.000000
  0
VERTEX
  8
LAYER-1
 10
4.840303
 20
0.030616
 30
0.000000
  0
VERTEX
  8
LAYER-1
 10
4.863558
 20
0.034087
 30
0.000000
  0
VERTEX
  8
LAYER-1
 10
4.886811
 20
0.037560
 30
0.000000
  0
VERTEX
  8
LAYER-1
 10
4.913940
 20
0.041033
 30
0.000000
  0
VERTEX
  8
LAYER-1
 10
4.941070
 20
0.047977
 30
0.000000
  0
VERTEX
  8
LAYER-1
 10
4.960448
 20
0.051448
 30
0.000000
  0
VERTEX
  8
LAYER-1
 10
4.991454
 20
0.054921
 30
0.000000
  0
VERTEX
  8
LAYER-1
 10
5.014708
 20
0.061866
 30
0.000000
  0
VERTEX
  8
LAYER-1
 10
5.038446
 20
0.072717
 30
0.000000
  0
VERTEX
  8
LAYER-1
 10
5.061215
 20
0.079227
 30
0.000000
  0
VERTEX
  8
LAYER-1
 10
5.084470
 20
0.079227
 30
0.000000
  0
VERTEX
  8
LAYER-1
 10
5.111599
 20
0.079227
 30
0.000000
  0
VERTEX
  8
LAYER-1
 10
5.138728
 20
0.079227
 30
0.000000
  0
VERTEX
  8
LAYER-1
 10
5.177486
 20
0.075754
 30
0.000000
  0
VERTEX
  8
LAYER-1
 10
5.231745
 20
0.072283
 30
0.000000
  0
VERTEX
  8
LAYER-1
 10
5.274377
 20
0.072283
 30
0.000000
  0
VERTEX
  8
LAYER-1
 10
5.305381
 20
0.072283
 30
0.000000
  0
VERTEX
  8
LAYER-1
 10
5.328636
 20
0.072283
 30
0.000000
  0
VERTEX
  8
LAYER-1
 10
5.351891
 20
0.072283
 30
0.000000
  0
VERTEX
  8
LAYER-1
 10
5.382895
 20
0.075754
 30
0.000000
  0
VERTEX
  8
LAYER-1
 10
5.421652
 20
0.075754
 30
0.000000
  0
VERTEX
  8
LAYER-1
 10
5.452657
 20
0.075754
 30
0.000000
  0
VERTEX
  8
LAYER-1
 10
5.475911
 20
0.079227
 30
0.000000
  0
VERTEX
  8
LAYER-1
 10
5.506916
 20
0.079227
 30
0.000000
  0
VERTEX
  8
LAYER-1
 10
5.526295
 20
0.079227
 30
0.000000
  0
VERTEX
  8
LAYER-1
 10
5.557300
 20
0.070546
 30
0.000000
  0
VERTEX
  8
LAYER-1
 10
5.584429
 20
0.058393
 30
0.000000
  0
VERTEX
  8
LAYER-1
 10
5.619310
 20
0.044504
 30
0.000000
  0
VERTEX
  8
LAYER-1
 10
5.646439
 20
0.037560
 30
0.000000
  0
VERTEX
  8
LAYER-1
 10
5.677446
 20
0.030616
 30
0.000000
  0
VERTEX
  8
LAYER-1
 10
5.705060
 20
0.028446
 30
0.000000
  0
VERTEX
  8
LAYER-1
 10
5.731705
 20
0.027143
 30
0.000000
  0
VERTEX
  8
LAYER-1
 10
5.754959
 20
0.030616
 30
0.000000
  0
VERTEX
  8
LAYER-1
 10
5.778213
 20
0.037560
 30
0.000000
  0
VERTEX
  8
LAYER-1
 10
5.805343
 20
0.041033
 30
0.000000
  0
VERTEX
  8
LAYER-1
 10
5.828596
 20
0.044504
 30
0.000000
  0
VERTEX
  8
LAYER-1
 10
5.851851
 20
0.047977
 30
0.000000
  0
VERTEX
  8
LAYER-1
 10
5.871229
 20
0.051448
 30
0.000000
  0
VERTEX
  8
LAYER-1
 10
5.894483
 20
0.051448
 30
0.000000
  0
VERTEX
  8
LAYER-1
 10
5.921612
 20
0.051448
 30
0.000000
  0
VERTEX
  8
LAYER-1
 10
5.941475
 20
0.054053
 30
0.000000
  0
VERTEX
  8
LAYER-1
 10
5.968120
 20
0.058393
 30
0.000000
  0
VERTEX
  8
LAYER-1
 10
5.991374
 20
0.065337
 30
0.000000
  0
VERTEX
  8
LAYER-1
 10
6.022379
 20
0.065337
 30
0.000000
  0
VERTEX
  8
LAYER-1
 10
6.053385
 20
0.065337
 30
0.000000
  0
VERTEX
  8
LAYER-1
 10
6.072762
 20
0.065337
 30
0.000000
  0
VERTEX
  8
LAYER-1
 10
6.127022
 20
0.058393
 30
0.000000
  0
VERTEX
  8
LAYER-1
 10
6.158028
 20
0.051448
 30
0.000000
  0
VERTEX
  8
LAYER-1
 10
6.177405
 20
0.047977
 30
0.000000
  0
VERTEX
  8
LAYER-1
 10
6.212286
 20
0.047977
 30
0.000000
  0
VERTEX
  8
LAYER-1
 10
6.236025
 20
0.055355
 30
0.000000
  0
VERTEX
  8
LAYER-1
 10
6.257825
 20
0.056223
 30
0.000000
  0
VERTEX
  8
LAYER-1
 10
6.309663
 20
0.063167
 30
0.000000
  0
VERTEX
  8
LAYER-1
 10
6.358108
 20
0.073150
 30
0.000000
  0
VERTEX
  8
LAYER-1
 10
6.394443
 20
0.076623
 30
0.000000
  0
VERTEX
  8
LAYER-1
 10
6.427386
 20
0.077056
 30
0.000000
  0
VERTEX
  8
LAYER-1
 10
6.444341
 20
0.072283
 30
0.000000
  0
VERTEX
  8
LAYER-1
 10
6.462751
 20
0.068810
 30
0.000000
  0
VERTEX
  8
LAYER-1
 10
6.493757
 20
0.063602
 30
0.000000
  0
VERTEX
  8
LAYER-1
 10
6.533966
 20
0.071848
 30
0.000000
  0
VERTEX
  8
LAYER-1
 10
6.549469
 20
0.079227
 30
0.000000
  0
VERTEX
  8
LAYER-1
 10
6.572723
 20
0.079227
 30
0.000000
  0
VERTEX
  8
LAYER-1
 10
6.595977
 20
0.079227
 30
0.000000
  0
VERTEX
  8
LAYER-1
 10
6.623107
 20
0.072283
 30
0.000000
  0
VERTEX
  8
LAYER-1
 10
6.646361
 20
0.058393
 30
0.000000
  0
VERTEX
  8
LAYER-1
 10
6.673490
 20
0.047977
 30
0.000000
  0
VERTEX
  8
LAYER-1
 10
6.700620
 20
0.037560
 30
0.000000
  0
VERTEX
  8
LAYER-1
 10
6.723874
 20
0.037560
 30
0.000000
  0
VERTEX
  8
LAYER-1
 10
6.753966
 20
0.037543
 30
0.000000
  0
VERTEX
  8
LAYER-1
 10
6.778134
 20
0.047977
 30
0.000000
  0
SEQEND
  8
LAYER-1
  0
POLYLINE
  8
LAYER-1
 66
  1
 70
  0
 62
  0
 10
5.840277
 20
0.468115
 30
0.000000
  0
VERTEX
  8
LAYER-1
 10
5.840277
 20
0.468115
 30
0.000000
  0
VERTEX
  8
LAYER-1
 10
3.776411
 20
0.158535
 30
0.000000
  0
SEQEND
  8
LAYER-1
  0
POLYLINE
  8
LAYER-1
 66
  1
 70
  1
 62
  0
  0
VERTEX
  8
LAYER-1
 10
3.756943
 20
0.155615
 30
0.000000
  0
VERTEX
  8
LAYER-1
 10
3.819438
 20
0.207122
 30
0.000000
  0
VERTEX
  8
LAYER-1
 10
3.825619
 20
0.165916
 30
0.000000
  0
VERTEX
  8
LAYER-1
 10
3.831800
 20
0.124711
 30
0.000000
  0
VERTEX
  8
LAYER-1
 10
3.756943
 20
0.155615
 30
0.000000
  0
SEQEND
  8
LAYER-1
  0
TEXT
  8
LAYER-1
 62
  0
 10
1.792191
 20
8.450740
 30
0.000000
 40
0.125000
  1
OPACO SOLIDO
 72
  5
 11
3.111636
 21
8.450740
 31
0.000000
  0
LINE
  8
LAYER-1
 62
  0
 10
5.906775
 20
7.409073
 30
0.000000
 11
5.906775
 21
7.141034
 31
0.000000
  0
LINE
  8
LAYER-1
 62
  0
 10
5.823653
 20
7.409073
 30
0.000000
 11
6.031775
 21
7.409073
 31
0.000000
  0
LINE
  8
LAYER-1
 62
  0
 10
5.829517
 20
7.141034
 30
0.000000
 11
6.031775
 21
7.141034
 31
0.000000
  0
LINE
  8
LAYER-1
 62
  0
 10
5.936238
 20
7.379610
 30
0.000000
 11
5.877312
 21
7.438536
 31
0.000000
  0
LINE
  8
LAYER-1
 62
  0
 10
5.936238
 20
7.111571
 30
0.000000
 11
5.877312
 21
7.170497
 31
0.000000
  0
TEXT
  8
LAYER-1
 62
  0
 10
5.783283
 20
7.266470
 30
0.000000
 40
0.125000
  1
 
 50
90.000000
  0
TEXT
  8
LAYER-1
 62
  0
 10
6.236636
 20
7.284073
 30
0.000000
 40
0.125000
  1
4"
 72
  5
 11
6.458858
 21
7.284073
 31
0.000000
  0
TEXT
  8
LAYER-1
 62
  0
 10
6.014414
 20
7.089628
 30
0.000000
 40
0.125000
  1
102mm
 72
  5
 11
6.681080
 21
7.089628
 31
0.000000
  0
LINE
  8
LAYER-1
 62
  0
 10
4.513545
 20
7.672283
 30
0.000000
 11
4.923267
 21
7.672283
 31
0.000000
  0
LINE
  8
LAYER-1
 62
  0
 10
4.513545
 20
7.302493
 30
0.000000
 11
4.513545
 21
7.797283
 31
0.000000
  0
LINE
  8
LAYER-1
 62
  0
 10
4.923267
 20
7.300757
 30
0.000000
 11
4.923267
 21
7.797283
 31
0.000000
  0
LINE
  8
LAYER-1
 62
  0
 10
4.543007
 20
7.701746
 30
0.000000
 11
4.484082
 21
7.642820
 31
0.000000
  0
LINE
  8
LAYER-1
 62
  0
 10
4.952730
 20
7.701746
 30
0.000000
 11
4.893804
 21
7.642820
 31
0.000000
  0
TEXT
  8
LAYER-1
 62
  0
 10
4.713561
 20
7.797415
 30
0.000000
 40
0.125000
  1
 
  0
TEXT
  8
LAYER-1
 62
  0
 10
4.597747
 20
8.034073
 30
0.000000
 40
0.125000
  1
6"
 72
  5
 11
4.819969
 21
8.034073
 31
0.000000
  0
TEXT
  8
LAYER-1
 62
  0
 10
4.375525
 20
7.839628
 30
0.000000
 40
0.125000
  1
152mm
 72
  5
 11
5.042191
 21
7.839628
 31
0.000000
  0
TEXT
  8
LAYER-1
 62
  0
 10
5.861636
 20
0.561851
 30
0.000000
 40
0.125000
  1
Vano
 72
  5
 11
6.319969
 21
0.561851
 31
0.000000
  0
TEXT
  8
LAYER-1
 62
  0
 10
5.861636
 20
0.367406
 30
0.000000
 40
0.125000
  1
antipolvere
 72
  5
 11
6.764414
 21
0.367406
 31
0.000000
  0
ENDSEC
  0
EOF
