  0
SECTION
  2
HEADER
999
MacDraft 5.0\0
  9
$ACADVER
  1
AC1006
  9
$CLAYER
  8
LAYER-1
  9
$EXTMIN
 10
0.000000
 20
0.000000
  9
$EXTMAX
 10
7.098051
 20
9.975866
  9
$FASTZOOM
 70
0
  9
$FILLMODE
 70
1
  0
ENDSEC
  0
SECTION
  2
TABLES
  0
TABLE
  2
LTYPE
 70
16
  0
LTYPE
  2
CONTINUOUS
 70
64
  3
Solid Line
 72
65
 73
0
 40
0.000000
  0
LTYPE
  2
LTYPE01
 70
64
  3
CUSTOM
 72
65
 73
2
 40
0.111111
 49
0.083333
 49
-0.027778
  0
LTYPE
  2
LTYPE02
 70
64
  3
CUSTOM
 72
65
 73
2
 40
0.194444
 49
0.166667
 49
-0.027778
  0
LTYPE
  2
LTYPE03
 70
64
  3
CUSTOM
 72
65
 73
2
 40
0.375000
 49
0.333333
 49
-0.041667
  0
LTYPE
  2
LTYPE04
 70
64
  3
CUSTOM
 72
65
 73
2
 40
0.722222
 49
0.666667
 49
-0.055556
  0
LTYPE
  2
LTYPE05
 70
64
  3
CUSTOM
 72
65
 73
4
 40
0.152778
 49
0.083333
 49
-0.027778
 49
0.013889
 49
-0.027778
  0
LTYPE
  2
LTYPE06
 70
64
  3
CUSTOM
 72
65
 73
4
 40
0.236111
 49
0.166667
 49
-0.027778
 49
0.013889
 49
-0.027778
  0
LTYPE
  2
LTYPE07
 70
64
  3
CUSTOM
 72
65
 73
4
 40
0.444444
 49
0.333333
 49
-0.041667
 49
0.027778
 49
-0.041667
  0
LTYPE
  2
LTYPE08
 70
64
  3
CUSTOM
 72
65
 73
4
 40
0.805556
 49
0.666667
 49
-0.055556
 49
0.027778
 49
-0.055556
  0
LTYPE
  2
LTYPE09
 70
64
  3
CUSTOM
 72
65
 73
6
 40
0.194444
 49
0.083333
 49
-0.027778
 49
0.013889
 49
-0.027778
 49
0.013889
 49
-0.027778
  0
LTYPE
  2
LTYPE10
 70
64
  3
CUSTOM
 72
65
 73
6
 40
0.277778
 49
0.166667
 49
-0.027778
 49
0.013889
 49
-0.027778
 49
0.013889
 49
-0.027778
  0
LTYPE
  2
LTYPE11
 70
64
  3
CUSTOM
 72
65
 73
6
 40
0.500000
 49
0.333333
 49
-0.041667
 49
0.027778
 49
-0.027778
 49
0.027778
 49
-0.041667
  0
LTYPE
  2
LTYPE12
 70
64
  3
CUSTOM
 72
65
 73
6
 40
0.861111
 49
0.666667
 49
-0.055556
 49
0.027778
 49
-0.027778
 49
0.027778
 49
-0.055556
  0
LTYPE
  2
LTYPE13
 70
64
  3
CUSTOM
 72
65
 73
8
 40
0.319444
 49
0.166667
 49
-0.027778
 49
0.013889
 49
-0.027778
 49
0.013889
 49
-0.027778
 49
0.013889
 49
-0.027778
  0
LTYPE
  2
LTYPE14
 70
64
  3
CUSTOM
 72
65
 73
8
 40
0.555556
 49
0.333333
 49
-0.041667
 49
0.027778
 49
-0.027778
 49
0.027778
 49
-0.027778
 49
0.027778
 49
-0.041667
  0
LTYPE
  2
LTYPE15
 70
64
  3
CUSTOM
 72
65
 73
8
 40
0.944444
 49
0.666667
 49
-0.055556
 49
0.027778
 49
-0.041667
 49
0.027778
 49
-0.041667
 49
0.027778
 49
-0.055556
  0
ENDTAB
  0
TABLE
  2
LAYER
 70
1
  0
LAYER
  2
LAYER-1
 70
0
 62
7
  6
CONTINUOUS
  0
ENDTAB
  0
ENDSEC
  0
SECTION
  2
BLOCKS
  0
ENDSEC
  0
SECTION
  2
ENTITIES
  0
POLYLINE
  8
LAYER-1
 66
  1
 70
  0
 62
  0
 10
3.478325
 20
0.208074
 30
0.000000
  0
VERTEX
  8
LAYER-1
 10
3.478325
 20
0.208074
 30
0.000000
  0
VERTEX
  8
LAYER-1
 10
3.478325
 20
0.206884
 30
0.000000
  0
SEQEND
  8
LAYER-1
  0
POLYLINE
  8
LAYER-1
 66
  1
 70
  1
 62
  0
 10
1.306469
 20
0.112907
 30
0.000000
  0
VERTEX
  8
LAYER-1
 10
1.306469
 20
0.112907
 30
0.000000
  0
VERTEX
  8
LAYER-1
 10
1.313413
 20
0.086866
 30
0.000000
  0
VERTEX
  8
LAYER-1
 10
1.338587
 20
0.100754
 30
0.000000
  0
SEQEND
  8
LAYER-1
  0
POLYLINE
  8
LAYER-1
 66
  1
 70
  1
 62
  0
 10
1.496573
 20
0.217939
 30
0.000000
  0
VERTEX
  8
LAYER-1
 10
1.496573
 20
0.217939
 30
0.000000
  0
VERTEX
  8
LAYER-1
 10
1.483553
 20
0.195369
 30
0.000000
  0
VERTEX
  8
LAYER-1
 10
1.513935
 20
0.216202
 30
0.000000
  0
SEQEND
  8
LAYER-1
  0
POLYLINE
  8
LAYER-1
 66
  1
 70
  1
 62
  0
 10
1.142407
 20
0.153705
 30
0.000000
  0
VERTEX
  8
LAYER-1
 10
1.142407
 20
0.153705
 30
0.000000
  0
VERTEX
  8
LAYER-1
 10
1.125914
 20
0.128532
 30
0.000000
  0
VERTEX
  8
LAYER-1
 10
1.140670
 20
0.120719
 30
0.000000
  0
SEQEND
  8
LAYER-1
  0
POLYLINE
  8
LAYER-1
 66
  1
 70
  0
 62
  0
 10
1.309073
 20
0.154574
 30
0.000000
  0
VERTEX
  8
LAYER-1
 10
1.309073
 20
0.154574
 30
0.000000
  0
VERTEX
  8
LAYER-1
 10
1.304733
 20
0.154574
 30
0.000000
  0
VERTEX
  8
LAYER-1
 10
1.301261
 20
0.150234
 30
0.000000
  0
VERTEX
  8
LAYER-1
 10
1.300393
 20
0.145026
 30
0.000000
  0
VERTEX
  8
LAYER-1
 10
1.302129
 20
0.140685
 30
0.000000
  0
VERTEX
  8
LAYER-1
 10
1.306469
 20
0.138949
 30
0.000000
  0
VERTEX
  8
LAYER-1
 10
1.310809
 20
0.138949
 30
0.000000
  0
VERTEX
  8
LAYER-1
 10
1.315150
 20
0.142421
 30
0.000000
  0
VERTEX
  8
LAYER-1
 10
1.315150
 20
0.146762
 30
0.000000
  0
VERTEX
  8
LAYER-1
 10
1.314282
 20
0.151103
 30
0.000000
  0
VERTEX
  8
LAYER-1
 10
1.309941
 20
0.153707
 30
0.000000
  0
SEQEND
  8
LAYER-1
  0
POLYLINE
  8
LAYER-1
 66
  1
 70
  1
 62
  0
 10
0.947094
 20
0.192766
 30
0.000000
  0
VERTEX
  8
LAYER-1
 10
0.947094
 20
0.192766
 30
0.000000
  0
VERTEX
  8
LAYER-1
 10
0.934073
 20
0.170197
 30
0.000000
  0
VERTEX
  8
LAYER-1
 10
0.964455
 20
0.191029
 30
0.000000
  0
SEQEND
  8
LAYER-1
  0
POLYLINE
  8
LAYER-1
 66
  1
 70
  1
 62
  0
 10
1.078872
 20
0.192433
 30
0.000000
  0
VERTEX
  8
LAYER-1
 10
1.078872
 20
0.192433
 30
0.000000
  0
VERTEX
  8
LAYER-1
 10
1.066185
 20
0.173069
 30
0.000000
  0
VERTEX
  8
LAYER-1
 10
1.077536
 20
0.167058
 30
0.000000
  0
SEQEND
  8
LAYER-1
  0
POLYLINE
  8
LAYER-1
 66
  1
 70
  0
 62
  0
 10
1.436678
 20
0.173670
 30
0.000000
  0
VERTEX
  8
LAYER-1
 10
1.436678
 20
0.173670
 30
0.000000
  0
VERTEX
  8
LAYER-1
 10
1.432337
 20
0.173670
 30
0.000000
  0
VERTEX
  8
LAYER-1
 10
1.428865
 20
0.169329
 30
0.000000
  0
VERTEX
  8
LAYER-1
 10
1.427997
 20
0.164122
 30
0.000000
  0
VERTEX
  8
LAYER-1
 10
1.429733
 20
0.159782
 30
0.000000
  0
VERTEX
  8
LAYER-1
 10
1.434073
 20
0.158045
 30
0.000000
  0
VERTEX
  8
LAYER-1
 10
1.438414
 20
0.158045
 30
0.000000
  0
VERTEX
  8
LAYER-1
 10
1.442753
 20
0.161517
 30
0.000000
  0
VERTEX
  8
LAYER-1
 10
1.442753
 20
0.165858
 30
0.000000
  0
VERTEX
  8
LAYER-1
 10
1.441885
 20
0.170198
 30
0.000000
  0
VERTEX
  8
LAYER-1
 10
1.437546
 20
0.172802
 30
0.000000
  0
SEQEND
  8
LAYER-1
  0
POLYLINE
  8
LAYER-1
 66
  1
 70
  0
 62
  0
 10
1.194490
 20
0.147629
 30
0.000000
  0
VERTEX
  8
LAYER-1
 10
1.194490
 20
0.147629
 30
0.000000
  0
VERTEX
  8
LAYER-1
 10
1.190150
 20
0.147629
 30
0.000000
  0
VERTEX
  8
LAYER-1
 10
1.186677
 20
0.143289
 30
0.000000
  0
VERTEX
  8
LAYER-1
 10
1.185809
 20
0.138080
 30
0.000000
  0
VERTEX
  8
LAYER-1
 10
1.187545
 20
0.133740
 30
0.000000
  0
VERTEX
  8
LAYER-1
 10
1.191886
 20
0.132004
 30
0.000000
  0
VERTEX
  8
LAYER-1
 10
1.196226
 20
0.132004
 30
0.000000
  0
VERTEX
  8
LAYER-1
 10
1.200566
 20
0.135476
 30
0.000000
  0
VERTEX
  8
LAYER-1
 10
1.200566
 20
0.139816
 30
0.000000
  0
VERTEX
  8
LAYER-1
 10
1.199698
 20
0.144157
 30
0.000000
  0
VERTEX
  8
LAYER-1
 10
1.195358
 20
0.146761
 30
0.000000
  0
SEQEND
  8
LAYER-1
  0
POLYLINE
  8
LAYER-1
 66
  1
 70
  0
 62
  0
 10
1.030427
 20
0.139816
 30
0.000000
  0
VERTEX
  8
LAYER-1
 10
1.030427
 20
0.139816
 30
0.000000
  0
VERTEX
  8
LAYER-1
 10
1.026087
 20
0.139816
 30
0.000000
  0
VERTEX
  8
LAYER-1
 10
1.022614
 20
0.135476
 30
0.000000
  0
VERTEX
  8
LAYER-1
 10
1.021746
 20
0.130268
 30
0.000000
  0
VERTEX
  8
LAYER-1
 10
1.023482
 20
0.125927
 30
0.000000
  0
VERTEX
  8
LAYER-1
 10
1.027823
 20
0.124191
 30
0.000000
  0
VERTEX
  8
LAYER-1
 10
1.032163
 20
0.124191
 30
0.000000
  0
VERTEX
  8
LAYER-1
 10
1.036503
 20
0.127664
 30
0.000000
  0
VERTEX
  8
LAYER-1
 10
1.036503
 20
0.132004
 30
0.000000
  0
VERTEX
  8
LAYER-1
 10
1.035635
 20
0.136345
 30
0.000000
  0
VERTEX
  8
LAYER-1
 10
1.031295
 20
0.138948
 30
0.000000
  0
SEQEND
  8
LAYER-1
  0
POLYLINE
  8
LAYER-1
 66
  1
 70
  1
 62
  0
 10
1.658466
 20
0.164555
 30
0.000000
  0
VERTEX
  8
LAYER-1
 10
1.658466
 20
0.164555
 30
0.000000
  0
VERTEX
  8
LAYER-1
 10
1.632426
 20
0.157611
 30
0.000000
  0
VERTEX
  8
LAYER-1
 10
1.646313
 20
0.132438
 30
0.000000
  0
SEQEND
  8
LAYER-1
  0
POLYLINE
  8
LAYER-1
 66
  1
 70
  1
 62
  0
 10
1.720010
 20
0.104958
 30
0.000000
  0
VERTEX
  8
LAYER-1
 10
1.720010
 20
0.104958
 30
0.000000
  0
VERTEX
  8
LAYER-1
 10
1.742580
 20
0.091937
 30
0.000000
  0
VERTEX
  8
LAYER-1
 10
1.721747
 20
0.122319
 30
0.000000
  0
SEQEND
  8
LAYER-1
  0
POLYLINE
  8
LAYER-1
 66
  1
 70
  1
 62
  0
 10
1.251348
 20
0.172368
 30
0.000000
  0
VERTEX
  8
LAYER-1
 10
1.251348
 20
0.172368
 30
0.000000
  0
VERTEX
  8
LAYER-1
 10
1.226175
 20
0.188860
 30
0.000000
  0
VERTEX
  8
LAYER-1
 10
1.218362
 20
0.174104
 30
0.000000
  0
SEQEND
  8
LAYER-1
  0
POLYLINE
  8
LAYER-1
 66
  1
 70
  0
 62
  0
 10
1.669752
 20
0.201014
 30
0.000000
  0
VERTEX
  8
LAYER-1
 10
1.669752
 20
0.201014
 30
0.000000
  0
VERTEX
  8
LAYER-1
 10
1.669752
 20
0.205354
 30
0.000000
  0
VERTEX
  8
LAYER-1
 10
1.665411
 20
0.208827
 30
0.000000
  0
VERTEX
  8
LAYER-1
 10
1.660203
 20
0.209695
 30
0.000000
  0
VERTEX
  8
LAYER-1
 10
1.655863
 20
0.207959
 30
0.000000
  0
VERTEX
  8
LAYER-1
 10
1.654127
 20
0.203618
 30
0.000000
  0
VERTEX
  8
LAYER-1
 10
1.654127
 20
0.199278
 30
0.000000
  0
VERTEX
  8
LAYER-1
 10
1.657599
 20
0.194938
 30
0.000000
  0
VERTEX
  8
LAYER-1
 10
1.661939
 20
0.194938
 30
0.000000
  0
VERTEX
  8
LAYER-1
 10
1.666280
 20
0.195805
 30
0.000000
  0
VERTEX
  8
LAYER-1
 10
1.668885
 20
0.200146
 30
0.000000
  0
SEQEND
  8
LAYER-1
  0
POLYLINE
  8
LAYER-1
 66
  1
 70
  1
 62
  0
 10
1.622009
 20
0.176707
 30
0.000000
  0
VERTEX
  8
LAYER-1
 10
1.622009
 20
0.176707
 30
0.000000
  0
VERTEX
  8
LAYER-1
 10
1.599438
 20
0.189728
 30
0.000000
  0
VERTEX
  8
LAYER-1
 10
1.620271
 20
0.159347
 30
0.000000
  0
SEQEND
  8
LAYER-1
  0
POLYLINE
  8
LAYER-1
 66
  1
 70
  1
 62
  0
 10
1.270111
 20
0.189026
 30
0.000000
  0
VERTEX
  8
LAYER-1
 10
1.270111
 20
0.189026
 30
0.000000
  0
VERTEX
  8
LAYER-1
 10
1.250747
 20
0.201713
 30
0.000000
  0
VERTEX
  8
LAYER-1
 10
1.244735
 20
0.190362
 30
0.000000
  0
SEQEND
  8
LAYER-1
  0
POLYLINE
  8
LAYER-1
 66
  1
 70
  0
 62
  0
 10
1.735983
 20
0.065375
 30
0.000000
  0
VERTEX
  8
LAYER-1
 10
1.735983
 20
0.065375
 30
0.000000
  0
VERTEX
  8
LAYER-1
 10
1.735983
 20
0.061035
 30
0.000000
  0
VERTEX
  8
LAYER-1
 10
1.740324
 20
0.057562
 30
0.000000
  0
VERTEX
  8
LAYER-1
 10
1.745532
 20
0.056694
 30
0.000000
  0
VERTEX
  8
LAYER-1
 10
1.749873
 20
0.058430
 30
0.000000
  0
VERTEX
  8
LAYER-1
 10
1.751608
 20
0.062771
 30
0.000000
  0
VERTEX
  8
LAYER-1
 10
1.751608
 20
0.067112
 30
0.000000
  0
VERTEX
  8
LAYER-1
 10
1.748137
 20
0.071451
 30
0.000000
  0
VERTEX
  8
LAYER-1
 10
1.743796
 20
0.071451
 30
0.000000
  0
VERTEX
  8
LAYER-1
 10
1.739455
 20
0.070584
 30
0.000000
  0
VERTEX
  8
LAYER-1
 10
1.736850
 20
0.066243
 30
0.000000
  0
SEQEND
  8
LAYER-1
  0
POLYLINE
  8
LAYER-1
 66
  1
 70
  0
 62
  0
 10
1.245272
 20
0.120284
 30
0.000000
  0
VERTEX
  8
LAYER-1
 10
1.245272
 20
0.120284
 30
0.000000
  0
VERTEX
  8
LAYER-1
 10
1.245272
 20
0.124625
 30
0.000000
  0
VERTEX
  8
LAYER-1
 10
1.240931
 20
0.128097
 30
0.000000
  0
VERTEX
  8
LAYER-1
 10
1.235723
 20
0.128965
 30
0.000000
  0
VERTEX
  8
LAYER-1
 10
1.231383
 20
0.127229
 30
0.000000
  0
VERTEX
  8
LAYER-1
 10
1.229647
 20
0.122888
 30
0.000000
  0
VERTEX
  8
LAYER-1
 10
1.229647
 20
0.118548
 30
0.000000
  0
VERTEX
  8
LAYER-1
 10
1.233119
 20
0.114208
 30
0.000000
  0
VERTEX
  8
LAYER-1
 10
1.237459
 20
0.114208
 30
0.000000
  0
VERTEX
  8
LAYER-1
 10
1.241800
 20
0.115076
 30
0.000000
  0
VERTEX
  8
LAYER-1
 10
1.244405
 20
0.119416
 30
0.000000
  0
SEQEND
  8
LAYER-1
  0
POLYLINE
  8
LAYER-1
 66
  1
 70
  0
 62
  0
 10
1.547356
 20
0.155008
 30
0.000000
  0
VERTEX
  8
LAYER-1
 10
1.547356
 20
0.155008
 30
0.000000
  0
VERTEX
  8
LAYER-1
 10
1.547356
 20
0.159348
 30
0.000000
  0
VERTEX
  8
LAYER-1
 10
1.543015
 20
0.162821
 30
0.000000
  0
VERTEX
  8
LAYER-1
 10
1.537807
 20
0.163689
 30
0.000000
  0
VERTEX
  8
LAYER-1
 10
1.533466
 20
0.161953
 30
0.000000
  0
VERTEX
  8
LAYER-1
 10
1.531730
 20
0.157611
 30
0.000000
  0
VERTEX
  8
LAYER-1
 10
1.531730
 20
0.153272
 30
0.000000
  0
VERTEX
  8
LAYER-1
 10
1.535202
 20
0.148932
 30
0.000000
  0
VERTEX
  8
LAYER-1
 10
1.539543
 20
0.148932
 30
0.000000
  0
VERTEX
  8
LAYER-1
 10
1.543884
 20
0.149799
 30
0.000000
  0
VERTEX
  8
LAYER-1
 10
1.546489
 20
0.154140
 30
0.000000
  0
SEQEND
  8
LAYER-1
  0
POLYLINE
  8
LAYER-1
 66
  1
 70
  1
 62
  0
 10
1.766540
 20
0.147196
 30
0.000000
  0
VERTEX
  8
LAYER-1
 10
1.766540
 20
0.147196
 30
0.000000
  0
VERTEX
  8
LAYER-1
 10
1.773483
 20
0.121154
 30
0.000000
  0
VERTEX
  8
LAYER-1
 10
1.792581
 20
0.136778
 30
0.000000
  0
SEQEND
  8
LAYER-1
  0
POLYLINE
  8
LAYER-1
 66
  1
 70
  1
 62
  0
 10
1.950567
 20
0.168897
 30
0.000000
  0
VERTEX
  8
LAYER-1
 10
1.950567
 20
0.168897
 30
0.000000
  0
VERTEX
  8
LAYER-1
 10
1.937546
 20
0.146328
 30
0.000000
  0
VERTEX
  8
LAYER-1
 10
1.967928
 20
0.167160
 30
0.000000
  0
SEQEND
  8
LAYER-1
  0
POLYLINE
  8
LAYER-1
 66
  1
 70
  1
 62
  0
 10
2.000471
 20
0.067436
 30
0.000000
  0
VERTEX
  8
LAYER-1
 10
2.000471
 20
0.067436
 30
0.000000
  0
VERTEX
  8
LAYER-1
 10
1.983979
 20
0.042263
 30
0.000000
  0
VERTEX
  8
LAYER-1
 10
1.998735
 20
0.034451
 30
0.000000
  0
SEQEND
  8
LAYER-1
  0
POLYLINE
  8
LAYER-1
 66
  1
 70
  0
 62
  0
 10
1.738761
 20
0.171501
 30
0.000000
  0
VERTEX
  8
LAYER-1
 10
1.738761
 20
0.171501
 30
0.000000
  0
VERTEX
  8
LAYER-1
 10
1.734421
 20
0.171501
 30
0.000000
  0
VERTEX
  8
LAYER-1
 10
1.730949
 20
0.167160
 30
0.000000
  0
VERTEX
  8
LAYER-1
 10
1.730081
 20
0.161953
 30
0.000000
  0
VERTEX
  8
LAYER-1
 10
1.731817
 20
0.157611
 30
0.000000
  0
VERTEX
  8
LAYER-1
 10
1.736157
 20
0.155876
 30
0.000000
  0
VERTEX
  8
LAYER-1
 10
1.740497
 20
0.155876
 30
0.000000
  0
VERTEX
  8
LAYER-1
 10
1.744837
 20
0.159348
 30
0.000000
  0
VERTEX
  8
LAYER-1
 10
1.744837
 20
0.163689
 30
0.000000
  0
VERTEX
  8
LAYER-1
 10
1.743969
 20
0.168029
 30
0.000000
  0
VERTEX
  8
LAYER-1
 10
1.739629
 20
0.170633
 30
0.000000
  0
SEQEND
  8
LAYER-1
  0
POLYLINE
  8
LAYER-1
 66
  1
 70
  1
 62
  0
 10
1.776088
 20
0.103792
 30
0.000000
  0
VERTEX
  8
LAYER-1
 10
1.776088
 20
0.103792
 30
0.000000
  0
VERTEX
  8
LAYER-1
 10
1.763067
 20
0.081223
 30
0.000000
  0
VERTEX
  8
LAYER-1
 10
1.793449
 20
0.102055
 30
0.000000
  0
SEQEND
  8
LAYER-1
  0
POLYLINE
  8
LAYER-1
 66
  1
 70
  1
 62
  0
 10
2.031888
 20
0.049545
 30
0.000000
  0
VERTEX
  8
LAYER-1
 10
2.031888
 20
0.049545
 30
0.000000
  0
VERTEX
  8
LAYER-1
 10
2.044575
 20
0.068909
 30
0.000000
  0
VERTEX
  8
LAYER-1
 10
2.033224
 20
0.074920
 30
0.000000
  0
SEQEND
  8
LAYER-1
  0
POLYLINE
  8
LAYER-1
 66
  1
 70
  0
 62
  0
 10
1.931114
 20
0.049992
 30
0.000000
  0
VERTEX
  8
LAYER-1
 10
1.931114
 20
0.049992
 30
0.000000
  0
VERTEX
  8
LAYER-1
 10
1.935454
 20
0.049992
 30
0.000000
  0
VERTEX
  8
LAYER-1
 10
1.938926
 20
0.054332
 30
0.000000
  0
VERTEX
  8
LAYER-1
 10
1.939794
 20
0.059541
 30
0.000000
  0
VERTEX
  8
LAYER-1
 10
1.938058
 20
0.063881
 30
0.000000
  0
VERTEX
  8
LAYER-1
 10
1.933717
 20
0.065617
 30
0.000000
  0
VERTEX
  8
LAYER-1
 10
1.929378
 20
0.065617
 30
0.000000
  0
VERTEX
  8
LAYER-1
 10
1.925037
 20
0.062145
 30
0.000000
  0
VERTEX
  8
LAYER-1
 10
1.925037
 20
0.057805
 30
0.000000
  0
VERTEX
  8
LAYER-1
 10
1.925905
 20
0.053463
 30
0.000000
  0
VERTEX
  8
LAYER-1
 10
1.930246
 20
0.050859
 30
0.000000
  0
SEQEND
  8
LAYER-1
  0
POLYLINE
  8
LAYER-1
 66
  1
 70
  0
 62
  0
 10
1.620618
 20
0.085860
 30
0.000000
  0
VERTEX
  8
LAYER-1
 10
1.620618
 20
0.085860
 30
0.000000
  0
VERTEX
  8
LAYER-1
 10
1.624959
 20
0.085860
 30
0.000000
  0
VERTEX
  8
LAYER-1
 10
1.628430
 20
0.090200
 30
0.000000
  0
VERTEX
  8
LAYER-1
 10
1.629299
 20
0.095408
 30
0.000000
  0
VERTEX
  8
LAYER-1
 10
1.627563
 20
0.099748
 30
0.000000
  0
VERTEX
  8
LAYER-1
 10
1.623223
 20
0.101485
 30
0.000000
  0
VERTEX
  8
LAYER-1
 10
1.618882
 20
0.101485
 30
0.000000
  0
VERTEX
  8
LAYER-1
 10
1.614541
 20
0.098012
 30
0.000000
  0
VERTEX
  8
LAYER-1
 10
1.614541
 20
0.093672
 30
0.000000
  0
VERTEX
  8
LAYER-1
 10
1.615410
 20
0.089331
 30
0.000000
  0
VERTEX
  8
LAYER-1
 10
1.619751
 20
0.086728
 30
0.000000
  0
SEQEND
  8
LAYER-1
  0
POLYLINE
  8
LAYER-1
 66
  1
 70
  1
 62
  0
 10
2.115932
 20
0.151970
 30
0.000000
  0
VERTEX
  8
LAYER-1
 10
2.115932
 20
0.151970
 30
0.000000
  0
VERTEX
  8
LAYER-1
 10
2.089891
 20
0.145025
 30
0.000000
  0
VERTEX
  8
LAYER-1
 10
2.103779
 20
0.119852
 30
0.000000
  0
SEQEND
  8
LAYER-1
  0
POLYLINE
  8
LAYER-1
 66
  1
 70
  1
 62
  0
 10
1.854815
 20
0.112375
 30
0.000000
  0
VERTEX
  8
LAYER-1
 10
1.854815
 20
0.112375
 30
0.000000
  0
VERTEX
  8
LAYER-1
 10
1.832244
 20
0.125396
 30
0.000000
  0
VERTEX
  8
LAYER-1
 10
1.853077
 20
0.095014
 30
0.000000
  0
SEQEND
  8
LAYER-1
  0
POLYLINE
  8
LAYER-1
 66
  1
 70
  1
 62
  0
 10
1.884672
 20
0.034801
 30
0.000000
  0
VERTEX
  8
LAYER-1
 10
1.884672
 20
0.034801
 30
0.000000
  0
VERTEX
  8
LAYER-1
 10
1.909845
 20
0.018307
 30
0.000000
  0
VERTEX
  8
LAYER-1
 10
1.917658
 20
0.033066
 30
0.000000
  0
SEQEND
  8
LAYER-1
  0
POLYLINE
  8
LAYER-1
 66
  1
 70
  0
 62
  0
 10
2.147182
 20
0.201447
 30
0.000000
  0
VERTEX
  8
LAYER-1
 10
2.147182
 20
0.201447
 30
0.000000
  0
VERTEX
  8
LAYER-1
 10
2.147182
 20
0.205788
 30
0.000000
  0
VERTEX
  8
LAYER-1
 10
2.142841
 20
0.209259
 30
0.000000
  0
VERTEX
  8
LAYER-1
 10
2.137633
 20
0.210127
 30
0.000000
  0
VERTEX
  8
LAYER-1
 10
2.133293
 20
0.208391
 30
0.000000
  0
VERTEX
  8
LAYER-1
 10
2.131557
 20
0.204051
 30
0.000000
  0
VERTEX
  8
LAYER-1
 10
2.131557
 20
0.199710
 30
0.000000
  0
VERTEX
  8
LAYER-1
 10
2.135029
 20
0.195370
 30
0.000000
  0
VERTEX
  8
LAYER-1
 10
2.139369
 20
0.195370
 30
0.000000
  0
VERTEX
  8
LAYER-1
 10
2.143710
 20
0.196238
 30
0.000000
  0
VERTEX
  8
LAYER-1
 10
2.146315
 20
0.200578
 30
0.000000
  0
SEQEND
  8
LAYER-1
  0
POLYLINE
  8
LAYER-1
 66
  1
 70
  1
 62
  0
 10
2.079474
 20
0.164122
 30
0.000000
  0
VERTEX
  8
LAYER-1
 10
2.079474
 20
0.164122
 30
0.000000
  0
VERTEX
  8
LAYER-1
 10
2.056904
 20
0.177142
 30
0.000000
  0
VERTEX
  8
LAYER-1
 10
2.077736
 20
0.146761
 30
0.000000
  0
SEQEND
  8
LAYER-1
  0
POLYLINE
  8
LAYER-1
 66
  1
 70
  1
 62
  0
 10
0.848236
 20
0.200745
 30
0.000000
  0
VERTEX
  8
LAYER-1
 10
0.848236
 20
0.200745
 30
0.000000
  0
VERTEX
  8
LAYER-1
 10
0.828872
 20
0.213431
 30
0.000000
  0
VERTEX
  8
LAYER-1
 10
0.822861
 20
0.202081
 30
0.000000
  0
SEQEND
  8
LAYER-1
  0
POLYLINE
  8
LAYER-1
 66
  1
 70
  0
 62
  0
 10
1.859154
 20
0.172271
 30
0.000000
  0
VERTEX
  8
LAYER-1
 10
1.859154
 20
0.172271
 30
0.000000
  0
VERTEX
  8
LAYER-1
 10
1.859154
 20
0.176609
 30
0.000000
  0
VERTEX
  8
LAYER-1
 10
1.854813
 20
0.180083
 30
0.000000
  0
VERTEX
  8
LAYER-1
 10
1.849606
 20
0.180951
 30
0.000000
  0
VERTEX
  8
LAYER-1
 10
1.845264
 20
0.179214
 30
0.000000
  0
VERTEX
  8
LAYER-1
 10
1.843529
 20
0.174875
 30
0.000000
  0
VERTEX
  8
LAYER-1
 10
1.843529
 20
0.170534
 30
0.000000
  0
VERTEX
  8
LAYER-1
 10
1.847001
 20
0.166194
 30
0.000000
  0
VERTEX
  8
LAYER-1
 10
1.851341
 20
0.166194
 30
0.000000
  0
VERTEX
  8
LAYER-1
 10
1.855682
 20
0.167063
 30
0.000000
  0
VERTEX
  8
LAYER-1
 10
1.858287
 20
0.171403
 30
0.000000
  0
SEQEND
  8
LAYER-1
  0
POLYLINE
  8
LAYER-1
 66
  1
 70
  0
 62
  0
 10
0.825133
 20
0.133739
 30
0.000000
  0
VERTEX
  8
LAYER-1
 10
0.825133
 20
0.133739
 30
0.000000
  0
VERTEX
  8
LAYER-1
 10
0.825133
 20
0.138079
 30
0.000000
  0
VERTEX
  8
LAYER-1
 10
0.820793
 20
0.141552
 30
0.000000
  0
VERTEX
  8
LAYER-1
 10
0.815585
 20
0.142420
 30
0.000000
  0
VERTEX
  8
LAYER-1
 10
0.811244
 20
0.140683
 30
0.000000
  0
VERTEX
  8
LAYER-1
 10
0.809508
 20
0.136342
 30
0.000000
  0
VERTEX
  8
LAYER-1
 10
0.809508
 20
0.132003
 30
0.000000
  0
VERTEX
  8
LAYER-1
 10
0.812980
 20
0.127663
 30
0.000000
  0
VERTEX
  8
LAYER-1
 10
0.817321
 20
0.127663
 30
0.000000
  0
VERTEX
  8
LAYER-1
 10
0.821662
 20
0.128530
 30
0.000000
  0
VERTEX
  8
LAYER-1
 10
0.824266
 20
0.132871
 30
0.000000
  0
SEQEND
  8
LAYER-1
  0
POLYLINE
  8
LAYER-1
 66
  1
 70
  0
 62
  0
 10
1.947529
 20
0.201444
 30
0.000000
  0
VERTEX
  8
LAYER-1
 10
1.947529
 20
0.201444
 30
0.000000
  0
VERTEX
  8
LAYER-1
 10
1.947529
 20
0.205784
 30
0.000000
  0
VERTEX
  8
LAYER-1
 10
1.943188
 20
0.209256
 30
0.000000
  0
VERTEX
  8
LAYER-1
 10
1.937980
 20
0.210125
 30
0.000000
  0
VERTEX
  8
LAYER-1
 10
1.933640
 20
0.208388
 30
0.000000
  0
VERTEX
  8
LAYER-1
 10
1.931904
 20
0.204047
 30
0.000000
  0
VERTEX
  8
LAYER-1
 10
1.931904
 20
0.199708
 30
0.000000
  0
VERTEX
  8
LAYER-1
 10
1.935375
 20
0.195367
 30
0.000000
  0
VERTEX
  8
LAYER-1
 10
1.939716
 20
0.195367
 30
0.000000
  0
VERTEX
  8
LAYER-1
 10
1.944057
 20
0.196235
 30
0.000000
  0
VERTEX
  8
LAYER-1
 10
1.946662
 20
0.200576
 30
0.000000
  0
SEQEND
  8
LAYER-1
  0
POLYLINE
  8
LAYER-1
 66
  1
 70
  1
 62
  0
 10
1.506817
 20
0.065979
 30
0.000000
  0
VERTEX
  8
LAYER-1
 10
1.506817
 20
0.065979
 30
0.000000
  0
VERTEX
  8
LAYER-1
 10
1.480775
 20
0.059035
 30
0.000000
  0
VERTEX
  8
LAYER-1
 10
1.494664
 20
0.033861
 30
0.000000
  0
SEQEND
  8
LAYER-1
  0
POLYLINE
  8
LAYER-1
 66
  1
 70
  1
 62
  0
 10
2.353344
 20
0.129400
 30
0.000000
  0
VERTEX
  8
LAYER-1
 10
2.353344
 20
0.129400
 30
0.000000
  0
VERTEX
  8
LAYER-1
 10
2.375914
 20
0.116379
 30
0.000000
  0
VERTEX
  8
LAYER-1
 10
2.355081
 20
0.146761
 30
0.000000
  0
SEQEND
  8
LAYER-1
  0
POLYLINE
  8
LAYER-1
 66
  1
 70
  1
 62
  0
 10
0.962719
 20
0.146327
 30
0.000000
  0
VERTEX
  8
LAYER-1
 10
0.962719
 20
0.146327
 30
0.000000
  0
VERTEX
  8
LAYER-1
 10
0.987893
 20
0.129834
 30
0.000000
  0
VERTEX
  8
LAYER-1
 10
0.995706
 20
0.144591
 30
0.000000
  0
SEQEND
  8
LAYER-1
  0
POLYLINE
  8
LAYER-1
 66
  1
 70
  0
 62
  0
 10
2.281296
 20
0.176271
 30
0.000000
  0
VERTEX
  8
LAYER-1
 10
2.281296
 20
0.176271
 30
0.000000
  0
VERTEX
  8
LAYER-1
 10
2.281296
 20
0.171932
 30
0.000000
  0
VERTEX
  8
LAYER-1
 10
2.285636
 20
0.168460
 30
0.000000
  0
VERTEX
  8
LAYER-1
 10
2.290844
 20
0.167592
 30
0.000000
  0
VERTEX
  8
LAYER-1
 10
2.295185
 20
0.169328
 30
0.000000
  0
VERTEX
  8
LAYER-1
 10
2.296921
 20
0.173669
 30
0.000000
  0
VERTEX
  8
LAYER-1
 10
2.296921
 20
0.178007
 30
0.000000
  0
VERTEX
  8
LAYER-1
 10
2.293449
 20
0.182348
 30
0.000000
  0
VERTEX
  8
LAYER-1
 10
2.289108
 20
0.182348
 30
0.000000
  0
VERTEX
  8
LAYER-1
 10
2.284768
 20
0.181480
 30
0.000000
  0
VERTEX
  8
LAYER-1
 10
2.282164
 20
0.177139
 30
0.000000
  0
SEQEND
  8
LAYER-1
  0
POLYLINE
  8
LAYER-1
 66
  1
 70
  1
 62
  0
 10
2.230948
 20
0.187558
 30
0.000000
  0
VERTEX
  8
LAYER-1
 10
2.230948
 20
0.187558
 30
0.000000
  0
VERTEX
  8
LAYER-1
 10
2.253518
 20
0.174538
 30
0.000000
  0
VERTEX
  8
LAYER-1
 10
2.232685
 20
0.204919
 30
0.000000
  0
SEQEND
  8
LAYER-1
  0
POLYLINE
  8
LAYER-1
 66
  1
 70
  1
 62
  0
 10
0.961317
 20
0.094076
 30
0.000000
  0
VERTEX
  8
LAYER-1
 10
0.961317
 20
0.094076
 30
0.000000
  0
VERTEX
  8
LAYER-1
 10
0.980682
 20
0.081390
 30
0.000000
  0
VERTEX
  8
LAYER-1
 10
0.986693
 20
0.092740
 30
0.000000
  0
SEQEND
  8
LAYER-1
  0
POLYLINE
  8
LAYER-1
 66
  1
 70
  0
 62
  0
 10
1.687459
 20
0.046361
 30
0.000000
  0
VERTEX
  8
LAYER-1
 10
1.687459
 20
0.046361
 30
0.000000
  0
VERTEX
  8
LAYER-1
 10
1.687459
 20
0.050702
 30
0.000000
  0
VERTEX
  8
LAYER-1
 10
1.683118
 20
0.054174
 30
0.000000
  0
VERTEX
  8
LAYER-1
 10
1.677910
 20
0.055042
 30
0.000000
  0
VERTEX
  8
LAYER-1
 10
1.673569
 20
0.053306
 30
0.000000
  0
VERTEX
  8
LAYER-1
 10
1.671834
 20
0.048965
 30
0.000000
  0
VERTEX
  8
LAYER-1
 10
1.671834
 20
0.044624
 30
0.000000
  0
VERTEX
  8
LAYER-1
 10
1.675305
 20
0.040285
 30
0.000000
  0
VERTEX
  8
LAYER-1
 10
1.679646
 20
0.040285
 30
0.000000
  0
VERTEX
  8
LAYER-1
 10
1.683987
 20
0.041153
 30
0.000000
  0
VERTEX
  8
LAYER-1
 10
1.686591
 20
0.045493
 30
0.000000
  0
SEQEND
  8
LAYER-1
  0
POLYLINE
  8
LAYER-1
 66
  1
 70
  0
 62
  0
 10
2.493101
 20
0.129400
 30
0.000000
  0
VERTEX
  8
LAYER-1
 10
2.493101
 20
0.129400
 30
0.000000
  0
VERTEX
  8
LAYER-1
 10
2.493101
 20
0.125059
 30
0.000000
  0
VERTEX
  8
LAYER-1
 10
2.497442
 20
0.121588
 30
0.000000
  0
VERTEX
  8
LAYER-1
 10
2.502650
 20
0.120720
 30
0.000000
  0
VERTEX
  8
LAYER-1
 10
2.506990
 20
0.122455
 30
0.000000
  0
VERTEX
  8
LAYER-1
 10
2.508726
 20
0.126795
 30
0.000000
  0
VERTEX
  8
LAYER-1
 10
2.508726
 20
0.131136
 30
0.000000
  0
VERTEX
  8
LAYER-1
 10
2.505254
 20
0.135477
 30
0.000000
  0
VERTEX
  8
LAYER-1
 10
2.500914
 20
0.135477
 30
0.000000
  0
VERTEX
  8
LAYER-1
 10
2.496573
 20
0.134608
 30
0.000000
  0
VERTEX
  8
LAYER-1
 10
2.493969
 20
0.130268
 30
0.000000
  0
SEQEND
  8
LAYER-1
  0
POLYLINE
  8
LAYER-1
 66
  1
 70
  0
 62
  0
 10
2.327303
 20
0.184086
 30
0.000000
  0
VERTEX
  8
LAYER-1
 10
2.327303
 20
0.184086
 30
0.000000
  0
VERTEX
  8
LAYER-1
 10
2.327303
 20
0.179746
 30
0.000000
  0
VERTEX
  8
LAYER-1
 10
2.331643
 20
0.176274
 30
0.000000
  0
VERTEX
  8
LAYER-1
 10
2.336851
 20
0.175407
 30
0.000000
  0
VERTEX
  8
LAYER-1
 10
2.341192
 20
0.177142
 30
0.000000
  0
VERTEX
  8
LAYER-1
 10
2.342928
 20
0.181482
 30
0.000000
  0
VERTEX
  8
LAYER-1
 10
2.342928
 20
0.185822
 30
0.000000
  0
VERTEX
  8
LAYER-1
 10
2.339456
 20
0.190164
 30
0.000000
  0
VERTEX
  8
LAYER-1
 10
2.335115
 20
0.190164
 30
0.000000
  0
VERTEX
  8
LAYER-1
 10
2.330775
 20
0.189295
 30
0.000000
  0
VERTEX
  8
LAYER-1
 10
2.328170
 20
0.184954
 30
0.000000
  0
SEQEND
  8
LAYER-1
  0
POLYLINE
  8
LAYER-1
 66
  1
 70
  1
 62
  0
 10
2.089456
 20
0.101189
 30
0.000000
  0
VERTEX
  8
LAYER-1
 10
2.089456
 20
0.101189
 30
0.000000
  0
VERTEX
  8
LAYER-1
 10
2.096401
 20
0.075148
 30
0.000000
  0
VERTEX
  8
LAYER-1
 10
2.121574
 20
0.089035
 30
0.000000
  0
SEQEND
  8
LAYER-1
  0
POLYLINE
  8
LAYER-1
 66
  1
 70
  1
 62
  0
 10
2.193970
 20
0.088431
 30
0.000000
  0
VERTEX
  8
LAYER-1
 10
2.193970
 20
0.088431
 30
0.000000
  0
VERTEX
  8
LAYER-1
 10
2.180949
 20
0.065860
 30
0.000000
  0
VERTEX
  8
LAYER-1
 10
2.211331
 20
0.086693
 30
0.000000
  0
SEQEND
  8
LAYER-1
  0
POLYLINE
  8
LAYER-1
 66
  1
 70
  1
 62
  0
 10
1.909935
 20
0.118885
 30
0.000000
  0
VERTEX
  8
LAYER-1
 10
1.909935
 20
0.118885
 30
0.000000
  0
VERTEX
  8
LAYER-1
 10
1.893442
 20
0.093713
 30
0.000000
  0
VERTEX
  8
LAYER-1
 10
1.908199
 20
0.085900
 30
0.000000
  0
SEQEND
  8
LAYER-1
  0
POLYLINE
  8
LAYER-1
 66
  1
 70
  0
 62
  0
 10
2.039977
 20
0.132439
 30
0.000000
  0
VERTEX
  8
LAYER-1
 10
2.039977
 20
0.132439
 30
0.000000
  0
VERTEX
  8
LAYER-1
 10
2.035636
 20
0.132439
 30
0.000000
  0
VERTEX
  8
LAYER-1
 10
2.032165
 20
0.128098
 30
0.000000
  0
VERTEX
  8
LAYER-1
 10
2.031297
 20
0.122890
 30
0.000000
  0
VERTEX
  8
LAYER-1
 10
2.033033
 20
0.118549
 30
0.000000
  0
VERTEX
  8
LAYER-1
 10
2.037373
 20
0.116814
 30
0.000000
  0
VERTEX
  8
LAYER-1
 10
2.041713
 20
0.116814
 30
0.000000
  0
VERTEX
  8
LAYER-1
 10
2.046054
 20
0.120285
 30
0.000000
  0
VERTEX
  8
LAYER-1
 10
2.046054
 20
0.124626
 30
0.000000
  0
VERTEX
  8
LAYER-1
 10
2.045186
 20
0.128966
 30
0.000000
  0
VERTEX
  8
LAYER-1
 10
2.040845
 20
0.131571
 30
0.000000
  0
SEQEND
  8
LAYER-1
  0
POLYLINE
  8
LAYER-1
 66
  1
 70
  1
 62
  0
 10
0.897616
 20
0.208826
 30
0.000000
  0
VERTEX
  8
LAYER-1
 10
0.897616
 20
0.208826
 30
0.000000
  0
VERTEX
  8
LAYER-1
 10
0.884595
 20
0.186255
 30
0.000000
  0
VERTEX
  8
LAYER-1
 10
0.914977
 20
0.207088
 30
0.000000
  0
SEQEND
  8
LAYER-1
  0
POLYLINE
  8
LAYER-1
 66
  1
 70
  1
 62
  0
 10
1.895011
 20
0.151535
 30
0.000000
  0
VERTEX
  8
LAYER-1
 10
1.895011
 20
0.151535
 30
0.000000
  0
VERTEX
  8
LAYER-1
 10
1.882325
 20
0.132171
 30
0.000000
  0
VERTEX
  8
LAYER-1
 10
1.893675
 20
0.126160
 30
0.000000
  0
SEQEND
  8
LAYER-1
  0
POLYLINE
  8
LAYER-1
 66
  1
 70
  0
 62
  0
 10
2.191886
 20
0.134174
 30
0.000000
  0
VERTEX
  8
LAYER-1
 10
2.191886
 20
0.134174
 30
0.000000
  0
VERTEX
  8
LAYER-1
 10
2.187547
 20
0.134174
 30
0.000000
  0
VERTEX
  8
LAYER-1
 10
2.184074
 20
0.129834
 30
0.000000
  0
VERTEX
  8
LAYER-1
 10
2.183206
 20
0.124626
 30
0.000000
  0
VERTEX
  8
LAYER-1
 10
2.184942
 20
0.120285
 30
0.000000
  0
VERTEX
  8
LAYER-1
 10
2.189283
 20
0.118549
 30
0.000000
  0
VERTEX
  8
LAYER-1
 10
2.193623
 20
0.118549
 30
0.000000
  0
VERTEX
  8
LAYER-1
 10
2.197963
 20
0.122021
 30
0.000000
  0
VERTEX
  8
LAYER-1
 10
2.197963
 20
0.126361
 30
0.000000
  0
VERTEX
  8
LAYER-1
 10
2.197095
 20
0.130703
 30
0.000000
  0
VERTEX
  8
LAYER-1
 10
2.192754
 20
0.133308
 30
0.000000
  0
SEQEND
  8
LAYER-1
  0
POLYLINE
  8
LAYER-1
 66
  1
 70
  0
 62
  0
 10
2.251783
 20
0.139382
 30
0.000000
  0
VERTEX
  8
LAYER-1
 10
2.251783
 20
0.139382
 30
0.000000
  0
VERTEX
  8
LAYER-1
 10
2.247442
 20
0.139382
 30
0.000000
  0
VERTEX
  8
LAYER-1
 10
2.243970
 20
0.135041
 30
0.000000
  0
VERTEX
  8
LAYER-1
 10
2.243102
 20
0.129834
 30
0.000000
  0
VERTEX
  8
LAYER-1
 10
2.244838
 20
0.125493
 30
0.000000
  0
VERTEX
  8
LAYER-1
 10
2.249179
 20
0.123757
 30
0.000000
  0
VERTEX
  8
LAYER-1
 10
2.253518
 20
0.123757
 30
0.000000
  0
VERTEX
  8
LAYER-1
 10
2.257859
 20
0.127229
 30
0.000000
  0
VERTEX
  8
LAYER-1
 10
2.257859
 20
0.131570
 30
0.000000
  0
VERTEX
  8
LAYER-1
 10
2.256991
 20
0.135910
 30
0.000000
  0
VERTEX
  8
LAYER-1
 10
2.252651
 20
0.138515
 30
0.000000
  0
SEQEND
  8
LAYER-1
  0
POLYLINE
  8
LAYER-1
 66
  1
 70
  0
 62
  0
 10
0.908033
 20
0.126361
 30
0.000000
  0
VERTEX
  8
LAYER-1
 10
0.908033
 20
0.126361
 30
0.000000
  0
VERTEX
  8
LAYER-1
 10
0.903692
 20
0.126361
 30
0.000000
  0
VERTEX
  8
LAYER-1
 10
0.900220
 20
0.122020
 30
0.000000
  0
VERTEX
  8
LAYER-1
 10
0.899352
 20
0.116813
 30
0.000000
  0
VERTEX
  8
LAYER-1
 10
0.901088
 20
0.112472
 30
0.000000
  0
VERTEX
  8
LAYER-1
 10
0.905429
 20
0.110736
 30
0.000000
  0
VERTEX
  8
LAYER-1
 10
0.909768
 20
0.110736
 30
0.000000
  0
VERTEX
  8
LAYER-1
 10
0.914109
 20
0.114208
 30
0.000000
  0
VERTEX
  8
LAYER-1
 10
0.914109
 20
0.118548
 30
0.000000
  0
VERTEX
  8
LAYER-1
 10
0.913241
 20
0.122889
 30
0.000000
  0
VERTEX
  8
LAYER-1
 10
0.908900
 20
0.125494
 30
0.000000
  0
SEQEND
  8
LAYER-1
  0
POLYLINE
  8
LAYER-1
 66
  1
 70
  1
 62
  0
 10
2.559074
 20
0.166291
 30
0.000000
  0
VERTEX
  8
LAYER-1
 10
2.559074
 20
0.166291
 30
0.000000
  0
VERTEX
  8
LAYER-1
 10
2.566018
 20
0.140250
 30
0.000000
  0
VERTEX
  8
LAYER-1
 10
2.591192
 20
0.154138
 30
0.000000
  0
SEQEND
  8
LAYER-1
  0
POLYLINE
  8
LAYER-1
 66
  1
 70
  1
 62
  0
 10
2.721401
 20
0.194936
 30
0.000000
  0
VERTEX
  8
LAYER-1
 10
2.721401
 20
0.194936
 30
0.000000
  0
VERTEX
  8
LAYER-1
 10
2.708380
 20
0.172368
 30
0.000000
  0
VERTEX
  8
LAYER-1
 10
2.738762
 20
0.193200
 30
0.000000
  0
SEQEND
  8
LAYER-1
  0
POLYLINE
  8
LAYER-1
 66
  1
 70
  1
 62
  0
 10
1.397616
 20
0.145892
 30
0.000000
  0
VERTEX
  8
LAYER-1
 10
1.397616
 20
0.145892
 30
0.000000
  0
VERTEX
  8
LAYER-1
 10
1.381123
 20
0.120717
 30
0.000000
  0
VERTEX
  8
LAYER-1
 10
1.395880
 20
0.112905
 30
0.000000
  0
SEQEND
  8
LAYER-1
  0
POLYLINE
  8
LAYER-1
 66
  1
 70
  0
 62
  0
 10
2.509595
 20
0.197540
 30
0.000000
  0
VERTEX
  8
LAYER-1
 10
2.509595
 20
0.197540
 30
0.000000
  0
VERTEX
  8
LAYER-1
 10
2.505254
 20
0.197540
 30
0.000000
  0
VERTEX
  8
LAYER-1
 10
2.501783
 20
0.193200
 30
0.000000
  0
VERTEX
  8
LAYER-1
 10
2.500914
 20
0.187992
 30
0.000000
  0
VERTEX
  8
LAYER-1
 10
2.502651
 20
0.183651
 30
0.000000
  0
VERTEX
  8
LAYER-1
 10
2.506990
 20
0.181915
 30
0.000000
  0
VERTEX
  8
LAYER-1
 10
2.511331
 20
0.181915
 30
0.000000
  0
VERTEX
  8
LAYER-1
 10
2.515672
 20
0.185388
 30
0.000000
  0
VERTEX
  8
LAYER-1
 10
2.515672
 20
0.189728
 30
0.000000
  0
VERTEX
  8
LAYER-1
 10
2.514803
 20
0.194069
 30
0.000000
  0
VERTEX
  8
LAYER-1
 10
2.510463
 20
0.196672
 30
0.000000
  0
SEQEND
  8
LAYER-1
  0
POLYLINE
  8
LAYER-1
 66
  1
 70
  1
 62
  0
 10
2.546922
 20
0.129833
 30
0.000000
  0
VERTEX
  8
LAYER-1
 10
2.546922
 20
0.129833
 30
0.000000
  0
VERTEX
  8
LAYER-1
 10
2.533901
 20
0.107263
 30
0.000000
  0
VERTEX
  8
LAYER-1
 10
2.564283
 20
0.128096
 30
0.000000
  0
SEQEND
  8
LAYER-1
  0
POLYLINE
  8
LAYER-1
 66
  1
 70
  1
 62
  0
 10
1.105848
 20
0.220203
 30
0.000000
  0
VERTEX
  8
LAYER-1
 10
1.105848
 20
0.220203
 30
0.000000
  0
VERTEX
  8
LAYER-1
 10
1.125213
 20
0.207518
 30
0.000000
  0
VERTEX
  8
LAYER-1
 10
1.131223
 20
0.218867
 30
0.000000
  0
SEQEND
  8
LAYER-1
  0
POLYLINE
  8
LAYER-1
 66
  1
 70
  0
 62
  0
 10
2.661505
 20
0.199276
 30
0.000000
  0
VERTEX
  8
LAYER-1
 10
2.661505
 20
0.199276
 30
0.000000
  0
VERTEX
  8
LAYER-1
 10
2.657164
 20
0.199276
 30
0.000000
  0
VERTEX
  8
LAYER-1
 10
2.653692
 20
0.194935
 30
0.000000
  0
VERTEX
  8
LAYER-1
 10
2.652824
 20
0.189728
 30
0.000000
  0
VERTEX
  8
LAYER-1
 10
2.654560
 20
0.185388
 30
0.000000
  0
VERTEX
  8
LAYER-1
 10
2.658901
 20
0.183651
 30
0.000000
  0
VERTEX
  8
LAYER-1
 10
2.663240
 20
0.183651
 30
0.000000
  0
VERTEX
  8
LAYER-1
 10
2.667581
 20
0.187123
 30
0.000000
  0
VERTEX
  8
LAYER-1
 10
2.667581
 20
0.191464
 30
0.000000
  0
VERTEX
  8
LAYER-1
 10
2.666713
 20
0.195804
 30
0.000000
  0
VERTEX
  8
LAYER-1
 10
2.662372
 20
0.198408
 30
0.000000
  0
SEQEND
  8
LAYER-1
  0
POLYLINE
  8
LAYER-1
 66
  1
 70
  0
 62
  0
 10
1.449700
 20
0.139815
 30
0.000000
  0
VERTEX
  8
LAYER-1
 10
1.449700
 20
0.139815
 30
0.000000
  0
VERTEX
  8
LAYER-1
 10
1.445359
 20
0.139815
 30
0.000000
  0
VERTEX
  8
LAYER-1
 10
1.441887
 20
0.135475
 30
0.000000
  0
VERTEX
  8
LAYER-1
 10
1.441019
 20
0.130267
 30
0.000000
  0
VERTEX
  8
LAYER-1
 10
1.442755
 20
0.125927
 30
0.000000
  0
VERTEX
  8
LAYER-1
 10
1.447095
 20
0.124190
 30
0.000000
  0
VERTEX
  8
LAYER-1
 10
1.451435
 20
0.124190
 30
0.000000
  0
VERTEX
  8
LAYER-1
 10
1.455775
 20
0.127663
 30
0.000000
  0
VERTEX
  8
LAYER-1
 10
1.455775
 20
0.132003
 30
0.000000
  0
VERTEX
  8
LAYER-1
 10
1.454907
 20
0.136344
 30
0.000000
  0
VERTEX
  8
LAYER-1
 10
1.450568
 20
0.138947
 30
0.000000
  0
SEQEND
  8
LAYER-1
  0
POLYLINE
  8
LAYER-1
 66
  1
 70
  0
 62
  0
 10
1.033032
 20
0.116378
 30
0.000000
  0
VERTEX
  8
LAYER-1
 10
1.033032
 20
0.116378
 30
0.000000
  0
VERTEX
  8
LAYER-1
 10
1.028692
 20
0.116378
 30
0.000000
  0
VERTEX
  8
LAYER-1
 10
1.025220
 20
0.112038
 30
0.000000
  0
VERTEX
  8
LAYER-1
 10
1.024352
 20
0.106829
 30
0.000000
  0
VERTEX
  8
LAYER-1
 10
1.026088
 20
0.102489
 30
0.000000
  0
VERTEX
  8
LAYER-1
 10
1.030427
 20
0.100753
 30
0.000000
  0
VERTEX
  8
LAYER-1
 10
1.034768
 20
0.100753
 30
0.000000
  0
VERTEX
  8
LAYER-1
 10
1.039108
 20
0.104225
 30
0.000000
  0
VERTEX
  8
LAYER-1
 10
1.039108
 20
0.108565
 30
0.000000
  0
VERTEX
  8
LAYER-1
 10
1.038240
 20
0.112907
 30
0.000000
  0
VERTEX
  8
LAYER-1
 10
1.033900
 20
0.115510
 30
0.000000
  0
SEQEND
  8
LAYER-1
  0
POLYLINE
  8
LAYER-1
 66
  1
 70
  1
 62
  0
 10
3.000914
 20
0.190596
 30
0.000000
  0
VERTEX
  8
LAYER-1
 10
3.000914
 20
0.190596
 30
0.000000
  0
VERTEX
  8
LAYER-1
 10
3.007859
 20
0.164557
 30
0.000000
  0
VERTEX
  8
LAYER-1
 10
3.033032
 20
0.178442
 30
0.000000
  0
SEQEND
  8
LAYER-1
  0
POLYLINE
  8
LAYER-1
 66
  1
 70
  1
 62
  0
 10
3.163241
 20
0.219243
 30
0.000000
  0
VERTEX
  8
LAYER-1
 10
3.163241
 20
0.219243
 30
0.000000
  0
VERTEX
  8
LAYER-1
 10
3.150220
 20
0.196672
 30
0.000000
  0
VERTEX
  8
LAYER-1
 10
3.180602
 20
0.217505
 30
0.000000
  0
SEQEND
  8
LAYER-1
  0
POLYLINE
  8
LAYER-1
 66
  1
 70
  1
 62
  0
 10
2.391539
 20
0.155007
 30
0.000000
  0
VERTEX
  8
LAYER-1
 10
2.391539
 20
0.155007
 30
0.000000
  0
VERTEX
  8
LAYER-1
 10
2.416713
 20
0.138513
 30
0.000000
  0
VERTEX
  8
LAYER-1
 10
2.424525
 20
0.153271
 30
0.000000
  0
SEQEND
  8
LAYER-1
  0
POLYLINE
  8
LAYER-1
 66
  1
 70
  0
 62
  0
 10
2.961852
 20
0.211430
 30
0.000000
  0
VERTEX
  8
LAYER-1
 10
2.961852
 20
0.211430
 30
0.000000
  0
VERTEX
  8
LAYER-1
 10
2.957511
 20
0.211430
 30
0.000000
  0
VERTEX
  8
LAYER-1
 10
2.954039
 20
0.207090
 30
0.000000
  0
VERTEX
  8
LAYER-1
 10
2.953171
 20
0.201882
 30
0.000000
  0
VERTEX
  8
LAYER-1
 10
2.954907
 20
0.197541
 30
0.000000
  0
VERTEX
  8
LAYER-1
 10
2.959248
 20
0.195805
 30
0.000000
  0
VERTEX
  8
LAYER-1
 10
2.963588
 20
0.195805
 30
0.000000
  0
VERTEX
  8
LAYER-1
 10
2.967928
 20
0.199277
 30
0.000000
  0
VERTEX
  8
LAYER-1
 10
2.967928
 20
0.203618
 30
0.000000
  0
VERTEX
  8
LAYER-1
 10
2.967060
 20
0.207959
 30
0.000000
  0
VERTEX
  8
LAYER-1
 10
2.962720
 20
0.210564
 30
0.000000
  0
SEQEND
  8
LAYER-1
  0
POLYLINE
  8
LAYER-1
 66
  1
 70
  1
 62
  0
 10
2.977478
 20
0.122889
 30
0.000000
  0
VERTEX
  8
LAYER-1
 10
2.977478
 20
0.122889
 30
0.000000
  0
VERTEX
  8
LAYER-1
 10
2.964457
 20
0.100319
 30
0.000000
  0
VERTEX
  8
LAYER-1
 10
2.994839
 20
0.121151
 30
0.000000
  0
SEQEND
  8
LAYER-1
  0
POLYLINE
  8
LAYER-1
 66
  1
 70
  1
 62
  0
 10
3.071928
 20
0.116476
 30
0.000000
  0
VERTEX
  8
LAYER-1
 10
3.071928
 20
0.116476
 30
0.000000
  0
VERTEX
  8
LAYER-1
 10
3.059241
 20
0.097112
 30
0.000000
  0
VERTEX
  8
LAYER-1
 10
3.070592
 20
0.091101
 30
0.000000
  0
SEQEND
  8
LAYER-1
  0
POLYLINE
  8
LAYER-1
 66
  1
 70
  0
 62
  0
 10
3.103345
 20
0.215770
 30
0.000000
  0
VERTEX
  8
LAYER-1
 10
3.103345
 20
0.215770
 30
0.000000
  0
VERTEX
  8
LAYER-1
 10
3.099005
 20
0.215770
 30
0.000000
  0
VERTEX
  8
LAYER-1
 10
3.095532
 20
0.211429
 30
0.000000
  0
VERTEX
  8
LAYER-1
 10
3.094664
 20
0.206222
 30
0.000000
  0
VERTEX
  8
LAYER-1
 10
3.096400
 20
0.201881
 30
0.000000
  0
VERTEX
  8
LAYER-1
 10
3.100741
 20
0.200145
 30
0.000000
  0
VERTEX
  8
LAYER-1
 10
3.105082
 20
0.200145
 30
0.000000
  0
VERTEX
  8
LAYER-1
 10
3.109421
 20
0.203617
 30
0.000000
  0
VERTEX
  8
LAYER-1
 10
3.109421
 20
0.207958
 30
0.000000
  0
VERTEX
  8
LAYER-1
 10
3.108553
 20
0.212298
 30
0.000000
  0
VERTEX
  8
LAYER-1
 10
3.104213
 20
0.214903
 30
0.000000
  0
SEQEND
  8
LAYER-1
  0
POLYLINE
  8
LAYER-1
 66
  1
 70
  0
 62
  0
 10
2.380255
 20
0.207958
 30
0.000000
  0
VERTEX
  8
LAYER-1
 10
2.380255
 20
0.207958
 30
0.000000
  0
VERTEX
  8
LAYER-1
 10
2.380255
 20
0.203617
 30
0.000000
  0
VERTEX
  8
LAYER-1
 10
2.384596
 20
0.200145
 30
0.000000
  0
VERTEX
  8
LAYER-1
 10
2.389803
 20
0.199276
 30
0.000000
  0
VERTEX
  8
LAYER-1
 10
2.394144
 20
0.201013
 30
0.000000
  0
VERTEX
  8
LAYER-1
 10
2.395880
 20
0.205353
 30
0.000000
  0
VERTEX
  8
LAYER-1
 10
2.395880
 20
0.209694
 30
0.000000
  0
VERTEX
  8
LAYER-1
 10
2.392408
 20
0.214034
 30
0.000000
  0
VERTEX
  8
LAYER-1
 10
2.388067
 20
0.214034
 30
0.000000
  0
VERTEX
  8
LAYER-1
 10
2.383727
 20
0.213165
 30
0.000000
  0
VERTEX
  8
LAYER-1
 10
2.381122
 20
0.208825
 30
0.000000
  0
SEQEND
  8
LAYER-1
  0
POLYLINE
  8
LAYER-1
 66
  1
 70
  0
 62
  0
 10
2.943622
 20
0.123755
 30
0.000000
  0
VERTEX
  8
LAYER-1
 10
2.943622
 20
0.123755
 30
0.000000
  0
VERTEX
  8
LAYER-1
 10
2.939281
 20
0.123755
 30
0.000000
  0
VERTEX
  8
LAYER-1
 10
2.935809
 20
0.119414
 30
0.000000
  0
VERTEX
  8
LAYER-1
 10
2.934941
 20
0.114207
 30
0.000000
  0
VERTEX
  8
LAYER-1
 10
2.936677
 20
0.109866
 30
0.000000
  0
VERTEX
  8
LAYER-1
 10
2.941018
 20
0.108130
 30
0.000000
  0
VERTEX
  8
LAYER-1
 10
2.945358
 20
0.108130
 30
0.000000
  0
VERTEX
  8
LAYER-1
 10
2.949699
 20
0.111602
 30
0.000000
  0
VERTEX
  8
LAYER-1
 10
2.949699
 20
0.115942
 30
0.000000
  0
VERTEX
  8
LAYER-1
 10
2.948830
 20
0.120283
 30
0.000000
  0
VERTEX
  8
LAYER-1
 10
2.944490
 20
0.122888
 30
0.000000
  0
SEQEND
  8
LAYER-1
  0
POLYLINE
  8
LAYER-1
 66
  1
 70
  1
 62
  0
 10
2.810811
 20
0.112039
 30
0.000000
  0
VERTEX
  8
LAYER-1
 10
2.810811
 20
0.112039
 30
0.000000
  0
VERTEX
  8
LAYER-1
 10
2.784769
 20
0.105094
 30
0.000000
  0
VERTEX
  8
LAYER-1
 10
2.798658
 20
0.079920
 30
0.000000
  0
SEQEND
  8
LAYER-1
  0
POLYLINE
  8
LAYER-1
 66
  1
 70
  1
 62
  0
 10
1.434076
 20
0.086430
 30
0.000000
  0
VERTEX
  8
LAYER-1
 10
1.434076
 20
0.086430
 30
0.000000
  0
VERTEX
  8
LAYER-1
 10
1.408900
 20
0.102923
 30
0.000000
  0
VERTEX
  8
LAYER-1
 10
1.401088
 20
0.088166
 30
0.000000
  0
SEQEND
  8
LAYER-1
  0
POLYLINE
  8
LAYER-1
 66
  1
 70
  0
 62
  0
 10
2.842061
 20
0.161517
 30
0.000000
  0
VERTEX
  8
LAYER-1
 10
2.842061
 20
0.161517
 30
0.000000
  0
VERTEX
  8
LAYER-1
 10
2.842061
 20
0.165858
 30
0.000000
  0
VERTEX
  8
LAYER-1
 10
2.837720
 20
0.169329
 30
0.000000
  0
VERTEX
  8
LAYER-1
 10
2.832513
 20
0.170197
 30
0.000000
  0
VERTEX
  8
LAYER-1
 10
2.828172
 20
0.168461
 30
0.000000
  0
VERTEX
  8
LAYER-1
 10
2.826436
 20
0.164121
 30
0.000000
  0
VERTEX
  8
LAYER-1
 10
2.826436
 20
0.159782
 30
0.000000
  0
VERTEX
  8
LAYER-1
 10
2.829908
 20
0.155441
 30
0.000000
  0
VERTEX
  8
LAYER-1
 10
2.834248
 20
0.155441
 30
0.000000
  0
VERTEX
  8
LAYER-1
 10
2.838589
 20
0.156308
 30
0.000000
  0
VERTEX
  8
LAYER-1
 10
2.841192
 20
0.160649
 30
0.000000
  0
SEQEND
  8
LAYER-1
  0
POLYLINE
  8
LAYER-1
 66
  1
 70
  1
 62
  0
 10
2.774351
 20
0.124191
 30
0.000000
  0
VERTEX
  8
LAYER-1
 10
2.774351
 20
0.124191
 30
0.000000
  0
VERTEX
  8
LAYER-1
 10
2.751783
 20
0.137211
 30
0.000000
  0
VERTEX
  8
LAYER-1
 10
2.772615
 20
0.106829
 30
0.000000
  0
SEQEND
  8
LAYER-1
  0
POLYLINE
  8
LAYER-1
 66
  1
 70
  1
 62
  0
 10
1.511866
 20
0.105693
 30
0.000000
  0
VERTEX
  8
LAYER-1
 10
1.511866
 20
0.105693
 30
0.000000
  0
VERTEX
  8
LAYER-1
 10
1.492500
 20
0.118380
 30
0.000000
  0
VERTEX
  8
LAYER-1
 10
1.486491
 20
0.107029
 30
0.000000
  0
SEQEND
  8
LAYER-1
  0
POLYLINE
  8
LAYER-1
 66
  1
 70
  0
 62
  0
 10
1.572095
 20
0.094243
 30
0.000000
  0
VERTEX
  8
LAYER-1
 10
1.572095
 20
0.094243
 30
0.000000
  0
VERTEX
  8
LAYER-1
 10
1.572095
 20
0.098583
 30
0.000000
  0
VERTEX
  8
LAYER-1
 10
1.567755
 20
0.102055
 30
0.000000
  0
VERTEX
  8
LAYER-1
 10
1.562547
 20
0.102923
 30
0.000000
  0
VERTEX
  8
LAYER-1
 10
1.558207
 20
0.101188
 30
0.000000
  0
VERTEX
  8
LAYER-1
 10
1.556471
 20
0.096847
 30
0.000000
  0
VERTEX
  8
LAYER-1
 10
1.556471
 20
0.092506
 30
0.000000
  0
VERTEX
  8
LAYER-1
 10
1.559943
 20
0.088166
 30
0.000000
  0
VERTEX
  8
LAYER-1
 10
1.564283
 20
0.088166
 30
0.000000
  0
VERTEX
  8
LAYER-1
 10
1.568624
 20
0.089034
 30
0.000000
  0
VERTEX
  8
LAYER-1
 10
1.571227
 20
0.093375
 30
0.000000
  0
SEQEND
  8
LAYER-1
  0
POLYLINE
  8
LAYER-1
 66
  1
 70
  0
 62
  0
 10
2.691888
 20
0.113774
 30
0.000000
  0
VERTEX
  8
LAYER-1
 10
2.691888
 20
0.113774
 30
0.000000
  0
VERTEX
  8
LAYER-1
 10
2.691888
 20
0.118115
 30
0.000000
  0
VERTEX
  8
LAYER-1
 10
2.687547
 20
0.121586
 30
0.000000
  0
VERTEX
  8
LAYER-1
 10
2.682339
 20
0.122454
 30
0.000000
  0
VERTEX
  8
LAYER-1
 10
2.677998
 20
0.120719
 30
0.000000
  0
VERTEX
  8
LAYER-1
 10
2.676263
 20
0.116379
 30
0.000000
  0
VERTEX
  8
LAYER-1
 10
2.676263
 20
0.112039
 30
0.000000
  0
VERTEX
  8
LAYER-1
 10
2.679734
 20
0.107697
 30
0.000000
  0
VERTEX
  8
LAYER-1
 10
2.684075
 20
0.107697
 30
0.000000
  0
VERTEX
  8
LAYER-1
 10
2.688416
 20
0.108566
 30
0.000000
  0
VERTEX
  8
LAYER-1
 10
2.691019
 20
0.112907
 30
0.000000
  0
SEQEND
  8
LAYER-1
  0
POLYLINE
  8
LAYER-1
 66
  1
 70
  1
 62
  0
 10
2.884595
 20
0.115078
 30
0.000000
  0
VERTEX
  8
LAYER-1
 10
2.884595
 20
0.115078
 30
0.000000
  0
VERTEX
  8
LAYER-1
 10
2.877650
 20
0.141118
 30
0.000000
  0
VERTEX
  8
LAYER-1
 10
2.852477
 20
0.127230
 30
0.000000
  0
SEQEND
  8
LAYER-1
  0
POLYLINE
  8
LAYER-1
 66
  1
 70
  1
 62
  0
 10
2.331643
 20
0.102055
 30
0.000000
  0
VERTEX
  8
LAYER-1
 10
2.331643
 20
0.102055
 30
0.000000
  0
VERTEX
  8
LAYER-1
 10
2.309073
 20
0.115078
 30
0.000000
  0
VERTEX
  8
LAYER-1
 10
2.329906
 20
0.084695
 30
0.000000
  0
SEQEND
  8
LAYER-1
  0
POLYLINE
  8
LAYER-1
 66
  1
 70
  1
 62
  0
 10
3.109422
 20
0.126361
 30
0.000000
  0
VERTEX
  8
LAYER-1
 10
3.109422
 20
0.126361
 30
0.000000
  0
VERTEX
  8
LAYER-1
 10
3.125915
 20
0.151535
 30
0.000000
  0
VERTEX
  8
LAYER-1
 10
3.111158
 20
0.159348
 30
0.000000
  0
SEQEND
  8
LAYER-1
  0
POLYLINE
  8
LAYER-1
 66
  1
 70
  0
 62
  0
 10
3.244837
 20
0.094241
 30
0.000000
  0
VERTEX
  8
LAYER-1
 10
3.244837
 20
0.094241
 30
0.000000
  0
VERTEX
  8
LAYER-1
 10
3.249178
 20
0.094241
 30
0.000000
  0
VERTEX
  8
LAYER-1
 10
3.252650
 20
0.098582
 30
0.000000
  0
VERTEX
  8
LAYER-1
 10
3.253518
 20
0.103789
 30
0.000000
  0
VERTEX
  8
LAYER-1
 10
3.251782
 20
0.108130
 30
0.000000
  0
VERTEX
  8
LAYER-1
 10
3.247442
 20
0.109866
 30
0.000000
  0
VERTEX
  8
LAYER-1
 10
3.243102
 20
0.109866
 30
0.000000
  0
VERTEX
  8
LAYER-1
 10
3.238761
 20
0.106394
 30
0.000000
  0
VERTEX
  8
LAYER-1
 10
3.238761
 20
0.102053
 30
0.000000
  0
VERTEX
  8
LAYER-1
 10
3.239629
 20
0.097713
 30
0.000000
  0
VERTEX
  8
LAYER-1
 10
3.243970
 20
0.095108
 30
0.000000
  0
SEQEND
  8
LAYER-1
  0
POLYLINE
  8
LAYER-1
 66
  1
 70
  1
 62
  0
 10
2.896747
 20
0.151535
 30
0.000000
  0
VERTEX
  8
LAYER-1
 10
2.896747
 20
0.151535
 30
0.000000
  0
VERTEX
  8
LAYER-1
 10
2.909768
 20
0.174105
 30
0.000000
  0
VERTEX
  8
LAYER-1
 10
2.879386
 20
0.153273
 30
0.000000
  0
SEQEND
  8
LAYER-1
  0
POLYLINE
  8
LAYER-1
 66
  1
 70
  1
 62
  0
 10
3.150387
 20
0.102391
 30
0.000000
  0
VERTEX
  8
LAYER-1
 10
3.150387
 20
0.102391
 30
0.000000
  0
VERTEX
  8
LAYER-1
 10
3.163074
 20
0.121755
 30
0.000000
  0
VERTEX
  8
LAYER-1
 10
3.151723
 20
0.127766
 30
0.000000
  0
SEQEND
  8
LAYER-1
  0
POLYLINE
  8
LAYER-1
 66
  1
 70
  0
 62
  0
 10
2.471399
 20
0.161953
 30
0.000000
  0
VERTEX
  8
LAYER-1
 10
2.471399
 20
0.161953
 30
0.000000
  0
VERTEX
  8
LAYER-1
 10
2.471399
 20
0.166291
 30
0.000000
  0
VERTEX
  8
LAYER-1
 10
2.467058
 20
0.169765
 30
0.000000
  0
VERTEX
  8
LAYER-1
 10
2.461851
 20
0.170632
 30
0.000000
  0
VERTEX
  8
LAYER-1
 10
2.457510
 20
0.168896
 30
0.000000
  0
VERTEX
  8
LAYER-1
 10
2.455775
 20
0.164555
 30
0.000000
  0
VERTEX
  8
LAYER-1
 10
2.455775
 20
0.160215
 30
0.000000
  0
VERTEX
  8
LAYER-1
 10
2.459246
 20
0.155876
 30
0.000000
  0
VERTEX
  8
LAYER-1
 10
2.463587
 20
0.155876
 30
0.000000
  0
VERTEX
  8
LAYER-1
 10
2.467927
 20
0.156743
 30
0.000000
  0
VERTEX
  8
LAYER-1
 10
2.470532
 20
0.161084
 30
0.000000
  0
SEQEND
  8
LAYER-1
  0
POLYLINE
  8
LAYER-1
 66
  1
 70
  0
 62
  0
 10
3.057339
 20
0.132439
 30
0.000000
  0
VERTEX
  8
LAYER-1
 10
3.057339
 20
0.132439
 30
0.000000
  0
VERTEX
  8
LAYER-1
 10
3.061679
 20
0.132439
 30
0.000000
  0
VERTEX
  8
LAYER-1
 10
3.065151
 20
0.136779
 30
0.000000
  0
VERTEX
  8
LAYER-1
 10
3.066019
 20
0.141986
 30
0.000000
  0
VERTEX
  8
LAYER-1
 10
3.064283
 20
0.146328
 30
0.000000
  0
VERTEX
  8
LAYER-1
 10
3.059942
 20
0.148064
 30
0.000000
  0
VERTEX
  8
LAYER-1
 10
3.055603
 20
0.148064
 30
0.000000
  0
VERTEX
  8
LAYER-1
 10
3.051262
 20
0.144591
 30
0.000000
  0
VERTEX
  8
LAYER-1
 10
3.051262
 20
0.140251
 30
0.000000
  0
VERTEX
  8
LAYER-1
 10
3.052130
 20
0.135910
 30
0.000000
  0
VERTEX
  8
LAYER-1
 10
3.056471
 20
0.133305
 30
0.000000
  0
SEQEND
  8
LAYER-1
  0
POLYLINE
  8
LAYER-1
 66
  1
 70
  0
 62
  0
 10
3.221401
 20
0.140251
 30
0.000000
  0
VERTEX
  8
LAYER-1
 10
3.221401
 20
0.140251
 30
0.000000
  0
VERTEX
  8
LAYER-1
 10
3.225741
 20
0.140251
 30
0.000000
  0
VERTEX
  8
LAYER-1
 10
3.229213
 20
0.144591
 30
0.000000
  0
VERTEX
  8
LAYER-1
 10
3.230081
 20
0.149799
 30
0.000000
  0
VERTEX
  8
LAYER-1
 10
3.228345
 20
0.154140
 30
0.000000
  0
VERTEX
  8
LAYER-1
 10
3.224005
 20
0.155876
 30
0.000000
  0
VERTEX
  8
LAYER-1
 10
3.219665
 20
0.155876
 30
0.000000
  0
VERTEX
  8
LAYER-1
 10
3.215324
 20
0.152404
 30
0.000000
  0
VERTEX
  8
LAYER-1
 10
3.215324
 20
0.148064
 30
0.000000
  0
VERTEX
  8
LAYER-1
 10
3.216192
 20
0.143723
 30
0.000000
  0
VERTEX
  8
LAYER-1
 10
3.220533
 20
0.141118
 30
0.000000
  0
SEQEND
  8
LAYER-1
  0
POLYLINE
  8
LAYER-1
 66
  1
 70
  1
 62
  0
 10
3.628518
 20
0.138515
 30
0.000000
  0
VERTEX
  8
LAYER-1
 10
3.628518
 20
0.138515
 30
0.000000
  0
VERTEX
  8
LAYER-1
 10
3.635462
 20
0.112473
 30
0.000000
  0
VERTEX
  8
LAYER-1
 10
3.660635
 20
0.126361
 30
0.000000
  0
SEQEND
  8
LAYER-1
  0
POLYLINE
  8
LAYER-1
 66
  1
 70
  1
 62
  0
 10
3.794750
 20
0.092508
 30
0.000000
  0
VERTEX
  8
LAYER-1
 10
3.794750
 20
0.092508
 30
0.000000
  0
VERTEX
  8
LAYER-1
 10
3.781729
 20
0.069939
 30
0.000000
  0
VERTEX
  8
LAYER-1
 10
3.812112
 20
0.090771
 30
0.000000
  0
SEQEND
  8
LAYER-1
  0
POLYLINE
  8
LAYER-1
 66
  1
 70
  1
 62
  0
 10
3.679732
 20
0.182782
 30
0.000000
  0
VERTEX
  8
LAYER-1
 10
3.679732
 20
0.182782
 30
0.000000
  0
VERTEX
  8
LAYER-1
 10
3.663240
 20
0.157608
 30
0.000000
  0
VERTEX
  8
LAYER-1
 10
3.677996
 20
0.149796
 30
0.000000
  0
SEQEND
  8
LAYER-1
  0
POLYLINE
  8
LAYER-1
 66
  1
 70
  0
 62
  0
 10
3.594663
 20
0.169765
 30
0.000000
  0
VERTEX
  8
LAYER-1
 10
3.594663
 20
0.169765
 30
0.000000
  0
VERTEX
  8
LAYER-1
 10
3.590323
 20
0.169765
 30
0.000000
  0
VERTEX
  8
LAYER-1
 10
3.586850
 20
0.165424
 30
0.000000
  0
VERTEX
  8
LAYER-1
 10
3.585981
 20
0.160216
 30
0.000000
  0
VERTEX
  8
LAYER-1
 10
3.587718
 20
0.155876
 30
0.000000
  0
VERTEX
  8
LAYER-1
 10
3.592059
 20
0.154140
 30
0.000000
  0
VERTEX
  8
LAYER-1
 10
3.596399
 20
0.154140
 30
0.000000
  0
VERTEX
  8
LAYER-1
 10
3.600738
 20
0.157611
 30
0.000000
  0
VERTEX
  8
LAYER-1
 10
3.600738
 20
0.161953
 30
0.000000
  0
VERTEX
  8
LAYER-1
 10
3.599870
 20
0.166293
 30
0.000000
  0
VERTEX
  8
LAYER-1
 10
3.595531
 20
0.168897
 30
0.000000
  0
SEQEND
  8
LAYER-1
  0
POLYLINE
  8
LAYER-1
 66
  1
 70
  1
 62
  0
 10
3.578170
 20
0.109867
 30
0.000000
  0
VERTEX
  8
LAYER-1
 10
3.578170
 20
0.109867
 30
0.000000
  0
VERTEX
  8
LAYER-1
 10
3.565149
 20
0.087297
 30
0.000000
  0
VERTEX
  8
LAYER-1
 10
3.595531
 20
0.108130
 30
0.000000
  0
SEQEND
  8
LAYER-1
  0
POLYLINE
  8
LAYER-1
 66
  1
 70
  1
 62
  0
 10
3.633624
 20
0.208220
 30
0.000000
  0
VERTEX
  8
LAYER-1
 10
3.633624
 20
0.208220
 30
0.000000
  0
VERTEX
  8
LAYER-1
 10
3.652990
 20
0.195532
 30
0.000000
  0
VERTEX
  8
LAYER-1
 10
3.659000
 20
0.206884
 30
0.000000
  0
SEQEND
  8
LAYER-1
  0
POLYLINE
  8
LAYER-1
 66
  1
 70
  0
 62
  0
 10
3.518273
 20
0.159470
 30
0.000000
  0
VERTEX
  8
LAYER-1
 10
3.518273
 20
0.159470
 30
0.000000
  0
VERTEX
  8
LAYER-1
 10
3.513933
 20
0.159470
 30
0.000000
  0
VERTEX
  8
LAYER-1
 10
3.510460
 20
0.155129
 30
0.000000
  0
VERTEX
  8
LAYER-1
 10
3.509594
 20
0.149921
 30
0.000000
  0
VERTEX
  8
LAYER-1
 10
3.511329
 20
0.145581
 30
0.000000
  0
VERTEX
  8
LAYER-1
 10
3.515669
 20
0.143845
 30
0.000000
  0
VERTEX
  8
LAYER-1
 10
3.520010
 20
0.143845
 30
0.000000
  0
VERTEX
  8
LAYER-1
 10
3.524349
 20
0.147317
 30
0.000000
  0
VERTEX
  8
LAYER-1
 10
3.524349
 20
0.151657
 30
0.000000
  0
VERTEX
  8
LAYER-1
 10
3.523482
 20
0.155998
 30
0.000000
  0
VERTEX
  8
LAYER-1
 10
3.519142
 20
0.158602
 30
0.000000
  0
SEQEND
  8
LAYER-1
  0
POLYLINE
  8
LAYER-1
 66
  1
 70
  0
 62
  0
 10
3.895012
 20
0.131566
 30
0.000000
  0
VERTEX
  8
LAYER-1
 10
3.895012
 20
0.131566
 30
0.000000
  0
VERTEX
  8
LAYER-1
 10
3.890672
 20
0.131566
 30
0.000000
  0
VERTEX
  8
LAYER-1
 10
3.887200
 20
0.127225
 30
0.000000
  0
VERTEX
  8
LAYER-1
 10
3.886332
 20
0.122017
 30
0.000000
  0
VERTEX
  8
LAYER-1
 10
3.888068
 20
0.117677
 30
0.000000
  0
VERTEX
  8
LAYER-1
 10
3.892409
 20
0.115941
 30
0.000000
  0
VERTEX
  8
LAYER-1
 10
3.896748
 20
0.115941
 30
0.000000
  0
VERTEX
  8
LAYER-1
 10
3.901089
 20
0.119413
 30
0.000000
  0
VERTEX
  8
LAYER-1
 10
3.901089
 20
0.123753
 30
0.000000
  0
VERTEX
  8
LAYER-1
 10
3.900221
 20
0.128094
 30
0.000000
  0
VERTEX
  8
LAYER-1
 10
3.895880
 20
0.130697
 30
0.000000
  0
SEQEND
  8
LAYER-1
  0
POLYLINE
  8
LAYER-1
 66
  1
 70
  0
 62
  0
 10
3.626781
 20
0.102922
 30
0.000000
  0
VERTEX
  8
LAYER-1
 10
3.626781
 20
0.102922
 30
0.000000
  0
VERTEX
  8
LAYER-1
 10
3.622441
 20
0.102922
 30
0.000000
  0
VERTEX
  8
LAYER-1
 10
3.618968
 20
0.098582
 30
0.000000
  0
VERTEX
  8
LAYER-1
 10
3.618100
 20
0.093374
 30
0.000000
  0
VERTEX
  8
LAYER-1
 10
3.619836
 20
0.089033
 30
0.000000
  0
VERTEX
  8
LAYER-1
 10
3.624177
 20
0.087297
 30
0.000000
  0
VERTEX
  8
LAYER-1
 10
3.628516
 20
0.087297
 30
0.000000
  0
VERTEX
  8
LAYER-1
 10
3.632857
 20
0.090769
 30
0.000000
  0
VERTEX
  8
LAYER-1
 10
3.632857
 20
0.095110
 30
0.000000
  0
VERTEX
  8
LAYER-1
 10
3.631989
 20
0.099451
 30
0.000000
  0
VERTEX
  8
LAYER-1
 10
3.627649
 20
0.102054
 30
0.000000
  0
SEQEND
  8
LAYER-1
  0
POLYLINE
  8
LAYER-1
 66
  1
 70
  1
 62
  0
 10
3.424959
 20
0.162386
 30
0.000000
  0
VERTEX
  8
LAYER-1
 10
3.424959
 20
0.162386
 30
0.000000
  0
VERTEX
  8
LAYER-1
 10
3.398918
 20
0.155441
 30
0.000000
  0
VERTEX
  8
LAYER-1
 10
3.412805
 20
0.130268
 30
0.000000
  0
SEQEND
  8
LAYER-1
  0
POLYLINE
  8
LAYER-1
 66
  1
 70
  1
 62
  0
 10
3.332078
 20
0.111170
 30
0.000000
  0
VERTEX
  8
LAYER-1
 10
3.332078
 20
0.111170
 30
0.000000
  0
VERTEX
  8
LAYER-1
 10
3.309508
 20
0.124191
 30
0.000000
  0
VERTEX
  8
LAYER-1
 10
3.330340
 20
0.093809
 30
0.000000
  0
SEQEND
  8
LAYER-1
  0
POLYLINE
  8
LAYER-1
 66
  1
 70
  1
 62
  0
 10
3.295619
 20
0.156307
 30
0.000000
  0
VERTEX
  8
LAYER-1
 10
3.295619
 20
0.156307
 30
0.000000
  0
VERTEX
  8
LAYER-1
 10
3.270446
 20
0.172800
 30
0.000000
  0
VERTEX
  8
LAYER-1
 10
3.262633
 20
0.158042
 30
0.000000
  0
SEQEND
  8
LAYER-1
  0
POLYLINE
  8
LAYER-1
 66
  1
 70
  0
 62
  0
 10
3.456209
 20
0.211864
 30
0.000000
  0
VERTEX
  8
LAYER-1
 10
3.456209
 20
0.211864
 30
0.000000
  0
VERTEX
  8
LAYER-1
 10
3.456209
 20
0.216204
 30
0.000000
  0
VERTEX
  8
LAYER-1
 10
3.451868
 20
0.219677
 30
0.000000
  0
VERTEX
  8
LAYER-1
 10
3.446660
 20
0.220545
 30
0.000000
  0
VERTEX
  8
LAYER-1
 10
3.442320
 20
0.218808
 30
0.000000
  0
VERTEX
  8
LAYER-1
 10
3.440584
 20
0.214467
 30
0.000000
  0
VERTEX
  8
LAYER-1
 10
3.440584
 20
0.210128
 30
0.000000
  0
VERTEX
  8
LAYER-1
 10
3.444055
 20
0.205788
 30
0.000000
  0
VERTEX
  8
LAYER-1
 10
3.448396
 20
0.205788
 30
0.000000
  0
VERTEX
  8
LAYER-1
 10
3.452737
 20
0.206655
 30
0.000000
  0
VERTEX
  8
LAYER-1
 10
3.455342
 20
0.210996
 30
0.000000
  0
SEQEND
  8
LAYER-1
  0
POLYLINE
  8
LAYER-1
 66
  1
 70
  1
 62
  0
 10
3.388501
 20
0.174539
 30
0.000000
  0
VERTEX
  8
LAYER-1
 10
3.388501
 20
0.174539
 30
0.000000
  0
VERTEX
  8
LAYER-1
 10
3.365931
 20
0.187558
 30
0.000000
  0
VERTEX
  8
LAYER-1
 10
3.386763
 20
0.157177
 30
0.000000
  0
SEQEND
  8
LAYER-1
  0
POLYLINE
  8
LAYER-1
 66
  1
 70
  1
 62
  0
 10
3.340155
 20
0.181579
 30
0.000000
  0
VERTEX
  8
LAYER-1
 10
3.340155
 20
0.181579
 30
0.000000
  0
VERTEX
  8
LAYER-1
 10
3.327469
 20
0.162216
 30
0.000000
  0
VERTEX
  8
LAYER-1
 10
3.338819
 20
0.156204
 30
0.000000
  0
SEQEND
  8
LAYER-1
  0
POLYLINE
  8
LAYER-1
 66
  1
 70
  0
 62
  0
 10
3.457945
 20
0.084260
 30
0.000000
  0
VERTEX
  8
LAYER-1
 10
3.457945
 20
0.084260
 30
0.000000
  0
VERTEX
  8
LAYER-1
 10
3.457945
 20
0.088600
 30
0.000000
  0
VERTEX
  8
LAYER-1
 10
3.453604
 20
0.092072
 30
0.000000
  0
VERTEX
  8
LAYER-1
 10
3.448396
 20
0.092940
 30
0.000000
  0
VERTEX
  8
LAYER-1
 10
3.444055
 20
0.091204
 30
0.000000
  0
VERTEX
  8
LAYER-1
 10
3.442320
 20
0.086864
 30
0.000000
  0
VERTEX
  8
LAYER-1
 10
3.442320
 20
0.082523
 30
0.000000
  0
VERTEX
  8
LAYER-1
 10
3.445791
 20
0.078183
 30
0.000000
  0
VERTEX
  8
LAYER-1
 10
3.450132
 20
0.078183
 30
0.000000
  0
VERTEX
  8
LAYER-1
 10
3.454473
 20
0.079052
 30
0.000000
  0
VERTEX
  8
LAYER-1
 10
3.457077
 20
0.083392
 30
0.000000
  0
SEQEND
  8
LAYER-1
  0
POLYLINE
  8
LAYER-1
 66
  1
 70
  0
 62
  0
 10
3.376347
 20
0.085128
 30
0.000000
  0
VERTEX
  8
LAYER-1
 10
3.376347
 20
0.085128
 30
0.000000
  0
VERTEX
  8
LAYER-1
 10
3.376347
 20
0.089469
 30
0.000000
  0
VERTEX
  8
LAYER-1
 10
3.372007
 20
0.092940
 30
0.000000
  0
VERTEX
  8
LAYER-1
 10
3.366799
 20
0.093808
 30
0.000000
  0
VERTEX
  8
LAYER-1
 10
3.362459
 20
0.092072
 30
0.000000
  0
VERTEX
  8
LAYER-1
 10
3.360723
 20
0.087732
 30
0.000000
  0
VERTEX
  8
LAYER-1
 10
3.360723
 20
0.083392
 30
0.000000
  0
VERTEX
  8
LAYER-1
 10
3.364195
 20
0.079052
 30
0.000000
  0
VERTEX
  8
LAYER-1
 10
3.368535
 20
0.079052
 30
0.000000
  0
VERTEX
  8
LAYER-1
 10
3.372876
 20
0.079920
 30
0.000000
  0
VERTEX
  8
LAYER-1
 10
3.375480
 20
0.084260
 30
0.000000
  0
SEQEND
  8
LAYER-1
  0
POLYLINE
  8
LAYER-1
 66
  1
 70
  0
 62
  0
 10
3.306036
 20
0.195370
 30
0.000000
  0
VERTEX
  8
LAYER-1
 10
3.306036
 20
0.195370
 30
0.000000
  0
VERTEX
  8
LAYER-1
 10
3.306036
 20
0.199710
 30
0.000000
  0
VERTEX
  8
LAYER-1
 10
3.301695
 20
0.203183
 30
0.000000
  0
VERTEX
  8
LAYER-1
 10
3.296487
 20
0.204051
 30
0.000000
  0
VERTEX
  8
LAYER-1
 10
3.292146
 20
0.202315
 30
0.000000
  0
VERTEX
  8
LAYER-1
 10
3.290411
 20
0.197973
 30
0.000000
  0
VERTEX
  8
LAYER-1
 10
3.290411
 20
0.193634
 30
0.000000
  0
VERTEX
  8
LAYER-1
 10
3.293883
 20
0.189294
 30
0.000000
  0
VERTEX
  8
LAYER-1
 10
3.298223
 20
0.189294
 30
0.000000
  0
VERTEX
  8
LAYER-1
 10
3.302564
 20
0.190161
 30
0.000000
  0
VERTEX
  8
LAYER-1
 10
3.305169
 20
0.194502
 30
0.000000
  0
SEQEND
  8
LAYER-1
  0
POLYLINE
  8
LAYER-1
 66
  1
 70
  1
 62
  0
 10
4.088587
 20
0.184954
 30
0.000000
  0
VERTEX
  8
LAYER-1
 10
4.088587
 20
0.184954
 30
0.000000
  0
VERTEX
  8
LAYER-1
 10
4.095531
 20
0.158914
 30
0.000000
  0
VERTEX
  8
LAYER-1
 10
4.120705
 20
0.172802
 30
0.000000
  0
SEQEND
  8
LAYER-1
  0
POLYLINE
  8
LAYER-1
 66
  1
 70
  1
 62
  0
 10
4.250915
 20
0.213601
 30
0.000000
  0
VERTEX
  8
LAYER-1
 10
4.250915
 20
0.213601
 30
0.000000
  0
VERTEX
  8
LAYER-1
 10
4.237893
 20
0.191032
 30
0.000000
  0
VERTEX
  8
LAYER-1
 10
4.268275
 20
0.211864
 30
0.000000
  0
SEQEND
  8
LAYER-1
  0
POLYLINE
  8
LAYER-1
 66
  1
 70
  1
 62
  0
 10
4.230082
 20
0.128530
 30
0.000000
  0
VERTEX
  8
LAYER-1
 10
4.230082
 20
0.128530
 30
0.000000
  0
VERTEX
  8
LAYER-1
 10
4.213589
 20
0.103356
 30
0.000000
  0
VERTEX
  8
LAYER-1
 10
4.228346
 20
0.095544
 30
0.000000
  0
SEQEND
  8
LAYER-1
  0
POLYLINE
  8
LAYER-1
 66
  1
 70
  0
 62
  0
 10
4.039108
 20
0.216204
 30
0.000000
  0
VERTEX
  8
LAYER-1
 10
4.039108
 20
0.216204
 30
0.000000
  0
VERTEX
  8
LAYER-1
 10
4.034768
 20
0.216204
 30
0.000000
  0
VERTEX
  8
LAYER-1
 10
4.031296
 20
0.211864
 30
0.000000
  0
VERTEX
  8
LAYER-1
 10
4.030428
 20
0.206657
 30
0.000000
  0
VERTEX
  8
LAYER-1
 10
4.032163
 20
0.202315
 30
0.000000
  0
VERTEX
  8
LAYER-1
 10
4.036504
 20
0.200579
 30
0.000000
  0
VERTEX
  8
LAYER-1
 10
4.040844
 20
0.200579
 30
0.000000
  0
VERTEX
  8
LAYER-1
 10
4.045185
 20
0.204052
 30
0.000000
  0
VERTEX
  8
LAYER-1
 10
4.045185
 20
0.208392
 30
0.000000
  0
VERTEX
  8
LAYER-1
 10
4.044317
 20
0.212733
 30
0.000000
  0
VERTEX
  8
LAYER-1
 10
4.039976
 20
0.215336
 30
0.000000
  0
SEQEND
  8
LAYER-1
  0
POLYLINE
  8
LAYER-1
 66
  1
 70
  1
 62
  0
 10
4.060374
 20
0.148061
 30
0.000000
  0
VERTEX
  8
LAYER-1
 10
4.060374
 20
0.148061
 30
0.000000
  0
VERTEX
  8
LAYER-1
 10
4.082944
 20
0.135041
 30
0.000000
  0
VERTEX
  8
LAYER-1
 10
4.062111
 20
0.165422
 30
0.000000
  0
SEQEND
  8
LAYER-1
  0
POLYLINE
  8
LAYER-1
 66
  1
 70
  1
 62
  0
 10
4.177030
 20
0.140082
 30
0.000000
  0
VERTEX
  8
LAYER-1
 10
4.177030
 20
0.140082
 30
0.000000
  0
VERTEX
  8
LAYER-1
 10
4.196394
 20
0.127394
 30
0.000000
  0
VERTEX
  8
LAYER-1
 10
4.202404
 20
0.138746
 30
0.000000
  0
SEQEND
  8
LAYER-1
  0
POLYLINE
  8
LAYER-1
 66
  1
 70
  0
 62
  0
 10
4.191018
 20
0.217940
 30
0.000000
  0
VERTEX
  8
LAYER-1
 10
4.191018
 20
0.217940
 30
0.000000
  0
VERTEX
  8
LAYER-1
 10
4.186679
 20
0.217940
 30
0.000000
  0
VERTEX
  8
LAYER-1
 10
4.183206
 20
0.213600
 30
0.000000
  0
VERTEX
  8
LAYER-1
 10
4.182338
 20
0.208392
 30
0.000000
  0
VERTEX
  8
LAYER-1
 10
4.184074
 20
0.204052
 30
0.000000
  0
VERTEX
  8
LAYER-1
 10
4.188415
 20
0.202315
 30
0.000000
  0
VERTEX
  8
LAYER-1
 10
4.192755
 20
0.202315
 30
0.000000
  0
VERTEX
  8
LAYER-1
 10
4.197095
 20
0.205788
 30
0.000000
  0
VERTEX
  8
LAYER-1
 10
4.197095
 20
0.210128
 30
0.000000
  0
VERTEX
  8
LAYER-1
 10
4.196227
 20
0.214469
 30
0.000000
  0
VERTEX
  8
LAYER-1
 10
4.191886
 20
0.217072
 30
0.000000
  0
SEQEND
  8
LAYER-1
  0
POLYLINE
  8
LAYER-1
 66
  1
 70
  0
 62
  0
 10
4.275221
 20
0.091203
 30
0.000000
  0
VERTEX
  8
LAYER-1
 10
4.275221
 20
0.091203
 30
0.000000
  0
VERTEX
  8
LAYER-1
 10
4.270880
 20
0.091203
 30
0.000000
  0
VERTEX
  8
LAYER-1
 10
4.267409
 20
0.086863
 30
0.000000
  0
VERTEX
  8
LAYER-1
 10
4.266541
 20
0.081655
 30
0.000000
  0
VERTEX
  8
LAYER-1
 10
4.268276
 20
0.077315
 30
0.000000
  0
VERTEX
  8
LAYER-1
 10
4.272616
 20
0.075578
 30
0.000000
  0
VERTEX
  8
LAYER-1
 10
4.276957
 20
0.075578
 30
0.000000
  0
VERTEX
  8
LAYER-1
 10
4.281297
 20
0.079051
 30
0.000000
  0
VERTEX
  8
LAYER-1
 10
4.281297
 20
0.083391
 30
0.000000
  0
VERTEX
  8
LAYER-1
 10
4.280429
 20
0.087732
 30
0.000000
  0
VERTEX
  8
LAYER-1
 10
4.276089
 20
0.090335
 30
0.000000
  0
SEQEND
  8
LAYER-1
  0
POLYLINE
  8
LAYER-1
 66
  1
 70
  0
 62
  0
 10
4.121574
 20
0.145889
 30
0.000000
  0
VERTEX
  8
LAYER-1
 10
4.121574
 20
0.145889
 30
0.000000
  0
VERTEX
  8
LAYER-1
 10
4.117233
 20
0.145889
 30
0.000000
  0
VERTEX
  8
LAYER-1
 10
4.113761
 20
0.141548
 30
0.000000
  0
VERTEX
  8
LAYER-1
 10
4.112893
 20
0.136341
 30
0.000000
  0
VERTEX
  8
LAYER-1
 10
4.114629
 20
0.132000
 30
0.000000
  0
VERTEX
  8
LAYER-1
 10
4.118969
 20
0.130264
 30
0.000000
  0
VERTEX
  8
LAYER-1
 10
4.123310
 20
0.130264
 30
0.000000
  0
VERTEX
  8
LAYER-1
 10
4.127650
 20
0.133736
 30
0.000000
  0
VERTEX
  8
LAYER-1
 10
4.127650
 20
0.138077
 30
0.000000
  0
VERTEX
  8
LAYER-1
 10
4.126781
 20
0.142417
 30
0.000000
  0
VERTEX
  8
LAYER-1
 10
4.122442
 20
0.145021
 30
0.000000
  0
SEQEND
  8
LAYER-1
  0
POLYLINE
  8
LAYER-1
 66
  1
 70
  1
 62
  0
 10
3.956644
 20
0.154571
 30
0.000000
  0
VERTEX
  8
LAYER-1
 10
3.956644
 20
0.154571
 30
0.000000
  0
VERTEX
  8
LAYER-1
 10
3.949699
 20
0.180610
 30
0.000000
  0
VERTEX
  8
LAYER-1
 10
3.924525
 20
0.166723
 30
0.000000
  0
SEQEND
  8
LAYER-1
  0
POLYLINE
  8
LAYER-1
 66
  1
 70
  1
 62
  0
 10
3.545619
 20
0.186253
 30
0.000000
  0
VERTEX
  8
LAYER-1
 10
3.545619
 20
0.186253
 30
0.000000
  0
VERTEX
  8
LAYER-1
 10
3.558639
 20
0.208823
 30
0.000000
  0
VERTEX
  8
LAYER-1
 10
3.528258
 20
0.187991
 30
0.000000
  0
SEQEND
  8
LAYER-1
  0
POLYLINE
  8
LAYER-1
 66
  1
 70
  1
 62
  0
 10
3.842928
 20
0.179745
 30
0.000000
  0
VERTEX
  8
LAYER-1
 10
3.842928
 20
0.179745
 30
0.000000
  0
VERTEX
  8
LAYER-1
 10
3.859422
 20
0.204919
 30
0.000000
  0
VERTEX
  8
LAYER-1
 10
3.844663
 20
0.212731
 30
0.000000
  0
SEQEND
  8
LAYER-1
  0
POLYLINE
  8
LAYER-1
 66
  1
 70
  0
 62
  0
 10
4.006122
 20
0.123321
 30
0.000000
  0
VERTEX
  8
LAYER-1
 10
4.006122
 20
0.123321
 30
0.000000
  0
VERTEX
  8
LAYER-1
 10
4.010463
 20
0.123321
 30
0.000000
  0
VERTEX
  8
LAYER-1
 10
4.013935
 20
0.127661
 30
0.000000
  0
VERTEX
  8
LAYER-1
 10
4.014804
 20
0.132869
 30
0.000000
  0
VERTEX
  8
LAYER-1
 10
4.013068
 20
0.137210
 30
0.000000
  0
VERTEX
  8
LAYER-1
 10
4.008727
 20
0.138946
 30
0.000000
  0
VERTEX
  8
LAYER-1
 10
4.004386
 20
0.138946
 30
0.000000
  0
VERTEX
  8
LAYER-1
 10
4.000046
 20
0.135473
 30
0.000000
  0
VERTEX
  8
LAYER-1
 10
4.000046
 20
0.131133
 30
0.000000
  0
VERTEX
  8
LAYER-1
 10
4.000915
 20
0.126792
 30
0.000000
  0
VERTEX
  8
LAYER-1
 10
4.005255
 20
0.124188
 30
0.000000
  0
SEQEND
  8
LAYER-1
  0
POLYLINE
  8
LAYER-1
 66
  1
 70
  1
 62
  0
 10
3.960115
 20
0.119850
 30
0.000000
  0
VERTEX
  8
LAYER-1
 10
3.960115
 20
0.119850
 30
0.000000
  0
VERTEX
  8
LAYER-1
 10
3.973136
 20
0.142420
 30
0.000000
  0
VERTEX
  8
LAYER-1
 10
3.942754
 20
0.121588
 30
0.000000
  0
SEQEND
  8
LAYER-1
  0
POLYLINE
  8
LAYER-1
 66
  1
 70
  1
 62
  0
 10
3.905529
 20
0.161251
 30
0.000000
  0
VERTEX
  8
LAYER-1
 10
3.905529
 20
0.161251
 30
0.000000
  0
VERTEX
  8
LAYER-1
 10
3.886165
 20
0.173938
 30
0.000000
  0
VERTEX
  8
LAYER-1
 10
3.880153
 20
0.162587
 30
0.000000
  0
SEQEND
  8
LAYER-1
  0
POLYLINE
  8
LAYER-1
 66
  1
 70
  0
 62
  0
 10
3.882423
 20
0.057906
 30
0.000000
  0
VERTEX
  8
LAYER-1
 10
3.882423
 20
0.057906
 30
0.000000
  0
VERTEX
  8
LAYER-1
 10
3.886763
 20
0.057906
 30
0.000000
  0
VERTEX
  8
LAYER-1
 10
3.890235
 20
0.062247
 30
0.000000
  0
VERTEX
  8
LAYER-1
 10
3.891104
 20
0.067455
 30
0.000000
  0
VERTEX
  8
LAYER-1
 10
3.889368
 20
0.071795
 30
0.000000
  0
VERTEX
  8
LAYER-1
 10
3.885028
 20
0.073531
 30
0.000000
  0
VERTEX
  8
LAYER-1
 10
3.880687
 20
0.073531
 30
0.000000
  0
VERTEX
  8
LAYER-1
 10
3.876346
 20
0.070060
 30
0.000000
  0
VERTEX
  8
LAYER-1
 10
3.876346
 20
0.065719
 30
0.000000
  0
VERTEX
  8
LAYER-1
 10
3.877215
 20
0.061378
 30
0.000000
  0
VERTEX
  8
LAYER-1
 10
3.881556
 20
0.058773
 30
0.000000
  0
SEQEND
  8
LAYER-1
  0
POLYLINE
  8
LAYER-1
 66
  1
 70
  0
 62
  0
 10
3.792580
 20
0.200701
 30
0.000000
  0
VERTEX
  8
LAYER-1
 10
3.792580
 20
0.200701
 30
0.000000
  0
VERTEX
  8
LAYER-1
 10
3.796921
 20
0.200701
 30
0.000000
  0
VERTEX
  8
LAYER-1
 10
3.800393
 20
0.205042
 30
0.000000
  0
VERTEX
  8
LAYER-1
 10
3.801259
 20
0.210249
 30
0.000000
  0
VERTEX
  8
LAYER-1
 10
3.799524
 20
0.214589
 30
0.000000
  0
VERTEX
  8
LAYER-1
 10
3.795183
 20
0.216326
 30
0.000000
  0
VERTEX
  8
LAYER-1
 10
3.790844
 20
0.216326
 30
0.000000
  0
VERTEX
  8
LAYER-1
 10
3.786503
 20
0.212854
 30
0.000000
  0
VERTEX
  8
LAYER-1
 10
3.786503
 20
0.208513
 30
0.000000
  0
VERTEX
  8
LAYER-1
 10
3.787370
 20
0.204173
 30
0.000000
  0
VERTEX
  8
LAYER-1
 10
3.791711
 20
0.201568
 30
0.000000
  0
SEQEND
  8
LAYER-1
  0
POLYLINE
  8
LAYER-1
 66
  1
 70
  0
 62
  0
 10
3.954907
 20
0.193634
 30
0.000000
  0
VERTEX
  8
LAYER-1
 10
3.954907
 20
0.193634
 30
0.000000
  0
VERTEX
  8
LAYER-1
 10
3.959248
 20
0.193634
 30
0.000000
  0
VERTEX
  8
LAYER-1
 10
3.962720
 20
0.197975
 30
0.000000
  0
VERTEX
  8
LAYER-1
 10
3.963587
 20
0.203183
 30
0.000000
  0
VERTEX
  8
LAYER-1
 10
3.961851
 20
0.207523
 30
0.000000
  0
VERTEX
  8
LAYER-1
 10
3.957510
 20
0.209259
 30
0.000000
  0
VERTEX
  8
LAYER-1
 10
3.953172
 20
0.209259
 30
0.000000
  0
VERTEX
  8
LAYER-1
 10
3.948831
 20
0.205788
 30
0.000000
  0
VERTEX
  8
LAYER-1
 10
3.948831
 20
0.201447
 30
0.000000
  0
VERTEX
  8
LAYER-1
 10
3.949698
 20
0.197106
 30
0.000000
  0
VERTEX
  8
LAYER-1
 10
3.954038
 20
0.194501
 30
0.000000
  0
SEQEND
  8
LAYER-1
  0
POLYLINE
  8
LAYER-1
 66
  1
 70
  1
 62
  0
 10
4.710983
 20
0.162821
 30
0.000000
  0
VERTEX
  8
LAYER-1
 10
4.710983
 20
0.162821
 30
0.000000
  0
VERTEX
  8
LAYER-1
 10
4.717928
 20
0.136779
 30
0.000000
  0
VERTEX
  8
LAYER-1
 10
4.743101
 20
0.150667
 30
0.000000
  0
SEQEND
  8
LAYER-1
  0
POLYLINE
  8
LAYER-1
 66
  1
 70
  1
 62
  0
 10
4.837718
 20
0.198410
 30
0.000000
  0
VERTEX
  8
LAYER-1
 10
4.837718
 20
0.198410
 30
0.000000
  0
VERTEX
  8
LAYER-1
 10
4.824698
 20
0.175841
 30
0.000000
  0
VERTEX
  8
LAYER-1
 10
4.855079
 20
0.196673
 30
0.000000
  0
SEQEND
  8
LAYER-1
  0
POLYLINE
  8
LAYER-1
 66
  1
 70
  1
 62
  0
 10
4.513068
 20
0.187126
 30
0.000000
  0
VERTEX
  8
LAYER-1
 10
4.513068
 20
0.187126
 30
0.000000
  0
VERTEX
  8
LAYER-1
 10
4.496575
 20
0.161953
 30
0.000000
  0
VERTEX
  8
LAYER-1
 10
4.511332
 20
0.154140
 30
0.000000
  0
SEQEND
  8
LAYER-1
  0
POLYLINE
  8
LAYER-1
 66
  1
 70
  0
 62
  0
 10
4.623310
 20
0.179315
 30
0.000000
  0
VERTEX
  8
LAYER-1
 10
4.623310
 20
0.179315
 30
0.000000
  0
VERTEX
  8
LAYER-1
 10
4.618969
 20
0.179315
 30
0.000000
  0
VERTEX
  8
LAYER-1
 10
4.615497
 20
0.174976
 30
0.000000
  0
VERTEX
  8
LAYER-1
 10
4.614628
 20
0.169768
 30
0.000000
  0
VERTEX
  8
LAYER-1
 10
4.616364
 20
0.165427
 30
0.000000
  0
VERTEX
  8
LAYER-1
 10
4.620705
 20
0.163691
 30
0.000000
  0
VERTEX
  8
LAYER-1
 10
4.625046
 20
0.163691
 30
0.000000
  0
VERTEX
  8
LAYER-1
 10
4.629385
 20
0.167163
 30
0.000000
  0
VERTEX
  8
LAYER-1
 10
4.629385
 20
0.171504
 30
0.000000
  0
VERTEX
  8
LAYER-1
 10
4.628518
 20
0.175845
 30
0.000000
  0
VERTEX
  8
LAYER-1
 10
4.624177
 20
0.178447
 30
0.000000
  0
SEQEND
  8
LAYER-1
  0
POLYLINE
  8
LAYER-1
 66
  1
 70
  1
 62
  0
 10
4.652824
 20
0.133307
 30
0.000000
  0
VERTEX
  8
LAYER-1
 10
4.652824
 20
0.133307
 30
0.000000
  0
VERTEX
  8
LAYER-1
 10
4.639803
 20
0.110736
 30
0.000000
  0
VERTEX
  8
LAYER-1
 10
4.670185
 20
0.131570
 30
0.000000
  0
SEQEND
  8
LAYER-1
  0
POLYLINE
  8
LAYER-1
 66
  1
 70
  1
 62
  0
 10
4.860121
 20
0.133838
 30
0.000000
  0
VERTEX
  8
LAYER-1
 10
4.860121
 20
0.133838
 30
0.000000
  0
VERTEX
  8
LAYER-1
 10
4.847435
 20
0.114473
 30
0.000000
  0
VERTEX
  8
LAYER-1
 10
4.858786
 20
0.108463
 30
0.000000
  0
SEQEND
  8
LAYER-1
  0
POLYLINE
  8
LAYER-1
 66
  1
 70
  0
 62
  0
 10
4.767406
 20
0.202750
 30
0.000000
  0
VERTEX
  8
LAYER-1
 10
4.767406
 20
0.202750
 30
0.000000
  0
VERTEX
  8
LAYER-1
 10
4.763065
 20
0.202750
 30
0.000000
  0
VERTEX
  8
LAYER-1
 10
4.759593
 20
0.198409
 30
0.000000
  0
VERTEX
  8
LAYER-1
 10
4.758725
 20
0.193202
 30
0.000000
  0
VERTEX
  8
LAYER-1
 10
4.760461
 20
0.188861
 30
0.000000
  0
VERTEX
  8
LAYER-1
 10
4.764801
 20
0.187125
 30
0.000000
  0
VERTEX
  8
LAYER-1
 10
4.769141
 20
0.187125
 30
0.000000
  0
VERTEX
  8
LAYER-1
 10
4.773482
 20
0.190597
 30
0.000000
  0
VERTEX
  8
LAYER-1
 10
4.773482
 20
0.194938
 30
0.000000
  0
VERTEX
  8
LAYER-1
 10
4.772613
 20
0.199278
 30
0.000000
  0
VERTEX
  8
LAYER-1
 10
4.768274
 20
0.201882
 30
0.000000
  0
SEQEND
  8
LAYER-1
  0
POLYLINE
  8
LAYER-1
 66
  1
 70
  0
 62
  0
 10
4.554734
 20
0.193201
 30
0.000000
  0
VERTEX
  8
LAYER-1
 10
4.554734
 20
0.193201
 30
0.000000
  0
VERTEX
  8
LAYER-1
 10
4.550394
 20
0.193201
 30
0.000000
  0
VERTEX
  8
LAYER-1
 10
4.546922
 20
0.188860
 30
0.000000
  0
VERTEX
  8
LAYER-1
 10
4.546054
 20
0.183652
 30
0.000000
  0
VERTEX
  8
LAYER-1
 10
4.547791
 20
0.179311
 30
0.000000
  0
VERTEX
  8
LAYER-1
 10
4.552130
 20
0.177576
 30
0.000000
  0
VERTEX
  8
LAYER-1
 10
4.556471
 20
0.177576
 30
0.000000
  0
VERTEX
  8
LAYER-1
 10
4.560811
 20
0.181047
 30
0.000000
  0
VERTEX
  8
LAYER-1
 10
4.560811
 20
0.185388
 30
0.000000
  0
VERTEX
  8
LAYER-1
 10
4.559943
 20
0.189729
 30
0.000000
  0
VERTEX
  8
LAYER-1
 10
4.555603
 20
0.192333
 30
0.000000
  0
SEQEND
  8
LAYER-1
  0
POLYLINE
  8
LAYER-1
 66
  1
 70
  0
 62
  0
 10
4.802130
 20
0.165421
 30
0.000000
  0
VERTEX
  8
LAYER-1
 10
4.802130
 20
0.165421
 30
0.000000
  0
VERTEX
  8
LAYER-1
 10
4.797791
 20
0.165421
 30
0.000000
  0
VERTEX
  8
LAYER-1
 10
4.794318
 20
0.161081
 30
0.000000
  0
VERTEX
  8
LAYER-1
 10
4.793451
 20
0.155873
 30
0.000000
  0
VERTEX
  8
LAYER-1
 10
4.795187
 20
0.151532
 30
0.000000
  0
VERTEX
  8
LAYER-1
 10
4.799527
 20
0.149796
 30
0.000000
  0
VERTEX
  8
LAYER-1
 10
4.803867
 20
0.149796
 30
0.000000
  0
VERTEX
  8
LAYER-1
 10
4.808207
 20
0.153269
 30
0.000000
  0
VERTEX
  8
LAYER-1
 10
4.808207
 20
0.157609
 30
0.000000
  0
VERTEX
  8
LAYER-1
 10
4.807340
 20
0.161950
 30
0.000000
  0
VERTEX
  8
LAYER-1
 10
4.802999
 20
0.164553
 30
0.000000
  0
SEQEND
  8
LAYER-1
  0
POLYLINE
  8
LAYER-1
 66
  1
 70
  1
 62
  0
 10
4.416713
 20
0.112038
 30
0.000000
  0
VERTEX
  8
LAYER-1
 10
4.416713
 20
0.112038
 30
0.000000
  0
VERTEX
  8
LAYER-1
 10
4.409768
 20
0.138078
 30
0.000000
  0
VERTEX
  8
LAYER-1
 10
4.384595
 20
0.124190
 30
0.000000
  0
SEQEND
  8
LAYER-1
  0
POLYLINE
  8
LAYER-1
 66
  1
 70
  1
 62
  0
 10
4.264804
 20
0.152834
 30
0.000000
  0
VERTEX
  8
LAYER-1
 10
4.264804
 20
0.152834
 30
0.000000
  0
VERTEX
  8
LAYER-1
 10
4.277825
 20
0.175404
 30
0.000000
  0
VERTEX
  8
LAYER-1
 10
4.247443
 20
0.154572
 30
0.000000
  0
SEQEND
  8
LAYER-1
  0
POLYLINE
  8
LAYER-1
 66
  1
 70
  1
 62
  0
 10
4.348137
 20
0.112908
 30
0.000000
  0
VERTEX
  8
LAYER-1
 10
4.348137
 20
0.112908
 30
0.000000
  0
VERTEX
  8
LAYER-1
 10
4.364630
 20
0.138082
 30
0.000000
  0
VERTEX
  8
LAYER-1
 10
4.349873
 20
0.145894
 30
0.000000
  0
SEQEND
  8
LAYER-1
  0
POLYLINE
  8
LAYER-1
 66
  1
 70
  0
 62
  0
 10
4.522617
 20
0.114645
 30
0.000000
  0
VERTEX
  8
LAYER-1
 10
4.522617
 20
0.114645
 30
0.000000
  0
VERTEX
  8
LAYER-1
 10
4.526958
 20
0.114645
 30
0.000000
  0
VERTEX
  8
LAYER-1
 10
4.530429
 20
0.118985
 30
0.000000
  0
VERTEX
  8
LAYER-1
 10
4.531297
 20
0.124193
 30
0.000000
  0
VERTEX
  8
LAYER-1
 10
4.529562
 20
0.128534
 30
0.000000
  0
VERTEX
  8
LAYER-1
 10
4.525221
 20
0.130270
 30
0.000000
  0
VERTEX
  8
LAYER-1
 10
4.520881
 20
0.130270
 30
0.000000
  0
VERTEX
  8
LAYER-1
 10
4.516541
 20
0.126798
 30
0.000000
  0
VERTEX
  8
LAYER-1
 10
4.516541
 20
0.122458
 30
0.000000
  0
VERTEX
  8
LAYER-1
 10
4.517409
 20
0.118117
 30
0.000000
  0
VERTEX
  8
LAYER-1
 10
4.521749
 20
0.115512
 30
0.000000
  0
SEQEND
  8
LAYER-1
  0
POLYLINE
  8
LAYER-1
 66
  1
 70
  1
 62
  0
 10
4.474004
 20
0.129400
 30
0.000000
  0
VERTEX
  8
LAYER-1
 10
4.474004
 20
0.129400
 30
0.000000
  0
VERTEX
  8
LAYER-1
 10
4.487025
 20
0.151971
 30
0.000000
  0
VERTEX
  8
LAYER-1
 10
4.456643
 20
0.131138
 30
0.000000
  0
SEQEND
  8
LAYER-1
  0
POLYLINE
  8
LAYER-1
 66
  1
 70
  1
 62
  0
 10
4.363060
 20
0.165326
 30
0.000000
  0
VERTEX
  8
LAYER-1
 10
4.363060
 20
0.165326
 30
0.000000
  0
VERTEX
  8
LAYER-1
 10
4.375747
 20
0.184688
 30
0.000000
  0
VERTEX
  8
LAYER-1
 10
4.364397
 20
0.190699
 30
0.000000
  0
SEQEND
  8
LAYER-1
  0
POLYLINE
  8
LAYER-1
 66
  1
 70
  0
 62
  0
 10
4.318709
 20
0.196795
 30
0.000000
  0
VERTEX
  8
LAYER-1
 10
4.318709
 20
0.196795
 30
0.000000
  0
VERTEX
  8
LAYER-1
 10
4.323048
 20
0.196795
 30
0.000000
  0
VERTEX
  8
LAYER-1
 10
4.326521
 20
0.201136
 30
0.000000
  0
VERTEX
  8
LAYER-1
 10
4.327389
 20
0.206344
 30
0.000000
  0
VERTEX
  8
LAYER-1
 10
4.325653
 20
0.210685
 30
0.000000
  0
VERTEX
  8
LAYER-1
 10
4.321312
 20
0.212420
 30
0.000000
  0
VERTEX
  8
LAYER-1
 10
4.316972
 20
0.212420
 30
0.000000
  0
VERTEX
  8
LAYER-1
 10
4.312632
 20
0.208949
 30
0.000000
  0
VERTEX
  8
LAYER-1
 10
4.312632
 20
0.204608
 30
0.000000
  0
VERTEX
  8
LAYER-1
 10
4.313500
 20
0.200267
 30
0.000000
  0
VERTEX
  8
LAYER-1
 10
4.317841
 20
0.197662
 30
0.000000
  0
SEQEND
  8
LAYER-1
  0
POLYLINE
  8
LAYER-1
 66
  1
 70
  0
 62
  0
 10
4.296054
 20
0.118985
 30
0.000000
  0
VERTEX
  8
LAYER-1
 10
4.296054
 20
0.118985
 30
0.000000
  0
VERTEX
  8
LAYER-1
 10
4.300394
 20
0.118985
 30
0.000000
  0
VERTEX
  8
LAYER-1
 10
4.303866
 20
0.123326
 30
0.000000
  0
VERTEX
  8
LAYER-1
 10
4.304734
 20
0.128533
 30
0.000000
  0
VERTEX
  8
LAYER-1
 10
4.302998
 20
0.132874
 30
0.000000
  0
VERTEX
  8
LAYER-1
 10
4.298657
 20
0.134610
 30
0.000000
  0
VERTEX
  8
LAYER-1
 10
4.294318
 20
0.134610
 30
0.000000
  0
VERTEX
  8
LAYER-1
 10
4.289977
 20
0.131138
 30
0.000000
  0
VERTEX
  8
LAYER-1
 10
4.289977
 20
0.126797
 30
0.000000
  0
VERTEX
  8
LAYER-1
 10
4.290845
 20
0.122457
 30
0.000000
  0
VERTEX
  8
LAYER-1
 10
4.295186
 20
0.119852
 30
0.000000
  0
SEQEND
  8
LAYER-1
  0
POLYLINE
  8
LAYER-1
 66
  1
 70
  0
 62
  0
 10
4.460116
 20
0.196240
 30
0.000000
  0
VERTEX
  8
LAYER-1
 10
4.460116
 20
0.196240
 30
0.000000
  0
VERTEX
  8
LAYER-1
 10
4.464457
 20
0.196240
 30
0.000000
  0
VERTEX
  8
LAYER-1
 10
4.467929
 20
0.200580
 30
0.000000
  0
VERTEX
  8
LAYER-1
 10
4.468797
 20
0.205789
 30
0.000000
  0
VERTEX
  8
LAYER-1
 10
4.467061
 20
0.210129
 30
0.000000
  0
VERTEX
  8
LAYER-1
 10
4.462720
 20
0.211865
 30
0.000000
  0
VERTEX
  8
LAYER-1
 10
4.458380
 20
0.211865
 30
0.000000
  0
VERTEX
  8
LAYER-1
 10
4.454040
 20
0.208393
 30
0.000000
  0
VERTEX
  8
LAYER-1
 10
4.454040
 20
0.204052
 30
0.000000
  0
VERTEX
  8
LAYER-1
 10
4.454907
 20
0.199711
 30
0.000000
  0
VERTEX
  8
LAYER-1
 10
4.459248
 20
0.197107
 30
0.000000
  0
SEQEND
  8
LAYER-1
  0
POLYLINE
  8
LAYER-1
 66
  1
 70
  1
 62
  0
 10
4.911934
 20
0.152836
 30
0.000000
  0
VERTEX
  8
LAYER-1
 10
4.911934
 20
0.152836
 30
0.000000
  0
VERTEX
  8
LAYER-1
 10
4.937975
 20
0.159782
 30
0.000000
  0
VERTEX
  8
LAYER-1
 10
4.924087
 20
0.184953
 30
0.000000
  0
SEQEND
  8
LAYER-1
  0
POLYLINE
  8
LAYER-1
 66
  1
 70
  1
 62
  0
 10
4.594229
 20
0.205789
 30
0.000000
  0
VERTEX
  8
LAYER-1
 10
4.594229
 20
0.205789
 30
0.000000
  0
VERTEX
  8
LAYER-1
 10
4.616799
 20
0.192767
 30
0.000000
  0
VERTEX
  8
LAYER-1
 10
4.595966
 20
0.223149
 30
0.000000
  0
SEQEND
  8
LAYER-1
  0
POLYLINE
  8
LAYER-1
 66
  1
 70
  1
 62
  0
 10
5.530858
 20
0.111166
 30
0.000000
  0
VERTEX
  8
LAYER-1
 10
5.530858
 20
0.111166
 30
0.000000
  0
VERTEX
  8
LAYER-1
 10
5.556033
 20
0.094673
 30
0.000000
  0
VERTEX
  8
LAYER-1
 10
5.563845
 20
0.109431
 30
0.000000
  0
SEQEND
  8
LAYER-1
  0
POLYLINE
  8
LAYER-1
 66
  1
 70
  0
 62
  0
 10
5.352040
 20
0.119848
 30
0.000000
  0
VERTEX
  8
LAYER-1
 10
5.352040
 20
0.119848
 30
0.000000
  0
VERTEX
  8
LAYER-1
 10
5.352040
 20
0.115509
 30
0.000000
  0
VERTEX
  8
LAYER-1
 10
5.356380
 20
0.112036
 30
0.000000
  0
VERTEX
  8
LAYER-1
 10
5.361588
 20
0.111170
 30
0.000000
  0
VERTEX
  8
LAYER-1
 10
5.365929
 20
0.112905
 30
0.000000
  0
VERTEX
  8
LAYER-1
 10
5.367665
 20
0.117245
 30
0.000000
  0
VERTEX
  8
LAYER-1
 10
5.367665
 20
0.121585
 30
0.000000
  0
VERTEX
  8
LAYER-1
 10
5.364193
 20
0.125926
 30
0.000000
  0
VERTEX
  8
LAYER-1
 10
5.359852
 20
0.125926
 30
0.000000
  0
VERTEX
  8
LAYER-1
 10
5.355512
 20
0.125058
 30
0.000000
  0
VERTEX
  8
LAYER-1
 10
5.352908
 20
0.120717
 30
0.000000
  0
SEQEND
  8
LAYER-1
  0
POLYLINE
  8
LAYER-1
 66
  1
 70
  1
 62
  0
 10
4.982247
 20
0.139815
 30
0.000000
  0
VERTEX
  8
LAYER-1
 10
4.982247
 20
0.139815
 30
0.000000
  0
VERTEX
  8
LAYER-1
 10
5.004817
 20
0.126795
 30
0.000000
  0
VERTEX
  8
LAYER-1
 10
4.983984
 20
0.157176
 30
0.000000
  0
SEQEND
  8
LAYER-1
  0
POLYLINE
  8
LAYER-1
 66
  1
 70
  1
 62
  0
 10
4.945255
 20
0.210829
 30
0.000000
  0
VERTEX
  8
LAYER-1
 10
4.945255
 20
0.210829
 30
0.000000
  0
VERTEX
  8
LAYER-1
 10
4.964620
 20
0.198142
 30
0.000000
  0
VERTEX
  8
LAYER-1
 10
4.970631
 20
0.209494
 30
0.000000
  0
SEQEND
  8
LAYER-1
  0
POLYLINE
  8
LAYER-1
 66
  1
 70
  0
 62
  0
 10
4.589890
 20
0.145893
 30
0.000000
  0
VERTEX
  8
LAYER-1
 10
4.589890
 20
0.145893
 30
0.000000
  0
VERTEX
  8
LAYER-1
 10
4.589890
 20
0.141553
 30
0.000000
  0
VERTEX
  8
LAYER-1
 10
4.594230
 20
0.138080
 30
0.000000
  0
VERTEX
  8
LAYER-1
 10
4.599438
 20
0.137213
 30
0.000000
  0
VERTEX
  8
LAYER-1
 10
4.603778
 20
0.138948
 30
0.000000
  0
VERTEX
  8
LAYER-1
 10
4.605515
 20
0.143289
 30
0.000000
  0
VERTEX
  8
LAYER-1
 10
4.605515
 20
0.147629
 30
0.000000
  0
VERTEX
  8
LAYER-1
 10
4.602043
 20
0.151970
 30
0.000000
  0
VERTEX
  8
LAYER-1
 10
4.597702
 20
0.151970
 30
0.000000
  0
VERTEX
  8
LAYER-1
 10
4.593361
 20
0.151102
 30
0.000000
  0
VERTEX
  8
LAYER-1
 10
4.590757
 20
0.146761
 30
0.000000
  0
SEQEND
  8
LAYER-1
  0
POLYLINE
  8
LAYER-1
 66
  1
 70
  0
 62
  0
 10
4.996136
 20
0.107697
 30
0.000000
  0
VERTEX
  8
LAYER-1
 10
4.996136
 20
0.107697
 30
0.000000
  0
VERTEX
  8
LAYER-1
 10
4.996136
 20
0.103357
 30
0.000000
  0
VERTEX
  8
LAYER-1
 10
5.000476
 20
0.099885
 30
0.000000
  0
VERTEX
  8
LAYER-1
 10
5.005684
 20
0.099016
 30
0.000000
  0
VERTEX
  8
LAYER-1
 10
5.010025
 20
0.100753
 30
0.000000
  0
VERTEX
  8
LAYER-1
 10
5.011761
 20
0.105092
 30
0.000000
  0
VERTEX
  8
LAYER-1
 10
5.011761
 20
0.109433
 30
0.000000
  0
VERTEX
  8
LAYER-1
 10
5.008289
 20
0.113774
 30
0.000000
  0
VERTEX
  8
LAYER-1
 10
5.003948
 20
0.113774
 30
0.000000
  0
VERTEX
  8
LAYER-1
 10
4.999608
 20
0.112905
 30
0.000000
  0
VERTEX
  8
LAYER-1
 10
4.997003
 20
0.108565
 30
0.000000
  0
SEQEND
  8
LAYER-1
  0
POLYLINE
  8
LAYER-1
 66
  1
 70
  0
 62
  0
 10
5.064712
 20
0.143289
 30
0.000000
  0
VERTEX
  8
LAYER-1
 10
5.064712
 20
0.143289
 30
0.000000
  0
VERTEX
  8
LAYER-1
 10
5.064712
 20
0.138947
 30
0.000000
  0
VERTEX
  8
LAYER-1
 10
5.069053
 20
0.135476
 30
0.000000
  0
VERTEX
  8
LAYER-1
 10
5.074261
 20
0.134607
 30
0.000000
  0
VERTEX
  8
LAYER-1
 10
5.078601
 20
0.136344
 30
0.000000
  0
VERTEX
  8
LAYER-1
 10
5.080338
 20
0.140683
 30
0.000000
  0
VERTEX
  8
LAYER-1
 10
5.080338
 20
0.145024
 30
0.000000
  0
VERTEX
  8
LAYER-1
 10
5.076865
 20
0.149365
 30
0.000000
  0
VERTEX
  8
LAYER-1
 10
5.072525
 20
0.149365
 30
0.000000
  0
VERTEX
  8
LAYER-1
 10
5.068184
 20
0.148496
 30
0.000000
  0
VERTEX
  8
LAYER-1
 10
5.065580
 20
0.144157
 30
0.000000
  0
SEQEND
  8
LAYER-1
  0
POLYLINE
  8
LAYER-1
 66
  1
 70
  1
 62
  0
 10
5.104123
 20
0.164555
 30
0.000000
  0
VERTEX
  8
LAYER-1
 10
5.104123
 20
0.164555
 30
0.000000
  0
VERTEX
  8
LAYER-1
 10
5.111068
 20
0.138515
 30
0.000000
  0
VERTEX
  8
LAYER-1
 10
5.136241
 20
0.152402
 30
0.000000
  0
SEQEND
  8
LAYER-1
  0
POLYLINE
  8
LAYER-1
 66
  1
 70
  1
 62
  0
 10
5.265669
 20
0.193202
 30
0.000000
  0
VERTEX
  8
LAYER-1
 10
5.265669
 20
0.193202
 30
0.000000
  0
VERTEX
  8
LAYER-1
 10
5.252647
 20
0.170632
 30
0.000000
  0
VERTEX
  8
LAYER-1
 10
5.283030
 20
0.191464
 30
0.000000
  0
SEQEND
  8
LAYER-1
  0
POLYLINE
  8
LAYER-1
 66
  1
 70
  1
 62
  0
 10
5.658028
 20
0.163684
 30
0.000000
  0
VERTEX
  8
LAYER-1
 10
5.658028
 20
0.163684
 30
0.000000
  0
VERTEX
  8
LAYER-1
 10
5.641536
 20
0.138510
 30
0.000000
  0
VERTEX
  8
LAYER-1
 10
5.656293
 20
0.130697
 30
0.000000
  0
SEQEND
  8
LAYER-1
  0
POLYLINE
  8
LAYER-1
 66
  1
 70
  0
 62
  0
 10
5.053862
 20
0.195804
 30
0.000000
  0
VERTEX
  8
LAYER-1
 10
5.053862
 20
0.195804
 30
0.000000
  0
VERTEX
  8
LAYER-1
 10
5.049522
 20
0.195804
 30
0.000000
  0
VERTEX
  8
LAYER-1
 10
5.046050
 20
0.191464
 30
0.000000
  0
VERTEX
  8
LAYER-1
 10
5.045182
 20
0.186256
 30
0.000000
  0
VERTEX
  8
LAYER-1
 10
5.046918
 20
0.181915
 30
0.000000
  0
VERTEX
  8
LAYER-1
 10
5.051259
 20
0.180179
 30
0.000000
  0
VERTEX
  8
LAYER-1
 10
5.055598
 20
0.180179
 30
0.000000
  0
VERTEX
  8
LAYER-1
 10
5.059939
 20
0.183651
 30
0.000000
  0
VERTEX
  8
LAYER-1
 10
5.059939
 20
0.187992
 30
0.000000
  0
VERTEX
  8
LAYER-1
 10
5.059071
 20
0.192333
 30
0.000000
  0
VERTEX
  8
LAYER-1
 10
5.054730
 20
0.194938
 30
0.000000
  0
SEQEND
  8
LAYER-1
  0
POLYLINE
  8
LAYER-1
 66
  1
 70
  1
 62
  0
 10
5.117232
 20
0.119416
 30
0.000000
  0
VERTEX
  8
LAYER-1
 10
5.117232
 20
0.119416
 30
0.000000
  0
VERTEX
  8
LAYER-1
 10
5.104211
 20
0.096846
 30
0.000000
  0
VERTEX
  8
LAYER-1
 10
5.134593
 20
0.117678
 30
0.000000
  0
SEQEND
  8
LAYER-1
  0
POLYLINE
  8
LAYER-1
 66
  1
 70
  1
 62
  0
 10
5.185975
 20
0.097178
 30
0.000000
  0
VERTEX
  8
LAYER-1
 10
5.185975
 20
0.097178
 30
0.000000
  0
VERTEX
  8
LAYER-1
 10
5.198663
 20
0.116542
 30
0.000000
  0
VERTEX
  8
LAYER-1
 10
5.187311
 20
0.122554
 30
0.000000
  0
SEQEND
  8
LAYER-1
  0
POLYLINE
  8
LAYER-1
 66
  1
 70
  0
 62
  0
 10
5.205772
 20
0.197540
 30
0.000000
  0
VERTEX
  8
LAYER-1
 10
5.205772
 20
0.197540
 30
0.000000
  0
VERTEX
  8
LAYER-1
 10
5.201433
 20
0.197540
 30
0.000000
  0
VERTEX
  8
LAYER-1
 10
5.197960
 20
0.193200
 30
0.000000
  0
VERTEX
  8
LAYER-1
 10
5.197092
 20
0.187992
 30
0.000000
  0
VERTEX
  8
LAYER-1
 10
5.198828
 20
0.183651
 30
0.000000
  0
VERTEX
  8
LAYER-1
 10
5.203169
 20
0.181915
 30
0.000000
  0
VERTEX
  8
LAYER-1
 10
5.207509
 20
0.181915
 30
0.000000
  0
VERTEX
  8
LAYER-1
 10
5.211849
 20
0.185388
 30
0.000000
  0
VERTEX
  8
LAYER-1
 10
5.211849
 20
0.189728
 30
0.000000
  0
VERTEX
  8
LAYER-1
 10
5.210981
 20
0.194069
 30
0.000000
  0
VERTEX
  8
LAYER-1
 10
5.206640
 20
0.196673
 30
0.000000
  0
SEQEND
  8
LAYER-1
  0
POLYLINE
  8
LAYER-1
 66
  1
 70
  0
 62
  0
 10
5.710112
 20
0.157607
 30
0.000000
  0
VERTEX
  8
LAYER-1
 10
5.710112
 20
0.157607
 30
0.000000
  0
VERTEX
  8
LAYER-1
 10
5.705772
 20
0.157607
 30
0.000000
  0
VERTEX
  8
LAYER-1
 10
5.702300
 20
0.153266
 30
0.000000
  0
VERTEX
  8
LAYER-1
 10
5.701432
 20
0.148059
 30
0.000000
  0
VERTEX
  8
LAYER-1
 10
5.703168
 20
0.143718
 30
0.000000
  0
VERTEX
  8
LAYER-1
 10
5.707509
 20
0.141982
 30
0.000000
  0
VERTEX
  8
LAYER-1
 10
5.711848
 20
0.141982
 30
0.000000
  0
VERTEX
  8
LAYER-1
 10
5.716189
 20
0.145454
 30
0.000000
  0
VERTEX
  8
LAYER-1
 10
5.716189
 20
0.149795
 30
0.000000
  0
VERTEX
  8
LAYER-1
 10
5.715321
 20
0.154135
 30
0.000000
  0
VERTEX
  8
LAYER-1
 10
5.710980
 20
0.156740
 30
0.000000
  0
SEQEND
  8
LAYER-1
  0
POLYLINE
  8
LAYER-1
 66
  1
 70
  0
 62
  0
 10
5.618967
 20
0.125489
 30
0.000000
  0
VERTEX
  8
LAYER-1
 10
5.618967
 20
0.125489
 30
0.000000
  0
VERTEX
  8
LAYER-1
 10
5.614627
 20
0.125489
 30
0.000000
  0
VERTEX
  8
LAYER-1
 10
5.611155
 20
0.121148
 30
0.000000
  0
VERTEX
  8
LAYER-1
 10
5.610287
 20
0.115941
 30
0.000000
  0
VERTEX
  8
LAYER-1
 10
5.612022
 20
0.111600
 30
0.000000
  0
VERTEX
  8
LAYER-1
 10
5.616363
 20
0.109864
 30
0.000000
  0
VERTEX
  8
LAYER-1
 10
5.620703
 20
0.109864
 30
0.000000
  0
VERTEX
  8
LAYER-1
 10
5.625044
 20
0.113336
 30
0.000000
  0
VERTEX
  8
LAYER-1
 10
5.625044
 20
0.117677
 30
0.000000
  0
VERTEX
  8
LAYER-1
 10
5.624176
 20
0.122017
 30
0.000000
  0
VERTEX
  8
LAYER-1
 10
5.619835
 20
0.124622
 30
0.000000
  0
SEQEND
  8
LAYER-1
  0
POLYLINE
  8
LAYER-1
 66
  1
 70
  1
 62
  0
 10
5.303863
 20
0.179747
 30
0.000000
  0
VERTEX
  8
LAYER-1
 10
5.303863
 20
0.179747
 30
0.000000
  0
VERTEX
  8
LAYER-1
 10
5.329903
 20
0.186691
 30
0.000000
  0
VERTEX
  8
LAYER-1
 10
5.316016
 20
0.211865
 30
0.000000
  0
SEQEND
  8
LAYER-1
  0
POLYLINE
  8
LAYER-1
 66
  1
 70
  0
 62
  0
 10
5.272613
 20
0.130268
 30
0.000000
  0
VERTEX
  8
LAYER-1
 10
5.272613
 20
0.130268
 30
0.000000
  0
VERTEX
  8
LAYER-1
 10
5.272613
 20
0.125928
 30
0.000000
  0
VERTEX
  8
LAYER-1
 10
5.276954
 20
0.122455
 30
0.000000
  0
VERTEX
  8
LAYER-1
 10
5.282162
 20
0.121589
 30
0.000000
  0
VERTEX
  8
LAYER-1
 10
5.286502
 20
0.123324
 30
0.000000
  0
VERTEX
  8
LAYER-1
 10
5.288238
 20
0.127664
 30
0.000000
  0
VERTEX
  8
LAYER-1
 10
5.288238
 20
0.132005
 30
0.000000
  0
VERTEX
  8
LAYER-1
 10
5.284766
 20
0.136345
 30
0.000000
  0
VERTEX
  8
LAYER-1
 10
5.280426
 20
0.136345
 30
0.000000
  0
VERTEX
  8
LAYER-1
 10
5.276085
 20
0.135477
 30
0.000000
  0
VERTEX
  8
LAYER-1
 10
5.273480
 20
0.131137
 30
0.000000
  0
SEQEND
  8
LAYER-1
  0
POLYLINE
  8
LAYER-1
 66
  1
 70
  1
 62
  0
 10
5.367666
 20
0.143723
 30
0.000000
  0
VERTEX
  8
LAYER-1
 10
5.367666
 20
0.143723
 30
0.000000
  0
VERTEX
  8
LAYER-1
 10
5.380686
 20
0.166293
 30
0.000000
  0
VERTEX
  8
LAYER-1
 10
5.350305
 20
0.145460
 30
0.000000
  0
SEQEND
  8
LAYER-1
  0
POLYLINE
  8
LAYER-1
 66
  1
 70
  0
 62
  0
 10
5.422787
 20
0.178011
 30
0.000000
  0
VERTEX
  8
LAYER-1
 10
5.422787
 20
0.178011
 30
0.000000
  0
VERTEX
  8
LAYER-1
 10
5.422787
 20
0.173671
 30
0.000000
  0
VERTEX
  8
LAYER-1
 10
5.427127
 20
0.170199
 30
0.000000
  0
VERTEX
  8
LAYER-1
 10
5.432335
 20
0.169330
 30
0.000000
  0
VERTEX
  8
LAYER-1
 10
5.436676
 20
0.171067
 30
0.000000
  0
VERTEX
  8
LAYER-1
 10
5.438412
 20
0.175407
 30
0.000000
  0
VERTEX
  8
LAYER-1
 10
5.438412
 20
0.179747
 30
0.000000
  0
VERTEX
  8
LAYER-1
 10
5.434940
 20
0.184088
 30
0.000000
  0
VERTEX
  8
LAYER-1
 10
5.430599
 20
0.184088
 30
0.000000
  0
VERTEX
  8
LAYER-1
 10
5.426259
 20
0.183219
 30
0.000000
  0
VERTEX
  8
LAYER-1
 10
5.423653
 20
0.178879
 30
0.000000
  0
SEQEND
  8
LAYER-1
  0
POLYLINE
  8
LAYER-1
 66
  1
 70
  1
 62
  0
 10
6.168709
 20
0.194416
 30
0.000000
  0
VERTEX
  8
LAYER-1
 10
6.168709
 20
0.194416
 30
0.000000
  0
VERTEX
  8
LAYER-1
 10
6.161765
 20
0.220457
 30
0.000000
  0
VERTEX
  8
LAYER-1
 10
6.136592
 20
0.206568
 30
0.000000
  0
SEQEND
  8
LAYER-1
  0
POLYLINE
  8
LAYER-1
 66
  1
 70
  0
 62
  0
 10
6.209248
 20
0.068201
 30
0.000000
  0
VERTEX
  8
LAYER-1
 10
6.209248
 20
0.068201
 30
0.000000
  0
VERTEX
  8
LAYER-1
 10
6.213588
 20
0.068201
 30
0.000000
  0
VERTEX
  8
LAYER-1
 10
6.217061
 20
0.072541
 30
0.000000
  0
VERTEX
  8
LAYER-1
 10
6.217928
 20
0.077749
 30
0.000000
  0
VERTEX
  8
LAYER-1
 10
6.216192
 20
0.082090
 30
0.000000
  0
VERTEX
  8
LAYER-1
 10
6.211852
 20
0.083826
 30
0.000000
  0
VERTEX
  8
LAYER-1
 10
6.207511
 20
0.083826
 30
0.000000
  0
VERTEX
  8
LAYER-1
 10
6.203172
 20
0.080354
 30
0.000000
  0
VERTEX
  8
LAYER-1
 10
6.203172
 20
0.076013
 30
0.000000
  0
VERTEX
  8
LAYER-1
 10
6.204040
 20
0.071672
 30
0.000000
  0
VERTEX
  8
LAYER-1
 10
6.208380
 20
0.069069
 30
0.000000
  0
SEQEND
  8
LAYER-1
  0
POLYLINE
  8
LAYER-1
 66
  1
 70
  1
 62
  0
 10
5.505685
 20
0.101188
 30
0.000000
  0
VERTEX
  8
LAYER-1
 10
5.505685
 20
0.101188
 30
0.000000
  0
VERTEX
  8
LAYER-1
 10
5.518705
 20
0.123757
 30
0.000000
  0
VERTEX
  8
LAYER-1
 10
5.488324
 20
0.102924
 30
0.000000
  0
SEQEND
  8
LAYER-1
  0
POLYLINE
  8
LAYER-1
 66
  1
 70
  0
 62
  0
 10
5.549437
 20
0.179520
 30
0.000000
  0
VERTEX
  8
LAYER-1
 10
5.549437
 20
0.179520
 30
0.000000
  0
VERTEX
  8
LAYER-1
 10
5.553778
 20
0.179520
 30
0.000000
  0
VERTEX
  8
LAYER-1
 10
5.557250
 20
0.183861
 30
0.000000
  0
VERTEX
  8
LAYER-1
 10
5.558119
 20
0.189068
 30
0.000000
  0
VERTEX
  8
LAYER-1
 10
5.556382
 20
0.193409
 30
0.000000
  0
VERTEX
  8
LAYER-1
 10
5.552042
 20
0.195145
 30
0.000000
  0
VERTEX
  8
LAYER-1
 10
5.547701
 20
0.195145
 30
0.000000
  0
VERTEX
  8
LAYER-1
 10
5.543360
 20
0.191673
 30
0.000000
  0
VERTEX
  8
LAYER-1
 10
5.543360
 20
0.187332
 30
0.000000
  0
VERTEX
  8
LAYER-1
 10
5.544229
 20
0.182992
 30
0.000000
  0
VERTEX
  8
LAYER-1
 10
5.548569
 20
0.180388
 30
0.000000
  0
SEQEND
  8
LAYER-1
  0
POLYLINE
  8
LAYER-1
 66
  1
 70
  1
 62
  0
 10
6.089024
 20
0.110303
 30
0.000000
  0
VERTEX
  8
LAYER-1
 10
6.089024
 20
0.110303
 30
0.000000
  0
VERTEX
  8
LAYER-1
 10
6.062982
 20
0.103358
 30
0.000000
  0
VERTEX
  8
LAYER-1
 10
6.076870
 20
0.078184
 30
0.000000
  0
SEQEND
  8
LAYER-1
  0
POLYLINE
  8
LAYER-1
 66
  1
 70
  0
 62
  0
 10
5.454037
 20
0.125061
 30
0.000000
  0
VERTEX
  8
LAYER-1
 10
5.454037
 20
0.125061
 30
0.000000
  0
VERTEX
  8
LAYER-1
 10
5.454037
 20
0.129400
 30
0.000000
  0
VERTEX
  8
LAYER-1
 10
5.449696
 20
0.132874
 30
0.000000
  0
VERTEX
  8
LAYER-1
 10
5.444488
 20
0.133741
 30
0.000000
  0
VERTEX
  8
LAYER-1
 10
5.440147
 20
0.132005
 30
0.000000
  0
VERTEX
  8
LAYER-1
 10
5.438412
 20
0.127664
 30
0.000000
  0
VERTEX
  8
LAYER-1
 10
5.438412
 20
0.123323
 30
0.000000
  0
VERTEX
  8
LAYER-1
 10
5.441884
 20
0.118985
 30
0.000000
  0
VERTEX
  8
LAYER-1
 10
5.446224
 20
0.118985
 30
0.000000
  0
VERTEX
  8
LAYER-1
 10
5.450565
 20
0.119852
 30
0.000000
  0
VERTEX
  8
LAYER-1
 10
5.453169
 20
0.124192
 30
0.000000
  0
SEQEND
  8
LAYER-1
  0
POLYLINE
  8
LAYER-1
 66
  1
 70
  1
 62
  0
 10
6.037808
 20
0.099887
 30
0.000000
  0
VERTEX
  8
LAYER-1
 10
6.037808
 20
0.099887
 30
0.000000
  0
VERTEX
  8
LAYER-1
 10
6.010030
 20
0.116379
 30
0.000000
  0
VERTEX
  8
LAYER-1
 10
6.030862
 20
0.085998
 30
0.000000
  0
SEQEND
  8
LAYER-1
  0
POLYLINE
  8
LAYER-1
 66
  1
 70
  0
 62
  0
 10
5.748307
 20
0.181479
 30
0.000000
  0
VERTEX
  8
LAYER-1
 10
5.748307
 20
0.181479
 30
0.000000
  0
VERTEX
  8
LAYER-1
 10
5.748307
 20
0.185820
 30
0.000000
  0
VERTEX
  8
LAYER-1
 10
5.743966
 20
0.189291
 30
0.000000
  0
VERTEX
  8
LAYER-1
 10
5.738759
 20
0.190160
 30
0.000000
  0
VERTEX
  8
LAYER-1
 10
5.734418
 20
0.188422
 30
0.000000
  0
VERTEX
  8
LAYER-1
 10
5.732682
 20
0.184084
 30
0.000000
  0
VERTEX
  8
LAYER-1
 10
5.732682
 20
0.179743
 30
0.000000
  0
VERTEX
  8
LAYER-1
 10
5.736153
 20
0.175403
 30
0.000000
  0
VERTEX
  8
LAYER-1
 10
5.740494
 20
0.175403
 30
0.000000
  0
VERTEX
  8
LAYER-1
 10
5.744835
 20
0.176271
 30
0.000000
  0
VERTEX
  8
LAYER-1
 10
5.747439
 20
0.180610
 30
0.000000
  0
SEQEND
  8
LAYER-1
  0
POLYLINE
  8
LAYER-1
 66
  1
 70
  1
 62
  0
 10
6.318970
 20
0.087994
 30
0.000000
  0
VERTEX
  8
LAYER-1
 10
6.318970
 20
0.087994
 30
0.000000
  0
VERTEX
  8
LAYER-1
 10
6.312025
 20
0.114036
 30
0.000000
  0
VERTEX
  8
LAYER-1
 10
6.286851
 20
0.100148
 30
0.000000
  0
SEQEND
  8
LAYER-1
  0
POLYLINE
  8
LAYER-1
 66
  1
 70
  0
 62
  0
 10
6.408815
 20
0.188254
 30
0.000000
  0
VERTEX
  8
LAYER-1
 10
6.408815
 20
0.188254
 30
0.000000
  0
VERTEX
  8
LAYER-1
 10
6.413156
 20
0.188254
 30
0.000000
  0
VERTEX
  8
LAYER-1
 10
6.416628
 20
0.192594
 30
0.000000
  0
VERTEX
  8
LAYER-1
 10
6.417494
 20
0.197801
 30
0.000000
  0
VERTEX
  8
LAYER-1
 10
6.415759
 20
0.202143
 30
0.000000
  0
VERTEX
  8
LAYER-1
 10
6.411420
 20
0.203879
 30
0.000000
  0
VERTEX
  8
LAYER-1
 10
6.407079
 20
0.203879
 30
0.000000
  0
VERTEX
  8
LAYER-1
 10
6.402738
 20
0.200406
 30
0.000000
  0
VERTEX
  8
LAYER-1
 10
6.402738
 20
0.196066
 30
0.000000
  0
VERTEX
  8
LAYER-1
 10
6.403607
 20
0.191725
 30
0.000000
  0
VERTEX
  8
LAYER-1
 10
6.407946
 20
0.189122
 30
0.000000
  0
SEQEND
  8
LAYER-1
  0
POLYLINE
  8
LAYER-1
 66
  1
 70
  1
 62
  0
 10
6.394057
 20
0.223410
 30
0.000000
  0
VERTEX
  8
LAYER-1
 10
6.394057
 20
0.223410
 30
0.000000
  0
VERTEX
  8
LAYER-1
 10
6.368015
 20
0.216465
 30
0.000000
  0
VERTEX
  8
LAYER-1
 10
6.381904
 20
0.191292
 30
0.000000
  0
SEQEND
  8
LAYER-1
  0
POLYLINE
  8
LAYER-1
 66
  1
 70
  1
 62
  0
 10
5.642838
 20
0.082093
 30
0.000000
  0
VERTEX
  8
LAYER-1
 10
5.642838
 20
0.082093
 30
0.000000
  0
VERTEX
  8
LAYER-1
 10
5.655858
 20
0.104663
 30
0.000000
  0
VERTEX
  8
LAYER-1
 10
5.625477
 20
0.083830
 30
0.000000
  0
SEQEND
  8
LAYER-1
  0
POLYLINE
  8
LAYER-1
 66
  1
 70
  0
 62
  0
 10
5.639365
 20
0.188861
 30
0.000000
  0
VERTEX
  8
LAYER-1
 10
5.639365
 20
0.188861
 30
0.000000
  0
VERTEX
  8
LAYER-1
 10
5.643706
 20
0.188861
 30
0.000000
  0
VERTEX
  8
LAYER-1
 10
5.647178
 20
0.193203
 30
0.000000
  0
VERTEX
  8
LAYER-1
 10
5.648047
 20
0.198410
 30
0.000000
  0
VERTEX
  8
LAYER-1
 10
5.646311
 20
0.202751
 30
0.000000
  0
VERTEX
  8
LAYER-1
 10
5.641970
 20
0.204486
 30
0.000000
  0
VERTEX
  8
LAYER-1
 10
5.637630
 20
0.204486
 30
0.000000
  0
VERTEX
  8
LAYER-1
 10
5.633289
 20
0.201015
 30
0.000000
  0
VERTEX
  8
LAYER-1
 10
5.633289
 20
0.196674
 30
0.000000
  0
VERTEX
  8
LAYER-1
 10
5.634158
 20
0.192334
 30
0.000000
  0
VERTEX
  8
LAYER-1
 10
5.638499
 20
0.189729
 30
0.000000
  0
SEQEND
  8
LAYER-1
  0
POLYLINE
  8
LAYER-1
 66
  1
 70
  1
 62
  0
 10
5.592056
 20
0.167594
 30
0.000000
  0
VERTEX
  8
LAYER-1
 10
5.592056
 20
0.167594
 30
0.000000
  0
VERTEX
  8
LAYER-1
 10
5.617231
 20
0.151101
 30
0.000000
  0
VERTEX
  8
LAYER-1
 10
5.625044
 20
0.165858
 30
0.000000
  0
SEQEND
  8
LAYER-1
  0
POLYLINE
  8
LAYER-1
 66
  1
 70
  1
 62
  0
 10
5.578703
 20
0.139982
 30
0.000000
  0
VERTEX
  8
LAYER-1
 10
5.578703
 20
0.139982
 30
0.000000
  0
VERTEX
  8
LAYER-1
 10
5.559339
 20
0.152669
 30
0.000000
  0
VERTEX
  8
LAYER-1
 10
5.553328
 20
0.141318
 30
0.000000
  0
SEQEND
  8
LAYER-1
  0
POLYLINE
  8
LAYER-1
 66
  1
 70
  1
 62
  0
 10
1.355948
 20
0.198842
 30
0.000000
  0
VERTEX
  8
LAYER-1
 10
1.355948
 20
0.198842
 30
0.000000
  0
VERTEX
  8
LAYER-1
 10
1.342927
 20
0.176273
 30
0.000000
  0
VERTEX
  8
LAYER-1
 10
1.373309
 20
0.197106
 30
0.000000
  0
SEQEND
  8
LAYER-1
  0
POLYLINE
  8
LAYER-1
 66
  1
 70
  1
 62
  0
 10
5.905428
 20
0.125929
 30
0.000000
  0
VERTEX
  8
LAYER-1
 10
5.905428
 20
0.125929
 30
0.000000
  0
VERTEX
  8
LAYER-1
 10
5.927997
 20
0.112908
 30
0.000000
  0
VERTEX
  8
LAYER-1
 10
5.907165
 20
0.143290
 30
0.000000
  0
SEQEND
  8
LAYER-1
  0
POLYLINE
  8
LAYER-1
 66
  1
 70
  0
 62
  0
 10
5.833380
 20
0.172802
 30
0.000000
  0
VERTEX
  8
LAYER-1
 10
5.833380
 20
0.172802
 30
0.000000
  0
VERTEX
  8
LAYER-1
 10
5.833380
 20
0.168460
 30
0.000000
  0
VERTEX
  8
LAYER-1
 10
5.837720
 20
0.164989
 30
0.000000
  0
VERTEX
  8
LAYER-1
 10
5.842928
 20
0.164121
 30
0.000000
  0
VERTEX
  8
LAYER-1
 10
5.847268
 20
0.165857
 30
0.000000
  0
VERTEX
  8
LAYER-1
 10
5.849005
 20
0.170197
 30
0.000000
  0
VERTEX
  8
LAYER-1
 10
5.849005
 20
0.174538
 30
0.000000
  0
VERTEX
  8
LAYER-1
 10
5.845533
 20
0.178877
 30
0.000000
  0
VERTEX
  8
LAYER-1
 10
5.841192
 20
0.178877
 30
0.000000
  0
VERTEX
  8
LAYER-1
 10
5.836851
 20
0.178009
 30
0.000000
  0
VERTEX
  8
LAYER-1
 10
5.834247
 20
0.173670
 30
0.000000
  0
SEQEND
  8
LAYER-1
  0
POLYLINE
  8
LAYER-1
 66
  1
 70
  1
 62
  0
 10
5.783031
 20
0.184086
 30
0.000000
  0
VERTEX
  8
LAYER-1
 10
5.783031
 20
0.184086
 30
0.000000
  0
VERTEX
  8
LAYER-1
 10
5.805601
 20
0.171066
 30
0.000000
  0
VERTEX
  8
LAYER-1
 10
5.784768
 20
0.201447
 30
0.000000
  0
SEQEND
  8
LAYER-1
  0
POLYLINE
  8
LAYER-1
 66
  1
 70
  0
 62
  0
 10
6.045185
 20
0.125929
 30
0.000000
  0
VERTEX
  8
LAYER-1
 10
6.045185
 20
0.125929
 30
0.000000
  0
VERTEX
  8
LAYER-1
 10
6.045185
 20
0.121589
 30
0.000000
  0
VERTEX
  8
LAYER-1
 10
6.049525
 20
0.118117
 30
0.000000
  0
VERTEX
  8
LAYER-1
 10
6.054733
 20
0.117249
 30
0.000000
  0
VERTEX
  8
LAYER-1
 10
6.059074
 20
0.118985
 30
0.000000
  0
VERTEX
  8
LAYER-1
 10
6.060810
 20
0.123324
 30
0.000000
  0
VERTEX
  8
LAYER-1
 10
6.060810
 20
0.127665
 30
0.000000
  0
VERTEX
  8
LAYER-1
 10
6.057338
 20
0.132005
 30
0.000000
  0
VERTEX
  8
LAYER-1
 10
6.052997
 20
0.132005
 30
0.000000
  0
VERTEX
  8
LAYER-1
 10
6.048656
 20
0.131137
 30
0.000000
  0
VERTEX
  8
LAYER-1
 10
6.046053
 20
0.126797
 30
0.000000
  0
SEQEND
  8
LAYER-1
  0
POLYLINE
  8
LAYER-1
 66
  1
 70
  0
 62
  0
 10
5.879386
 20
0.180616
 30
0.000000
  0
VERTEX
  8
LAYER-1
 10
5.879386
 20
0.180616
 30
0.000000
  0
VERTEX
  8
LAYER-1
 10
5.879386
 20
0.176275
 30
0.000000
  0
VERTEX
  8
LAYER-1
 10
5.883727
 20
0.172804
 30
0.000000
  0
VERTEX
  8
LAYER-1
 10
5.888935
 20
0.171936
 30
0.000000
  0
VERTEX
  8
LAYER-1
 10
5.893275
 20
0.173672
 30
0.000000
  0
VERTEX
  8
LAYER-1
 10
5.895011
 20
0.178011
 30
0.000000
  0
VERTEX
  8
LAYER-1
 10
5.895011
 20
0.182352
 30
0.000000
  0
VERTEX
  8
LAYER-1
 10
5.891540
 20
0.186692
 30
0.000000
  0
VERTEX
  8
LAYER-1
 10
5.887199
 20
0.186692
 30
0.000000
  0
VERTEX
  8
LAYER-1
 10
5.882858
 20
0.185823
 30
0.000000
  0
VERTEX
  8
LAYER-1
 10
5.880253
 20
0.181484
 30
0.000000
  0
SEQEND
  8
LAYER-1
  0
POLYLINE
  8
LAYER-1
 66
  1
 70
  1
 62
  0
 10
5.803866
 20
0.115946
 30
0.000000
  0
VERTEX
  8
LAYER-1
 10
5.803866
 20
0.115946
 30
0.000000
  0
VERTEX
  8
LAYER-1
 10
5.790845
 20
0.093376
 30
0.000000
  0
VERTEX
  8
LAYER-1
 10
5.821227
 20
0.114209
 30
0.000000
  0
SEQEND
  8
LAYER-1
  0
POLYLINE
  8
LAYER-1
 66
  1
 70
  0
 62
  0
 10
5.730166
 20
0.108081
 30
0.000000
  0
VERTEX
  8
LAYER-1
 10
5.730166
 20
0.108081
 30
0.000000
  0
VERTEX
  8
LAYER-1
 10
5.725826
 20
0.108081
 30
0.000000
  0
VERTEX
  8
LAYER-1
 10
5.722353
 20
0.103740
 30
0.000000
  0
VERTEX
  8
LAYER-1
 10
5.721485
 20
0.098533
 30
0.000000
  0
VERTEX
  8
LAYER-1
 10
5.723221
 20
0.094192
 30
0.000000
  0
VERTEX
  8
LAYER-1
 10
5.727562
 20
0.092456
 30
0.000000
  0
VERTEX
  8
LAYER-1
 10
5.731902
 20
0.092456
 30
0.000000
  0
VERTEX
  8
LAYER-1
 10
5.736242
 20
0.095928
 30
0.000000
  0
VERTEX
  8
LAYER-1
 10
5.736242
 20
0.100269
 30
0.000000
  0
VERTEX
  8
LAYER-1
 10
5.735374
 20
0.104609
 30
0.000000
  0
VERTEX
  8
LAYER-1
 10
5.731033
 20
0.107214
 30
0.000000
  0
SEQEND
  8
LAYER-1
  0
POLYLINE
  8
LAYER-1
 66
  1
 70
  0
 62
  0
 10
5.803866
 20
0.146327
 30
0.000000
  0
VERTEX
  8
LAYER-1
 10
5.803866
 20
0.146327
 30
0.000000
  0
VERTEX
  8
LAYER-1
 10
5.799525
 20
0.146327
 30
0.000000
  0
VERTEX
  8
LAYER-1
 10
5.796054
 20
0.141986
 30
0.000000
  0
VERTEX
  8
LAYER-1
 10
5.795186
 20
0.136778
 30
0.000000
  0
VERTEX
  8
LAYER-1
 10
5.796922
 20
0.132438
 30
0.000000
  0
VERTEX
  8
LAYER-1
 10
5.801262
 20
0.130702
 30
0.000000
  0
VERTEX
  8
LAYER-1
 10
5.805602
 20
0.130702
 30
0.000000
  0
VERTEX
  8
LAYER-1
 10
5.809943
 20
0.134173
 30
0.000000
  0
VERTEX
  8
LAYER-1
 10
5.809943
 20
0.138514
 30
0.000000
  0
VERTEX
  8
LAYER-1
 10
5.809075
 20
0.142854
 30
0.000000
  0
VERTEX
  8
LAYER-1
 10
5.804734
 20
0.145459
 30
0.000000
  0
SEQEND
  8
LAYER-1
  0
POLYLINE
  8
LAYER-1
 66
  1
 70
  1
 62
  0
 10
6.111158
 20
0.162821
 30
0.000000
  0
VERTEX
  8
LAYER-1
 10
6.111158
 20
0.162821
 30
0.000000
  0
VERTEX
  8
LAYER-1
 10
6.118102
 20
0.136779
 30
0.000000
  0
VERTEX
  8
LAYER-1
 10
6.143275
 20
0.150667
 30
0.000000
  0
SEQEND
  8
LAYER-1
  0
POLYLINE
  8
LAYER-1
 66
  1
 70
  1
 62
  0
 10
6.273483
 20
0.191466
 30
0.000000
  0
VERTEX
  8
LAYER-1
 10
6.273483
 20
0.191466
 30
0.000000
  0
VERTEX
  8
LAYER-1
 10
6.260462
 20
0.168897
 30
0.000000
  0
VERTEX
  8
LAYER-1
 10
6.290844
 20
0.189729
 30
0.000000
  0
SEQEND
  8
LAYER-1
  0
POLYLINE
  8
LAYER-1
 66
  1
 70
  0
 62
  0
 10
6.061679
 20
0.194070
 30
0.000000
  0
VERTEX
  8
LAYER-1
 10
6.061679
 20
0.194070
 30
0.000000
  0
VERTEX
  8
LAYER-1
 10
6.057338
 20
0.194070
 30
0.000000
  0
VERTEX
  8
LAYER-1
 10
6.053866
 20
0.189729
 30
0.000000
  0
VERTEX
  8
LAYER-1
 10
6.052997
 20
0.184521
 30
0.000000
  0
VERTEX
  8
LAYER-1
 10
6.054734
 20
0.180180
 30
0.000000
  0
VERTEX
  8
LAYER-1
 10
6.059074
 20
0.178445
 30
0.000000
  0
VERTEX
  8
LAYER-1
 10
6.063415
 20
0.178445
 30
0.000000
  0
VERTEX
  8
LAYER-1
 10
6.067755
 20
0.181916
 30
0.000000
  0
VERTEX
  8
LAYER-1
 10
6.067755
 20
0.186257
 30
0.000000
  0
VERTEX
  8
LAYER-1
 10
6.066886
 20
0.190598
 30
0.000000
  0
VERTEX
  8
LAYER-1
 10
6.062547
 20
0.193202
 30
0.000000
  0
SEQEND
  8
LAYER-1
  0
POLYLINE
  8
LAYER-1
 66
  1
 70
  1
 62
  0
 10
6.171922
 20
0.126361
 30
0.000000
  0
VERTEX
  8
LAYER-1
 10
6.171922
 20
0.126361
 30
0.000000
  0
VERTEX
  8
LAYER-1
 10
6.158902
 20
0.103792
 30
0.000000
  0
VERTEX
  8
LAYER-1
 10
6.189284
 20
0.124625
 30
0.000000
  0
SEQEND
  8
LAYER-1
  0
POLYLINE
  8
LAYER-1
 66
  1
 70
  0
 62
  0
 10
6.213587
 20
0.195805
 30
0.000000
  0
VERTEX
  8
LAYER-1
 10
6.213587
 20
0.195805
 30
0.000000
  0
VERTEX
  8
LAYER-1
 10
6.209246
 20
0.195805
 30
0.000000
  0
VERTEX
  8
LAYER-1
 10
6.205775
 20
0.191465
 30
0.000000
  0
VERTEX
  8
LAYER-1
 10
6.204906
 20
0.186257
 30
0.000000
  0
VERTEX
  8
LAYER-1
 10
6.206643
 20
0.181916
 30
0.000000
  0
VERTEX
  8
LAYER-1
 10
6.210983
 20
0.180180
 30
0.000000
  0
VERTEX
  8
LAYER-1
 10
6.215323
 20
0.180180
 30
0.000000
  0
VERTEX
  8
LAYER-1
 10
6.219664
 20
0.183652
 30
0.000000
  0
VERTEX
  8
LAYER-1
 10
6.219664
 20
0.187993
 30
0.000000
  0
VERTEX
  8
LAYER-1
 10
6.218796
 20
0.192334
 30
0.000000
  0
VERTEX
  8
LAYER-1
 10
6.214455
 20
0.194938
 30
0.000000
  0
SEQEND
  8
LAYER-1
  0
POLYLINE
  8
LAYER-1
 66
  1
 70
  1
 62
  0
 10
6.552996
 20
0.187125
 30
0.000000
  0
VERTEX
  8
LAYER-1
 10
6.552996
 20
0.187125
 30
0.000000
  0
VERTEX
  8
LAYER-1
 10
6.559941
 20
0.161085
 30
0.000000
  0
VERTEX
  8
LAYER-1
 10
6.585114
 20
0.174973
 30
0.000000
  0
SEQEND
  8
LAYER-1
  0
POLYLINE
  8
LAYER-1
 66
  1
 70
  1
 62
  0
 10
6.715323
 20
0.215772
 30
0.000000
  0
VERTEX
  8
LAYER-1
 10
6.715323
 20
0.215772
 30
0.000000
  0
VERTEX
  8
LAYER-1
 10
6.702302
 20
0.193202
 30
0.000000
  0
VERTEX
  8
LAYER-1
 10
6.732684
 20
0.214034
 30
0.000000
  0
SEQEND
  8
LAYER-1
  0
POLYLINE
  8
LAYER-1
 66
  1
 70
  1
 62
  0
 10
5.943623
 20
0.151536
 30
0.000000
  0
VERTEX
  8
LAYER-1
 10
5.943623
 20
0.151536
 30
0.000000
  0
VERTEX
  8
LAYER-1
 10
5.968797
 20
0.135042
 30
0.000000
  0
VERTEX
  8
LAYER-1
 10
5.976609
 20
0.149801
 30
0.000000
  0
SEQEND
  8
LAYER-1
  0
POLYLINE
  8
LAYER-1
 66
  1
 70
  0
 62
  0
 10
6.513934
 20
0.207959
 30
0.000000
  0
VERTEX
  8
LAYER-1
 10
6.513934
 20
0.207959
 30
0.000000
  0
VERTEX
  8
LAYER-1
 10
6.509593
 20
0.207959
 30
0.000000
  0
VERTEX
  8
LAYER-1
 10
6.506121
 20
0.203619
 30
0.000000
  0
VERTEX
  8
LAYER-1
 10
6.505253
 20
0.198411
 30
0.000000
  0
VERTEX
  8
LAYER-1
 10
6.506989
 20
0.194071
 30
0.000000
  0
VERTEX
  8
LAYER-1
 10
6.511330
 20
0.192334
 30
0.000000
  0
VERTEX
  8
LAYER-1
 10
6.515670
 20
0.192334
 30
0.000000
  0
VERTEX
  8
LAYER-1
 10
6.520011
 20
0.195807
 30
0.000000
  0
VERTEX
  8
LAYER-1
 10
6.520011
 20
0.200147
 30
0.000000
  0
VERTEX
  8
LAYER-1
 10
6.519143
 20
0.204488
 30
0.000000
  0
VERTEX
  8
LAYER-1
 10
6.514802
 20
0.207092
 30
0.000000
  0
SEQEND
  8
LAYER-1
  0
POLYLINE
  8
LAYER-1
 66
  1
 70
  1
 62
  0
 10
6.529560
 20
0.119418
 30
0.000000
  0
VERTEX
  8
LAYER-1
 10
6.529560
 20
0.119418
 30
0.000000
  0
VERTEX
  8
LAYER-1
 10
6.516539
 20
0.096848
 30
0.000000
  0
VERTEX
  8
LAYER-1
 10
6.546921
 20
0.117680
 30
0.000000
  0
SEQEND
  8
LAYER-1
  0
POLYLINE
  8
LAYER-1
 66
  1
 70
  1
 62
  0
 10
6.624011
 20
0.133836
 30
0.000000
  0
VERTEX
  8
LAYER-1
 10
6.624011
 20
0.133836
 30
0.000000
  0
VERTEX
  8
LAYER-1
 10
6.611324
 20
0.114472
 30
0.000000
  0
VERTEX
  8
LAYER-1
 10
6.622674
 20
0.108460
 30
0.000000
  0
SEQEND
  8
LAYER-1
  0
POLYLINE
  8
LAYER-1
 66
  1
 70
  0
 62
  0
 10
6.655427
 20
0.212299
 30
0.000000
  0
VERTEX
  8
LAYER-1
 10
6.655427
 20
0.212299
 30
0.000000
  0
VERTEX
  8
LAYER-1
 10
6.651087
 20
0.212299
 30
0.000000
  0
VERTEX
  8
LAYER-1
 10
6.647614
 20
0.207959
 30
0.000000
  0
VERTEX
  8
LAYER-1
 10
6.646746
 20
0.202751
 30
0.000000
  0
VERTEX
  8
LAYER-1
 10
6.648482
 20
0.198410
 30
0.000000
  0
VERTEX
  8
LAYER-1
 10
6.652823
 20
0.196674
 30
0.000000
  0
VERTEX
  8
LAYER-1
 10
6.657164
 20
0.196674
 30
0.000000
  0
VERTEX
  8
LAYER-1
 10
6.661503
 20
0.200146
 30
0.000000
  0
VERTEX
  8
LAYER-1
 10
6.661503
 20
0.204486
 30
0.000000
  0
VERTEX
  8
LAYER-1
 10
6.660636
 20
0.208828
 30
0.000000
  0
VERTEX
  8
LAYER-1
 10
6.656295
 20
0.211433
 30
0.000000
  0
SEQEND
  8
LAYER-1
  0
POLYLINE
  8
LAYER-1
 66
  1
 70
  0
 62
  0
 10
5.932339
 20
0.204486
 30
0.000000
  0
VERTEX
  8
LAYER-1
 10
5.932339
 20
0.204486
 30
0.000000
  0
VERTEX
  8
LAYER-1
 10
5.932339
 20
0.200146
 30
0.000000
  0
VERTEX
  8
LAYER-1
 10
5.936680
 20
0.196674
 30
0.000000
  0
VERTEX
  8
LAYER-1
 10
5.941887
 20
0.195805
 30
0.000000
  0
VERTEX
  8
LAYER-1
 10
5.946228
 20
0.197541
 30
0.000000
  0
VERTEX
  8
LAYER-1
 10
5.947964
 20
0.201882
 30
0.000000
  0
VERTEX
  8
LAYER-1
 10
5.947964
 20
0.206223
 30
0.000000
  0
VERTEX
  8
LAYER-1
 10
5.944492
 20
0.210564
 30
0.000000
  0
VERTEX
  8
LAYER-1
 10
5.940152
 20
0.210564
 30
0.000000
  0
VERTEX
  8
LAYER-1
 10
5.935811
 20
0.209695
 30
0.000000
  0
VERTEX
  8
LAYER-1
 10
5.933206
 20
0.205354
 30
0.000000
  0
SEQEND
  8
LAYER-1
  0
POLYLINE
  8
LAYER-1
 66
  1
 70
  0
 62
  0
 10
6.495704
 20
0.120284
 30
0.000000
  0
VERTEX
  8
LAYER-1
 10
6.495704
 20
0.120284
 30
0.000000
  0
VERTEX
  8
LAYER-1
 10
6.491364
 20
0.120284
 30
0.000000
  0
VERTEX
  8
LAYER-1
 10
6.487892
 20
0.115944
 30
0.000000
  0
VERTEX
  8
LAYER-1
 10
6.487024
 20
0.110736
 30
0.000000
  0
VERTEX
  8
LAYER-1
 10
6.488759
 20
0.106395
 30
0.000000
  0
VERTEX
  8
LAYER-1
 10
6.493100
 20
0.104659
 30
0.000000
  0
VERTEX
  8
LAYER-1
 10
6.497440
 20
0.104659
 30
0.000000
  0
VERTEX
  8
LAYER-1
 10
6.501781
 20
0.108131
 30
0.000000
  0
VERTEX
  8
LAYER-1
 10
6.501781
 20
0.112472
 30
0.000000
  0
VERTEX
  8
LAYER-1
 10
6.500913
 20
0.116813
 30
0.000000
  0
VERTEX
  8
LAYER-1
 10
6.496572
 20
0.119417
 30
0.000000
  0
SEQEND
  8
LAYER-1
  0
POLYLINE
  8
LAYER-1
 66
  1
 70
  0
 62
  0
 10
6.394143
 20
0.158046
 30
0.000000
  0
VERTEX
  8
LAYER-1
 10
6.394143
 20
0.158046
 30
0.000000
  0
VERTEX
  8
LAYER-1
 10
6.394143
 20
0.162387
 30
0.000000
  0
VERTEX
  8
LAYER-1
 10
6.389803
 20
0.165859
 30
0.000000
  0
VERTEX
  8
LAYER-1
 10
6.384595
 20
0.166727
 30
0.000000
  0
VERTEX
  8
LAYER-1
 10
6.380255
 20
0.164991
 30
0.000000
  0
VERTEX
  8
LAYER-1
 10
6.378518
 20
0.160650
 30
0.000000
  0
VERTEX
  8
LAYER-1
 10
6.378518
 20
0.156310
 30
0.000000
  0
VERTEX
  8
LAYER-1
 10
6.381990
 20
0.151971
 30
0.000000
  0
VERTEX
  8
LAYER-1
 10
6.386331
 20
0.151971
 30
0.000000
  0
VERTEX
  8
LAYER-1
 10
6.390672
 20
0.152838
 30
0.000000
  0
VERTEX
  8
LAYER-1
 10
6.393275
 20
0.157178
 30
0.000000
  0
SEQEND
  8
LAYER-1
  0
POLYLINE
  8
LAYER-1
 66
  1
 70
  1
 62
  0
 10
6.326434
 20
0.145025
 30
0.000000
  0
VERTEX
  8
LAYER-1
 10
6.326434
 20
0.145025
 30
0.000000
  0
VERTEX
  8
LAYER-1
 10
6.303865
 20
0.158045
 30
0.000000
  0
VERTEX
  8
LAYER-1
 10
6.324698
 20
0.127664
 30
0.000000
  0
SEQEND
  8
LAYER-1
  0
POLYLINE
  8
LAYER-1
 66
  1
 70
  0
 62
  0
 10
6.243970
 20
0.110303
 30
0.000000
  0
VERTEX
  8
LAYER-1
 10
6.243970
 20
0.110303
 30
0.000000
  0
VERTEX
  8
LAYER-1
 10
6.243970
 20
0.114644
 30
0.000000
  0
VERTEX
  8
LAYER-1
 10
6.239630
 20
0.118116
 30
0.000000
  0
VERTEX
  8
LAYER-1
 10
6.234422
 20
0.118984
 30
0.000000
  0
VERTEX
  8
LAYER-1
 10
6.230081
 20
0.117248
 30
0.000000
  0
VERTEX
  8
LAYER-1
 10
6.228345
 20
0.112908
 30
0.000000
  0
VERTEX
  8
LAYER-1
 10
6.228345
 20
0.108567
 30
0.000000
  0
VERTEX
  8
LAYER-1
 10
6.231817
 20
0.104227
 30
0.000000
  0
VERTEX
  8
LAYER-1
 10
6.236158
 20
0.104227
 30
0.000000
  0
VERTEX
  8
LAYER-1
 10
6.240498
 20
0.105096
 30
0.000000
  0
VERTEX
  8
LAYER-1
 10
6.243101
 20
0.109435
 30
0.000000
  0
SEQEND
  8
LAYER-1
  0
POLYLINE
  8
LAYER-1
 66
  1
 70
  1
 62
  0
 10
6.434248
 20
0.100582
 30
0.000000
  0
VERTEX
  8
LAYER-1
 10
6.434248
 20
0.100582
 30
0.000000
  0
VERTEX
  8
LAYER-1
 10
6.427303
 20
0.126623
 30
0.000000
  0
VERTEX
  8
LAYER-1
 10
6.402130
 20
0.112735
 30
0.000000
  0
SEQEND
  8
LAYER-1
  0
POLYLINE
  8
LAYER-1
 66
  1
 70
  1
 62
  0
 10
6.455775
 20
0.155008
 30
0.000000
  0
VERTEX
  8
LAYER-1
 10
6.455775
 20
0.155008
 30
0.000000
  0
VERTEX
  8
LAYER-1
 10
6.468796
 20
0.177578
 30
0.000000
  0
VERTEX
  8
LAYER-1
 10
6.438414
 20
0.156746
 30
0.000000
  0
SEQEND
  8
LAYER-1
  0
POLYLINE
  8
LAYER-1
 66
  1
 70
  1
 62
  0
 10
5.883727
 20
0.098584
 30
0.000000
  0
VERTEX
  8
LAYER-1
 10
5.883727
 20
0.098584
 30
0.000000
  0
VERTEX
  8
LAYER-1
 10
5.861156
 20
0.111607
 30
0.000000
  0
VERTEX
  8
LAYER-1
 10
5.881989
 20
0.081223
 30
0.000000
  0
SEQEND
  8
LAYER-1
  0
POLYLINE
  8
LAYER-1
 66
  1
 70
  1
 62
  0
 10
6.661505
 20
0.122891
 30
0.000000
  0
VERTEX
  8
LAYER-1
 10
6.661505
 20
0.122891
 30
0.000000
  0
VERTEX
  8
LAYER-1
 10
6.677997
 20
0.148065
 30
0.000000
  0
VERTEX
  8
LAYER-1
 10
6.663240
 20
0.155877
 30
0.000000
  0
SEQEND
  8
LAYER-1
  0
POLYLINE
  8
LAYER-1
 66
  1
 70
  0
 62
  0
 10
6.692405
 20
0.049488
 30
0.000000
  0
VERTEX
  8
LAYER-1
 10
6.692405
 20
0.049488
 30
0.000000
  0
VERTEX
  8
LAYER-1
 10
6.696745
 20
0.049488
 30
0.000000
  0
VERTEX
  8
LAYER-1
 10
6.700217
 20
0.053828
 30
0.000000
  0
VERTEX
  8
LAYER-1
 10
6.701085
 20
0.059035
 30
0.000000
  0
VERTEX
  8
LAYER-1
 10
6.699349
 20
0.063377
 30
0.000000
  0
VERTEX
  8
LAYER-1
 10
6.695008
 20
0.065113
 30
0.000000
  0
VERTEX
  8
LAYER-1
 10
6.690669
 20
0.065113
 30
0.000000
  0
VERTEX
  8
LAYER-1
 10
6.686328
 20
0.061640
 30
0.000000
  0
VERTEX
  8
LAYER-1
 10
6.686328
 20
0.057300
 30
0.000000
  0
VERTEX
  8
LAYER-1
 10
6.687196
 20
0.052959
 30
0.000000
  0
VERTEX
  8
LAYER-1
 10
6.691537
 20
0.050354
 30
0.000000
  0
SEQEND
  8
LAYER-1
  0
POLYLINE
  8
LAYER-1
 66
  1
 70
  0
 62
  0
 10
6.668968
 20
0.074666
 30
0.000000
  0
VERTEX
  8
LAYER-1
 10
6.668968
 20
0.074666
 30
0.000000
  0
VERTEX
  8
LAYER-1
 10
6.673308
 20
0.074666
 30
0.000000
  0
VERTEX
  8
LAYER-1
 10
6.676781
 20
0.079007
 30
0.000000
  0
VERTEX
  8
LAYER-1
 10
6.677649
 20
0.084215
 30
0.000000
  0
VERTEX
  8
LAYER-1
 10
6.675913
 20
0.088555
 30
0.000000
  0
VERTEX
  8
LAYER-1
 10
6.671572
 20
0.090291
 30
0.000000
  0
VERTEX
  8
LAYER-1
 10
6.667232
 20
0.090291
 30
0.000000
  0
VERTEX
  8
LAYER-1
 10
6.662891
 20
0.086820
 30
0.000000
  0
VERTEX
  8
LAYER-1
 10
6.662891
 20
0.082479
 30
0.000000
  0
VERTEX
  8
LAYER-1
 10
6.663759
 20
0.078139
 30
0.000000
  0
VERTEX
  8
LAYER-1
 10
6.668100
 20
0.075534
 30
0.000000
  0
SEQEND
  8
LAYER-1
  0
POLYLINE
  8
LAYER-1
 66
  1
 70
  1
 62
  0
 10
6.743186
 20
0.090722
 30
0.000000
  0
VERTEX
  8
LAYER-1
 10
6.743186
 20
0.090722
 30
0.000000
  0
VERTEX
  8
LAYER-1
 10
6.718012
 20
0.107215
 30
0.000000
  0
VERTEX
  8
LAYER-1
 10
6.710200
 20
0.092458
 30
0.000000
  0
SEQEND
  8
LAYER-1
  0
POLYLINE
  8
LAYER-1
 66
  1
 70
  0
 62
  0
 10
6.753603
 20
0.129786
 30
0.000000
  0
VERTEX
  8
LAYER-1
 10
6.753603
 20
0.129786
 30
0.000000
  0
VERTEX
  8
LAYER-1
 10
6.753603
 20
0.134127
 30
0.000000
  0
VERTEX
  8
LAYER-1
 10
6.749262
 20
0.137599
 30
0.000000
  0
VERTEX
  8
LAYER-1
 10
6.744055
 20
0.138467
 30
0.000000
  0
VERTEX
  8
LAYER-1
 10
6.739714
 20
0.136731
 30
0.000000
  0
VERTEX
  8
LAYER-1
 10
6.737978
 20
0.132390
 30
0.000000
  0
VERTEX
  8
LAYER-1
 10
6.737978
 20
0.128051
 30
0.000000
  0
VERTEX
  8
LAYER-1
 10
6.741450
 20
0.123710
 30
0.000000
  0
VERTEX
  8
LAYER-1
 10
6.745790
 20
0.123710
 30
0.000000
  0
VERTEX
  8
LAYER-1
 10
6.750131
 20
0.124578
 30
0.000000
  0
VERTEX
  8
LAYER-1
 10
6.752736
 20
0.128919
 30
0.000000
  0
SEQEND
  8
LAYER-1
  0
POLYLINE
  8
LAYER-1
 66
  1
 70
  1
 62
  0
 10
6.700126
 20
0.135638
 30
0.000000
  0
VERTEX
  8
LAYER-1
 10
6.700126
 20
0.135638
 30
0.000000
  0
VERTEX
  8
LAYER-1
 10
6.712813
 20
0.155002
 30
0.000000
  0
VERTEX
  8
LAYER-1
 10
6.701462
 20
0.161013
 30
0.000000
  0
SEQEND
  8
LAYER-1
  0
POLYLINE
  8
LAYER-1
 66
  1
 70
  0
 62
  0
 10
6.023483
 20
0.165426
 30
0.000000
  0
VERTEX
  8
LAYER-1
 10
6.023483
 20
0.165426
 30
0.000000
  0
VERTEX
  8
LAYER-1
 10
6.023483
 20
0.169764
 30
0.000000
  0
VERTEX
  8
LAYER-1
 10
6.019143
 20
0.173238
 30
0.000000
  0
VERTEX
  8
LAYER-1
 10
6.013935
 20
0.174104
 30
0.000000
  0
VERTEX
  8
LAYER-1
 10
6.009594
 20
0.172369
 30
0.000000
  0
VERTEX
  8
LAYER-1
 10
6.007858
 20
0.168028
 30
0.000000
  0
VERTEX
  8
LAYER-1
 10
6.007858
 20
0.163688
 30
0.000000
  0
VERTEX
  8
LAYER-1
 10
6.011330
 20
0.159348
 30
0.000000
  0
VERTEX
  8
LAYER-1
 10
6.015671
 20
0.159348
 30
0.000000
  0
VERTEX
  8
LAYER-1
 10
6.020011
 20
0.160216
 30
0.000000
  0
VERTEX
  8
LAYER-1
 10
6.022616
 20
0.164557
 30
0.000000
  0
SEQEND
  8
LAYER-1
  0
POLYLINE
  8
LAYER-1
 66
  1
 70
  0
 62
  0
 10
6.609421
 20
0.128967
 30
0.000000
  0
VERTEX
  8
LAYER-1
 10
6.609421
 20
0.128967
 30
0.000000
  0
VERTEX
  8
LAYER-1
 10
6.613761
 20
0.128967
 30
0.000000
  0
VERTEX
  8
LAYER-1
 10
6.617233
 20
0.133308
 30
0.000000
  0
VERTEX
  8
LAYER-1
 10
6.618101
 20
0.138516
 30
0.000000
  0
VERTEX
  8
LAYER-1
 10
6.616365
 20
0.142857
 30
0.000000
  0
VERTEX
  8
LAYER-1
 10
6.612025
 20
0.144592
 30
0.000000
  0
VERTEX
  8
LAYER-1
 10
6.607685
 20
0.144592
 30
0.000000
  0
VERTEX
  8
LAYER-1
 10
6.603344
 20
0.141121
 30
0.000000
  0
VERTEX
  8
LAYER-1
 10
6.603344
 20
0.136780
 30
0.000000
  0
VERTEX
  8
LAYER-1
 10
6.604212
 20
0.132440
 30
0.000000
  0
VERTEX
  8
LAYER-1
 10
6.608553
 20
0.129834
 30
0.000000
  0
SEQEND
  8
LAYER-1
  0
POLYLINE
  8
LAYER-1
 66
  1
 70
  1
 62
  0
 10
0.867057
 20
0.132649
 30
0.000000
  0
VERTEX
  8
LAYER-1
 10
0.867057
 20
0.132649
 30
0.000000
  0
VERTEX
  8
LAYER-1
 10
0.844487
 20
0.145669
 30
0.000000
  0
VERTEX
  8
LAYER-1
 10
0.865319
 20
0.115288
 30
0.000000
  0
SEQEND
  8
LAYER-1
  0
POLYLINE
  8
LAYER-1
 66
  1
 70
  0
 62
  0
 10
0.855773
 20
0.065809
 30
0.000000
  0
VERTEX
  8
LAYER-1
 10
0.855773
 20
0.065809
 30
0.000000
  0
VERTEX
  8
LAYER-1
 10
0.855773
 20
0.070147
 30
0.000000
  0
VERTEX
  8
LAYER-1
 10
0.851432
 20
0.073621
 30
0.000000
  0
VERTEX
  8
LAYER-1
 10
0.846225
 20
0.074487
 30
0.000000
  0
VERTEX
  8
LAYER-1
 10
0.841884
 20
0.072751
 30
0.000000
  0
VERTEX
  8
LAYER-1
 10
0.840148
 20
0.068411
 30
0.000000
  0
VERTEX
  8
LAYER-1
 10
0.840148
 20
0.064070
 30
0.000000
  0
VERTEX
  8
LAYER-1
 10
0.843620
 20
0.059731
 30
0.000000
  0
VERTEX
  8
LAYER-1
 10
0.847960
 20
0.059731
 30
0.000000
  0
VERTEX
  8
LAYER-1
 10
0.852301
 20
0.060599
 30
0.000000
  0
VERTEX
  8
LAYER-1
 10
0.854906
 20
0.064939
 30
0.000000
  0
SEQEND
  8
LAYER-1
  0
POLYLINE
  8
LAYER-1
 66
  1
 70
  1
 62
  0
 10
1.133813
 20
0.054608
 30
0.000000
  0
VERTEX
  8
LAYER-1
 10
1.133813
 20
0.054608
 30
0.000000
  0
VERTEX
  8
LAYER-1
 10
1.150306
 20
0.079782
 30
0.000000
  0
VERTEX
  8
LAYER-1
 10
1.135548
 20
0.087595
 30
0.000000
  0
SEQEND
  8
LAYER-1
  0
POLYLINE
  8
LAYER-1
 66
  1
 70
  1
 62
  0
 10
1.181722
 20
0.069702
 30
0.000000
  0
VERTEX
  8
LAYER-1
 10
1.181722
 20
0.069702
 30
0.000000
  0
VERTEX
  8
LAYER-1
 10
1.194409
 20
0.089067
 30
0.000000
  0
VERTEX
  8
LAYER-1
 10
1.183058
 20
0.095078
 30
0.000000
  0
SEQEND
  8
LAYER-1
  0
POLYLINE
  8
LAYER-1
 66
  1
 70
  0
 62
  0
 10
1.245792
 20
0.045930
 30
0.000000
  0
VERTEX
  8
LAYER-1
 10
1.245792
 20
0.045930
 30
0.000000
  0
VERTEX
  8
LAYER-1
 10
1.250132
 20
0.045930
 30
0.000000
  0
VERTEX
  8
LAYER-1
 10
1.253604
 20
0.050271
 30
0.000000
  0
VERTEX
  8
LAYER-1
 10
1.254472
 20
0.055478
 30
0.000000
  0
VERTEX
  8
LAYER-1
 10
1.252736
 20
0.059819
 30
0.000000
  0
VERTEX
  8
LAYER-1
 10
1.248395
 20
0.061555
 30
0.000000
  0
VERTEX
  8
LAYER-1
 10
1.244056
 20
0.061555
 30
0.000000
  0
VERTEX
  8
LAYER-1
 10
1.239715
 20
0.058083
 30
0.000000
  0
VERTEX
  8
LAYER-1
 10
1.239715
 20
0.053742
 30
0.000000
  0
VERTEX
  8
LAYER-1
 10
1.240583
 20
0.049402
 30
0.000000
  0
VERTEX
  8
LAYER-1
 10
1.244924
 20
0.046798
 30
0.000000
  0
SEQEND
  8
LAYER-1
  0
POLYLINE
  8
LAYER-1
 66
  1
 70
  1
 62
  0
 10
1.279645
 20
0.108862
 30
0.000000
  0
VERTEX
  8
LAYER-1
 10
1.279645
 20
0.108862
 30
0.000000
  0
VERTEX
  8
LAYER-1
 10
1.253604
 20
0.101918
 30
0.000000
  0
VERTEX
  8
LAYER-1
 10
1.267492
 20
0.076745
 30
0.000000
  0
SEQEND
  8
LAYER-1
  0
POLYLINE
  8
LAYER-1
 66
  1
 70
  0
 62
  0
 10
2.647527
 20
0.076569
 30
0.000000
  0
VERTEX
  8
LAYER-1
 10
2.647527
 20
0.076569
 30
0.000000
  0
VERTEX
  8
LAYER-1
 10
2.647527
 20
0.080911
 30
0.000000
  0
VERTEX
  8
LAYER-1
 10
2.643187
 20
0.084382
 30
0.000000
  0
VERTEX
  8
LAYER-1
 10
2.637979
 20
0.085250
 30
0.000000
  0
VERTEX
  8
LAYER-1
 10
2.633638
 20
0.083514
 30
0.000000
  0
VERTEX
  8
LAYER-1
 10
2.631902
 20
0.079174
 30
0.000000
  0
VERTEX
  8
LAYER-1
 10
2.631902
 20
0.074833
 30
0.000000
  0
VERTEX
  8
LAYER-1
 10
2.635374
 20
0.070493
 30
0.000000
  0
VERTEX
  8
LAYER-1
 10
2.639715
 20
0.070493
 30
0.000000
  0
VERTEX
  8
LAYER-1
 10
2.644056
 20
0.071362
 30
0.000000
  0
VERTEX
  8
LAYER-1
 10
2.646659
 20
0.075701
 30
0.000000
  0
SEQEND
  8
LAYER-1
  0
POLYLINE
  8
LAYER-1
 66
  1
 70
  1
 62
  0
 10
2.581555
 20
0.039679
 30
0.000000
  0
VERTEX
  8
LAYER-1
 10
2.581555
 20
0.039679
 30
0.000000
  0
VERTEX
  8
LAYER-1
 10
2.574610
 20
0.065720
 30
0.000000
  0
VERTEX
  8
LAYER-1
 10
2.549437
 20
0.051832
 30
0.000000
  0
SEQEND
  8
LAYER-1
  0
POLYLINE
  8
LAYER-1
 66
  1
 70
  1
 62
  0
 10
2.593707
 20
0.076137
 30
0.000000
  0
VERTEX
  8
LAYER-1
 10
2.593707
 20
0.076137
 30
0.000000
  0
VERTEX
  8
LAYER-1
 10
2.606728
 20
0.098707
 30
0.000000
  0
VERTEX
  8
LAYER-1
 10
2.576346
 20
0.077874
 30
0.000000
  0
SEQEND
  8
LAYER-1
  0
POLYLINE
  8
LAYER-1
 66
  1
 70
  0
 62
  0
 10
2.429906
 20
0.086987
 30
0.000000
  0
VERTEX
  8
LAYER-1
 10
2.429906
 20
0.086987
 30
0.000000
  0
VERTEX
  8
LAYER-1
 10
2.425565
 20
0.086987
 30
0.000000
  0
VERTEX
  8
LAYER-1
 10
2.422093
 20
0.082646
 30
0.000000
  0
VERTEX
  8
LAYER-1
 10
2.421225
 20
0.077438
 30
0.000000
  0
VERTEX
  8
LAYER-1
 10
2.422961
 20
0.073098
 30
0.000000
  0
VERTEX
  8
LAYER-1
 10
2.427302
 20
0.071362
 30
0.000000
  0
VERTEX
  8
LAYER-1
 10
2.431642
 20
0.071362
 30
0.000000
  0
VERTEX
  8
LAYER-1
 10
2.435982
 20
0.074833
 30
0.000000
  0
VERTEX
  8
LAYER-1
 10
2.435982
 20
0.079174
 30
0.000000
  0
VERTEX
  8
LAYER-1
 10
2.435115
 20
0.083515
 30
0.000000
  0
VERTEX
  8
LAYER-1
 10
2.430774
 20
0.086120
 30
0.000000
  0
SEQEND
  8
LAYER-1
  0
POLYLINE
  8
LAYER-1
 66
  1
 70
  1
 62
  0
 10
2.509767
 20
0.049661
 30
0.000000
  0
VERTEX
  8
LAYER-1
 10
2.509767
 20
0.049661
 30
0.000000
  0
VERTEX
  8
LAYER-1
 10
2.487196
 20
0.062682
 30
0.000000
  0
VERTEX
  8
LAYER-1
 10
2.508029
 20
0.032299
 30
0.000000
  0
SEQEND
  8
LAYER-1
  0
POLYLINE
  8
LAYER-1
 66
  1
 70
  1
 62
  0
 10
3.104738
 20
0.050511
 30
0.000000
  0
VERTEX
  8
LAYER-1
 10
3.104738
 20
0.050511
 30
0.000000
  0
VERTEX
  8
LAYER-1
 10
3.117759
 20
0.073081
 30
0.000000
  0
VERTEX
  8
LAYER-1
 10
3.087377
 20
0.052249
 30
0.000000
  0
SEQEND
  8
LAYER-1
  0
POLYLINE
  8
LAYER-1
 66
  1
 70
  1
 62
  0
 10
3.010288
 20
0.056924
 30
0.000000
  0
VERTEX
  8
LAYER-1
 10
3.010288
 20
0.056924
 30
0.000000
  0
VERTEX
  8
LAYER-1
 10
3.022975
 20
0.076288
 30
0.000000
  0
VERTEX
  8
LAYER-1
 10
3.011624
 20
0.082299
 30
0.000000
  0
SEQEND
  8
LAYER-1
  0
POLYLINE
  8
LAYER-1
 66
  1
 70
  0
 62
  0
 10
3.138594
 20
0.049644
 30
0.000000
  0
VERTEX
  8
LAYER-1
 10
3.138594
 20
0.049644
 30
0.000000
  0
VERTEX
  8
LAYER-1
 10
3.142935
 20
0.049644
 30
0.000000
  0
VERTEX
  8
LAYER-1
 10
3.146406
 20
0.053985
 30
0.000000
  0
VERTEX
  8
LAYER-1
 10
3.147274
 20
0.059192
 30
0.000000
  0
VERTEX
  8
LAYER-1
 10
3.145538
 20
0.063533
 30
0.000000
  0
VERTEX
  8
LAYER-1
 10
3.141198
 20
0.065269
 30
0.000000
  0
VERTEX
  8
LAYER-1
 10
3.136858
 20
0.065269
 30
0.000000
  0
VERTEX
  8
LAYER-1
 10
3.132517
 20
0.061797
 30
0.000000
  0
VERTEX
  8
LAYER-1
 10
3.132517
 20
0.057456
 30
0.000000
  0
VERTEX
  8
LAYER-1
 10
3.133385
 20
0.053116
 30
0.000000
  0
VERTEX
  8
LAYER-1
 10
3.137726
 20
0.050511
 30
0.000000
  0
SEQEND
  8
LAYER-1
  0
POLYLINE
  8
LAYER-1
 66
  1
 70
  0
 62
  0
 10
3.024877
 20
0.040961
 30
0.000000
  0
VERTEX
  8
LAYER-1
 10
3.024877
 20
0.040961
 30
0.000000
  0
VERTEX
  8
LAYER-1
 10
3.020536
 20
0.040961
 30
0.000000
  0
VERTEX
  8
LAYER-1
 10
3.017064
 20
0.036620
 30
0.000000
  0
VERTEX
  8
LAYER-1
 10
3.016197
 20
0.031412
 30
0.000000
  0
VERTEX
  8
LAYER-1
 10
3.017932
 20
0.027072
 30
0.000000
  0
VERTEX
  8
LAYER-1
 10
3.022273
 20
0.025336
 30
0.000000
  0
VERTEX
  8
LAYER-1
 10
3.026613
 20
0.025336
 30
0.000000
  0
VERTEX
  8
LAYER-1
 10
3.030954
 20
0.028808
 30
0.000000
  0
VERTEX
  8
LAYER-1
 10
3.030954
 20
0.033148
 30
0.000000
  0
VERTEX
  8
LAYER-1
 10
3.030086
 20
0.037489
 30
0.000000
  0
VERTEX
  8
LAYER-1
 10
3.025745
 20
0.040093
 30
0.000000
  0
SEQEND
  8
LAYER-1
  0
POLYLINE
  8
LAYER-1
 66
  1
 70
  1
 62
  0
 10
2.865930
 20
0.054261
 30
0.000000
  0
VERTEX
  8
LAYER-1
 10
2.865930
 20
0.054261
 30
0.000000
  0
VERTEX
  8
LAYER-1
 10
2.878951
 20
0.076832
 30
0.000000
  0
VERTEX
  8
LAYER-1
 10
2.848569
 20
0.055999
 30
0.000000
  0
SEQEND
  8
LAYER-1
  0
POLYLINE
  8
LAYER-1
 66
  1
 70
  0
 62
  0
 10
2.899786
 20
0.053395
 30
0.000000
  0
VERTEX
  8
LAYER-1
 10
2.899786
 20
0.053395
 30
0.000000
  0
VERTEX
  8
LAYER-1
 10
2.904126
 20
0.053395
 30
0.000000
  0
VERTEX
  8
LAYER-1
 10
2.907598
 20
0.057735
 30
0.000000
  0
VERTEX
  8
LAYER-1
 10
2.908466
 20
0.062943
 30
0.000000
  0
VERTEX
  8
LAYER-1
 10
2.906730
 20
0.067284
 30
0.000000
  0
VERTEX
  8
LAYER-1
 10
2.902390
 20
0.069020
 30
0.000000
  0
VERTEX
  8
LAYER-1
 10
2.898050
 20
0.069020
 30
0.000000
  0
VERTEX
  8
LAYER-1
 10
2.893709
 20
0.065548
 30
0.000000
  0
VERTEX
  8
LAYER-1
 10
2.893709
 20
0.061207
 30
0.000000
  0
VERTEX
  8
LAYER-1
 10
2.894577
 20
0.056866
 30
0.000000
  0
VERTEX
  8
LAYER-1
 10
2.898918
 20
0.054261
 30
0.000000
  0
SEQEND
  8
LAYER-1
  0
POLYLINE
  8
LAYER-1
 66
  1
 70
  1
 62
  0
 10
3.498047
 20
0.089333
 30
0.000000
  0
VERTEX
  8
LAYER-1
 10
3.498047
 20
0.089333
 30
0.000000
  0
VERTEX
  8
LAYER-1
 10
3.520617
 20
0.076311
 30
0.000000
  0
VERTEX
  8
LAYER-1
 10
3.499785
 20
0.106693
 30
0.000000
  0
SEQEND
  8
LAYER-1
  0
POLYLINE
  8
LAYER-1
 66
  1
 70
  0
 62
  0
 10
3.497180
 20
0.055477
 30
0.000000
  0
VERTEX
  8
LAYER-1
 10
3.497180
 20
0.055477
 30
0.000000
  0
VERTEX
  8
LAYER-1
 10
3.497180
 20
0.051136
 30
0.000000
  0
VERTEX
  8
LAYER-1
 10
3.501521
 20
0.047664
 30
0.000000
  0
VERTEX
  8
LAYER-1
 10
3.506728
 20
0.046796
 30
0.000000
  0
VERTEX
  8
LAYER-1
 10
3.511069
 20
0.048532
 30
0.000000
  0
VERTEX
  8
LAYER-1
 10
3.512805
 20
0.052873
 30
0.000000
  0
VERTEX
  8
LAYER-1
 10
3.512805
 20
0.057212
 30
0.000000
  0
VERTEX
  8
LAYER-1
 10
3.509333
 20
0.061553
 30
0.000000
  0
VERTEX
  8
LAYER-1
 10
3.504993
 20
0.061553
 30
0.000000
  0
VERTEX
  8
LAYER-1
 10
3.500652
 20
0.060685
 30
0.000000
  0
VERTEX
  8
LAYER-1
 10
3.498047
 20
0.056345
 30
0.000000
  0
SEQEND
  8
LAYER-1
  0
POLYLINE
  8
LAYER-1
 66
  1
 70
  1
 62
  0
 10
4.047526
 20
0.121362
 30
0.000000
  0
VERTEX
  8
LAYER-1
 10
4.047526
 20
0.121362
 30
0.000000
  0
VERTEX
  8
LAYER-1
 10
4.054471
 20
0.095320
 30
0.000000
  0
VERTEX
  8
LAYER-1
 10
4.079644
 20
0.109209
 30
0.000000
  0
SEQEND
  8
LAYER-1
  0
POLYLINE
  8
LAYER-1
 66
  1
 70
  1
 62
  0
 10
4.019313
 20
0.084468
 30
0.000000
  0
VERTEX
  8
LAYER-1
 10
4.019313
 20
0.084468
 30
0.000000
  0
VERTEX
  8
LAYER-1
 10
4.041883
 20
0.071448
 30
0.000000
  0
VERTEX
  8
LAYER-1
 10
4.021050
 20
0.101829
 30
0.000000
  0
SEQEND
  8
LAYER-1
  0
POLYLINE
  8
LAYER-1
 66
  1
 70
  1
 62
  0
 10
4.135968
 20
0.076488
 30
0.000000
  0
VERTEX
  8
LAYER-1
 10
4.135968
 20
0.076488
 30
0.000000
  0
VERTEX
  8
LAYER-1
 10
4.155334
 20
0.063800
 30
0.000000
  0
VERTEX
  8
LAYER-1
 10
4.161344
 20
0.075152
 30
0.000000
  0
SEQEND
  8
LAYER-1
  0
POLYLINE
  8
LAYER-1
 66
  1
 70
  0
 62
  0
 10
4.080513
 20
0.082296
 30
0.000000
  0
VERTEX
  8
LAYER-1
 10
4.080513
 20
0.082296
 30
0.000000
  0
VERTEX
  8
LAYER-1
 10
4.076172
 20
0.082296
 30
0.000000
  0
VERTEX
  8
LAYER-1
 10
4.072701
 20
0.077955
 30
0.000000
  0
VERTEX
  8
LAYER-1
 10
4.071832
 20
0.072747
 30
0.000000
  0
VERTEX
  8
LAYER-1
 10
4.073569
 20
0.068406
 30
0.000000
  0
VERTEX
  8
LAYER-1
 10
4.077908
 20
0.066671
 30
0.000000
  0
VERTEX
  8
LAYER-1
 10
4.082249
 20
0.066671
 30
0.000000
  0
VERTEX
  8
LAYER-1
 10
4.086590
 20
0.070142
 30
0.000000
  0
VERTEX
  8
LAYER-1
 10
4.086590
 20
0.074483
 30
0.000000
  0
VERTEX
  8
LAYER-1
 10
4.085721
 20
0.078824
 30
0.000000
  0
VERTEX
  8
LAYER-1
 10
4.081381
 20
0.081428
 30
0.000000
  0
SEQEND
  8
LAYER-1
  0
POLYLINE
  8
LAYER-1
 66
  1
 70
  0
 62
  0
 10
3.965061
 20
0.059727
 30
0.000000
  0
VERTEX
  8
LAYER-1
 10
3.965061
 20
0.059727
 30
0.000000
  0
VERTEX
  8
LAYER-1
 10
3.969402
 20
0.059727
 30
0.000000
  0
VERTEX
  8
LAYER-1
 10
3.972874
 20
0.064067
 30
0.000000
  0
VERTEX
  8
LAYER-1
 10
3.973743
 20
0.069275
 30
0.000000
  0
VERTEX
  8
LAYER-1
 10
3.972007
 20
0.073616
 30
0.000000
  0
VERTEX
  8
LAYER-1
 10
3.967666
 20
0.075352
 30
0.000000
  0
VERTEX
  8
LAYER-1
 10
3.963326
 20
0.075352
 30
0.000000
  0
VERTEX
  8
LAYER-1
 10
3.958985
 20
0.071880
 30
0.000000
  0
VERTEX
  8
LAYER-1
 10
3.958985
 20
0.067540
 30
0.000000
  0
VERTEX
  8
LAYER-1
 10
3.959854
 20
0.063199
 30
0.000000
  0
VERTEX
  8
LAYER-1
 10
3.964194
 20
0.060593
 30
0.000000
  0
SEQEND
  8
LAYER-1
  0
POLYLINE
  8
LAYER-1
 66
  1
 70
  1
 62
  0
 10
4.451708
 20
0.030039
 30
0.000000
  0
VERTEX
  8
LAYER-1
 10
4.451708
 20
0.030039
 30
0.000000
  0
VERTEX
  8
LAYER-1
 10
4.444764
 20
0.056081
 30
0.000000
  0
VERTEX
  8
LAYER-1
 10
4.419591
 20
0.042193
 30
0.000000
  0
SEQEND
  8
LAYER-1
  0
POLYLINE
  8
LAYER-1
 66
  1
 70
  1
 62
  0
 10
4.479921
 20
0.066934
 30
0.000000
  0
VERTEX
  8
LAYER-1
 10
4.479921
 20
0.066934
 30
0.000000
  0
VERTEX
  8
LAYER-1
 10
4.457352
 20
0.079954
 30
0.000000
  0
VERTEX
  8
LAYER-1
 10
4.478185
 20
0.049573
 30
0.000000
  0
SEQEND
  8
LAYER-1
  0
POLYLINE
  8
LAYER-1
 66
  1
 70
  1
 62
  0
 10
4.363267
 20
0.074914
 30
0.000000
  0
VERTEX
  8
LAYER-1
 10
4.363267
 20
0.074914
 30
0.000000
  0
VERTEX
  8
LAYER-1
 10
4.343902
 20
0.087601
 30
0.000000
  0
VERTEX
  8
LAYER-1
 10
4.337892
 20
0.076250
 30
0.000000
  0
SEQEND
  8
LAYER-1
  0
POLYLINE
  8
LAYER-1
 66
  1
 70
  0
 62
  0
 10
4.418722
 20
0.069106
 30
0.000000
  0
VERTEX
  8
LAYER-1
 10
4.418722
 20
0.069106
 30
0.000000
  0
VERTEX
  8
LAYER-1
 10
4.423063
 20
0.069106
 30
0.000000
  0
VERTEX
  8
LAYER-1
 10
4.426534
 20
0.073446
 30
0.000000
  0
VERTEX
  8
LAYER-1
 10
4.427402
 20
0.078655
 30
0.000000
  0
VERTEX
  8
LAYER-1
 10
4.425666
 20
0.082995
 30
0.000000
  0
VERTEX
  8
LAYER-1
 10
4.421327
 20
0.084731
 30
0.000000
  0
VERTEX
  8
LAYER-1
 10
4.416986
 20
0.084731
 30
0.000000
  0
VERTEX
  8
LAYER-1
 10
4.412645
 20
0.081259
 30
0.000000
  0
VERTEX
  8
LAYER-1
 10
4.412645
 20
0.076919
 30
0.000000
  0
VERTEX
  8
LAYER-1
 10
4.413514
 20
0.072578
 30
0.000000
  0
VERTEX
  8
LAYER-1
 10
4.417854
 20
0.069974
 30
0.000000
  0
SEQEND
  8
LAYER-1
  0
POLYLINE
  8
LAYER-1
 66
  1
 70
  0
 62
  0
 10
4.534173
 20
0.091675
 30
0.000000
  0
VERTEX
  8
LAYER-1
 10
4.534173
 20
0.091675
 30
0.000000
  0
VERTEX
  8
LAYER-1
 10
4.529833
 20
0.091675
 30
0.000000
  0
VERTEX
  8
LAYER-1
 10
4.526361
 20
0.087334
 30
0.000000
  0
VERTEX
  8
LAYER-1
 10
4.525492
 20
0.082126
 30
0.000000
  0
VERTEX
  8
LAYER-1
 10
4.527228
 20
0.077786
 30
0.000000
  0
VERTEX
  8
LAYER-1
 10
4.531569
 20
0.076050
 30
0.000000
  0
VERTEX
  8
LAYER-1
 10
4.535909
 20
0.076050
 30
0.000000
  0
VERTEX
  8
LAYER-1
 10
4.540250
 20
0.079521
 30
0.000000
  0
VERTEX
  8
LAYER-1
 10
4.540250
 20
0.083862
 30
0.000000
  0
VERTEX
  8
LAYER-1
 10
4.539381
 20
0.088203
 30
0.000000
  0
VERTEX
  8
LAYER-1
 10
4.535041
 20
0.090808
 30
0.000000
  0
SEQEND
  8
LAYER-1
  0
POLYLINE
  8
LAYER-1
 66
  1
 70
  1
 62
  0
 10
4.704052
 20
0.013633
 30
0.000000
  0
VERTEX
  8
LAYER-1
 10
4.704052
 20
0.013633
 30
0.000000
  0
VERTEX
  8
LAYER-1
 10
4.697108
 20
0.039675
 30
0.000000
  0
VERTEX
  8
LAYER-1
 10
4.671934
 20
0.025787
 30
0.000000
  0
SEQEND
  8
LAYER-1
  0
POLYLINE
  8
LAYER-1
 66
  1
 70
  1
 62
  0
 10
4.732265
 20
0.050527
 30
0.000000
  0
VERTEX
  8
LAYER-1
 10
4.732265
 20
0.050527
 30
0.000000
  0
VERTEX
  8
LAYER-1
 10
4.709695
 20
0.063548
 30
0.000000
  0
VERTEX
  8
LAYER-1
 10
4.730528
 20
0.033167
 30
0.000000
  0
SEQEND
  8
LAYER-1
  0
POLYLINE
  8
LAYER-1
 66
  1
 70
  1
 62
  0
 10
4.615611
 20
0.058507
 30
0.000000
  0
VERTEX
  8
LAYER-1
 10
4.615611
 20
0.058507
 30
0.000000
  0
VERTEX
  8
LAYER-1
 10
4.596246
 20
0.071195
 30
0.000000
  0
VERTEX
  8
LAYER-1
 10
4.590235
 20
0.059843
 30
0.000000
  0
SEQEND
  8
LAYER-1
  0
POLYLINE
  8
LAYER-1
 66
  1
 70
  0
 62
  0
 10
4.671065
 20
0.052700
 30
0.000000
  0
VERTEX
  8
LAYER-1
 10
4.671065
 20
0.052700
 30
0.000000
  0
VERTEX
  8
LAYER-1
 10
4.675406
 20
0.052700
 30
0.000000
  0
VERTEX
  8
LAYER-1
 10
4.678878
 20
0.057040
 30
0.000000
  0
VERTEX
  8
LAYER-1
 10
4.679746
 20
0.062248
 30
0.000000
  0
VERTEX
  8
LAYER-1
 10
4.678010
 20
0.066589
 30
0.000000
  0
VERTEX
  8
LAYER-1
 10
4.673670
 20
0.068325
 30
0.000000
  0
VERTEX
  8
LAYER-1
 10
4.669329
 20
0.068325
 30
0.000000
  0
VERTEX
  8
LAYER-1
 10
4.664989
 20
0.064852
 30
0.000000
  0
VERTEX
  8
LAYER-1
 10
4.664989
 20
0.060512
 30
0.000000
  0
VERTEX
  8
LAYER-1
 10
4.665858
 20
0.056171
 30
0.000000
  0
VERTEX
  8
LAYER-1
 10
4.670197
 20
0.053568
 30
0.000000
  0
SEQEND
  8
LAYER-1
  0
POLYLINE
  8
LAYER-1
 66
  1
 70
  0
 62
  0
 10
4.786517
 20
0.075268
 30
0.000000
  0
VERTEX
  8
LAYER-1
 10
4.786517
 20
0.075268
 30
0.000000
  0
VERTEX
  8
LAYER-1
 10
4.782176
 20
0.075268
 30
0.000000
  0
VERTEX
  8
LAYER-1
 10
4.778704
 20
0.070927
 30
0.000000
  0
VERTEX
  8
LAYER-1
 10
4.777835
 20
0.065720
 30
0.000000
  0
VERTEX
  8
LAYER-1
 10
4.779571
 20
0.061379
 30
0.000000
  0
VERTEX
  8
LAYER-1
 10
4.783912
 20
0.059643
 30
0.000000
  0
VERTEX
  8
LAYER-1
 10
4.788253
 20
0.059643
 30
0.000000
  0
VERTEX
  8
LAYER-1
 10
4.792593
 20
0.063115
 30
0.000000
  0
VERTEX
  8
LAYER-1
 10
4.792593
 20
0.067456
 30
0.000000
  0
VERTEX
  8
LAYER-1
 10
4.791724
 20
0.071796
 30
0.000000
  0
VERTEX
  8
LAYER-1
 10
4.787384
 20
0.074401
 30
0.000000
  0
SEQEND
  8
LAYER-1
  0
POLYLINE
  8
LAYER-1
 66
  1
 70
  1
 62
  0
 10
4.924611
 20
0.112682
 30
0.000000
  0
VERTEX
  8
LAYER-1
 10
4.924611
 20
0.112682
 30
0.000000
  0
VERTEX
  8
LAYER-1
 10
4.931555
 20
0.086641
 30
0.000000
  0
VERTEX
  8
LAYER-1
 10
4.956729
 20
0.100529
 30
0.000000
  0
SEQEND
  8
LAYER-1
  0
POLYLINE
  8
LAYER-1
 66
  1
 70
  1
 62
  0
 10
4.896398
 20
0.075788
 30
0.000000
  0
VERTEX
  8
LAYER-1
 10
4.896398
 20
0.075788
 30
0.000000
  0
VERTEX
  8
LAYER-1
 10
4.918968
 20
0.062768
 30
0.000000
  0
VERTEX
  8
LAYER-1
 10
4.898135
 20
0.093149
 30
0.000000
  0
SEQEND
  8
LAYER-1
  0
POLYLINE
  8
LAYER-1
 66
  1
 70
  0
 62
  0
 10
4.842146
 20
0.051047
 30
0.000000
  0
VERTEX
  8
LAYER-1
 10
4.842146
 20
0.051047
 30
0.000000
  0
VERTEX
  8
LAYER-1
 10
4.846487
 20
0.051047
 30
0.000000
  0
VERTEX
  8
LAYER-1
 10
4.849959
 20
0.055388
 30
0.000000
  0
VERTEX
  8
LAYER-1
 10
4.850828
 20
0.060596
 30
0.000000
  0
VERTEX
  8
LAYER-1
 10
4.849092
 20
0.064936
 30
0.000000
  0
VERTEX
  8
LAYER-1
 10
4.844751
 20
0.066672
 30
0.000000
  0
VERTEX
  8
LAYER-1
 10
4.840410
 20
0.066672
 30
0.000000
  0
VERTEX
  8
LAYER-1
 10
4.836070
 20
0.063200
 30
0.000000
  0
VERTEX
  8
LAYER-1
 10
4.836070
 20
0.058860
 30
0.000000
  0
VERTEX
  8
LAYER-1
 10
4.836939
 20
0.054519
 30
0.000000
  0
VERTEX
  8
LAYER-1
 10
4.841279
 20
0.051915
 30
0.000000
  0
SEQEND
  8
LAYER-1
  0
POLYLINE
  8
LAYER-1
 66
  1
 70
  1
 62
  0
 10
5.477734
 20
0.224798
 30
0.000000
  0
VERTEX
  8
LAYER-1
 10
5.477734
 20
0.224798
 30
0.000000
  0
VERTEX
  8
LAYER-1
 10
5.484678
 20
0.198758
 30
0.000000
  0
VERTEX
  8
LAYER-1
 10
5.509852
 20
0.212646
 30
0.000000
  0
SEQEND
  8
LAYER-1
  0
POLYLINE
  8
LAYER-1
 66
  1
 70
  1
 62
  0
 10
5.490842
 20
0.179660
 30
0.000000
  0
VERTEX
  8
LAYER-1
 10
5.490842
 20
0.179660
 30
0.000000
  0
VERTEX
  8
LAYER-1
 10
5.477821
 20
0.157090
 30
0.000000
  0
VERTEX
  8
LAYER-1
 10
5.508203
 20
0.177922
 30
0.000000
  0
SEQEND
  8
LAYER-1
  0
POLYLINE
  8
LAYER-1
 66
  1
 70
  1
 62
  0
 10
5.182337
 20
0.148183
 30
0.000000
  0
VERTEX
  8
LAYER-1
 10
5.182337
 20
0.148183
 30
0.000000
  0
VERTEX
  8
LAYER-1
 10
5.175393
 20
0.174224
 30
0.000000
  0
VERTEX
  8
LAYER-1
 10
5.150220
 20
0.160337
 30
0.000000
  0
SEQEND
  8
LAYER-1
  0
POLYLINE
  8
LAYER-1
 66
  1
 70
  1
 62
  0
 10
5.169228
 20
0.193322
 30
0.000000
  0
VERTEX
  8
LAYER-1
 10
5.169228
 20
0.193322
 30
0.000000
  0
VERTEX
  8
LAYER-1
 10
5.182251
 20
0.215892
 30
0.000000
  0
VERTEX
  8
LAYER-1
 10
5.151867
 20
0.195060
 30
0.000000
  0
SEQEND
  8
LAYER-1
  0
POLYLINE
  8
LAYER-1
 66
  1
 70
  1
 62
  0
 10
5.687109
 20
0.050354
 30
0.000000
  0
VERTEX
  8
LAYER-1
 10
5.687109
 20
0.050354
 30
0.000000
  0
VERTEX
  8
LAYER-1
 10
5.713150
 20
0.057300
 30
0.000000
  0
VERTEX
  8
LAYER-1
 10
5.699262
 20
0.082473
 30
0.000000
  0
SEQEND
  8
LAYER-1
  0
POLYLINE
  8
LAYER-1
 66
  1
 70
  1
 62
  0
 10
5.732249
 20
0.063463
 30
0.000000
  0
VERTEX
  8
LAYER-1
 10
5.732249
 20
0.063463
 30
0.000000
  0
VERTEX
  8
LAYER-1
 10
5.754819
 20
0.050443
 30
0.000000
  0
VERTEX
  8
LAYER-1
 10
5.733986
 20
0.080824
 30
0.000000
  0
SEQEND
  8
LAYER-1
  0
ARC
  8
LAYER-1
 62
  0
 10
5.476746
 20
8.916899
 30
0.000000
 40
0.254425
 50
270.000000
 51
90.000000
  0
POLYLINE
  8
LAYER-1
 66
  1
 70
  0
 62
  0
 10
5.476746
 20
9.171324
 30
0.000000
  0
VERTEX
  8
LAYER-1
 10
5.476746
 20
9.171324
 30
0.000000
  0
VERTEX
  8
LAYER-1
 10
1.811825
 20
9.171324
 30
0.000000
  0
SEQEND
  8
LAYER-1
  0
POLYLINE
  8
LAYER-1
 66
  1
 70
  0
 62
  0
 10
1.811825
 20
9.171324
 30
0.000000
  0
VERTEX
  8
LAYER-1
 10
1.811825
 20
9.171324
 30
0.000000
  0
VERTEX
  8
LAYER-1
 10
1.811825
 20
8.662475
 30
0.000000
  0
SEQEND
  8
LAYER-1
  0
POLYLINE
  8
LAYER-1
 66
  1
 70
  0
 62
  0
 10
5.476746
 20
8.662475
 30
0.000000
  0
VERTEX
  8
LAYER-1
 10
5.476746
 20
8.662475
 30
0.000000
  0
VERTEX
  8
LAYER-1
 10
1.811825
 20
8.662475
 30
0.000000
  0
SEQEND
  8
LAYER-1
  0
TEXT
  8
LAYER-1
 62
  0
 10
3.615411
 20
9.454225
 30
0.000000
 40
0.333333
  1
MobilFlex
 72
  5
 11
5.768189
 21
9.454225
 31
0.000000
  0
POLYLINE
  8
LAYER-1
 66
  1
 70
  1
 62
  0
  0
VERTEX
  8
LAYER-1
 10
1.813328
 20
9.974199
 30
0.000000
  0
VERTEX
  8
LAYER-1
 10
2.051175
 20
9.974199
 30
0.000000
  0
VERTEX
  8
LAYER-1
 10
2.051175
 20
9.457255
 30
0.000000
  0
VERTEX
  8
LAYER-1
 10
1.813328
 20
9.457255
 30
0.000000
  0
SEQEND
  8
LAYER-1
  0
POLYLINE
  8
LAYER-1
 66
  1
 70
  1
 62
  0
  0
VERTEX
  8
LAYER-1
 10
2.125828
 20
9.974199
 30
0.000000
  0
VERTEX
  8
LAYER-1
 10
2.363675
 20
9.974199
 30
0.000000
  0
VERTEX
  8
LAYER-1
 10
2.363675
 20
9.457255
 30
0.000000
  0
VERTEX
  8
LAYER-1
 10
2.125828
 20
9.457255
 30
0.000000
  0
SEQEND
  8
LAYER-1
  0
POLYLINE
  8
LAYER-1
 66
  1
 70
  1
 62
  0
  0
VERTEX
  8
LAYER-1
 10
2.426175
 20
9.974199
 30
0.000000
  0
VERTEX
  8
LAYER-1
 10
2.664022
 20
9.974199
 30
0.000000
  0
VERTEX
  8
LAYER-1
 10
2.664022
 20
9.457255
 30
0.000000
  0
VERTEX
  8
LAYER-1
 10
2.426175
 20
9.457255
 30
0.000000
  0
SEQEND
  8
LAYER-1
  0
POLYLINE
  8
LAYER-1
 66
  1
 70
  1
 62
  0
  0
VERTEX
  8
LAYER-1
 10
2.729994
 20
9.974199
 30
0.000000
  0
VERTEX
  8
LAYER-1
 10
2.967842
 20
9.974199
 30
0.000000
  0
VERTEX
  8
LAYER-1
 10
2.967842
 20
9.457255
 30
0.000000
  0
VERTEX
  8
LAYER-1
 10
2.729994
 20
9.457255
 30
0.000000
  0
SEQEND
  8
LAYER-1
  0
POLYLINE
  8
LAYER-1
 66
  1
 70
  1
 62
  0
  0
VERTEX
  8
LAYER-1
 10
3.046835
 20
9.970284
 30
0.000000
  0
VERTEX
  8
LAYER-1
 10
3.422269
 20
9.970284
 30
0.000000
  0
VERTEX
  8
LAYER-1
 10
3.422269
 20
9.832264
 30
0.000000
  0
VERTEX
  8
LAYER-1
 10
3.046835
 20
9.832264
 30
0.000000
  0
SEQEND
  8
LAYER-1
  0
POLYLINE
  8
LAYER-1
 66
  1
 70
  1
 62
  0
  0
VERTEX
  8
LAYER-1
 10
3.046401
 20
9.742854
 30
0.000000
  0
VERTEX
  8
LAYER-1
 10
3.354560
 20
9.742854
 30
0.000000
  0
VERTEX
  8
LAYER-1
 10
3.354560
 20
9.608739
 30
0.000000
  0
VERTEX
  8
LAYER-1
 10
3.046401
 20
9.608739
 30
0.000000
  0
SEQEND
  8
LAYER-1
  0
POLYLINE
  8
LAYER-1
 66
  1
 70
  1
 62
  0
  0
VERTEX
  8
LAYER-1
 10
1.813328
 20
9.372628
 30
0.000000
  0
VERTEX
  8
LAYER-1
 10
5.731731
 20
9.372628
 30
0.000000
  0
VERTEX
  8
LAYER-1
 10
5.731731
 20
9.329225
 30
0.000000
  0
VERTEX
  8
LAYER-1
 10
1.813328
 20
9.329225
 30
0.000000
  0
SEQEND
  8
LAYER-1
  0
POLYLINE
  8
LAYER-1
 66
  1
 70
  0
 62
  0
 10
5.777370
 20
7.416779
 30
0.000000
  0
VERTEX
  8
LAYER-1
 10
5.777370
 20
7.416779
 30
0.000000
  0
VERTEX
  8
LAYER-1
 10
1.758507
 20
7.416916
 30
0.000000
  0
VERTEX
  8
LAYER-1
 10
1.758507
 20
0.349703
 30
0.000000
  0
VERTEX
  8
LAYER-1
 10
5.777370
 20
0.349703
 30
0.000000
  0
VERTEX
  8
LAYER-1
 10
5.777370
 20
7.416916
 30
0.000000
  0
SEQEND
  8
LAYER-1
  0
POLYLINE
  8
LAYER-1
 66
  1
 70
  1
 62
  0
  0
VERTEX
  8
LAYER-1
 10
5.380004
 20
3.868457
 30
0.000000
  0
VERTEX
  8
LAYER-1
 10
5.704815
 20
3.868457
 30
0.000000
  0
VERTEX
  8
LAYER-1
 10
5.704815
 20
0.663676
 30
0.000000
  0
VERTEX
  8
LAYER-1
 10
5.380004
 20
0.663676
 30
0.000000
  0
SEQEND
  8
LAYER-1
  0
POLYLINE
  8
LAYER-1
 66
  1
 70
  1
 62
  0
  0
VERTEX
  8
LAYER-1
 10
4.970004
 20
3.868457
 30
0.000000
  0
VERTEX
  8
LAYER-1
 10
5.294815
 20
3.868457
 30
0.000000
  0
VERTEX
  8
LAYER-1
 10
5.294815
 20
0.663676
 30
0.000000
  0
VERTEX
  8
LAYER-1
 10
4.970004
 20
0.663676
 30
0.000000
  0
SEQEND
  8
LAYER-1
  0
POLYLINE
  8
LAYER-1
 66
  1
 70
  1
 62
  0
  0
VERTEX
  8
LAYER-1
 10
4.559570
 20
3.868457
 30
0.000000
  0
VERTEX
  8
LAYER-1
 10
4.884381
 20
3.868457
 30
0.000000
  0
VERTEX
  8
LAYER-1
 10
4.884381
 20
0.663676
 30
0.000000
  0
VERTEX
  8
LAYER-1
 10
4.559570
 20
0.663676
 30
0.000000
  0
SEQEND
  8
LAYER-1
  0
POLYLINE
  8
LAYER-1
 66
  1
 70
  1
 62
  0
  0
VERTEX
  8
LAYER-1
 10
4.149569
 20
3.868457
 30
0.000000
  0
VERTEX
  8
LAYER-1
 10
4.474380
 20
3.868457
 30
0.000000
  0
VERTEX
  8
LAYER-1
 10
4.474380
 20
0.663676
 30
0.000000
  0
VERTEX
  8
LAYER-1
 10
4.149569
 20
0.663676
 30
0.000000
  0
SEQEND
  8
LAYER-1
  0
POLYLINE
  8
LAYER-1
 66
  1
 70
  1
 62
  0
  0
VERTEX
  8
LAYER-1
 10
3.061183
 20
3.868457
 30
0.000000
  0
VERTEX
  8
LAYER-1
 10
3.385993
 20
3.868457
 30
0.000000
  0
VERTEX
  8
LAYER-1
 10
3.385993
 20
0.663676
 30
0.000000
  0
VERTEX
  8
LAYER-1
 10
3.061183
 20
0.663676
 30
0.000000
  0
SEQEND
  8
LAYER-1
  0
POLYLINE
  8
LAYER-1
 66
  1
 70
  1
 62
  0
  0
VERTEX
  8
LAYER-1
 10
2.651617
 20
3.868457
 30
0.000000
  0
VERTEX
  8
LAYER-1
 10
2.976427
 20
3.868457
 30
0.000000
  0
VERTEX
  8
LAYER-1
 10
2.976427
 20
0.663676
 30
0.000000
  0
VERTEX
  8
LAYER-1
 10
2.651617
 20
0.663676
 30
0.000000
  0
SEQEND
  8
LAYER-1
  0
POLYLINE
  8
LAYER-1
 66
  1
 70
  1
 62
  0
  0
VERTEX
  8
LAYER-1
 10
2.241183
 20
3.868457
 30
0.000000
  0
VERTEX
  8
LAYER-1
 10
2.565993
 20
3.868457
 30
0.000000
  0
VERTEX
  8
LAYER-1
 10
2.565993
 20
0.663676
 30
0.000000
  0
VERTEX
  8
LAYER-1
 10
2.241183
 20
0.663676
 30
0.000000
  0
SEQEND
  8
LAYER-1
  0
POLYLINE
  8
LAYER-1
 66
  1
 70
  1
 62
  0
  0
VERTEX
  8
LAYER-1
 10
1.831183
 20
3.868457
 30
0.000000
  0
VERTEX
  8
LAYER-1
 10
2.155993
 20
3.868457
 30
0.000000
  0
VERTEX
  8
LAYER-1
 10
2.155993
 20
0.663676
 30
0.000000
  0
VERTEX
  8
LAYER-1
 10
1.831183
 20
0.663676
 30
0.000000
  0
SEQEND
  8
LAYER-1
  0
POLYLINE
  8
LAYER-1
 66
  1
 70
  1
 62
  0
  0
VERTEX
  8
LAYER-1
 10
5.380004
 20
7.146494
 30
0.000000
  0
VERTEX
  8
LAYER-1
 10
5.704815
 20
7.146494
 30
0.000000
  0
VERTEX
  8
LAYER-1
 10
5.704815
 20
3.941722
 30
0.000000
  0
VERTEX
  8
LAYER-1
 10
5.380004
 20
3.941722
 30
0.000000
  0
SEQEND
  8
LAYER-1
  0
POLYLINE
  8
LAYER-1
 66
  1
 70
  1
 62
  0
  0
VERTEX
  8
LAYER-1
 10
4.970004
 20
7.146494
 30
0.000000
  0
VERTEX
  8
LAYER-1
 10
5.294815
 20
7.146494
 30
0.000000
  0
VERTEX
  8
LAYER-1
 10
5.294815
 20
3.941722
 30
0.000000
  0
VERTEX
  8
LAYER-1
 10
4.970004
 20
3.941722
 30
0.000000
  0
SEQEND
  8
LAYER-1
  0
POLYLINE
  8
LAYER-1
 66
  1
 70
  1
 62
  0
  0
VERTEX
  8
LAYER-1
 10
4.559570
 20
7.146494
 30
0.000000
  0
VERTEX
  8
LAYER-1
 10
4.884381
 20
7.146494
 30
0.000000
  0
VERTEX
  8
LAYER-1
 10
4.884381
 20
3.941722
 30
0.000000
  0
VERTEX
  8
LAYER-1
 10
4.559570
 20
3.941722
 30
0.000000
  0
SEQEND
  8
LAYER-1
  0
POLYLINE
  8
LAYER-1
 66
  1
 70
  1
 62
  0
  0
VERTEX
  8
LAYER-1
 10
4.149569
 20
7.146494
 30
0.000000
  0
VERTEX
  8
LAYER-1
 10
4.474380
 20
7.146494
 30
0.000000
  0
VERTEX
  8
LAYER-1
 10
4.474380
 20
3.941722
 30
0.000000
  0
VERTEX
  8
LAYER-1
 10
4.149569
 20
3.941722
 30
0.000000
  0
SEQEND
  8
LAYER-1
  0
POLYLINE
  8
LAYER-1
 66
  1
 70
  1
 62
  0
  0
VERTEX
  8
LAYER-1
 10
3.061183
 20
7.146494
 30
0.000000
  0
VERTEX
  8
LAYER-1
 10
3.385993
 20
7.146494
 30
0.000000
  0
VERTEX
  8
LAYER-1
 10
3.385993
 20
3.941722
 30
0.000000
  0
VERTEX
  8
LAYER-1
 10
3.061183
 20
3.941722
 30
0.000000
  0
SEQEND
  8
LAYER-1
  0
POLYLINE
  8
LAYER-1
 66
  1
 70
  1
 62
  0
  0
VERTEX
  8
LAYER-1
 10
2.651617
 20
7.146494
 30
0.000000
  0
VERTEX
  8
LAYER-1
 10
2.976427
 20
7.146494
 30
0.000000
  0
VERTEX
  8
LAYER-1
 10
2.976427
 20
3.941722
 30
0.000000
  0
VERTEX
  8
LAYER-1
 10
2.651617
 20
3.941722
 30
0.000000
  0
SEQEND
  8
LAYER-1
  0
POLYLINE
  8
LAYER-1
 66
  1
 70
  1
 62
  0
  0
VERTEX
  8
LAYER-1
 10
2.241183
 20
7.146494
 30
0.000000
  0
VERTEX
  8
LAYER-1
 10
2.565993
 20
7.146494
 30
0.000000
  0
VERTEX
  8
LAYER-1
 10
2.565993
 20
3.941722
 30
0.000000
  0
VERTEX
  8
LAYER-1
 10
2.241183
 20
3.941722
 30
0.000000
  0
SEQEND
  8
LAYER-1
  0
POLYLINE
  8
LAYER-1
 66
  1
 70
  1
 62
  0
  0
VERTEX
  8
LAYER-1
 10
1.831183
 20
7.146494
 30
0.000000
  0
VERTEX
  8
LAYER-1
 10
2.155993
 20
7.146494
 30
0.000000
  0
VERTEX
  8
LAYER-1
 10
2.155993
 20
3.941722
 30
0.000000
  0
VERTEX
  8
LAYER-1
 10
1.831183
 20
3.941722
 30
0.000000
  0
SEQEND
  8
LAYER-1
  0
POLYLINE
  8
LAYER-1
 66
  1
 70
  1
 62
  0
  0
VERTEX
  8
LAYER-1
 10
3.793519
 20
7.483339
 30
0.000000
  0
VERTEX
  8
LAYER-1
 10
3.818614
 20
7.483339
 30
0.000000
  0
VERTEX
  8
LAYER-1
 10
3.818614
 20
7.417021
 30
0.000000
  0
VERTEX
  8
LAYER-1
 10
3.793519
 20
7.417021
 30
0.000000
  0
SEQEND
  8
LAYER-1
  0
POLYLINE
  8
LAYER-1
 66
  1
 70
  1
 62
  0
  0
VERTEX
  8
LAYER-1
 10
1.831183
 20
0.663456
 30
0.000000
  0
VERTEX
  8
LAYER-1
 10
2.155815
 20
0.663456
 30
0.000000
  0
VERTEX
  8
LAYER-1
 10
2.155815
 20
0.350030
 30
0.000000
  0
VERTEX
  8
LAYER-1
 10
1.831183
 20
0.350030
 30
0.000000
  0
SEQEND
  8
LAYER-1
  0
POLYLINE
  8
LAYER-1
 66
  1
 70
  1
 62
  0
  0
VERTEX
  8
LAYER-1
 10
2.241245
 20
0.663456
 30
0.000000
  0
VERTEX
  8
LAYER-1
 10
2.565877
 20
0.663456
 30
0.000000
  0
VERTEX
  8
LAYER-1
 10
2.565877
 20
0.350030
 30
0.000000
  0
VERTEX
  8
LAYER-1
 10
2.241245
 20
0.350030
 30
0.000000
  0
SEQEND
  8
LAYER-1
  0
POLYLINE
  8
LAYER-1
 66
  1
 70
  1
 62
  0
  0
VERTEX
  8
LAYER-1
 10
2.651307
 20
0.663456
 30
0.000000
  0
VERTEX
  8
LAYER-1
 10
2.975936
 20
0.663456
 30
0.000000
  0
VERTEX
  8
LAYER-1
 10
2.975936
 20
0.350030
 30
0.000000
  0
VERTEX
  8
LAYER-1
 10
2.651307
 20
0.350030
 30
0.000000
  0
SEQEND
  8
LAYER-1
  0
POLYLINE
  8
LAYER-1
 66
  1
 70
  1
 62
  0
  0
VERTEX
  8
LAYER-1
 10
3.061367
 20
0.663456
 30
0.000000
  0
VERTEX
  8
LAYER-1
 10
3.385998
 20
0.663456
 30
0.000000
  0
VERTEX
  8
LAYER-1
 10
3.385998
 20
0.350030
 30
0.000000
  0
VERTEX
  8
LAYER-1
 10
3.061367
 20
0.350030
 30
0.000000
  0
SEQEND
  8
LAYER-1
  0
POLYLINE
  8
LAYER-1
 66
  1
 70
  1
 62
  0
  0
VERTEX
  8
LAYER-1
 10
5.380062
 20
0.663456
 30
0.000000
  0
VERTEX
  8
LAYER-1
 10
5.704693
 20
0.663456
 30
0.000000
  0
VERTEX
  8
LAYER-1
 10
5.704693
 20
0.350030
 30
0.000000
  0
VERTEX
  8
LAYER-1
 10
5.380062
 20
0.350030
 30
0.000000
  0
SEQEND
  8
LAYER-1
  0
POLYLINE
  8
LAYER-1
 66
  1
 70
  1
 62
  0
  0
VERTEX
  8
LAYER-1
 10
4.969999
 20
0.663456
 30
0.000000
  0
VERTEX
  8
LAYER-1
 10
5.294631
 20
0.663456
 30
0.000000
  0
VERTEX
  8
LAYER-1
 10
5.294631
 20
0.350030
 30
0.000000
  0
VERTEX
  8
LAYER-1
 10
4.969999
 20
0.350030
 30
0.000000
  0
SEQEND
  8
LAYER-1
  0
POLYLINE
  8
LAYER-1
 66
  1
 70
  1
 62
  0
  0
VERTEX
  8
LAYER-1
 10
4.559937
 20
0.663456
 30
0.000000
  0
VERTEX
  8
LAYER-1
 10
4.884569
 20
0.663456
 30
0.000000
  0
VERTEX
  8
LAYER-1
 10
4.884569
 20
0.350030
 30
0.000000
  0
VERTEX
  8
LAYER-1
 10
4.559937
 20
0.350030
 30
0.000000
  0
SEQEND
  8
LAYER-1
  0
POLYLINE
  8
LAYER-1
 66
  1
 70
  1
 62
  0
  0
VERTEX
  8
LAYER-1
 10
4.149875
 20
0.663456
 30
0.000000
  0
VERTEX
  8
LAYER-1
 10
4.474506
 20
0.663456
 30
0.000000
  0
VERTEX
  8
LAYER-1
 10
4.474506
 20
0.350030
 30
0.000000
  0
VERTEX
  8
LAYER-1
 10
4.149875
 20
0.350030
 30
0.000000
  0
SEQEND
  8
LAYER-1
  0
POLYLINE
  8
LAYER-1
 66
  1
 70
  1
 62
  0
  0
VERTEX
  8
LAYER-1
 10
1.831183
 20
7.416927
 30
0.000000
  0
VERTEX
  8
LAYER-1
 10
2.155815
 20
7.416927
 30
0.000000
  0
VERTEX
  8
LAYER-1
 10
2.155815
 20
7.146928
 30
0.000000
  0
VERTEX
  8
LAYER-1
 10
1.831183
 20
7.146928
 30
0.000000
  0
SEQEND
  8
LAYER-1
  0
POLYLINE
  8
LAYER-1
 66
  1
 70
  1
 62
  0
  0
VERTEX
  8
LAYER-1
 10
2.241245
 20
7.416927
 30
0.000000
  0
VERTEX
  8
LAYER-1
 10
2.565877
 20
7.416927
 30
0.000000
  0
VERTEX
  8
LAYER-1
 10
2.565877
 20
7.146928
 30
0.000000
  0
VERTEX
  8
LAYER-1
 10
2.241245
 20
7.146928
 30
0.000000
  0
SEQEND
  8
LAYER-1
  0
POLYLINE
  8
LAYER-1
 66
  1
 70
  1
 62
  0
  0
VERTEX
  8
LAYER-1
 10
2.651307
 20
7.416927
 30
0.000000
  0
VERTEX
  8
LAYER-1
 10
2.975936
 20
7.416927
 30
0.000000
  0
VERTEX
  8
LAYER-1
 10
2.975936
 20
7.146928
 30
0.000000
  0
VERTEX
  8
LAYER-1
 10
2.651307
 20
7.146928
 30
0.000000
  0
SEQEND
  8
LAYER-1
  0
POLYLINE
  8
LAYER-1
 66
  1
 70
  1
 62
  0
  0
VERTEX
  8
LAYER-1
 10
3.061367
 20
7.416927
 30
0.000000
  0
VERTEX
  8
LAYER-1
 10
3.385998
 20
7.416927
 30
0.000000
  0
VERTEX
  8
LAYER-1
 10
3.385998
 20
7.146928
 30
0.000000
  0
VERTEX
  8
LAYER-1
 10
3.061367
 20
7.146928
 30
0.000000
  0
SEQEND
  8
LAYER-1
  0
POLYLINE
  8
LAYER-1
 66
  1
 70
  0
 62
  0
 10
2.798198
 20
7.417002
 30
0.000000
  0
VERTEX
  8
LAYER-1
 10
2.798198
 20
7.417002
 30
0.000000
  0
VERTEX
  8
LAYER-1
 10
2.798198
 20
7.147471
 30
0.000000
  0
SEQEND
  8
LAYER-1
  0
POLYLINE
  8
LAYER-1
 66
  1
 70
  0
 62
  0
 10
2.835278
 20
7.417002
 30
0.000000
  0
VERTEX
  8
LAYER-1
 10
2.835278
 20
7.417002
 30
0.000000
  0
VERTEX
  8
LAYER-1
 10
2.835278
 20
7.147471
 30
0.000000
  0
SEQEND
  8
LAYER-1
  0
POLYLINE
  8
LAYER-1
 66
  1
 70
  0
 62
  0
 10
1.976532
 20
7.417002
 30
0.000000
  0
VERTEX
  8
LAYER-1
 10
1.976532
 20
7.417002
 30
0.000000
  0
VERTEX
  8
LAYER-1
 10
1.976532
 20
7.147471
 30
0.000000
  0
SEQEND
  8
LAYER-1
  0
POLYLINE
  8
LAYER-1
 66
  1
 70
  0
 62
  0
 10
2.015094
 20
7.417002
 30
0.000000
  0
VERTEX
  8
LAYER-1
 10
2.015094
 20
7.417002
 30
0.000000
  0
VERTEX
  8
LAYER-1
 10
2.015094
 20
7.147471
 30
0.000000
  0
SEQEND
  8
LAYER-1
  0
POLYLINE
  8
LAYER-1
 66
  1
 70
  1
 62
  0
  0
VERTEX
  8
LAYER-1
 10
2.172309
 20
7.422862
 30
0.000000
  0
VERTEX
  8
LAYER-1
 10
2.227185
 20
7.422862
 30
0.000000
  0
VERTEX
  8
LAYER-1
 10
2.227185
 20
7.417002
 30
0.000000
  0
VERTEX
  8
LAYER-1
 10
2.172309
 20
7.417002
 30
0.000000
  0
SEQEND
  8
LAYER-1
  0
POLYLINE
  8
LAYER-1
 66
  1
 70
  0
 62
  0
 10
2.181207
 20
7.349619
 30
0.000000
  0
VERTEX
  8
LAYER-1
 10
2.181207
 20
7.349619
 30
0.000000
  0
VERTEX
  8
LAYER-1
 10
2.216803
 20
7.349619
 30
0.000000
  0
SEQEND
  8
LAYER-1
  0
POLYLINE
  8
LAYER-1
 66
  1
 70
  0
 62
  0
 10
2.181207
 20
7.220713
 30
0.000000
  0
VERTEX
  8
LAYER-1
 10
2.181207
 20
7.220713
 30
0.000000
  0
VERTEX
  8
LAYER-1
 10
2.216803
 20
7.220713
 30
0.000000
  0
SEQEND
  8
LAYER-1
  0
POLYLINE
  8
LAYER-1
 66
  1
 70
  1
 62
  0
  0
VERTEX
  8
LAYER-1
 10
2.989523
 20
7.422862
 30
0.000000
  0
VERTEX
  8
LAYER-1
 10
3.044398
 20
7.422862
 30
0.000000
  0
VERTEX
  8
LAYER-1
 10
3.044398
 20
7.417002
 30
0.000000
  0
VERTEX
  8
LAYER-1
 10
2.989523
 20
7.417002
 30
0.000000
  0
SEQEND
  8
LAYER-1
  0
POLYLINE
  8
LAYER-1
 66
  1
 70
  0
 62
  0
 10
2.999906
 20
7.349619
 30
0.000000
  0
VERTEX
  8
LAYER-1
 10
2.999906
 20
7.349619
 30
0.000000
  0
VERTEX
  8
LAYER-1
 10
3.035500
 20
7.349619
 30
0.000000
  0
SEQEND
  8
LAYER-1
  0
POLYLINE
  8
LAYER-1
 66
  1
 70
  0
 62
  0
 10
2.999906
 20
7.220712
 30
0.000000
  0
VERTEX
  8
LAYER-1
 10
2.999906
 20
7.220712
 30
0.000000
  0
VERTEX
  8
LAYER-1
 10
3.035500
 20
7.220712
 30
0.000000
  0
SEQEND
  8
LAYER-1
  0
POLYLINE
  8
LAYER-1
 66
  1
 70
  0
 62
  0
 10
1.831183
 20
7.416927
 30
0.000000
  0
VERTEX
  8
LAYER-1
 10
1.831183
 20
7.416927
 30
0.000000
  0
VERTEX
  8
LAYER-1
 10
1.831183
 20
0.350136
 30
0.000000
  0
SEQEND
  8
LAYER-1
  0
POLYLINE
  8
LAYER-1
 66
  1
 70
  0
 62
  0
 10
2.155815
 20
7.416927
 30
0.000000
  0
VERTEX
  8
LAYER-1
 10
2.155815
 20
7.416927
 30
0.000000
  0
VERTEX
  8
LAYER-1
 10
2.155815
 20
0.350136
 30
0.000000
  0
SEQEND
  8
LAYER-1
  0
POLYLINE
  8
LAYER-1
 66
  1
 70
  0
 62
  0
 10
2.241245
 20
7.416927
 30
0.000000
  0
VERTEX
  8
LAYER-1
 10
2.241245
 20
7.416927
 30
0.000000
  0
VERTEX
  8
LAYER-1
 10
2.241245
 20
0.350136
 30
0.000000
  0
SEQEND
  8
LAYER-1
  0
POLYLINE
  8
LAYER-1
 66
  1
 70
  0
 62
  0
 10
2.181207
 20
7.416927
 30
0.000000
  0
VERTEX
  8
LAYER-1
 10
2.181207
 20
7.416927
 30
0.000000
  0
VERTEX
  8
LAYER-1
 10
2.181207
 20
0.350136
 30
0.000000
  0
SEQEND
  8
LAYER-1
  0
POLYLINE
  8
LAYER-1
 66
  1
 70
  0
 62
  0
 10
2.216803
 20
7.416927
 30
0.000000
  0
VERTEX
  8
LAYER-1
 10
2.216803
 20
7.416927
 30
0.000000
  0
VERTEX
  8
LAYER-1
 10
2.216803
 20
0.350136
 30
0.000000
  0
SEQEND
  8
LAYER-1
  0
POLYLINE
  8
LAYER-1
 66
  1
 70
  1
 62
  0
  0
VERTEX
  8
LAYER-1
 10
2.170824
 20
0.350211
 30
0.000000
  0
VERTEX
  8
LAYER-1
 10
2.225700
 20
0.350211
 30
0.000000
  0
VERTEX
  8
LAYER-1
 10
2.225700
 20
0.344352
 30
0.000000
  0
VERTEX
  8
LAYER-1
 10
2.170824
 20
0.344352
 30
0.000000
  0
SEQEND
  8
LAYER-1
  0
POLYLINE
  8
LAYER-1
 66
  1
 70
  0
 62
  0
 10
2.216803
 20
0.423453
 30
0.000000
  0
VERTEX
  8
LAYER-1
 10
2.216803
 20
0.423453
 30
0.000000
  0
VERTEX
  8
LAYER-1
 10
2.181207
 20
0.423453
 30
0.000000
  0
SEQEND
  8
LAYER-1
  0
POLYLINE
  8
LAYER-1
 66
  1
 70
  0
 62
  0
 10
2.216803
 20
0.552360
 30
0.000000
  0
VERTEX
  8
LAYER-1
 10
2.216803
 20
0.552360
 30
0.000000
  0
VERTEX
  8
LAYER-1
 10
2.181207
 20
0.552360
 30
0.000000
  0
SEQEND
  8
LAYER-1
  0
POLYLINE
  8
LAYER-1
 66
  1
 70
  0
 62
  0
 10
2.181207
 20
0.627344
 30
0.000000
  0
VERTEX
  8
LAYER-1
 10
2.181207
 20
0.627344
 30
0.000000
  0
VERTEX
  8
LAYER-1
 10
2.216803
 20
0.627344
 30
0.000000
  0
SEQEND
  8
LAYER-1
  0
POLYLINE
  8
LAYER-1
 66
  1
 70
  0
 62
  0
 10
2.181207
 20
1.474024
 30
0.000000
  0
VERTEX
  8
LAYER-1
 10
2.181207
 20
1.474024
 30
0.000000
  0
VERTEX
  8
LAYER-1
 10
2.216803
 20
1.474024
 30
0.000000
  0
SEQEND
  8
LAYER-1
  0
POLYLINE
  8
LAYER-1
 66
  1
 70
  0
 62
  0
 10
2.181207
 20
2.311913
 30
0.000000
  0
VERTEX
  8
LAYER-1
 10
2.181207
 20
2.311913
 30
0.000000
  0
VERTEX
  8
LAYER-1
 10
2.216803
 20
2.311913
 30
0.000000
  0
SEQEND
  8
LAYER-1
  0
POLYLINE
  8
LAYER-1
 66
  1
 70
  0
 62
  0
 10
2.181207
 20
3.161515
 30
0.000000
  0
VERTEX
  8
LAYER-1
 10
2.181207
 20
3.161515
 30
0.000000
  0
VERTEX
  8
LAYER-1
 10
2.216803
 20
3.161515
 30
0.000000
  0
SEQEND
  8
LAYER-1
  0
POLYLINE
  8
LAYER-1
 66
  1
 70
  0
 62
  0
 10
2.216803
 20
4.003801
 30
0.000000
  0
VERTEX
  8
LAYER-1
 10
2.216803
 20
4.003801
 30
0.000000
  0
VERTEX
  8
LAYER-1
 10
2.181207
 20
4.003801
 30
0.000000
  0
SEQEND
  8
LAYER-1
  0
POLYLINE
  8
LAYER-1
 66
  1
 70
  1
 62
  0
  0
VERTEX
  8
LAYER-1
 10
1.831183
 20
3.942155
 30
0.000000
  0
VERTEX
  8
LAYER-1
 10
2.155993
 20
3.942155
 30
0.000000
  0
VERTEX
  8
LAYER-1
 10
2.155993
 20
3.865985
 30
0.000000
  0
VERTEX
  8
LAYER-1
 10
1.831183
 20
3.865985
 30
0.000000
  0
SEQEND
  8
LAYER-1
  0
POLYLINE
  8
LAYER-1
 66
  1
 70
  1
 62
  0
  0
VERTEX
  8
LAYER-1
 10
2.241245
 20
3.942155
 30
0.000000
  0
VERTEX
  8
LAYER-1
 10
2.566055
 20
3.942155
 30
0.000000
  0
VERTEX
  8
LAYER-1
 10
2.566055
 20
3.865985
 30
0.000000
  0
VERTEX
  8
LAYER-1
 10
2.241245
 20
3.865985
 30
0.000000
  0
SEQEND
  8
LAYER-1
  0
POLYLINE
  8
LAYER-1
 66
  1
 70
  1
 62
  0
  0
VERTEX
  8
LAYER-1
 10
2.651307
 20
3.942155
 30
0.000000
  0
VERTEX
  8
LAYER-1
 10
2.976113
 20
3.942155
 30
0.000000
  0
VERTEX
  8
LAYER-1
 10
2.976113
 20
3.865985
 30
0.000000
  0
VERTEX
  8
LAYER-1
 10
2.651307
 20
3.865985
 30
0.000000
  0
SEQEND
  8
LAYER-1
  0
POLYLINE
  8
LAYER-1
 66
  1
 70
  1
 62
  0
  0
VERTEX
  8
LAYER-1
 10
3.061367
 20
3.942155
 30
0.000000
  0
VERTEX
  8
LAYER-1
 10
3.386175
 20
3.942155
 30
0.000000
  0
VERTEX
  8
LAYER-1
 10
3.386175
 20
3.865985
 30
0.000000
  0
VERTEX
  8
LAYER-1
 10
3.061367
 20
3.865985
 30
0.000000
  0
SEQEND
  8
LAYER-1
  0
POLYLINE
  8
LAYER-1
 66
  1
 70
  1
 62
  0
  0
VERTEX
  8
LAYER-1
 10
5.379884
 20
3.942155
 30
0.000000
  0
VERTEX
  8
LAYER-1
 10
5.704693
 20
3.942155
 30
0.000000
  0
VERTEX
  8
LAYER-1
 10
5.704693
 20
3.865985
 30
0.000000
  0
VERTEX
  8
LAYER-1
 10
5.379884
 20
3.865985
 30
0.000000
  0
SEQEND
  8
LAYER-1
  0
POLYLINE
  8
LAYER-1
 66
  1
 70
  1
 62
  0
  0
VERTEX
  8
LAYER-1
 10
4.969822
 20
3.942155
 30
0.000000
  0
VERTEX
  8
LAYER-1
 10
5.294631
 20
3.942155
 30
0.000000
  0
VERTEX
  8
LAYER-1
 10
5.294631
 20
3.865985
 30
0.000000
  0
VERTEX
  8
LAYER-1
 10
4.969822
 20
3.865985
 30
0.000000
  0
SEQEND
  8
LAYER-1
  0
POLYLINE
  8
LAYER-1
 66
  1
 70
  1
 62
  0
  0
VERTEX
  8
LAYER-1
 10
4.559760
 20
3.942155
 30
0.000000
  0
VERTEX
  8
LAYER-1
 10
4.884569
 20
3.942155
 30
0.000000
  0
VERTEX
  8
LAYER-1
 10
4.884569
 20
3.865985
 30
0.000000
  0
VERTEX
  8
LAYER-1
 10
4.559760
 20
3.865985
 30
0.000000
  0
SEQEND
  8
LAYER-1
  0
POLYLINE
  8
LAYER-1
 66
  1
 70
  1
 62
  0
  0
VERTEX
  8
LAYER-1
 10
4.149698
 20
3.942155
 30
0.000000
  0
VERTEX
  8
LAYER-1
 10
4.474506
 20
3.942155
 30
0.000000
  0
VERTEX
  8
LAYER-1
 10
4.474506
 20
3.865985
 30
0.000000
  0
VERTEX
  8
LAYER-1
 10
4.149698
 20
3.865985
 30
0.000000
  0
SEQEND
  8
LAYER-1
  0
POLYLINE
  8
LAYER-1
 66
  1
 70
  1
 62
  0
  0
VERTEX
  8
LAYER-1
 10
1.848981
 20
3.847927
 30
0.000000
  0
VERTEX
  8
LAYER-1
 10
2.136712
 20
3.847927
 30
0.000000
  0
VERTEX
  8
LAYER-1
 10
2.136712
 20
0.678856
 30
0.000000
  0
VERTEX
  8
LAYER-1
 10
1.848981
 20
0.678856
 30
0.000000
  0
SEQEND
  8
LAYER-1
  0
POLYLINE
  8
LAYER-1
 66
  1
 70
  1
 62
  0
  0
VERTEX
  8
LAYER-1
 10
2.259044
 20
3.847927
 30
0.000000
  0
VERTEX
  8
LAYER-1
 10
2.546774
 20
3.847927
 30
0.000000
  0
VERTEX
  8
LAYER-1
 10
2.546774
 20
0.678856
 30
0.000000
  0
VERTEX
  8
LAYER-1
 10
2.259044
 20
0.678856
 30
0.000000
  0
SEQEND
  8
LAYER-1
  0
POLYLINE
  8
LAYER-1
 66
  1
 70
  1
 62
  0
  0
VERTEX
  8
LAYER-1
 10
2.669106
 20
3.847927
 30
0.000000
  0
VERTEX
  8
LAYER-1
 10
2.956833
 20
3.847927
 30
0.000000
  0
VERTEX
  8
LAYER-1
 10
2.956833
 20
0.678856
 30
0.000000
  0
VERTEX
  8
LAYER-1
 10
2.669106
 20
0.678856
 30
0.000000
  0
SEQEND
  8
LAYER-1
  0
POLYLINE
  8
LAYER-1
 66
  1
 70
  1
 62
  0
  0
VERTEX
  8
LAYER-1
 10
3.079166
 20
3.847927
 30
0.000000
  0
VERTEX
  8
LAYER-1
 10
3.366895
 20
3.847927
 30
0.000000
  0
VERTEX
  8
LAYER-1
 10
3.366895
 20
0.678856
 30
0.000000
  0
VERTEX
  8
LAYER-1
 10
3.079166
 20
0.678856
 30
0.000000
  0
SEQEND
  8
LAYER-1
  0
LINE
  8
LAYER-1
 62
  0
 10
1.902235
 20
3.270665
 30
0.000000
 11
2.038326
 21
3.508402
 31
0.000000
  0
LINE
  8
LAYER-1
 62
  0
 10
1.958871
 20
3.238245
 30
0.000000
 11
2.094961
 21
3.475981
 31
0.000000
  0
LINE
  8
LAYER-1
 62
  0
 10
2.312298
 20
3.270665
 30
0.000000
 11
2.448387
 21
3.508402
 31
0.000000
  0
LINE
  8
LAYER-1
 62
  0
 10
2.368933
 20
3.238245
 30
0.000000
 11
2.505023
 21
3.475981
 31
0.000000
  0
LINE
  8
LAYER-1
 62
  0
 10
2.722360
 20
3.270665
 30
0.000000
 11
2.858447
 21
3.508402
 31
0.000000
  0
LINE
  8
LAYER-1
 62
  0
 10
2.778996
 20
3.238246
 30
0.000000
 11
2.915083
 21
3.475982
 31
0.000000
  0
LINE
  8
LAYER-1
 62
  0
 10
3.132419
 20
3.270665
 30
0.000000
 11
3.268508
 21
3.508402
 31
0.000000
  0
LINE
  8
LAYER-1
 62
  0
 10
3.189055
 20
3.238245
 30
0.000000
 11
3.325144
 21
3.475981
 31
0.000000
  0
LINE
  8
LAYER-1
 62
  0
 10
1.901876
 20
1.046817
 30
0.000000
 11
2.037964
 21
1.284552
 31
0.000000
  0
LINE
  8
LAYER-1
 62
  0
 10
1.958511
 20
1.014397
 30
0.000000
 11
2.094599
 21
1.252131
 31
0.000000
  0
LINE
  8
LAYER-1
 62
  0
 10
2.311938
 20
1.046817
 30
0.000000
 11
2.448026
 21
1.284552
 31
0.000000
  0
LINE
  8
LAYER-1
 62
  0
 10
2.368573
 20
1.014397
 30
0.000000
 11
2.504662
 21
1.252131
 31
0.000000
  0
LINE
  8
LAYER-1
 62
  0
 10
2.722000
 20
1.046817
 30
0.000000
 11
2.858087
 21
1.284552
 31
0.000000
  0
LINE
  8
LAYER-1
 62
  0
 10
2.778636
 20
1.014397
 30
0.000000
 11
2.914723
 21
1.252131
 31
0.000000
  0
LINE
  8
LAYER-1
 62
  0
 10
3.132060
 20
1.046817
 30
0.000000
 11
3.268149
 21
1.284552
 31
0.000000
  0
LINE
  8
LAYER-1
 62
  0
 10
3.188695
 20
1.014397
 30
0.000000
 11
3.324784
 21
1.252131
 31
0.000000
  0
POLYLINE
  8
LAYER-1
 66
  1
 70
  0
 62
  0
 10
2.565877
 20
7.416927
 30
0.000000
  0
VERTEX
  8
LAYER-1
 10
2.565877
 20
7.416927
 30
0.000000
  0
VERTEX
  8
LAYER-1
 10
2.565877
 20
0.350136
 30
0.000000
  0
SEQEND
  8
LAYER-1
  0
POLYLINE
  8
LAYER-1
 66
  1
 70
  0
 62
  0
 10
2.651307
 20
7.416927
 30
0.000000
  0
VERTEX
  8
LAYER-1
 10
2.651307
 20
7.416927
 30
0.000000
  0
VERTEX
  8
LAYER-1
 10
2.651307
 20
0.350136
 30
0.000000
  0
SEQEND
  8
LAYER-1
  0
POLYLINE
  8
LAYER-1
 66
  1
 70
  0
 62
  0
 10
2.975936
 20
7.416927
 30
0.000000
  0
VERTEX
  8
LAYER-1
 10
2.975936
 20
7.416927
 30
0.000000
  0
VERTEX
  8
LAYER-1
 10
2.975936
 20
0.350136
 30
0.000000
  0
SEQEND
  8
LAYER-1
  0
POLYLINE
  8
LAYER-1
 66
  1
 70
  0
 62
  0
 10
3.061367
 20
7.416927
 30
0.000000
  0
VERTEX
  8
LAYER-1
 10
3.061367
 20
7.416927
 30
0.000000
  0
VERTEX
  8
LAYER-1
 10
3.061367
 20
0.350136
 30
0.000000
  0
SEQEND
  8
LAYER-1
  0
POLYLINE
  8
LAYER-1
 66
  1
 70
  0
 62
  0
 10
3.385998
 20
7.416927
 30
0.000000
  0
VERTEX
  8
LAYER-1
 10
3.385998
 20
7.416927
 30
0.000000
  0
VERTEX
  8
LAYER-1
 10
3.385998
 20
0.350136
 30
0.000000
  0
SEQEND
  8
LAYER-1
  0
POLYLINE
  8
LAYER-1
 66
  1
 70
  0
 62
  0
 10
3.468579
 20
7.416927
 30
0.000000
  0
VERTEX
  8
LAYER-1
 10
3.468579
 20
7.416927
 30
0.000000
  0
VERTEX
  8
LAYER-1
 10
3.468579
 20
0.350136
 30
0.000000
  0
SEQEND
  8
LAYER-1
  0
POLYLINE
  8
LAYER-1
 66
  1
 70
  0
 62
  0
 10
1.795588
 20
7.416927
 30
0.000000
  0
VERTEX
  8
LAYER-1
 10
1.795588
 20
7.416927
 30
0.000000
  0
VERTEX
  8
LAYER-1
 10
1.795588
 20
0.350136
 30
0.000000
  0
SEQEND
  8
LAYER-1
  0
POLYLINE
  8
LAYER-1
 66
  1
 70
  0
 62
  0
 10
2.608355
 20
7.416927
 30
0.000000
  0
VERTEX
  8
LAYER-1
 10
2.608355
 20
7.416927
 30
0.000000
  0
VERTEX
  8
LAYER-1
 10
2.608355
 20
0.350136
 30
0.000000
  0
SEQEND
  8
LAYER-1
  0
POLYLINE
  8
LAYER-1
 66
  1
 70
  0
 62
  0
 10
2.999906
 20
7.416927
 30
0.000000
  0
VERTEX
  8
LAYER-1
 10
2.999906
 20
7.416927
 30
0.000000
  0
VERTEX
  8
LAYER-1
 10
2.999906
 20
0.350136
 30
0.000000
  0
SEQEND
  8
LAYER-1
  0
POLYLINE
  8
LAYER-1
 66
  1
 70
  0
 62
  0
 10
3.035500
 20
7.416927
 30
0.000000
  0
VERTEX
  8
LAYER-1
 10
3.035500
 20
7.416927
 30
0.000000
  0
VERTEX
  8
LAYER-1
 10
3.035500
 20
0.350136
 30
0.000000
  0
SEQEND
  8
LAYER-1
  0
POLYLINE
  8
LAYER-1
 66
  1
 70
  0
 62
  0
 10
3.427052
 20
7.416927
 30
0.000000
  0
VERTEX
  8
LAYER-1
 10
3.427052
 20
7.416927
 30
0.000000
  0
VERTEX
  8
LAYER-1
 10
3.427052
 20
0.350136
 30
0.000000
  0
SEQEND
  8
LAYER-1
  0
POLYLINE
  8
LAYER-1
 66
  1
 70
  1
 62
  0
  0
VERTEX
  8
LAYER-1
 10
2.988038
 20
0.350211
 30
0.000000
  0
VERTEX
  8
LAYER-1
 10
3.042915
 20
0.350211
 30
0.000000
  0
VERTEX
  8
LAYER-1
 10
3.042915
 20
0.344352
 30
0.000000
  0
VERTEX
  8
LAYER-1
 10
2.988038
 20
0.344352
 30
0.000000
  0
SEQEND
  8
LAYER-1
  0
POLYLINE
  8
LAYER-1
 66
  1
 70
  0
 62
  0
 10
3.035500
 20
0.423453
 30
0.000000
  0
VERTEX
  8
LAYER-1
 10
3.035500
 20
0.423453
 30
0.000000
  0
VERTEX
  8
LAYER-1
 10
2.999906
 20
0.423453
 30
0.000000
  0
SEQEND
  8
LAYER-1
  0
POLYLINE
  8
LAYER-1
 66
  1
 70
  0
 62
  0
 10
3.035500
 20
0.552360
 30
0.000000
  0
VERTEX
  8
LAYER-1
 10
3.035500
 20
0.552360
 30
0.000000
  0
VERTEX
  8
LAYER-1
 10
2.999906
 20
0.552360
 30
0.000000
  0
SEQEND
  8
LAYER-1
  0
POLYLINE
  8
LAYER-1
 66
  1
 70
  0
 62
  0
 10
2.999906
 20
0.627344
 30
0.000000
  0
VERTEX
  8
LAYER-1
 10
2.999906
 20
0.627344
 30
0.000000
  0
VERTEX
  8
LAYER-1
 10
3.035500
 20
0.627344
 30
0.000000
  0
SEQEND
  8
LAYER-1
  0
POLYLINE
  8
LAYER-1
 66
  1
 70
  0
 62
  0
 10
2.999906
 20
1.474024
 30
0.000000
  0
VERTEX
  8
LAYER-1
 10
2.999906
 20
1.474024
 30
0.000000
  0
VERTEX
  8
LAYER-1
 10
3.035500
 20
1.474024
 30
0.000000
  0
SEQEND
  8
LAYER-1
  0
POLYLINE
  8
LAYER-1
 66
  1
 70
  0
 62
  0
 10
2.999906
 20
2.311913
 30
0.000000
  0
VERTEX
  8
LAYER-1
 10
2.999906
 20
2.311913
 30
0.000000
  0
VERTEX
  8
LAYER-1
 10
3.035500
 20
2.311913
 30
0.000000
  0
SEQEND
  8
LAYER-1
  0
POLYLINE
  8
LAYER-1
 66
  1
 70
  0
 62
  0
 10
2.999906
 20
3.161515
 30
0.000000
  0
VERTEX
  8
LAYER-1
 10
2.999906
 20
3.161515
 30
0.000000
  0
VERTEX
  8
LAYER-1
 10
3.035500
 20
3.161515
 30
0.000000
  0
SEQEND
  8
LAYER-1
  0
POLYLINE
  8
LAYER-1
 66
  1
 70
  0
 62
  0
 10
3.035500
 20
4.003801
 30
0.000000
  0
VERTEX
  8
LAYER-1
 10
3.035500
 20
4.003801
 30
0.000000
  0
VERTEX
  8
LAYER-1
 10
2.999906
 20
4.003801
 30
0.000000
  0
SEQEND
  8
LAYER-1
  0
POLYLINE
  8
LAYER-1
 66
  1
 70
  0
 62
  0
 10
2.181858
 20
4.854802
 30
0.000000
  0
VERTEX
  8
LAYER-1
 10
2.181858
 20
4.854802
 30
0.000000
  0
VERTEX
  8
LAYER-1
 10
2.217455
 20
4.854802
 30
0.000000
  0
SEQEND
  8
LAYER-1
  0
POLYLINE
  8
LAYER-1
 66
  1
 70
  0
 62
  0
 10
2.181858
 20
5.698551
 30
0.000000
  0
VERTEX
  8
LAYER-1
 10
2.181858
 20
5.698551
 30
0.000000
  0
VERTEX
  8
LAYER-1
 10
2.217455
 20
5.698551
 30
0.000000
  0
SEQEND
  8
LAYER-1
  0
POLYLINE
  8
LAYER-1
 66
  1
 70
  0
 62
  0
 10
2.181858
 20
6.543770
 30
0.000000
  0
VERTEX
  8
LAYER-1
 10
2.181858
 20
6.543770
 30
0.000000
  0
VERTEX
  8
LAYER-1
 10
2.217455
 20
6.543770
 30
0.000000
  0
SEQEND
  8
LAYER-1
  0
POLYLINE
  8
LAYER-1
 66
  1
 70
  0
 62
  0
 10
2.999729
 20
6.543770
 30
0.000000
  0
VERTEX
  8
LAYER-1
 10
2.999729
 20
6.543770
 30
0.000000
  0
VERTEX
  8
LAYER-1
 10
3.035323
 20
6.543770
 30
0.000000
  0
SEQEND
  8
LAYER-1
  0
POLYLINE
  8
LAYER-1
 66
  1
 70
  0
 62
  0
 10
3.647862
 20
6.543694
 30
0.000000
  0
VERTEX
  8
LAYER-1
 10
3.647862
 20
6.543694
 30
0.000000
  0
VERTEX
  8
LAYER-1
 10
3.683457
 20
6.543694
 30
0.000000
  0
SEQEND
  8
LAYER-1
  0
POLYLINE
  8
LAYER-1
 66
  1
 70
  0
 62
  0
 10
5.354019
 20
6.543769
 30
0.000000
  0
VERTEX
  8
LAYER-1
 10
5.354019
 20
6.543769
 30
0.000000
  0
VERTEX
  8
LAYER-1
 10
5.318424
 20
6.543769
 30
0.000000
  0
SEQEND
  8
LAYER-1
  0
POLYLINE
  8
LAYER-1
 66
  1
 70
  0
 62
  0
 10
4.536144
 20
6.543769
 30
0.000000
  0
VERTEX
  8
LAYER-1
 10
4.536144
 20
6.543769
 30
0.000000
  0
VERTEX
  8
LAYER-1
 10
4.500553
 20
6.543769
 30
0.000000
  0
SEQEND
  8
LAYER-1
  0
POLYLINE
  8
LAYER-1
 66
  1
 70
  0
 62
  0
 10
3.888006
 20
6.543694
 30
0.000000
  0
VERTEX
  8
LAYER-1
 10
3.888006
 20
6.543694
 30
0.000000
  0
VERTEX
  8
LAYER-1
 10
3.852414
 20
6.543694
 30
0.000000
  0
SEQEND
  8
LAYER-1
  0
POLYLINE
  8
LAYER-1
 66
  1
 70
  0
 62
  0
 10
2.999729
 20
4.854802
 30
0.000000
  0
VERTEX
  8
LAYER-1
 10
2.999729
 20
4.854802
 30
0.000000
  0
VERTEX
  8
LAYER-1
 10
3.035323
 20
4.854802
 30
0.000000
  0
SEQEND
  8
LAYER-1
  0
POLYLINE
  8
LAYER-1
 66
  1
 70
  0
 62
  0
 10
2.999729
 20
5.698551
 30
0.000000
  0
VERTEX
  8
LAYER-1
 10
2.999729
 20
5.698551
 30
0.000000
  0
VERTEX
  8
LAYER-1
 10
3.035323
 20
5.698551
 30
0.000000
  0
SEQEND
  8
LAYER-1
  0
POLYLINE
  8
LAYER-1
 66
  1
 70
  1
 62
  0
  0
VERTEX
  8
LAYER-1
 10
3.637657
 20
7.422785
 30
0.000000
  0
VERTEX
  8
LAYER-1
 10
3.692534
 20
7.422785
 30
0.000000
  0
VERTEX
  8
LAYER-1
 10
3.692534
 20
7.416925
 30
0.000000
  0
VERTEX
  8
LAYER-1
 10
3.637657
 20
7.416925
 30
0.000000
  0
SEQEND
  8
LAYER-1
  0
POLYLINE
  8
LAYER-1
 66
  1
 70
  0
 62
  0
 10
3.648040
 20
7.349542
 30
0.000000
  0
VERTEX
  8
LAYER-1
 10
3.648040
 20
7.349542
 30
0.000000
  0
VERTEX
  8
LAYER-1
 10
3.683634
 20
7.349542
 30
0.000000
  0
SEQEND
  8
LAYER-1
  0
POLYLINE
  8
LAYER-1
 66
  1
 70
  0
 62
  0
 10
3.648040
 20
7.220635
 30
0.000000
  0
VERTEX
  8
LAYER-1
 10
3.648040
 20
7.220635
 30
0.000000
  0
VERTEX
  8
LAYER-1
 10
3.683634
 20
7.220635
 30
0.000000
  0
SEQEND
  8
LAYER-1
  0
POLYLINE
  8
LAYER-1
 66
  1
 70
  0
 62
  0
 10
3.648040
 20
7.416851
 30
0.000000
  0
VERTEX
  8
LAYER-1
 10
3.648040
 20
7.416851
 30
0.000000
  0
VERTEX
  8
LAYER-1
 10
3.648040
 20
0.350136
 30
0.000000
  0
SEQEND
  8
LAYER-1
  0
POLYLINE
  8
LAYER-1
 66
  1
 70
  0
 62
  0
 10
3.683634
 20
0.423376
 30
0.000000
  0
VERTEX
  8
LAYER-1
 10
3.683634
 20
0.423376
 30
0.000000
  0
VERTEX
  8
LAYER-1
 10
3.648040
 20
0.423376
 30
0.000000
  0
SEQEND
  8
LAYER-1
  0
POLYLINE
  8
LAYER-1
 66
  1
 70
  0
 62
  0
 10
3.683634
 20
0.552283
 30
0.000000
  0
VERTEX
  8
LAYER-1
 10
3.683634
 20
0.552283
 30
0.000000
  0
VERTEX
  8
LAYER-1
 10
3.648040
 20
0.552283
 30
0.000000
  0
SEQEND
  8
LAYER-1
  0
POLYLINE
  8
LAYER-1
 66
  1
 70
  0
 62
  0
 10
3.648040
 20
0.627265
 30
0.000000
  0
VERTEX
  8
LAYER-1
 10
3.648040
 20
0.627265
 30
0.000000
  0
VERTEX
  8
LAYER-1
 10
3.683636
 20
0.627265
 30
0.000000
  0
SEQEND
  8
LAYER-1
  0
POLYLINE
  8
LAYER-1
 66
  1
 70
  0
 62
  0
 10
3.648040
 20
1.473947
 30
0.000000
  0
VERTEX
  8
LAYER-1
 10
3.648040
 20
1.473947
 30
0.000000
  0
VERTEX
  8
LAYER-1
 10
3.683636
 20
1.473947
 30
0.000000
  0
SEQEND
  8
LAYER-1
  0
POLYLINE
  8
LAYER-1
 66
  1
 70
  0
 62
  0
 10
3.648040
 20
2.311835
 30
0.000000
  0
VERTEX
  8
LAYER-1
 10
3.648040
 20
2.311835
 30
0.000000
  0
VERTEX
  8
LAYER-1
 10
3.683636
 20
2.311835
 30
0.000000
  0
SEQEND
  8
LAYER-1
  0
POLYLINE
  8
LAYER-1
 66
  1
 70
  0
 62
  0
 10
3.648040
 20
3.161440
 30
0.000000
  0
VERTEX
  8
LAYER-1
 10
3.648040
 20
3.161440
 30
0.000000
  0
VERTEX
  8
LAYER-1
 10
3.683636
 20
3.161440
 30
0.000000
  0
SEQEND
  8
LAYER-1
  0
POLYLINE
  8
LAYER-1
 66
  1
 70
  0
 62
  0
 10
3.683636
 20
4.003724
 30
0.000000
  0
VERTEX
  8
LAYER-1
 10
3.683636
 20
4.003724
 30
0.000000
  0
VERTEX
  8
LAYER-1
 10
3.648040
 20
4.003724
 30
0.000000
  0
SEQEND
  8
LAYER-1
  0
POLYLINE
  8
LAYER-1
 66
  1
 70
  0
 62
  0
 10
3.647862
 20
4.854725
 30
0.000000
  0
VERTEX
  8
LAYER-1
 10
3.647862
 20
4.854725
 30
0.000000
  0
VERTEX
  8
LAYER-1
 10
3.683457
 20
4.854725
 30
0.000000
  0
SEQEND
  8
LAYER-1
  0
POLYLINE
  8
LAYER-1
 66
  1
 70
  0
 62
  0
 10
3.647862
 20
5.698475
 30
0.000000
  0
VERTEX
  8
LAYER-1
 10
3.647862
 20
5.698475
 30
0.000000
  0
VERTEX
  8
LAYER-1
 10
3.683457
 20
5.698475
 30
0.000000
  0
SEQEND
  8
LAYER-1
  0
POLYLINE
  8
LAYER-1
 66
  1
 70
  1
 62
  0
  0
VERTEX
  8
LAYER-1
 10
3.636176
 20
0.350136
 30
0.000000
  0
VERTEX
  8
LAYER-1
 10
3.691051
 20
0.350136
 30
0.000000
  0
VERTEX
  8
LAYER-1
 10
3.691051
 20
0.344276
 30
0.000000
  0
VERTEX
  8
LAYER-1
 10
3.636176
 20
0.344276
 30
0.000000
  0
SEQEND
  8
LAYER-1
  0
POLYLINE
  8
LAYER-1
 66
  1
 70
  1
 62
  0
  0
VERTEX
  8
LAYER-1
 10
3.682567
 20
7.416927
 30
0.000000
  0
VERTEX
  8
LAYER-1
 10
3.852240
 20
7.416927
 30
0.000000
  0
VERTEX
  8
LAYER-1
 10
3.852240
 20
0.349943
 30
0.000000
  0
VERTEX
  8
LAYER-1
 10
3.682567
 20
0.349943
 30
0.000000
  0
SEQEND
  8
LAYER-1
  0
POLYLINE
  8
LAYER-1
 66
  1
 70
  1
 62
  0
  0
VERTEX
  8
LAYER-1
 10
5.380062
 20
7.416926
 30
0.000000
  0
VERTEX
  8
LAYER-1
 10
5.704693
 20
7.416926
 30
0.000000
  0
VERTEX
  8
LAYER-1
 10
5.704693
 20
7.146927
 30
0.000000
  0
VERTEX
  8
LAYER-1
 10
5.380062
 20
7.146927
 30
0.000000
  0
SEQEND
  8
LAYER-1
  0
POLYLINE
  8
LAYER-1
 66
  1
 70
  1
 62
  0
  0
VERTEX
  8
LAYER-1
 10
4.969999
 20
7.416926
 30
0.000000
  0
VERTEX
  8
LAYER-1
 10
5.294631
 20
7.416926
 30
0.000000
  0
VERTEX
  8
LAYER-1
 10
5.294631
 20
7.146927
 30
0.000000
  0
VERTEX
  8
LAYER-1
 10
4.969999
 20
7.146927
 30
0.000000
  0
SEQEND
  8
LAYER-1
  0
POLYLINE
  8
LAYER-1
 66
  1
 70
  1
 62
  0
  0
VERTEX
  8
LAYER-1
 10
4.559937
 20
7.416926
 30
0.000000
  0
VERTEX
  8
LAYER-1
 10
4.884569
 20
7.416926
 30
0.000000
  0
VERTEX
  8
LAYER-1
 10
4.884569
 20
7.146927
 30
0.000000
  0
VERTEX
  8
LAYER-1
 10
4.559937
 20
7.146927
 30
0.000000
  0
SEQEND
  8
LAYER-1
  0
POLYLINE
  8
LAYER-1
 66
  1
 70
  1
 62
  0
  0
VERTEX
  8
LAYER-1
 10
4.149875
 20
7.416926
 30
0.000000
  0
VERTEX
  8
LAYER-1
 10
4.474506
 20
7.416926
 30
0.000000
  0
VERTEX
  8
LAYER-1
 10
4.474506
 20
7.146927
 30
0.000000
  0
VERTEX
  8
LAYER-1
 10
4.149875
 20
7.146927
 30
0.000000
  0
SEQEND
  8
LAYER-1
  0
POLYLINE
  8
LAYER-1
 66
  1
 70
  0
 62
  0
 10
4.737678
 20
7.417001
 30
0.000000
  0
VERTEX
  8
LAYER-1
 10
4.737678
 20
7.417001
 30
0.000000
  0
VERTEX
  8
LAYER-1
 10
4.737678
 20
7.147470
 30
0.000000
  0
SEQEND
  8
LAYER-1
  0
POLYLINE
  8
LAYER-1
 66
  1
 70
  0
 62
  0
 10
4.700601
 20
7.417001
 30
0.000000
  0
VERTEX
  8
LAYER-1
 10
4.700601
 20
7.417001
 30
0.000000
  0
VERTEX
  8
LAYER-1
 10
4.700601
 20
7.147470
 30
0.000000
  0
SEQEND
  8
LAYER-1
  0
POLYLINE
  8
LAYER-1
 66
  1
 70
  0
 62
  0
 10
5.559345
 20
7.417001
 30
0.000000
  0
VERTEX
  8
LAYER-1
 10
5.559345
 20
7.417001
 30
0.000000
  0
VERTEX
  8
LAYER-1
 10
5.559345
 20
7.147470
 30
0.000000
  0
SEQEND
  8
LAYER-1
  0
POLYLINE
  8
LAYER-1
 66
  1
 70
  0
 62
  0
 10
5.520785
 20
7.417001
 30
0.000000
  0
VERTEX
  8
LAYER-1
 10
5.520785
 20
7.417001
 30
0.000000
  0
VERTEX
  8
LAYER-1
 10
5.520785
 20
7.147470
 30
0.000000
  0
SEQEND
  8
LAYER-1
  0
POLYLINE
  8
LAYER-1
 66
  1
 70
  1
 62
  0
  0
VERTEX
  8
LAYER-1
 10
5.308692
 20
7.422862
 30
0.000000
  0
VERTEX
  8
LAYER-1
 10
5.363567
 20
7.422862
 30
0.000000
  0
VERTEX
  8
LAYER-1
 10
5.363567
 20
7.417001
 30
0.000000
  0
VERTEX
  8
LAYER-1
 10
5.308692
 20
7.417001
 30
0.000000
  0
SEQEND
  8
LAYER-1
  0
POLYLINE
  8
LAYER-1
 66
  1
 70
  0
 62
  0
 10
5.354672
 20
7.349619
 30
0.000000
  0
VERTEX
  8
LAYER-1
 10
5.354672
 20
7.349619
 30
0.000000
  0
VERTEX
  8
LAYER-1
 10
5.319074
 20
7.349619
 30
0.000000
  0
SEQEND
  8
LAYER-1
  0
POLYLINE
  8
LAYER-1
 66
  1
 70
  0
 62
  0
 10
5.354672
 20
7.220713
 30
0.000000
  0
VERTEX
  8
LAYER-1
 10
5.354672
 20
7.220713
 30
0.000000
  0
VERTEX
  8
LAYER-1
 10
5.319074
 20
7.220713
 30
0.000000
  0
SEQEND
  8
LAYER-1
  0
POLYLINE
  8
LAYER-1
 66
  1
 70
  1
 62
  0
  0
VERTEX
  8
LAYER-1
 10
4.491474
 20
7.422862
 30
0.000000
  0
VERTEX
  8
LAYER-1
 10
4.546352
 20
7.422862
 30
0.000000
  0
VERTEX
  8
LAYER-1
 10
4.546352
 20
7.417001
 30
0.000000
  0
VERTEX
  8
LAYER-1
 10
4.491474
 20
7.417001
 30
0.000000
  0
SEQEND
  8
LAYER-1
  0
POLYLINE
  8
LAYER-1
 66
  1
 70
  0
 62
  0
 10
4.535967
 20
7.349619
 30
0.000000
  0
VERTEX
  8
LAYER-1
 10
4.535967
 20
7.349619
 30
0.000000
  0
VERTEX
  8
LAYER-1
 10
4.500376
 20
7.349619
 30
0.000000
  0
SEQEND
  8
LAYER-1
  0
POLYLINE
  8
LAYER-1
 66
  1
 70
  0
 62
  0
 10
4.535967
 20
7.220712
 30
0.000000
  0
VERTEX
  8
LAYER-1
 10
4.535967
 20
7.220712
 30
0.000000
  0
VERTEX
  8
LAYER-1
 10
4.500376
 20
7.220712
 30
0.000000
  0
SEQEND
  8
LAYER-1
  0
POLYLINE
  8
LAYER-1
 66
  1
 70
  0
 62
  0
 10
5.704693
 20
7.416926
 30
0.000000
  0
VERTEX
  8
LAYER-1
 10
5.704693
 20
7.416926
 30
0.000000
  0
VERTEX
  8
LAYER-1
 10
5.704693
 20
0.350136
 30
0.000000
  0
SEQEND
  8
LAYER-1
  0
POLYLINE
  8
LAYER-1
 66
  1
 70
  0
 62
  0
 10
5.380062
 20
7.416926
 30
0.000000
  0
VERTEX
  8
LAYER-1
 10
5.380062
 20
7.416926
 30
0.000000
  0
VERTEX
  8
LAYER-1
 10
5.380062
 20
0.350136
 30
0.000000
  0
SEQEND
  8
LAYER-1
  0
POLYLINE
  8
LAYER-1
 66
  1
 70
  0
 62
  0
 10
5.294631
 20
7.416926
 30
0.000000
  0
VERTEX
  8
LAYER-1
 10
5.294631
 20
7.416926
 30
0.000000
  0
VERTEX
  8
LAYER-1
 10
5.294631
 20
0.350136
 30
0.000000
  0
SEQEND
  8
LAYER-1
  0
POLYLINE
  8
LAYER-1
 66
  1
 70
  0
 62
  0
 10
5.354672
 20
7.416926
 30
0.000000
  0
VERTEX
  8
LAYER-1
 10
5.354672
 20
7.416926
 30
0.000000
  0
VERTEX
  8
LAYER-1
 10
5.354672
 20
0.350136
 30
0.000000
  0
SEQEND
  8
LAYER-1
  0
POLYLINE
  8
LAYER-1
 66
  1
 70
  0
 62
  0
 10
5.319074
 20
7.416926
 30
0.000000
  0
VERTEX
  8
LAYER-1
 10
5.319074
 20
7.416926
 30
0.000000
  0
VERTEX
  8
LAYER-1
 10
5.319074
 20
0.350136
 30
0.000000
  0
SEQEND
  8
LAYER-1
  0
POLYLINE
  8
LAYER-1
 66
  1
 70
  1
 62
  0
  0
VERTEX
  8
LAYER-1
 10
5.310176
 20
0.350211
 30
0.000000
  0
VERTEX
  8
LAYER-1
 10
5.365052
 20
0.350211
 30
0.000000
  0
VERTEX
  8
LAYER-1
 10
5.365052
 20
0.344352
 30
0.000000
  0
VERTEX
  8
LAYER-1
 10
5.310176
 20
0.344352
 30
0.000000
  0
SEQEND
  8
LAYER-1
  0
POLYLINE
  8
LAYER-1
 66
  1
 70
  0
 62
  0
 10
5.319074
 20
0.423453
 30
0.000000
  0
VERTEX
  8
LAYER-1
 10
5.319074
 20
0.423453
 30
0.000000
  0
VERTEX
  8
LAYER-1
 10
5.354672
 20
0.423453
 30
0.000000
  0
SEQEND
  8
LAYER-1
  0
POLYLINE
  8
LAYER-1
 66
  1
 70
  0
 62
  0
 10
5.319074
 20
0.552360
 30
0.000000
  0
VERTEX
  8
LAYER-1
 10
5.319074
 20
0.552360
 30
0.000000
  0
VERTEX
  8
LAYER-1
 10
5.354672
 20
0.552360
 30
0.000000
  0
SEQEND
  8
LAYER-1
  0
POLYLINE
  8
LAYER-1
 66
  1
 70
  0
 62
  0
 10
5.354672
 20
0.627344
 30
0.000000
  0
VERTEX
  8
LAYER-1
 10
5.354672
 20
0.627344
 30
0.000000
  0
VERTEX
  8
LAYER-1
 10
5.319074
 20
0.627344
 30
0.000000
  0
SEQEND
  8
LAYER-1
  0
POLYLINE
  8
LAYER-1
 66
  1
 70
  0
 62
  0
 10
5.354672
 20
1.474024
 30
0.000000
  0
VERTEX
  8
LAYER-1
 10
5.354672
 20
1.474024
 30
0.000000
  0
VERTEX
  8
LAYER-1
 10
5.319074
 20
1.474024
 30
0.000000
  0
SEQEND
  8
LAYER-1
  0
POLYLINE
  8
LAYER-1
 66
  1
 70
  0
 62
  0
 10
5.354672
 20
2.311913
 30
0.000000
  0
VERTEX
  8
LAYER-1
 10
5.354672
 20
2.311913
 30
0.000000
  0
VERTEX
  8
LAYER-1
 10
5.319074
 20
2.311913
 30
0.000000
  0
SEQEND
  8
LAYER-1
  0
POLYLINE
  8
LAYER-1
 66
  1
 70
  0
 62
  0
 10
5.354672
 20
3.161515
 30
0.000000
  0
VERTEX
  8
LAYER-1
 10
5.354672
 20
3.161515
 30
0.000000
  0
VERTEX
  8
LAYER-1
 10
5.319074
 20
3.161515
 30
0.000000
  0
SEQEND
  8
LAYER-1
  0
POLYLINE
  8
LAYER-1
 66
  1
 70
  0
 62
  0
 10
5.319074
 20
4.003801
 30
0.000000
  0
VERTEX
  8
LAYER-1
 10
5.319074
 20
4.003801
 30
0.000000
  0
VERTEX
  8
LAYER-1
 10
5.354672
 20
4.003801
 30
0.000000
  0
SEQEND
  8
LAYER-1
  0
POLYLINE
  8
LAYER-1
 66
  1
 70
  1
 62
  0
  0
VERTEX
  8
LAYER-1
 10
5.399165
 20
3.847927
 30
0.000000
  0
VERTEX
  8
LAYER-1
 10
5.686898
 20
3.847927
 30
0.000000
  0
VERTEX
  8
LAYER-1
 10
5.686898
 20
0.678856
 30
0.000000
  0
VERTEX
  8
LAYER-1
 10
5.399165
 20
0.678856
 30
0.000000
  0
SEQEND
  8
LAYER-1
  0
POLYLINE
  8
LAYER-1
 66
  1
 70
  1
 62
  0
  0
VERTEX
  8
LAYER-1
 10
4.989102
 20
3.847927
 30
0.000000
  0
VERTEX
  8
LAYER-1
 10
5.276835
 20
3.847927
 30
0.000000
  0
VERTEX
  8
LAYER-1
 10
5.276835
 20
0.678856
 30
0.000000
  0
VERTEX
  8
LAYER-1
 10
4.989102
 20
0.678856
 30
0.000000
  0
SEQEND
  8
LAYER-1
  0
POLYLINE
  8
LAYER-1
 66
  1
 70
  1
 62
  0
  0
VERTEX
  8
LAYER-1
 10
4.579040
 20
3.847927
 30
0.000000
  0
VERTEX
  8
LAYER-1
 10
4.866773
 20
3.847927
 30
0.000000
  0
VERTEX
  8
LAYER-1
 10
4.866773
 20
0.678856
 30
0.000000
  0
VERTEX
  8
LAYER-1
 10
4.579040
 20
0.678856
 30
0.000000
  0
SEQEND
  8
LAYER-1
  0
POLYLINE
  8
LAYER-1
 66
  1
 70
  1
 62
  0
  0
VERTEX
  8
LAYER-1
 10
4.168978
 20
3.847927
 30
0.000000
  0
VERTEX
  8
LAYER-1
 10
4.456711
 20
3.847927
 30
0.000000
  0
VERTEX
  8
LAYER-1
 10
4.456711
 20
0.678856
 30
0.000000
  0
VERTEX
  8
LAYER-1
 10
4.168978
 20
0.678856
 30
0.000000
  0
SEQEND
  8
LAYER-1
  0
LINE
  8
LAYER-1
 62
  0
 10
4.620621
 20
3.270665
 30
0.000000
 11
4.756710
 21
3.508402
 31
0.000000
  0
LINE
  8
LAYER-1
 62
  0
 10
4.677257
 20
3.238246
 30
0.000000
 11
4.813345
 21
3.475982
 31
0.000000
  0
LINE
  8
LAYER-1
 62
  0
 10
5.030683
 20
3.270665
 30
0.000000
 11
5.166772
 21
3.508402
 31
0.000000
  0
LINE
  8
LAYER-1
 62
  0
 10
5.087319
 20
3.238246
 30
0.000000
 11
5.223407
 21
3.475982
 31
0.000000
  0
LINE
  8
LAYER-1
 62
  0
 10
5.440745
 20
3.270665
 30
0.000000
 11
5.576834
 21
3.508402
 31
0.000000
  0
LINE
  8
LAYER-1
 62
  0
 10
5.497381
 20
3.238245
 30
0.000000
 11
5.633470
 21
3.475981
 31
0.000000
  0
LINE
  8
LAYER-1
 62
  0
 10
4.215719
 20
3.270668
 30
0.000000
 11
4.351807
 21
3.508403
 31
0.000000
  0
LINE
  8
LAYER-1
 62
  0
 10
4.272354
 20
3.238247
 30
0.000000
 11
4.408443
 21
3.475982
 31
0.000000
  0
LINE
  8
LAYER-1
 62
  0
 10
4.620260
 20
1.046817
 30
0.000000
 11
4.756348
 21
1.284552
 31
0.000000
  0
LINE
  8
LAYER-1
 62
  0
 10
4.676896
 20
1.014397
 30
0.000000
 11
4.812984
 21
1.252131
 31
0.000000
  0
LINE
  8
LAYER-1
 62
  0
 10
5.030321
 20
1.046817
 30
0.000000
 11
5.166410
 21
1.284552
 31
0.000000
  0
LINE
  8
LAYER-1
 62
  0
 10
5.086957
 20
1.014397
 30
0.000000
 11
5.223046
 21
1.252131
 31
0.000000
  0
LINE
  8
LAYER-1
 62
  0
 10
5.440385
 20
1.046817
 30
0.000000
 11
5.576476
 21
1.284552
 31
0.000000
  0
LINE
  8
LAYER-1
 62
  0
 10
5.497020
 20
1.014397
 30
0.000000
 11
5.633111
 21
1.252131
 31
0.000000
  0
LINE
  8
LAYER-1
 62
  0
 10
4.215360
 20
1.046817
 30
0.000000
 11
4.351446
 21
1.284552
 31
0.000000
  0
LINE
  8
LAYER-1
 62
  0
 10
4.271996
 20
1.014397
 30
0.000000
 11
4.408081
 21
1.252131
 31
0.000000
  0
POLYLINE
  8
LAYER-1
 66
  1
 70
  0
 62
  0
 10
4.969999
 20
7.416926
 30
0.000000
  0
VERTEX
  8
LAYER-1
 10
4.969999
 20
7.416926
 30
0.000000
  0
VERTEX
  8
LAYER-1
 10
4.969999
 20
0.350136
 30
0.000000
  0
SEQEND
  8
LAYER-1
  0
POLYLINE
  8
LAYER-1
 66
  1
 70
  0
 62
  0
 10
4.884569
 20
7.416926
 30
0.000000
  0
VERTEX
  8
LAYER-1
 10
4.884569
 20
7.416926
 30
0.000000
  0
VERTEX
  8
LAYER-1
 10
4.884569
 20
0.350136
 30
0.000000
  0
SEQEND
  8
LAYER-1
  0
POLYLINE
  8
LAYER-1
 66
  1
 70
  0
 62
  0
 10
4.559937
 20
7.416926
 30
0.000000
  0
VERTEX
  8
LAYER-1
 10
4.559937
 20
7.416926
 30
0.000000
  0
VERTEX
  8
LAYER-1
 10
4.559937
 20
0.350136
 30
0.000000
  0
SEQEND
  8
LAYER-1
  0
POLYLINE
  8
LAYER-1
 66
  1
 70
  0
 62
  0
 10
4.474506
 20
7.416926
 30
0.000000
  0
VERTEX
  8
LAYER-1
 10
4.474506
 20
7.416926
 30
0.000000
  0
VERTEX
  8
LAYER-1
 10
4.474506
 20
0.350136
 30
0.000000
  0
SEQEND
  8
LAYER-1
  0
POLYLINE
  8
LAYER-1
 66
  1
 70
  0
 62
  0
 10
4.149875
 20
7.416926
 30
0.000000
  0
VERTEX
  8
LAYER-1
 10
4.149875
 20
7.416926
 30
0.000000
  0
VERTEX
  8
LAYER-1
 10
4.149875
 20
0.350136
 30
0.000000
  0
SEQEND
  8
LAYER-1
  0
POLYLINE
  8
LAYER-1
 66
  1
 70
  0
 62
  0
 10
4.067292
 20
7.416926
 30
0.000000
  0
VERTEX
  8
LAYER-1
 10
4.067292
 20
7.416926
 30
0.000000
  0
VERTEX
  8
LAYER-1
 10
4.067292
 20
0.350136
 30
0.000000
  0
SEQEND
  8
LAYER-1
  0
POLYLINE
  8
LAYER-1
 66
  1
 70
  0
 62
  0
 10
5.740291
 20
7.416926
 30
0.000000
  0
VERTEX
  8
LAYER-1
 10
5.740291
 20
7.416926
 30
0.000000
  0
VERTEX
  8
LAYER-1
 10
5.740291
 20
0.350136
 30
0.000000
  0
SEQEND
  8
LAYER-1
  0
POLYLINE
  8
LAYER-1
 66
  1
 70
  0
 62
  0
 10
4.927524
 20
7.416926
 30
0.000000
  0
VERTEX
  8
LAYER-1
 10
4.927524
 20
7.416926
 30
0.000000
  0
VERTEX
  8
LAYER-1
 10
4.927524
 20
0.350136
 30
0.000000
  0
SEQEND
  8
LAYER-1
  0
POLYLINE
  8
LAYER-1
 66
  1
 70
  0
 62
  0
 10
4.535967
 20
7.416926
 30
0.000000
  0
VERTEX
  8
LAYER-1
 10
4.535967
 20
7.416926
 30
0.000000
  0
VERTEX
  8
LAYER-1
 10
4.535967
 20
0.350136
 30
0.000000
  0
SEQEND
  8
LAYER-1
  0
POLYLINE
  8
LAYER-1
 66
  1
 70
  0
 62
  0
 10
4.500376
 20
7.416926
 30
0.000000
  0
VERTEX
  8
LAYER-1
 10
4.500376
 20
7.416926
 30
0.000000
  0
VERTEX
  8
LAYER-1
 10
4.500376
 20
0.350136
 30
0.000000
  0
SEQEND
  8
LAYER-1
  0
POLYLINE
  8
LAYER-1
 66
  1
 70
  0
 62
  0
 10
4.108818
 20
7.416926
 30
0.000000
  0
VERTEX
  8
LAYER-1
 10
4.108818
 20
7.416926
 30
0.000000
  0
VERTEX
  8
LAYER-1
 10
4.108818
 20
0.350136
 30
0.000000
  0
SEQEND
  8
LAYER-1
  0
POLYLINE
  8
LAYER-1
 66
  1
 70
  1
 62
  0
  0
VERTEX
  8
LAYER-1
 10
4.492959
 20
0.350211
 30
0.000000
  0
VERTEX
  8
LAYER-1
 10
4.547837
 20
0.350211
 30
0.000000
  0
VERTEX
  8
LAYER-1
 10
4.547837
 20
0.344352
 30
0.000000
  0
VERTEX
  8
LAYER-1
 10
4.492959
 20
0.344352
 30
0.000000
  0
SEQEND
  8
LAYER-1
  0
POLYLINE
  8
LAYER-1
 66
  1
 70
  0
 62
  0
 10
4.500376
 20
0.423453
 30
0.000000
  0
VERTEX
  8
LAYER-1
 10
4.500376
 20
0.423453
 30
0.000000
  0
VERTEX
  8
LAYER-1
 10
4.535967
 20
0.423453
 30
0.000000
  0
SEQEND
  8
LAYER-1
  0
POLYLINE
  8
LAYER-1
 66
  1
 70
  0
 62
  0
 10
4.500376
 20
0.552360
 30
0.000000
  0
VERTEX
  8
LAYER-1
 10
4.500376
 20
0.552360
 30
0.000000
  0
VERTEX
  8
LAYER-1
 10
4.535967
 20
0.552360
 30
0.000000
  0
SEQEND
  8
LAYER-1
  0
POLYLINE
  8
LAYER-1
 66
  1
 70
  0
 62
  0
 10
4.535967
 20
0.627344
 30
0.000000
  0
VERTEX
  8
LAYER-1
 10
4.535967
 20
0.627344
 30
0.000000
  0
VERTEX
  8
LAYER-1
 10
4.500376
 20
0.627344
 30
0.000000
  0
SEQEND
  8
LAYER-1
  0
POLYLINE
  8
LAYER-1
 66
  1
 70
  0
 62
  0
 10
4.535967
 20
1.474024
 30
0.000000
  0
VERTEX
  8
LAYER-1
 10
4.535967
 20
1.474024
 30
0.000000
  0
VERTEX
  8
LAYER-1
 10
4.500376
 20
1.474024
 30
0.000000
  0
SEQEND
  8
LAYER-1
  0
POLYLINE
  8
LAYER-1
 66
  1
 70
  0
 62
  0
 10
4.535967
 20
2.311913
 30
0.000000
  0
VERTEX
  8
LAYER-1
 10
4.535967
 20
2.311913
 30
0.000000
  0
VERTEX
  8
LAYER-1
 10
4.500376
 20
2.311913
 30
0.000000
  0
SEQEND
  8
LAYER-1
  0
POLYLINE
  8
LAYER-1
 66
  1
 70
  0
 62
  0
 10
4.535967
 20
3.161515
 30
0.000000
  0
VERTEX
  8
LAYER-1
 10
4.535967
 20
3.161515
 30
0.000000
  0
VERTEX
  8
LAYER-1
 10
4.500376
 20
3.161515
 30
0.000000
  0
SEQEND
  8
LAYER-1
  0
POLYLINE
  8
LAYER-1
 66
  1
 70
  0
 62
  0
 10
4.500376
 20
4.003801
 30
0.000000
  0
VERTEX
  8
LAYER-1
 10
4.500376
 20
4.003801
 30
0.000000
  0
VERTEX
  8
LAYER-1
 10
4.535967
 20
4.003801
 30
0.000000
  0
SEQEND
  8
LAYER-1
  0
POLYLINE
  8
LAYER-1
 66
  1
 70
  0
 62
  0
 10
5.354019
 20
4.854802
 30
0.000000
  0
VERTEX
  8
LAYER-1
 10
5.354019
 20
4.854802
 30
0.000000
  0
VERTEX
  8
LAYER-1
 10
5.318424
 20
4.854802
 30
0.000000
  0
SEQEND
  8
LAYER-1
  0
POLYLINE
  8
LAYER-1
 66
  1
 70
  0
 62
  0
 10
5.354019
 20
5.698551
 30
0.000000
  0
VERTEX
  8
LAYER-1
 10
5.354019
 20
5.698551
 30
0.000000
  0
VERTEX
  8
LAYER-1
 10
5.318424
 20
5.698551
 30
0.000000
  0
SEQEND
  8
LAYER-1
  0
POLYLINE
  8
LAYER-1
 66
  1
 70
  0
 62
  0
 10
4.536144
 20
4.854802
 30
0.000000
  0
VERTEX
  8
LAYER-1
 10
4.536144
 20
4.854802
 30
0.000000
  0
VERTEX
  8
LAYER-1
 10
4.500553
 20
4.854802
 30
0.000000
  0
SEQEND
  8
LAYER-1
  0
POLYLINE
  8
LAYER-1
 66
  1
 70
  0
 62
  0
 10
4.536144
 20
5.698551
 30
0.000000
  0
VERTEX
  8
LAYER-1
 10
4.536144
 20
5.698551
 30
0.000000
  0
VERTEX
  8
LAYER-1
 10
4.500553
 20
5.698551
 30
0.000000
  0
SEQEND
  8
LAYER-1
  0
POLYLINE
  8
LAYER-1
 66
  1
 70
  1
 62
  0
  0
VERTEX
  8
LAYER-1
 10
3.843335
 20
7.422785
 30
0.000000
  0
VERTEX
  8
LAYER-1
 10
3.898213
 20
7.422785
 30
0.000000
  0
VERTEX
  8
LAYER-1
 10
3.898213
 20
7.416924
 30
0.000000
  0
VERTEX
  8
LAYER-1
 10
3.843335
 20
7.416924
 30
0.000000
  0
SEQEND
  8
LAYER-1
  0
POLYLINE
  8
LAYER-1
 66
  1
 70
  0
 62
  0
 10
3.887828
 20
7.349542
 30
0.000000
  0
VERTEX
  8
LAYER-1
 10
3.887828
 20
7.349542
 30
0.000000
  0
VERTEX
  8
LAYER-1
 10
3.852236
 20
7.349542
 30
0.000000
  0
SEQEND
  8
LAYER-1
  0
POLYLINE
  8
LAYER-1
 66
  1
 70
  0
 62
  0
 10
3.887828
 20
7.220635
 30
0.000000
  0
VERTEX
  8
LAYER-1
 10
3.887828
 20
7.220635
 30
0.000000
  0
VERTEX
  8
LAYER-1
 10
3.852236
 20
7.220635
 30
0.000000
  0
SEQEND
  8
LAYER-1
  0
POLYLINE
  8
LAYER-1
 66
  1
 70
  0
 62
  0
 10
3.887828
 20
7.416850
 30
0.000000
  0
VERTEX
  8
LAYER-1
 10
3.887828
 20
7.416850
 30
0.000000
  0
VERTEX
  8
LAYER-1
 10
3.887828
 20
0.350136
 30
0.000000
  0
SEQEND
  8
LAYER-1
  0
POLYLINE
  8
LAYER-1
 66
  1
 70
  0
 62
  0
 10
3.852236
 20
0.423376
 30
0.000000
  0
VERTEX
  8
LAYER-1
 10
3.852236
 20
0.423376
 30
0.000000
  0
VERTEX
  8
LAYER-1
 10
3.887828
 20
0.423376
 30
0.000000
  0
SEQEND
  8
LAYER-1
  0
POLYLINE
  8
LAYER-1
 66
  1
 70
  0
 62
  0
 10
3.852236
 20
0.552283
 30
0.000000
  0
VERTEX
  8
LAYER-1
 10
3.852236
 20
0.552283
 30
0.000000
  0
VERTEX
  8
LAYER-1
 10
3.887828
 20
0.552283
 30
0.000000
  0
SEQEND
  8
LAYER-1
  0
POLYLINE
  8
LAYER-1
 66
  1
 70
  0
 62
  0
 10
3.887828
 20
0.627265
 30
0.000000
  0
VERTEX
  8
LAYER-1
 10
3.887828
 20
0.627265
 30
0.000000
  0
VERTEX
  8
LAYER-1
 10
3.852233
 20
0.627265
 30
0.000000
  0
SEQEND
  8
LAYER-1
  0
POLYLINE
  8
LAYER-1
 66
  1
 70
  0
 62
  0
 10
3.887828
 20
1.473947
 30
0.000000
  0
VERTEX
  8
LAYER-1
 10
3.887828
 20
1.473947
 30
0.000000
  0
VERTEX
  8
LAYER-1
 10
3.852233
 20
1.473947
 30
0.000000
  0
SEQEND
  8
LAYER-1
  0
POLYLINE
  8
LAYER-1
 66
  1
 70
  0
 62
  0
 10
3.887828
 20
2.311835
 30
0.000000
  0
VERTEX
  8
LAYER-1
 10
3.887828
 20
2.311835
 30
0.000000
  0
VERTEX
  8
LAYER-1
 10
3.852233
 20
2.311835
 30
0.000000
  0
SEQEND
  8
LAYER-1
  0
POLYLINE
  8
LAYER-1
 66
  1
 70
  0
 62
  0
 10
3.887828
 20
3.161440
 30
0.000000
  0
VERTEX
  8
LAYER-1
 10
3.887828
 20
3.161440
 30
0.000000
  0
VERTEX
  8
LAYER-1
 10
3.852233
 20
3.161440
 30
0.000000
  0
SEQEND
  8
LAYER-1
  0
POLYLINE
  8
LAYER-1
 66
  1
 70
  0
 62
  0
 10
3.852233
 20
4.003724
 30
0.000000
  0
VERTEX
  8
LAYER-1
 10
3.852233
 20
4.003724
 30
0.000000
  0
VERTEX
  8
LAYER-1
 10
3.887828
 20
4.003724
 30
0.000000
  0
SEQEND
  8
LAYER-1
  0
POLYLINE
  8
LAYER-1
 66
  1
 70
  0
 62
  0
 10
3.888006
 20
4.854725
 30
0.000000
  0
VERTEX
  8
LAYER-1
 10
3.888006
 20
4.854725
 30
0.000000
  0
VERTEX
  8
LAYER-1
 10
3.852414
 20
4.854725
 30
0.000000
  0
SEQEND
  8
LAYER-1
  0
POLYLINE
  8
LAYER-1
 66
  1
 70
  0
 62
  0
 10
3.888006
 20
5.698475
 30
0.000000
  0
VERTEX
  8
LAYER-1
 10
3.888006
 20
5.698475
 30
0.000000
  0
VERTEX
  8
LAYER-1
 10
3.852414
 20
5.698475
 30
0.000000
  0
SEQEND
  8
LAYER-1
  0
POLYLINE
  8
LAYER-1
 66
  1
 70
  1
 62
  0
  0
VERTEX
  8
LAYER-1
 10
3.844819
 20
0.350136
 30
0.000000
  0
VERTEX
  8
LAYER-1
 10
3.899691
 20
0.350136
 30
0.000000
  0
VERTEX
  8
LAYER-1
 10
3.899691
 20
0.344276
 30
0.000000
  0
VERTEX
  8
LAYER-1
 10
3.844819
 20
0.344276
 30
0.000000
  0
SEQEND
  8
LAYER-1
  0
TEXT
  8
LAYER-1
 62
  7
 10
2.018189
 20
8.773670
 30
0.000000
 40
0.187500
  1
Elevazione modello Royal
 72
  5
 11
5.157078
 21
8.773670
 31
0.000000
  0
LINE
  8
LAYER-1
 62
  0
 10
6.768189
 20
7.482559
 30
0.000000
 11
0.771661
 21
7.482559
 31
0.000000
  0
LINE
  8
LAYER-1
 62
  0
 10
6.768189
 20
7.592558
 30
0.000000
 11
0.771661
 21
7.592558
 31
0.000000
  0
LINE
  8
LAYER-1
 62
  0
 10
1.331559
 20
7.484065
 30
0.000000
 11
1.331559
 21
7.594043
 31
0.000000
  0
LINE
  8
LAYER-1
 62
  0
 10
1.272190
 20
7.484065
 30
0.000000
 11
1.456559
 21
7.484065
 31
0.000000
  0
LINE
  8
LAYER-1
 62
  0
 10
1.272530
 20
7.594043
 30
0.000000
 11
1.456559
 21
7.594043
 31
0.000000
  0
LINE
  8
LAYER-1
 62
  0
 10
1.331559
 20
7.594043
 30
0.000000
 11
1.331559
 21
7.228529
 31
0.000000
  0
LINE
  8
LAYER-1
 62
  0
 10
1.302096
 20
7.513528
 30
0.000000
 11
1.361021
 21
7.454602
 31
0.000000
  0
LINE
  8
LAYER-1
 62
  0
 10
1.302096
 20
7.623506
 30
0.000000
 11
1.361021
 21
7.564580
 31
0.000000
  0
TEXT
  8
LAYER-1
 62
  0
 10
1.319698
 20
7.100113
 30
0.000000
 40
0.125000
  1
 
  0
TEXT
  8
LAYER-1
 62
  0
 10
1.073745
 20
6.857003
 30
0.000000
 40
0.125000
  1
1-
 72
  5
 11
1.295967
 21
6.857003
 31
0.000000
  0
TEXT
  8
LAYER-1
 62
  0
 10
1.295967
 20
6.857003
 30
0.000000
 40
0.104167
  1
9/16
 72
  5
 11
1.657078
 21
6.857003
 31
0.000000
  0
TEXT
  8
LAYER-1
 62
  0
 10
1.657078
 20
6.857003
 30
0.000000
 40
0.125000
  1
"
 72
  5
 11
1.782078
 21
6.857003
 31
0.000000
  0
TEXT
  8
LAYER-1
 62
  0
 10
1.073745
 20
6.662559
 30
0.000000
 40
0.125000
  1
40mm
 72
  5
 11
1.643189
 21
6.662559
 31
0.000000
  0
TEXT
  8
LAYER-1
 62
  0
 10
2.476523
 20
7.884781
 30
0.000000
 40
0.125000
  1
Montante
 72
  5
 11
3.240411
 21
7.884781
 31
0.000000
  0
TEXT
  8
LAYER-1
 62
  0
 10
2.476523
 20
7.690336
 30
0.000000
 40
0.125000
  1
intermedio #4
 72
  5
 11
3.601523
 21
7.690336
 31
0.000000
  0
POLYLINE
  8
LAYER-1
 66
  1
 70
  0
 62
  0
 10
3.519057
 20
7.749363
 30
0.000000
  0
VERTEX
  8
LAYER-1
 10
3.519057
 20
7.749363
 30
0.000000
  0
VERTEX
  8
LAYER-1
 10
3.760133
 20
7.434268
 30
0.000000
  0
SEQEND
  8
LAYER-1
  0
POLYLINE
  8
LAYER-1
 66
  1
 70
  1
 62
  0
  0
VERTEX
  8
LAYER-1
 10
3.772095
 20
7.418633
 30
0.000000
  0
VERTEX
  8
LAYER-1
 10
3.696805
 20
7.448469
 30
0.000000
  0
VERTEX
  8
LAYER-1
 10
3.729897
 20
7.473787
 30
0.000000
  0
VERTEX
  8
LAYER-1
 10
3.762989
 20
7.499106
 30
0.000000
  0
VERTEX
  8
LAYER-1
 10
3.772095
 20
7.418633
 30
0.000000
  0
SEQEND
  8
LAYER-1
  0
POLYLINE
  8
LAYER-1
 66
  1
 70
  0
 62
  0
 40
0.027778
 41
0.027778
 10
3.684575
 20
0.244166
 30
0.000000
  0
VERTEX
  8
LAYER-1
 10
3.684575
 20
0.244166
 30
0.000000
  0
VERTEX
  8
LAYER-1
 10
0.768189
 20
0.244166
 30
0.000000
  0
SEQEND
  8
LAYER-1
  0
POLYLINE
  8
LAYER-1
 66
  1
 70
  0
 62
  0
 40
0.027778
 41
0.027778
 10
3.778192
 20
0.244166
 30
0.000000
  0
VERTEX
  8
LAYER-1
 10
3.778192
 20
0.244166
 30
0.000000
  0
VERTEX
  8
LAYER-1
 10
6.761245
 20
0.244166
 30
0.000000
  0
SEQEND
  8
LAYER-1
  0
POLYLINE
  8
LAYER-1
 66
  1
 70
  1
 62
  0
  0
VERTEX
  8
LAYER-1
 10
0.031375
 20
3.544190
 30
0.000000
  0
VERTEX
  8
LAYER-1
 10
0.145716
 20
3.544190
 30
0.000000
  0
VERTEX
  8
LAYER-1
 10
0.145716
 20
3.440536
 30
0.000000
  0
VERTEX
  8
LAYER-1
 10
0.031375
 20
3.440536
 30
0.000000
  0
SEQEND
  8
LAYER-1
  0
POLYLINE
  8
LAYER-1
 66
  1
 70
  1
 62
  0
  0
VERTEX
  8
LAYER-1
 10
0.179704
 20
3.544190
 30
0.000000
  0
VERTEX
  8
LAYER-1
 10
0.294334
 20
3.544190
 30
0.000000
  0
VERTEX
  8
LAYER-1
 10
0.294334
 20
3.440536
 30
0.000000
  0
VERTEX
  8
LAYER-1
 10
0.179704
 20
3.440536
 30
0.000000
  0
SEQEND
  8
LAYER-1
  0
POLYLINE
  8
LAYER-1
 66
  1
 70
  1
 62
  0
  0
VERTEX
  8
LAYER-1
 10
0.328176
 20
3.544190
 30
0.000000
  0
VERTEX
  8
LAYER-1
 10
0.442515
 20
3.544190
 30
0.000000
  0
VERTEX
  8
LAYER-1
 10
0.442515
 20
3.440536
 30
0.000000
  0
VERTEX
  8
LAYER-1
 10
0.328176
 20
3.440536
 30
0.000000
  0
SEQEND
  8
LAYER-1
  0
POLYLINE
  8
LAYER-1
 66
  1
 70
  1
 62
  0
  0
VERTEX
  8
LAYER-1
 10
0.476503
 20
3.544190
 30
0.000000
  0
VERTEX
  8
LAYER-1
 10
0.590987
 20
3.544190
 30
0.000000
  0
VERTEX
  8
LAYER-1
 10
0.590987
 20
3.440536
 30
0.000000
  0
VERTEX
  8
LAYER-1
 10
0.476503
 20
3.440536
 30
0.000000
  0
SEQEND
  8
LAYER-1
  0
POLYLINE
  8
LAYER-1
 66
  1
 70
  1
 62
  0
  0
VERTEX
  8
LAYER-1
 10
0.624975
 20
3.544190
 30
0.000000
  0
VERTEX
  8
LAYER-1
 10
0.739314
 20
3.544190
 30
0.000000
  0
VERTEX
  8
LAYER-1
 10
0.739314
 20
3.440536
 30
0.000000
  0
VERTEX
  8
LAYER-1
 10
0.624975
 20
3.440536
 30
0.000000
  0
SEQEND
  8
LAYER-1
  0
POLYLINE
  8
LAYER-1
 66
  1
 70
  1
 62
  0
  0
VERTEX
  8
LAYER-1
 10
0.773447
 20
3.544190
 30
0.000000
  0
VERTEX
  8
LAYER-1
 10
0.887788
 20
3.544190
 30
0.000000
  0
VERTEX
  8
LAYER-1
 10
0.887788
 20
3.440536
 30
0.000000
  0
VERTEX
  8
LAYER-1
 10
0.773447
 20
3.440536
 30
0.000000
  0
SEQEND
  8
LAYER-1
  0
POLYLINE
  8
LAYER-1
 66
  1
 70
  1
 62
  0
  0
VERTEX
  8
LAYER-1
 10
0.921774
 20
3.544190
 30
0.000000
  0
VERTEX
  8
LAYER-1
 10
1.036261
 20
3.544190
 30
0.000000
  0
VERTEX
  8
LAYER-1
 10
1.036261
 20
3.440536
 30
0.000000
  0
VERTEX
  8
LAYER-1
 10
0.921774
 20
3.440536
 30
0.000000
  0
SEQEND
  8
LAYER-1
  0
POLYLINE
  8
LAYER-1
 66
  1
 70
  1
 62
  0
  0
VERTEX
  8
LAYER-1
 10
0.031297
 20
5.139373
 30
0.000000
  0
VERTEX
  8
LAYER-1
 10
0.145784
 20
5.139373
 30
0.000000
  0
VERTEX
  8
LAYER-1
 10
0.145784
 20
5.035719
 30
0.000000
  0
VERTEX
  8
LAYER-1
 10
0.031297
 20
5.035719
 30
0.000000
  0
SEQEND
  8
LAYER-1
  0
POLYLINE
  8
LAYER-1
 66
  1
 70
  1
 62
  0
  0
VERTEX
  8
LAYER-1
 10
0.179623
 20
5.139373
 30
0.000000
  0
VERTEX
  8
LAYER-1
 10
0.294257
 20
5.139373
 30
0.000000
  0
VERTEX
  8
LAYER-1
 10
0.294257
 20
5.035719
 30
0.000000
  0
VERTEX
  8
LAYER-1
 10
0.179623
 20
5.035719
 30
0.000000
  0
SEQEND
  8
LAYER-1
  0
POLYLINE
  8
LAYER-1
 66
  1
 70
  1
 62
  0
  0
VERTEX
  8
LAYER-1
 10
0.328096
 20
5.139373
 30
0.000000
  0
VERTEX
  8
LAYER-1
 10
0.442583
 20
5.139373
 30
0.000000
  0
VERTEX
  8
LAYER-1
 10
0.442583
 20
5.035719
 30
0.000000
  0
VERTEX
  8
LAYER-1
 10
0.328096
 20
5.035719
 30
0.000000
  0
SEQEND
  8
LAYER-1
  0
POLYLINE
  8
LAYER-1
 66
  1
 70
  1
 62
  0
  0
VERTEX
  8
LAYER-1
 10
0.476422
 20
5.139373
 30
0.000000
  0
VERTEX
  8
LAYER-1
 10
0.590910
 20
5.139373
 30
0.000000
  0
VERTEX
  8
LAYER-1
 10
0.590910
 20
5.035719
 30
0.000000
  0
VERTEX
  8
LAYER-1
 10
0.476422
 20
5.035719
 30
0.000000
  0
SEQEND
  8
LAYER-1
  0
POLYLINE
  8
LAYER-1
 66
  1
 70
  1
 62
  0
  0
VERTEX
  8
LAYER-1
 10
0.623452
 20
5.139373
 30
0.000000
  0
VERTEX
  8
LAYER-1
 10
0.739382
 20
5.139373
 30
0.000000
  0
VERTEX
  8
LAYER-1
 10
0.739382
 20
5.035719
 30
0.000000
  0
VERTEX
  8
LAYER-1
 10
0.623452
 20
5.035719
 30
0.000000
  0
SEQEND
  8
LAYER-1
  0
POLYLINE
  8
LAYER-1
 66
  1
 70
  1
 62
  0
  0
VERTEX
  8
LAYER-1
 10
0.773369
 20
5.139373
 30
0.000000
  0
VERTEX
  8
LAYER-1
 10
0.887854
 20
5.139373
 30
0.000000
  0
VERTEX
  8
LAYER-1
 10
0.887854
 20
5.035719
 30
0.000000
  0
VERTEX
  8
LAYER-1
 10
0.773369
 20
5.035719
 30
0.000000
  0
SEQEND
  8
LAYER-1
  0
POLYLINE
  8
LAYER-1
 66
  1
 70
  1
 62
  0
  0
VERTEX
  8
LAYER-1
 10
0.921047
 20
5.139373
 30
0.000000
  0
VERTEX
  8
LAYER-1
 10
1.036183
 20
5.139373
 30
0.000000
  0
VERTEX
  8
LAYER-1
 10
1.036183
 20
5.035719
 30
0.000000
  0
VERTEX
  8
LAYER-1
 10
0.921047
 20
5.035719
 30
0.000000
  0
SEQEND
  8
LAYER-1
  0
POLYLINE
  8
LAYER-1
 66
  1
 70
  1
 62
  0
  0
VERTEX
  8
LAYER-1
 10
0.294257
 20
5.139373
 30
0.000000
  0
VERTEX
  8
LAYER-1
 10
0.310707
 20
5.139373
 30
0.000000
  0
VERTEX
  8
LAYER-1
 10
0.310707
 20
3.440581
 30
0.000000
  0
VERTEX
  8
LAYER-1
 10
0.294257
 20
3.440581
 30
0.000000
  0
SEQEND
  8
LAYER-1
  0
POLYLINE
  8
LAYER-1
 66
  1
 70
  1
 62
  0
  0
VERTEX
  8
LAYER-1
 10
0.310707
 20
5.139373
 30
0.000000
  0
VERTEX
  8
LAYER-1
 10
0.328176
 20
5.139373
 30
0.000000
  0
VERTEX
  8
LAYER-1
 10
0.328176
 20
3.440536
 30
0.000000
  0
VERTEX
  8
LAYER-1
 10
0.310707
 20
3.440536
 30
0.000000
  0
SEQEND
  8
LAYER-1
  0
POLYLINE
  8
LAYER-1
 66
  1
 70
  1
 62
  0
  0
VERTEX
  8
LAYER-1
 10
0.442583
 20
5.139373
 30
0.000000
  0
VERTEX
  8
LAYER-1
 10
0.459116
 20
5.139373
 30
0.000000
  0
VERTEX
  8
LAYER-1
 10
0.459116
 20
3.440581
 30
0.000000
  0
VERTEX
  8
LAYER-1
 10
0.442583
 20
3.440581
 30
0.000000
  0
SEQEND
  8
LAYER-1
  0
POLYLINE
  8
LAYER-1
 66
  1
 70
  1
 62
  0
  0
VERTEX
  8
LAYER-1
 10
0.459116
 20
5.139373
 30
0.000000
  0
VERTEX
  8
LAYER-1
 10
0.476503
 20
5.139373
 30
0.000000
  0
VERTEX
  8
LAYER-1
 10
0.476503
 20
3.440536
 30
0.000000
  0
VERTEX
  8
LAYER-1
 10
0.459116
 20
3.440536
 30
0.000000
  0
SEQEND
  8
LAYER-1
  0
POLYLINE
  8
LAYER-1
 66
  1
 70
  1
 62
  0
  0
VERTEX
  8
LAYER-1
 10
0.590910
 20
5.139373
 30
0.000000
  0
VERTEX
  8
LAYER-1
 10
0.607526
 20
5.139373
 30
0.000000
  0
VERTEX
  8
LAYER-1
 10
0.607526
 20
3.440581
 30
0.000000
  0
VERTEX
  8
LAYER-1
 10
0.590910
 20
3.440581
 30
0.000000
  0
SEQEND
  8
LAYER-1
  0
POLYLINE
  8
LAYER-1
 66
  1
 70
  1
 62
  0
  0
VERTEX
  8
LAYER-1
 10
0.607526
 20
5.139373
 30
0.000000
  0
VERTEX
  8
LAYER-1
 10
0.624975
 20
5.139373
 30
0.000000
  0
VERTEX
  8
LAYER-1
 10
0.624975
 20
3.440536
 30
0.000000
  0
VERTEX
  8
LAYER-1
 10
0.607526
 20
3.440536
 30
0.000000
  0
SEQEND
  8
LAYER-1
  0
POLYLINE
  8
LAYER-1
 66
  1
 70
  1
 62
  0
  0
VERTEX
  8
LAYER-1
 10
0.739382
 20
5.139373
 30
0.000000
  0
VERTEX
  8
LAYER-1
 10
0.755934
 20
5.139373
 30
0.000000
  0
VERTEX
  8
LAYER-1
 10
0.755934
 20
3.440581
 30
0.000000
  0
VERTEX
  8
LAYER-1
 10
0.739382
 20
3.440581
 30
0.000000
  0
SEQEND
  8
LAYER-1
  0
POLYLINE
  8
LAYER-1
 66
  1
 70
  1
 62
  0
  0
VERTEX
  8
LAYER-1
 10
0.755934
 20
5.139373
 30
0.000000
  0
VERTEX
  8
LAYER-1
 10
0.773447
 20
5.139373
 30
0.000000
  0
VERTEX
  8
LAYER-1
 10
0.773447
 20
3.440536
 30
0.000000
  0
VERTEX
  8
LAYER-1
 10
0.755934
 20
3.440536
 30
0.000000
  0
SEQEND
  8
LAYER-1
  0
POLYLINE
  8
LAYER-1
 66
  1
 70
  1
 62
  0
  0
VERTEX
  8
LAYER-1
 10
0.887854
 20
5.139373
 30
0.000000
  0
VERTEX
  8
LAYER-1
 10
0.904344
 20
5.139373
 30
0.000000
  0
VERTEX
  8
LAYER-1
 10
0.904344
 20
3.440581
 30
0.000000
  0
VERTEX
  8
LAYER-1
 10
0.887854
 20
3.440581
 30
0.000000
  0
SEQEND
  8
LAYER-1
  0
POLYLINE
  8
LAYER-1
 66
  1
 70
  1
 62
  0
  0
VERTEX
  8
LAYER-1
 10
0.904344
 20
5.139373
 30
0.000000
  0
VERTEX
  8
LAYER-1
 10
0.921774
 20
5.139373
 30
0.000000
  0
VERTEX
  8
LAYER-1
 10
0.921774
 20
3.440536
 30
0.000000
  0
VERTEX
  8
LAYER-1
 10
0.904344
 20
3.440536
 30
0.000000
  0
SEQEND
  8
LAYER-1
  0
POLYLINE
  8
LAYER-1
 66
  1
 70
  1
 62
  0
  0
VERTEX
  8
LAYER-1
 10
0.145784
 20
5.139373
 30
0.000000
  0
VERTEX
  8
LAYER-1
 10
0.162300
 20
5.139373
 30
0.000000
  0
VERTEX
  8
LAYER-1
 10
0.162300
 20
3.440581
 30
0.000000
  0
VERTEX
  8
LAYER-1
 10
0.145784
 20
3.440581
 30
0.000000
  0
SEQEND
  8
LAYER-1
  0
POLYLINE
  8
LAYER-1
 66
  1
 70
  1
 62
  0
  0
VERTEX
  8
LAYER-1
 10
0.162300
 20
5.139373
 30
0.000000
  0
VERTEX
  8
LAYER-1
 10
0.179704
 20
5.139373
 30
0.000000
  0
VERTEX
  8
LAYER-1
 10
0.179704
 20
3.440536
 30
0.000000
  0
VERTEX
  8
LAYER-1
 10
0.162300
 20
3.440536
 30
0.000000
  0
SEQEND
  8
LAYER-1
  0
LINE
  8
LAYER-1
 62
  0
 10
0.049162
 20
4.385050
 30
0.000000
 11
0.111328
 21
4.517800
 31
0.000000
  0
LINE
  8
LAYER-1
 62
  0
 10
0.070970
 20
4.374838
 30
0.000000
 11
0.133135
 21
4.507587
 31
0.000000
  0
LINE
  8
LAYER-1
 62
  0
 10
0.049162
 20
4.834398
 30
0.000000
 11
0.111328
 21
4.967145
 31
0.000000
  0
LINE
  8
LAYER-1
 62
  0
 10
0.070970
 20
4.824185
 30
0.000000
 11
0.133135
 21
4.956932
 31
0.000000
  0
LINE
  8
LAYER-1
 62
  0
 10
0.197572
 20
4.385050
 30
0.000000
 11
0.259738
 21
4.517800
 31
0.000000
  0
LINE
  8
LAYER-1
 62
  0
 10
0.219380
 20
4.374838
 30
0.000000
 11
0.281545
 21
4.507587
 31
0.000000
  0
LINE
  8
LAYER-1
 62
  0
 10
0.197572
 20
4.834398
 30
0.000000
 11
0.259738
 21
4.967145
 31
0.000000
  0
LINE
  8
LAYER-1
 62
  0
 10
0.219380
 20
4.824185
 30
0.000000
 11
0.281545
 21
4.956932
 31
0.000000
  0
LINE
  8
LAYER-1
 62
  0
 10
0.345979
 20
4.385050
 30
0.000000
 11
0.408145
 21
4.517800
 31
0.000000
  0
LINE
  8
LAYER-1
 62
  0
 10
0.367786
 20
4.374838
 30
0.000000
 11
0.429953
 21
4.507587
 31
0.000000
  0
LINE
  8
LAYER-1
 62
  0
 10
0.345979
 20
4.834398
 30
0.000000
 11
0.408145
 21
4.967145
 31
0.000000
  0
LINE
  8
LAYER-1
 62
  0
 10
0.367786
 20
4.824185
 30
0.000000
 11
0.429953
 21
4.956932
 31
0.000000
  0
LINE
  8
LAYER-1
 62
  0
 10
0.494388
 20
4.385050
 30
0.000000
 11
0.556554
 21
4.517800
 31
0.000000
  0
LINE
  8
LAYER-1
 62
  0
 10
0.516196
 20
4.374838
 30
0.000000
 11
0.578361
 21
4.507587
 31
0.000000
  0
LINE
  8
LAYER-1
 62
  0
 10
0.494388
 20
4.834398
 30
0.000000
 11
0.556554
 21
4.967145
 31
0.000000
  0
LINE
  8
LAYER-1
 62
  0
 10
0.516196
 20
4.824185
 30
0.000000
 11
0.578361
 21
4.956932
 31
0.000000
  0
LINE
  8
LAYER-1
 62
  0
 10
0.642797
 20
4.385050
 30
0.000000
 11
0.704964
 21
4.517800
 31
0.000000
  0
LINE
  8
LAYER-1
 62
  0
 10
0.664605
 20
4.374838
 30
0.000000
 11
0.726771
 21
4.507587
 31
0.000000
  0
LINE
  8
LAYER-1
 62
  0
 10
0.642797
 20
4.834398
 30
0.000000
 11
0.704964
 21
4.967145
 31
0.000000
  0
LINE
  8
LAYER-1
 62
  0
 10
0.664605
 20
4.824185
 30
0.000000
 11
0.726771
 21
4.956932
 31
0.000000
  0
LINE
  8
LAYER-1
 62
  0
 10
0.791207
 20
4.385050
 30
0.000000
 11
0.853372
 21
4.517800
 31
0.000000
  0
LINE
  8
LAYER-1
 62
  0
 10
0.813014
 20
4.374838
 30
0.000000
 11
0.875180
 21
4.507587
 31
0.000000
  0
LINE
  8
LAYER-1
 62
  0
 10
0.791207
 20
4.834398
 30
0.000000
 11
0.853372
 21
4.967145
 31
0.000000
  0
LINE
  8
LAYER-1
 62
  0
 10
0.813014
 20
4.824185
 30
0.000000
 11
0.875180
 21
4.956932
 31
0.000000
  0
LINE
  8
LAYER-1
 62
  0
 10
0.939615
 20
4.385050
 30
0.000000
 11
1.001780
 21
4.517800
 31
0.000000
  0
LINE
  8
LAYER-1
 62
  0
 10
0.961422
 20
4.374838
 30
0.000000
 11
1.023587
 21
4.507587
 31
0.000000
  0
LINE
  8
LAYER-1
 62
  0
 10
0.939615
 20
4.834398
 30
0.000000
 11
1.001780
 21
4.967145
 31
0.000000
  0
LINE
  8
LAYER-1
 62
  0
 10
0.961422
 20
4.824185
 30
0.000000
 11
1.023587
 21
4.956932
 31
0.000000
  0
LINE
  8
LAYER-1
 62
  0
 10
0.049162
 20
4.059169
 30
0.000000
 11
0.111328
 21
4.191917
 31
0.000000
  0
LINE
  8
LAYER-1
 62
  0
 10
0.070970
 20
4.048957
 30
0.000000
 11
0.133135
 21
4.181705
 31
0.000000
  0
LINE
  8
LAYER-1
 62
  0
 10
0.046770
 20
3.624132
 30
0.000000
 11
0.108938
 21
3.756882
 31
0.000000
  0
LINE
  8
LAYER-1
 62
  0
 10
0.068577
 20
3.613920
 30
0.000000
 11
0.130745
 21
3.746669
 31
0.000000
  0
LINE
  8
LAYER-1
 62
  0
 10
0.197572
 20
4.059169
 30
0.000000
 11
0.259738
 21
4.191917
 31
0.000000
  0
LINE
  8
LAYER-1
 62
  0
 10
0.219380
 20
4.048957
 30
0.000000
 11
0.281545
 21
4.181705
 31
0.000000
  0
LINE
  8
LAYER-1
 62
  0
 10
0.195181
 20
3.624132
 30
0.000000
 11
0.257345
 21
3.756882
 31
0.000000
  0
LINE
  8
LAYER-1
 62
  0
 10
0.216988
 20
3.613920
 30
0.000000
 11
0.279153
 21
3.746669
 31
0.000000
  0
LINE
  8
LAYER-1
 62
  0
 10
0.345979
 20
4.059169
 30
0.000000
 11
0.408145
 21
4.191917
 31
0.000000
  0
LINE
  8
LAYER-1
 62
  0
 10
0.367786
 20
4.048957
 30
0.000000
 11
0.429953
 21
4.181705
 31
0.000000
  0
LINE
  8
LAYER-1
 62
  0
 10
0.343588
 20
3.624132
 30
0.000000
 11
0.405756
 21
3.756882
 31
0.000000
  0
LINE
  8
LAYER-1
 62
  0
 10
0.365396
 20
3.613920
 30
0.000000
 11
0.427563
 21
3.746669
 31
0.000000
  0
LINE
  8
LAYER-1
 62
  0
 10
0.494388
 20
4.059169
 30
0.000000
 11
0.556554
 21
4.191917
 31
0.000000
  0
LINE
  8
LAYER-1
 62
  0
 10
0.516196
 20
4.048957
 30
0.000000
 11
0.578361
 21
4.181705
 31
0.000000
  0
LINE
  8
LAYER-1
 62
  0
 10
0.491998
 20
3.624132
 30
0.000000
 11
0.554164
 21
3.756882
 31
0.000000
  0
LINE
  8
LAYER-1
 62
  0
 10
0.513805
 20
3.613920
 30
0.000000
 11
0.575971
 21
3.746669
 31
0.000000
  0
LINE
  8
LAYER-1
 62
  0
 10
0.642797
 20
4.059169
 30
0.000000
 11
0.704964
 21
4.191917
 31
0.000000
  0
LINE
  8
LAYER-1
 62
  0
 10
0.664605
 20
4.048957
 30
0.000000
 11
0.726771
 21
4.181705
 31
0.000000
  0
LINE
  8
LAYER-1
 62
  0
 10
0.640407
 20
3.624132
 30
0.000000
 11
0.702572
 21
3.756882
 31
0.000000
  0
LINE
  8
LAYER-1
 62
  0
 10
0.662214
 20
3.613920
 30
0.000000
 11
0.724380
 21
3.746669
 31
0.000000
  0
LINE
  8
LAYER-1
 62
  0
 10
0.791207
 20
4.059169
 30
0.000000
 11
0.853372
 21
4.191917
 31
0.000000
  0
LINE
  8
LAYER-1
 62
  0
 10
0.813014
 20
4.048957
 30
0.000000
 11
0.875180
 21
4.181705
 31
0.000000
  0
LINE
  8
LAYER-1
 62
  0
 10
0.788814
 20
3.624132
 30
0.000000
 11
0.850980
 21
3.756882
 31
0.000000
  0
LINE
  8
LAYER-1
 62
  0
 10
0.810622
 20
3.613920
 30
0.000000
 11
0.872787
 21
3.746669
 31
0.000000
  0
LINE
  8
LAYER-1
 62
  0
 10
0.939615
 20
4.059169
 30
0.000000
 11
1.001780
 21
4.191917
 31
0.000000
  0
LINE
  8
LAYER-1
 62
  0
 10
0.961422
 20
4.048957
 30
0.000000
 11
1.023587
 21
4.181705
 31
0.000000
  0
LINE
  8
LAYER-1
 62
  0
 10
0.937225
 20
3.624132
 30
0.000000
 11
0.999390
 21
3.756882
 31
0.000000
  0
LINE
  8
LAYER-1
 62
  0
 10
0.959032
 20
3.613920
 30
0.000000
 11
1.021198
 21
3.746669
 31
0.000000
  0
TEXT
  8
LAYER-1
 62
  0
 10
0.240411
 20
3.232003
 30
0.000000
 40
0.104167
  1
ROYAL
 72
  5
 11
0.795967
 21
3.232003
 31
0.000000
  0
TEXT
  8
LAYER-1
 62
  0
 10
0.795967
 20
3.232003
 30
0.000000
 40
0.104167
  1
 
 72
  5
 11
0.907078
 21
3.232003
 31
0.000000
  0
TEXT
  8
LAYER-1
 62
  0
 10
0.087634
 20
3.148670
 30
0.000000
 40
0.083333
  1
(Vetro Temprato)
 72
  5
 11
0.976523
 21
3.148670
 31
0.000000
  0
POLYLINE
  8
LAYER-1
 66
  1
 70
  1
 62
  0
  0
VERTEX
  8
LAYER-1
 10
0.013889
 20
5.139373
 30
0.000000
  0
VERTEX
  8
LAYER-1
 10
0.031375
 20
5.139373
 30
0.000000
  0
VERTEX
  8
LAYER-1
 10
0.031375
 20
3.440536
 30
0.000000
  0
VERTEX
  8
LAYER-1
 10
0.013889
 20
3.440536
 30
0.000000
  0
SEQEND
  8
LAYER-1
  0
POLYLINE
  8
LAYER-1
 66
  1
 70
  1
 62
  0
  0
VERTEX
  8
LAYER-1
 10
1.036183
 20
5.139373
 30
0.000000
  0
VERTEX
  8
LAYER-1
 10
1.053577
 20
5.139373
 30
0.000000
  0
VERTEX
  8
LAYER-1
 10
1.053577
 20
3.440581
 30
0.000000
  0
VERTEX
  8
LAYER-1
 10
1.036183
 20
3.440581
 30
0.000000
  0
SEQEND
  8
LAYER-1
  0
POLYLINE
  8
LAYER-1
 66
  1
 70
  1
 62
  0
  0
VERTEX
  8
LAYER-1
 10
0.031297
 20
4.301448
 30
0.000000
  0
VERTEX
  8
LAYER-1
 10
0.145564
 20
4.301448
 30
0.000000
  0
VERTEX
  8
LAYER-1
 10
0.145564
 20
4.276666
 30
0.000000
  0
VERTEX
  8
LAYER-1
 10
0.031297
 20
4.276666
 30
0.000000
  0
SEQEND
  8
LAYER-1
  0
POLYLINE
  8
LAYER-1
 66
  1
 70
  1
 62
  0
  0
VERTEX
  8
LAYER-1
 10
0.179705
 20
4.301448
 30
0.000000
  0
VERTEX
  8
LAYER-1
 10
0.294769
 20
4.301448
 30
0.000000
  0
VERTEX
  8
LAYER-1
 10
0.294769
 20
4.276666
 30
0.000000
  0
VERTEX
  8
LAYER-1
 10
0.179705
 20
4.276666
 30
0.000000
  0
SEQEND
  8
LAYER-1
  0
POLYLINE
  8
LAYER-1
 66
  1
 70
  1
 62
  0
  0
VERTEX
  8
LAYER-1
 10
0.328115
 20
4.301448
 30
0.000000
  0
VERTEX
  8
LAYER-1
 10
0.442383
 20
4.301448
 30
0.000000
  0
VERTEX
  8
LAYER-1
 10
0.442383
 20
4.276666
 30
0.000000
  0
VERTEX
  8
LAYER-1
 10
0.328115
 20
4.276666
 30
0.000000
  0
SEQEND
  8
LAYER-1
  0
POLYLINE
  8
LAYER-1
 66
  1
 70
  1
 62
  0
  0
VERTEX
  8
LAYER-1
 10
0.476523
 20
4.301448
 30
0.000000
  0
VERTEX
  8
LAYER-1
 10
0.590791
 20
4.301448
 30
0.000000
  0
VERTEX
  8
LAYER-1
 10
0.590791
 20
4.276666
 30
0.000000
  0
VERTEX
  8
LAYER-1
 10
0.476523
 20
4.276666
 30
0.000000
  0
SEQEND
  8
LAYER-1
  0
POLYLINE
  8
LAYER-1
 66
  1
 70
  1
 62
  0
  0
VERTEX
  8
LAYER-1
 10
0.624934
 20
4.301448
 30
0.000000
  0
VERTEX
  8
LAYER-1
 10
0.739201
 20
4.301448
 30
0.000000
  0
VERTEX
  8
LAYER-1
 10
0.739201
 20
4.276666
 30
0.000000
  0
VERTEX
  8
LAYER-1
 10
0.624934
 20
4.276666
 30
0.000000
  0
SEQEND
  8
LAYER-1
  0
POLYLINE
  8
LAYER-1
 66
  1
 70
  1
 62
  0
  0
VERTEX
  8
LAYER-1
 10
0.773341
 20
4.301448
 30
0.000000
  0
VERTEX
  8
LAYER-1
 10
0.888406
 20
4.301448
 30
0.000000
  0
VERTEX
  8
LAYER-1
 10
0.888406
 20
4.276666
 30
0.000000
  0
VERTEX
  8
LAYER-1
 10
0.773341
 20
4.276666
 30
0.000000
  0
SEQEND
  8
LAYER-1
  0
POLYLINE
  8
LAYER-1
 66
  1
 70
  1
 62
  0
  0
VERTEX
  8
LAYER-1
 10
0.921750
 20
4.301448
 30
0.000000
  0
VERTEX
  8
LAYER-1
 10
1.036017
 20
4.301448
 30
0.000000
  0
VERTEX
  8
LAYER-1
 10
1.036017
 20
4.276666
 30
0.000000
  0
VERTEX
  8
LAYER-1
 10
0.921750
 20
4.276666
 30
0.000000
  0
SEQEND
  8
LAYER-1
  0
POLYLINE
  8
LAYER-1
 66
  1
 70
  0
 62
  7
 10
0.031375
 20
5.139373
 30
0.000000
  0
VERTEX
  8
LAYER-1
 10
0.031375
 20
5.139373
 30
0.000000
  0
VERTEX
  8
LAYER-1
 10
0.031375
 20
5.035719
 30
0.000000
  0
SEQEND
  8
LAYER-1
  0
POLYLINE
  8
LAYER-1
 66
  1
 70
  0
 62
  7
 10
0.145784
 20
5.139373
 30
0.000000
  0
VERTEX
  8
LAYER-1
 10
0.145784
 20
5.139373
 30
0.000000
  0
VERTEX
  8
LAYER-1
 10
0.145784
 20
5.035719
 30
0.000000
  0
SEQEND
  8
LAYER-1
  0
POLYLINE
  8
LAYER-1
 66
  1
 70
  0
 62
  7
 10
0.179704
 20
5.139373
 30
0.000000
  0
VERTEX
  8
LAYER-1
 10
0.179704
 20
5.139373
 30
0.000000
  0
VERTEX
  8
LAYER-1
 10
0.179704
 20
5.035719
 30
0.000000
  0
SEQEND
  8
LAYER-1
  0
POLYLINE
  8
LAYER-1
 66
  1
 70
  0
 62
  7
 10
0.294257
 20
5.139373
 30
0.000000
  0
VERTEX
  8
LAYER-1
 10
0.294257
 20
5.139373
 30
0.000000
  0
VERTEX
  8
LAYER-1
 10
0.294257
 20
5.035719
 30
0.000000
  0
SEQEND
  8
LAYER-1
  0
POLYLINE
  8
LAYER-1
 66
  1
 70
  0
 62
  7
 10
0.328176
 20
5.139373
 30
0.000000
  0
VERTEX
  8
LAYER-1
 10
0.328176
 20
5.139373
 30
0.000000
  0
VERTEX
  8
LAYER-1
 10
0.328176
 20
5.035719
 30
0.000000
  0
SEQEND
  8
LAYER-1
  0
POLYLINE
  8
LAYER-1
 66
  1
 70
  0
 62
  7
 10
0.442583
 20
5.139373
 30
0.000000
  0
VERTEX
  8
LAYER-1
 10
0.442583
 20
5.139373
 30
0.000000
  0
VERTEX
  8
LAYER-1
 10
0.442583
 20
5.035719
 30
0.000000
  0
SEQEND
  8
LAYER-1
  0
POLYLINE
  8
LAYER-1
 66
  1
 70
  0
 62
  7
 10
0.476503
 20
5.139373
 30
0.000000
  0
VERTEX
  8
LAYER-1
 10
0.476503
 20
5.139373
 30
0.000000
  0
VERTEX
  8
LAYER-1
 10
0.476503
 20
5.035719
 30
0.000000
  0
SEQEND
  8
LAYER-1
  0
POLYLINE
  8
LAYER-1
 66
  1
 70
  0
 62
  7
 10
0.590910
 20
5.139373
 30
0.000000
  0
VERTEX
  8
LAYER-1
 10
0.590910
 20
5.139373
 30
0.000000
  0
VERTEX
  8
LAYER-1
 10
0.590910
 20
5.035719
 30
0.000000
  0
SEQEND
  8
LAYER-1
  0
POLYLINE
  8
LAYER-1
 66
  1
 70
  0
 62
  7
 10
0.624975
 20
5.139373
 30
0.000000
  0
VERTEX
  8
LAYER-1
 10
0.624975
 20
5.139373
 30
0.000000
  0
VERTEX
  8
LAYER-1
 10
0.624975
 20
5.035719
 30
0.000000
  0
SEQEND
  8
LAYER-1
  0
POLYLINE
  8
LAYER-1
 66
  1
 70
  0
 62
  7
 10
0.739382
 20
5.139373
 30
0.000000
  0
VERTEX
  8
LAYER-1
 10
0.739382
 20
5.139373
 30
0.000000
  0
VERTEX
  8
LAYER-1
 10
0.739382
 20
5.035719
 30
0.000000
  0
SEQEND
  8
LAYER-1
  0
POLYLINE
  8
LAYER-1
 66
  1
 70
  0
 62
  7
 10
0.773447
 20
5.139373
 30
0.000000
  0
VERTEX
  8
LAYER-1
 10
0.773447
 20
5.139373
 30
0.000000
  0
VERTEX
  8
LAYER-1
 10
0.773447
 20
5.035719
 30
0.000000
  0
SEQEND
  8
LAYER-1
  0
POLYLINE
  8
LAYER-1
 66
  1
 70
  0
 62
  7
 10
0.887854
 20
5.139373
 30
0.000000
  0
VERTEX
  8
LAYER-1
 10
0.887854
 20
5.139373
 30
0.000000
  0
VERTEX
  8
LAYER-1
 10
0.887854
 20
5.035719
 30
0.000000
  0
SEQEND
  8
LAYER-1
  0
POLYLINE
  8
LAYER-1
 66
  1
 70
  0
 62
  7
 10
0.921047
 20
5.139373
 30
0.000000
  0
VERTEX
  8
LAYER-1
 10
0.921047
 20
5.139373
 30
0.000000
  0
VERTEX
  8
LAYER-1
 10
0.921047
 20
5.035719
 30
0.000000
  0
SEQEND
  8
LAYER-1
  0
POLYLINE
  8
LAYER-1
 66
  1
 70
  0
 62
  7
 10
1.036183
 20
5.139373
 30
0.000000
  0
VERTEX
  8
LAYER-1
 10
1.036183
 20
5.139373
 30
0.000000
  0
VERTEX
  8
LAYER-1
 10
1.036183
 20
5.035719
 30
0.000000
  0
SEQEND
  8
LAYER-1
  0
POLYLINE
  8
LAYER-1
 66
  1
 70
  0
 62
  7
 10
0.031297
 20
4.301448
 30
0.000000
  0
VERTEX
  8
LAYER-1
 10
0.031297
 20
4.301448
 30
0.000000
  0
VERTEX
  8
LAYER-1
 10
0.031297
 20
4.276666
 30
0.000000
  0
SEQEND
  8
LAYER-1
  0
POLYLINE
  8
LAYER-1
 66
  1
 70
  0
 62
  7
 10
0.145564
 20
4.301448
 30
0.000000
  0
VERTEX
  8
LAYER-1
 10
0.145564
 20
4.301448
 30
0.000000
  0
VERTEX
  8
LAYER-1
 10
0.145564
 20
4.276666
 30
0.000000
  0
SEQEND
  8
LAYER-1
  0
POLYLINE
  8
LAYER-1
 66
  1
 70
  0
 62
  7
 10
0.179705
 20
4.301448
 30
0.000000
  0
VERTEX
  8
LAYER-1
 10
0.179705
 20
4.301448
 30
0.000000
  0
VERTEX
  8
LAYER-1
 10
0.179705
 20
4.276666
 30
0.000000
  0
SEQEND
  8
LAYER-1
  0
POLYLINE
  8
LAYER-1
 66
  1
 70
  0
 62
  7
 10
0.294769
 20
4.301448
 30
0.000000
  0
VERTEX
  8
LAYER-1
 10
0.294769
 20
4.301448
 30
0.000000
  0
VERTEX
  8
LAYER-1
 10
0.294769
 20
4.276666
 30
0.000000
  0
SEQEND
  8
LAYER-1
  0
POLYLINE
  8
LAYER-1
 66
  1
 70
  0
 62
  7
 10
0.328115
 20
4.301448
 30
0.000000
  0
VERTEX
  8
LAYER-1
 10
0.328115
 20
4.301448
 30
0.000000
  0
VERTEX
  8
LAYER-1
 10
0.328115
 20
4.276666
 30
0.000000
  0
SEQEND
  8
LAYER-1
  0
POLYLINE
  8
LAYER-1
 66
  1
 70
  0
 62
  7
 10
0.442383
 20
4.301448
 30
0.000000
  0
VERTEX
  8
LAYER-1
 10
0.442383
 20
4.301448
 30
0.000000
  0
VERTEX
  8
LAYER-1
 10
0.442383
 20
4.276666
 30
0.000000
  0
SEQEND
  8
LAYER-1
  0
POLYLINE
  8
LAYER-1
 66
  1
 70
  0
 62
  7
 10
0.476523
 20
4.301448
 30
0.000000
  0
VERTEX
  8
LAYER-1
 10
0.476523
 20
4.301448
 30
0.000000
  0
VERTEX
  8
LAYER-1
 10
0.476523
 20
4.276666
 30
0.000000
  0
SEQEND
  8
LAYER-1
  0
POLYLINE
  8
LAYER-1
 66
  1
 70
  0
 62
  7
 10
0.590791
 20
4.301448
 30
0.000000
  0
VERTEX
  8
LAYER-1
 10
0.590791
 20
4.301448
 30
0.000000
  0
VERTEX
  8
LAYER-1
 10
0.590791
 20
4.276666
 30
0.000000
  0
SEQEND
  8
LAYER-1
  0
POLYLINE
  8
LAYER-1
 66
  1
 70
  0
 62
  7
 10
0.624934
 20
4.301448
 30
0.000000
  0
VERTEX
  8
LAYER-1
 10
0.624934
 20
4.301448
 30
0.000000
  0
VERTEX
  8
LAYER-1
 10
0.624934
 20
4.276666
 30
0.000000
  0
SEQEND
  8
LAYER-1
  0
POLYLINE
  8
LAYER-1
 66
  1
 70
  0
 62
  7
 10
0.739201
 20
4.301448
 30
0.000000
  0
VERTEX
  8
LAYER-1
 10
0.739201
 20
4.301448
 30
0.000000
  0
VERTEX
  8
LAYER-1
 10
0.739201
 20
4.276666
 30
0.000000
  0
SEQEND
  8
LAYER-1
  0
POLYLINE
  8
LAYER-1
 66
  1
 70
  0
 62
  7
 10
0.773341
 20
4.301448
 30
0.000000
  0
VERTEX
  8
LAYER-1
 10
0.773341
 20
4.301448
 30
0.000000
  0
VERTEX
  8
LAYER-1
 10
0.773341
 20
4.276666
 30
0.000000
  0
SEQEND
  8
LAYER-1
  0
POLYLINE
  8
LAYER-1
 66
  1
 70
  0
 62
  7
 10
0.888406
 20
4.301448
 30
0.000000
  0
VERTEX
  8
LAYER-1
 10
0.888406
 20
4.301448
 30
0.000000
  0
VERTEX
  8
LAYER-1
 10
0.888406
 20
4.276666
 30
0.000000
  0
SEQEND
  8
LAYER-1
  0
POLYLINE
  8
LAYER-1
 66
  1
 70
  0
 62
  7
 10
0.921750
 20
4.301448
 30
0.000000
  0
VERTEX
  8
LAYER-1
 10
0.921750
 20
4.301448
 30
0.000000
  0
VERTEX
  8
LAYER-1
 10
0.921750
 20
4.276666
 30
0.000000
  0
SEQEND
  8
LAYER-1
  0
POLYLINE
  8
LAYER-1
 66
  1
 70
  0
 62
  7
 10
1.036017
 20
4.301448
 30
0.000000
  0
VERTEX
  8
LAYER-1
 10
1.036017
 20
4.301448
 30
0.000000
  0
VERTEX
  8
LAYER-1
 10
1.036017
 20
4.276666
 30
0.000000
  0
SEQEND
  8
LAYER-1
  0
POLYLINE
  8
LAYER-1
 66
  1
 70
  0
 62
  7
 10
0.031375
 20
3.544190
 30
0.000000
  0
VERTEX
  8
LAYER-1
 10
0.031375
 20
3.544190
 30
0.000000
  0
VERTEX
  8
LAYER-1
 10
0.031375
 20
3.440536
 30
0.000000
  0
SEQEND
  8
LAYER-1
  0
POLYLINE
  8
LAYER-1
 66
  1
 70
  0
 62
  7
 10
0.145716
 20
3.544190
 30
0.000000
  0
VERTEX
  8
LAYER-1
 10
0.145716
 20
3.544190
 30
0.000000
  0
VERTEX
  8
LAYER-1
 10
0.145716
 20
3.440581
 30
0.000000
  0
SEQEND
  8
LAYER-1
  0
POLYLINE
  8
LAYER-1
 66
  1
 70
  0
 62
  7
 10
0.179704
 20
3.544190
 30
0.000000
  0
VERTEX
  8
LAYER-1
 10
0.179704
 20
3.544190
 30
0.000000
  0
VERTEX
  8
LAYER-1
 10
0.179704
 20
3.440536
 30
0.000000
  0
SEQEND
  8
LAYER-1
  0
POLYLINE
  8
LAYER-1
 66
  1
 70
  0
 62
  7
 10
0.294334
 20
3.544190
 30
0.000000
  0
VERTEX
  8
LAYER-1
 10
0.294334
 20
3.544190
 30
0.000000
  0
VERTEX
  8
LAYER-1
 10
0.294334
 20
3.440581
 30
0.000000
  0
SEQEND
  8
LAYER-1
  0
POLYLINE
  8
LAYER-1
 66
  1
 70
  0
 62
  7
 10
0.328176
 20
3.544190
 30
0.000000
  0
VERTEX
  8
LAYER-1
 10
0.328176
 20
3.544190
 30
0.000000
  0
VERTEX
  8
LAYER-1
 10
0.328176
 20
3.440859
 30
0.000000
  0
SEQEND
  8
LAYER-1
  0
POLYLINE
  8
LAYER-1
 66
  1
 70
  0
 62
  7
 10
0.442515
 20
3.544190
 30
0.000000
  0
VERTEX
  8
LAYER-1
 10
0.442515
 20
3.544190
 30
0.000000
  0
VERTEX
  8
LAYER-1
 10
0.442515
 20
3.440581
 30
0.000000
  0
SEQEND
  8
LAYER-1
  0
POLYLINE
  8
LAYER-1
 66
  1
 70
  0
 62
  7
 10
0.476503
 20
3.544190
 30
0.000000
  0
VERTEX
  8
LAYER-1
 10
0.476503
 20
3.544190
 30
0.000000
  0
VERTEX
  8
LAYER-1
 10
0.476503
 20
3.440536
 30
0.000000
  0
SEQEND
  8
LAYER-1
  0
POLYLINE
  8
LAYER-1
 66
  1
 70
  0
 62
  7
 10
0.590987
 20
3.544190
 30
0.000000
  0
VERTEX
  8
LAYER-1
 10
0.590987
 20
3.544190
 30
0.000000
  0
VERTEX
  8
LAYER-1
 10
0.590987
 20
3.440581
 30
0.000000
  0
SEQEND
  8
LAYER-1
  0
POLYLINE
  8
LAYER-1
 66
  1
 70
  0
 62
  7
 10
0.624975
 20
3.544190
 30
0.000000
  0
VERTEX
  8
LAYER-1
 10
0.624975
 20
3.544190
 30
0.000000
  0
VERTEX
  8
LAYER-1
 10
0.624975
 20
3.440536
 30
0.000000
  0
SEQEND
  8
LAYER-1
  0
POLYLINE
  8
LAYER-1
 66
  1
 70
  0
 62
  7
 10
0.739314
 20
3.544190
 30
0.000000
  0
VERTEX
  8
LAYER-1
 10
0.739314
 20
3.544190
 30
0.000000
  0
VERTEX
  8
LAYER-1
 10
0.739314
 20
3.440859
 30
0.000000
  0
SEQEND
  8
LAYER-1
  0
POLYLINE
  8
LAYER-1
 66
  1
 70
  0
 62
  7
 10
0.773447
 20
3.544190
 30
0.000000
  0
VERTEX
  8
LAYER-1
 10
0.773447
 20
3.544190
 30
0.000000
  0
VERTEX
  8
LAYER-1
 10
0.773447
 20
3.440536
 30
0.000000
  0
SEQEND
  8
LAYER-1
  0
POLYLINE
  8
LAYER-1
 66
  1
 70
  0
 62
  7
 10
0.887788
 20
3.544190
 30
0.000000
  0
VERTEX
  8
LAYER-1
 10
0.887788
 20
3.544190
 30
0.000000
  0
VERTEX
  8
LAYER-1
 10
0.887788
 20
3.440581
 30
0.000000
  0
SEQEND
  8
LAYER-1
  0
POLYLINE
  8
LAYER-1
 66
  1
 70
  0
 62
  7
 10
0.921774
 20
3.544190
 30
0.000000
  0
VERTEX
  8
LAYER-1
 10
0.921774
 20
3.544190
 30
0.000000
  0
VERTEX
  8
LAYER-1
 10
0.921774
 20
3.440536
 30
0.000000
  0
SEQEND
  8
LAYER-1
  0
POLYLINE
  8
LAYER-1
 66
  1
 70
  0
 62
  7
 10
1.036261
 20
3.544190
 30
0.000000
  0
VERTEX
  8
LAYER-1
 10
1.036261
 20
3.544190
 30
0.000000
  0
VERTEX
  8
LAYER-1
 10
1.036261
 20
3.440581
 30
0.000000
  0
SEQEND
  8
LAYER-1
  0
POLYLINE
  8
LAYER-1
 66
  1
 70
  0
 62
  7
 10
0.162300
 20
5.139373
 30
0.000000
  0
VERTEX
  8
LAYER-1
 10
0.162300
 20
5.139373
 30
0.000000
  0
VERTEX
  8
LAYER-1
 10
0.162300
 20
3.440536
 30
0.000000
  0
SEQEND
  8
LAYER-1
  0
POLYLINE
  8
LAYER-1
 66
  1
 70
  0
 62
  7
 10
0.310707
 20
5.139373
 30
0.000000
  0
VERTEX
  8
LAYER-1
 10
0.310707
 20
5.139373
 30
0.000000
  0
VERTEX
  8
LAYER-1
 10
0.310707
 20
3.440536
 30
0.000000
  0
SEQEND
  8
LAYER-1
  0
POLYLINE
  8
LAYER-1
 66
  1
 70
  0
 62
  7
 10
0.459116
 20
5.139373
 30
0.000000
  0
VERTEX
  8
LAYER-1
 10
0.459116
 20
5.139373
 30
0.000000
  0
VERTEX
  8
LAYER-1
 10
0.459116
 20
3.440536
 30
0.000000
  0
SEQEND
  8
LAYER-1
  0
POLYLINE
  8
LAYER-1
 66
  1
 70
  0
 62
  7
 10
0.607526
 20
5.139373
 30
0.000000
  0
VERTEX
  8
LAYER-1
 10
0.607526
 20
5.139373
 30
0.000000
  0
VERTEX
  8
LAYER-1
 10
0.607526
 20
3.440536
 30
0.000000
  0
SEQEND
  8
LAYER-1
  0
POLYLINE
  8
LAYER-1
 66
  1
 70
  0
 62
  7
 10
0.755934
 20
5.139373
 30
0.000000
  0
VERTEX
  8
LAYER-1
 10
0.755934
 20
5.139373
 30
0.000000
  0
VERTEX
  8
LAYER-1
 10
0.755934
 20
3.440536
 30
0.000000
  0
SEQEND
  8
LAYER-1
  0
POLYLINE
  8
LAYER-1
 66
  1
 70
  0
 62
  7
 10
0.904344
 20
5.139373
 30
0.000000
  0
VERTEX
  8
LAYER-1
 10
0.904344
 20
5.139373
 30
0.000000
  0
VERTEX
  8
LAYER-1
 10
0.904344
 20
3.440536
 30
0.000000
  0
SEQEND
  8
LAYER-1
  0
POLYLINE
  8
LAYER-1
 66
  1
 70
  0
 62
  0
 10
0.031375
 20
5.035719
 30
0.000000
  0
VERTEX
  8
LAYER-1
 10
0.031375
 20
5.035719
 30
0.000000
  0
VERTEX
  8
LAYER-1
 10
0.145784
 20
5.035719
 30
0.000000
  0
SEQEND
  8
LAYER-1
  0
POLYLINE
  8
LAYER-1
 66
  1
 70
  0
 62
  0
 10
0.179704
 20
5.035719
 30
0.000000
  0
VERTEX
  8
LAYER-1
 10
0.179704
 20
5.035719
 30
0.000000
  0
VERTEX
  8
LAYER-1
 10
0.294257
 20
5.035719
 30
0.000000
  0
SEQEND
  8
LAYER-1
  0
POLYLINE
  8
LAYER-1
 66
  1
 70
  0
 62
  0
 10
0.328176
 20
5.035719
 30
0.000000
  0
VERTEX
  8
LAYER-1
 10
0.328176
 20
5.035719
 30
0.000000
  0
VERTEX
  8
LAYER-1
 10
0.442583
 20
5.035719
 30
0.000000
  0
SEQEND
  8
LAYER-1
  0
POLYLINE
  8
LAYER-1
 66
  1
 70
  0
 62
  0
 10
0.476503
 20
5.035719
 30
0.000000
  0
VERTEX
  8
LAYER-1
 10
0.476503
 20
5.035719
 30
0.000000
  0
VERTEX
  8
LAYER-1
 10
0.590910
 20
5.035719
 30
0.000000
  0
SEQEND
  8
LAYER-1
  0
POLYLINE
  8
LAYER-1
 66
  1
 70
  0
 62
  0
 10
0.624975
 20
5.035719
 30
0.000000
  0
VERTEX
  8
LAYER-1
 10
0.624975
 20
5.035719
 30
0.000000
  0
VERTEX
  8
LAYER-1
 10
0.739382
 20
5.035719
 30
0.000000
  0
SEQEND
  8
LAYER-1
  0
POLYLINE
  8
LAYER-1
 66
  1
 70
  0
 62
  0
 10
0.773447
 20
5.035719
 30
0.000000
  0
VERTEX
  8
LAYER-1
 10
0.773447
 20
5.035719
 30
0.000000
  0
VERTEX
  8
LAYER-1
 10
0.887854
 20
5.035719
 30
0.000000
  0
SEQEND
  8
LAYER-1
  0
POLYLINE
  8
LAYER-1
 66
  1
 70
  0
 62
  0
 10
0.921047
 20
5.035719
 30
0.000000
  0
VERTEX
  8
LAYER-1
 10
0.921047
 20
5.035719
 30
0.000000
  0
VERTEX
  8
LAYER-1
 10
1.036183
 20
5.035719
 30
0.000000
  0
SEQEND
  8
LAYER-1
  0
POLYLINE
  8
LAYER-1
 66
  1
 70
  0
 62
  0
 10
0.031375
 20
3.544190
 30
0.000000
  0
VERTEX
  8
LAYER-1
 10
0.031375
 20
3.544190
 30
0.000000
  0
VERTEX
  8
LAYER-1
 10
0.145716
 20
3.544190
 30
0.000000
  0
SEQEND
  8
LAYER-1
  0
POLYLINE
  8
LAYER-1
 66
  1
 70
  0
 62
  0
 10
0.179704
 20
3.544190
 30
0.000000
  0
VERTEX
  8
LAYER-1
 10
0.179704
 20
3.544190
 30
0.000000
  0
VERTEX
  8
LAYER-1
 10
0.294334
 20
3.544190
 30
0.000000
  0
SEQEND
  8
LAYER-1
  0
POLYLINE
  8
LAYER-1
 66
  1
 70
  0
 62
  0
 10
0.328176
 20
3.544190
 30
0.000000
  0
VERTEX
  8
LAYER-1
 10
0.328176
 20
3.544190
 30
0.000000
  0
VERTEX
  8
LAYER-1
 10
0.442515
 20
3.544190
 30
0.000000
  0
SEQEND
  8
LAYER-1
  0
POLYLINE
  8
LAYER-1
 66
  1
 70
  0
 62
  0
 10
0.476503
 20
3.544190
 30
0.000000
  0
VERTEX
  8
LAYER-1
 10
0.476503
 20
3.544190
 30
0.000000
  0
VERTEX
  8
LAYER-1
 10
0.590987
 20
3.544190
 30
0.000000
  0
SEQEND
  8
LAYER-1
  0
POLYLINE
  8
LAYER-1
 66
  1
 70
  0
 62
  0
 10
0.624975
 20
3.544190
 30
0.000000
  0
VERTEX
  8
LAYER-1
 10
0.624975
 20
3.544190
 30
0.000000
  0
VERTEX
  8
LAYER-1
 10
0.739314
 20
3.544190
 30
0.000000
  0
SEQEND
  8
LAYER-1
  0
POLYLINE
  8
LAYER-1
 66
  1
 70
  0
 62
  0
 10
0.773447
 20
3.544190
 30
0.000000
  0
VERTEX
  8
LAYER-1
 10
0.773447
 20
3.544190
 30
0.000000
  0
VERTEX
  8
LAYER-1
 10
0.887788
 20
3.544190
 30
0.000000
  0
SEQEND
  8
LAYER-1
  0
POLYLINE
  8
LAYER-1
 66
  1
 70
  0
 62
  0
 10
0.921774
 20
3.544190
 30
0.000000
  0
VERTEX
  8
LAYER-1
 10
0.921774
 20
3.544190
 30
0.000000
  0
VERTEX
  8
LAYER-1
 10
1.036261
 20
3.544190
 30
0.000000
  0
SEQEND
  8
LAYER-1
  0
POLYLINE
  8
LAYER-1
 66
  1
 70
  0
 62
  0
 10
0.013889
 20
3.440536
 30
0.000000
  0
VERTEX
  8
LAYER-1
 10
0.013889
 20
3.440536
 30
0.000000
  0
VERTEX
  8
LAYER-1
 10
1.053577
 20
3.440581
 30
0.000000
  0
SEQEND
  8
LAYER-1
  0
POLYLINE
  8
LAYER-1
 66
  1
 70
  0
 62
  0
 10
0.013889
 20
5.139373
 30
0.000000
  0
VERTEX
  8
LAYER-1
 10
0.013889
 20
5.139373
 30
0.000000
  0
VERTEX
  8
LAYER-1
 10
1.053577
 20
5.139373
 30
0.000000
  0
SEQEND
  8
LAYER-1
  0
POLYLINE
  8
LAYER-1
 66
  1
 70
  0
 62
  7
 10
0.230864
 20
5.137451
 30
0.000000
  0
VERTEX
  8
LAYER-1
 10
0.230864
 20
5.137451
 30
0.000000
  0
VERTEX
  8
LAYER-1
 10
0.230864
 20
5.034145
 30
0.000000
  0
SEQEND
  8
LAYER-1
  0
POLYLINE
  8
LAYER-1
 66
  1
 70
  0
 62
  7
 10
0.242783
 20
5.137451
 30
0.000000
  0
VERTEX
  8
LAYER-1
 10
0.242783
 20
5.137451
 30
0.000000
  0
VERTEX
  8
LAYER-1
 10
0.242783
 20
5.034145
 30
0.000000
  0
SEQEND
  8
LAYER-1
  0
POLYLINE
  8
LAYER-1
 66
  1
 70
  0
 62
  7
 10
0.528859
 20
5.139040
 30
0.000000
  0
VERTEX
  8
LAYER-1
 10
0.528859
 20
5.139040
 30
0.000000
  0
VERTEX
  8
LAYER-1
 10
0.528859
 20
5.035734
 30
0.000000
  0
SEQEND
  8
LAYER-1
  0
POLYLINE
  8
LAYER-1
 66
  1
 70
  0
 62
  7
 10
0.540778
 20
5.139040
 30
0.000000
  0
VERTEX
  8
LAYER-1
 10
0.540778
 20
5.139040
 30
0.000000
  0
VERTEX
  8
LAYER-1
 10
0.540778
 20
5.035734
 30
0.000000
  0
SEQEND
  8
LAYER-1
  0
POLYLINE
  8
LAYER-1
 66
  1
 70
  0
 62
  7
 10
0.826061
 20
5.136657
 30
0.000000
  0
VERTEX
  8
LAYER-1
 10
0.826061
 20
5.136657
 30
0.000000
  0
VERTEX
  8
LAYER-1
 10
0.826061
 20
5.033351
 30
0.000000
  0
SEQEND
  8
LAYER-1
  0
POLYLINE
  8
LAYER-1
 66
  1
 70
  0
 62
  7
 10
0.837980
 20
5.136657
 30
0.000000
  0
VERTEX
  8
LAYER-1
 10
0.837980
 20
5.136657
 30
0.000000
  0
VERTEX
  8
LAYER-1
 10
0.837980
 20
5.033351
 30
0.000000
  0
SEQEND
  8
LAYER-1
  0
POLYLINE
  8
LAYER-1
 66
  1
 70
  1
 62
  0
  0
VERTEX
  8
LAYER-1
 10
3.714956
 20
0.349943
 30
0.000000
  0
VERTEX
  8
LAYER-1
 10
3.748514
 20
0.349943
 30
0.000000
  0
VERTEX
  8
LAYER-1
 10
3.748514
 20
0.254439
 30
0.000000
  0
VERTEX
  8
LAYER-1
 10
3.714956
 20
0.254439
 30
0.000000
  0
SEQEND
  8
LAYER-1
  0
POLYLINE
  8
LAYER-1
 66
  1
 70
  0
 62
  0
 10
3.734997
 20
2.460899
 30
0.000000
  0
VERTEX
  8
LAYER-1
 10
3.734997
 20
2.460899
 30
0.000000
  0
VERTEX
  8
LAYER-1
 10
3.734998
 20
2.460899
 30
0.000000
  0
SEQEND
  8
LAYER-1
  0
POLYLINE
  8
LAYER-1
 66
  1
 70
  0
 62
  0
 10
3.742963
 20
2.452935
 30
0.000000
  0
VERTEX
  8
LAYER-1
 10
3.742963
 20
2.452935
 30
0.000000
  0
VERTEX
  8
LAYER-1
 10
3.742963
 20
2.203392
 30
0.000000
  0
SEQEND
  8
LAYER-1
  0
POLYLINE
  8
LAYER-1
 66
  1
 70
  0
 62
  0
 10
3.734998
 20
2.195428
 30
0.000000
  0
VERTEX
  8
LAYER-1
 10
3.734998
 20
2.195428
 30
0.000000
  0
VERTEX
  8
LAYER-1
 10
3.734997
 20
2.195428
 30
0.000000
  0
SEQEND
  8
LAYER-1
  0
POLYLINE
  8
LAYER-1
 66
  1
 70
  0
 62
  0
 10
3.727033
 20
2.203392
 30
0.000000
  0
VERTEX
  8
LAYER-1
 10
3.727033
 20
2.203392
 30
0.000000
  0
VERTEX
  8
LAYER-1
 10
3.727033
 20
2.452935
 30
0.000000
  0
SEQEND
  8
LAYER-1
  0
ARC
  8
LAYER-1
 62
  0
 10
3.734997
 20
2.452935
 30
0.000000
 40
0.007964
 50
270.000000
 51
0.000000
  0
ARC
  8
LAYER-1
 62
  0
 10
3.734997
 20
2.203392
 30
0.000000
 40
0.007964
 50
0.000000
 51
90.000000
  0
ARC
  8
LAYER-1
 62
  0
 10
3.734998
 20
2.203392
 30
0.000000
 40
0.007964
 50
90.000000
 51
180.000000
  0
ARC
  8
LAYER-1
 62
  0
 10
3.734998
 20
2.452935
 30
0.000000
 40
0.007964
 50
180.000000
 51
270.000000
  0
CIRCLE
  8
LAYER-1
 62
  0
 10
3.735330
 20
2.198080
 30
0.000000
 40
0.022565
  0
CIRCLE
  8
LAYER-1
 62
  0
 10
3.735330
 20
2.198080
 30
0.000000
 40
0.016522
  0
CIRCLE
  8
LAYER-1
 62
  0
 10
3.735330
 20
2.198080
 30
0.000000
 40
0.013746
  0
CIRCLE
  8
LAYER-1
 62
  0
 10
3.735330
 20
2.198080
 30
0.000000
 40
0.008860
  0
POLYLINE
  8
LAYER-1
 66
  1
 70
  0
 62
  0
 10
3.685053
 20
0.246778
 30
0.000000
  0
VERTEX
  8
LAYER-1
 10
3.685053
 20
0.246778
 30
0.000000
  0
VERTEX
  8
LAYER-1
 10
3.697831
 20
0.254343
 30
0.000000
  0
SEQEND
  8
LAYER-1
  0
POLYLINE
  8
LAYER-1
 66
  1
 70
  0
 62
  0
 10
3.685053
 20
0.246778
 30
0.000000
  0
VERTEX
  8
LAYER-1
 10
3.685053
 20
0.246778
 30
0.000000
  0
VERTEX
  8
LAYER-1
 10
3.685053
 20
0.245213
 30
0.000000
  0
SEQEND
  8
LAYER-1
  0
POLYLINE
  8
LAYER-1
 66
  1
 70
  1
 62
  0
  0
VERTEX
  8
LAYER-1
 10
3.703496
 20
0.245199
 30
0.000000
  0
VERTEX
  8
LAYER-1
 10
3.760083
 20
0.245199
 30
0.000000
  0
VERTEX
  8
LAYER-1
 10
3.760083
 20
0.057537
 30
0.000000
  0
VERTEX
  8
LAYER-1
 10
3.703496
 20
0.057537
 30
0.000000
  0
SEQEND
  8
LAYER-1
  0
POLYLINE
  8
LAYER-1
  6
LTYPE01
 66
  1
 70
  1
 62
  0
  0
VERTEX
  8
LAYER-1
  6
LTYPE01
 10
3.708190
 20
0.254325
 30
0.000000
  0
VERTEX
  8
LAYER-1
  6
LTYPE01
 10
3.755130
 20
0.254325
 30
0.000000
  0
VERTEX
  8
LAYER-1
  6
LTYPE01
 10
3.755130
 20
0.067096
 30
0.000000
  0
VERTEX
  8
LAYER-1
  6
LTYPE01
 10
3.708190
 20
0.067096
 30
0.000000
  0
SEQEND
  8
LAYER-1
  0
POLYLINE
  8
LAYER-1
 66
  1
 70
  0
 62
  0
 10
3.685053
 20
0.245213
 30
0.000000
  0
VERTEX
  8
LAYER-1
 10
3.685053
 20
0.245213
 30
0.000000
  0
VERTEX
  8
LAYER-1
 10
3.778670
 20
0.245213
 30
0.000000
  0
SEQEND
  8
LAYER-1
  0
POLYLINE
  8
LAYER-1
 66
  1
 70
  0
 62
  0
 10
3.778670
 20
0.245213
 30
0.000000
  0
VERTEX
  8
LAYER-1
 10
3.778670
 20
0.245213
 30
0.000000
  0
VERTEX
  8
LAYER-1
 10
3.778670
 20
0.246778
 30
0.000000
  0
SEQEND
  8
LAYER-1
  0
POLYLINE
  8
LAYER-1
 66
  1
 70
  0
 62
  0
 10
3.778670
 20
0.246778
 30
0.000000
  0
VERTEX
  8
LAYER-1
 10
3.778670
 20
0.246778
 30
0.000000
  0
VERTEX
  8
LAYER-1
 10
3.765631
 20
0.254343
 30
0.000000
  0
SEQEND
  8
LAYER-1
  0
POLYLINE
  8
LAYER-1
  6
LTYPE02
 66
  1
 70
  0
 62
  0
  6
LTYPE02
 10
3.709435
 20
0.153554
 30
0.000000
  0
VERTEX
  8
LAYER-1
  6
LTYPE02
 10
3.709435
 20
0.153554
 30
0.000000
  0
VERTEX
  8
LAYER-1
  6
LTYPE02
 10
3.709435
 20
0.119656
 30
0.000000
  0
SEQEND
  8
LAYER-1
  0
POLYLINE
  8
LAYER-1
  6
LTYPE02
 66
  1
 70
  0
 62
  0
  6
LTYPE02
 10
3.713343
 20
0.153554
 30
0.000000
  0
VERTEX
  8
LAYER-1
  6
LTYPE02
 10
3.713343
 20
0.153554
 30
0.000000
  0
VERTEX
  8
LAYER-1
  6
LTYPE02
 10
3.709435
 20
0.153554
 30
0.000000
  0
SEQEND
  8
LAYER-1
  0
POLYLINE
  8
LAYER-1
  6
LTYPE02
 66
  1
 70
  0
 62
  0
  6
LTYPE02
 10
3.713343
 20
0.153554
 30
0.000000
  0
VERTEX
  8
LAYER-1
  6
LTYPE02
 10
3.713343
 20
0.153554
 30
0.000000
  0
VERTEX
  8
LAYER-1
  6
LTYPE02
 10
3.713343
 20
0.157988
 30
0.000000
  0
SEQEND
  8
LAYER-1
  0
POLYLINE
  8
LAYER-1
  6
LTYPE02
 66
  1
 70
  0
 62
  0
  6
LTYPE02
 10
3.713343
 20
0.157988
 30
0.000000
  0
VERTEX
  8
LAYER-1
  6
LTYPE02
 10
3.713343
 20
0.157988
 30
0.000000
  0
VERTEX
  8
LAYER-1
  6
LTYPE02
 10
3.750603
 20
0.157988
 30
0.000000
  0
SEQEND
  8
LAYER-1
  0
POLYLINE
  8
LAYER-1
  6
LTYPE02
 66
  1
 70
  0
 62
  0
  6
LTYPE02
 10
3.709435
 20
0.119656
 30
0.000000
  0
VERTEX
  8
LAYER-1
  6
LTYPE02
 10
3.709435
 20
0.119656
 30
0.000000
  0
VERTEX
  8
LAYER-1
  6
LTYPE02
 10
3.753767
 20
0.119656
 30
0.000000
  0
SEQEND
  8
LAYER-1
  0
POLYLINE
  8
LAYER-1
  6
LTYPE02
 66
  1
 70
  0
 62
  0
  6
LTYPE02
 10
3.753767
 20
0.119656
 30
0.000000
  0
VERTEX
  8
LAYER-1
  6
LTYPE02
 10
3.753767
 20
0.119656
 30
0.000000
  0
VERTEX
  8
LAYER-1
  6
LTYPE02
 10
3.753767
 20
0.153554
 30
0.000000
  0
SEQEND
  8
LAYER-1
  0
POLYLINE
  8
LAYER-1
  6
LTYPE02
 66
  1
 70
  0
 62
  0
  6
LTYPE02
 10
3.750603
 20
0.153554
 30
0.000000
  0
VERTEX
  8
LAYER-1
  6
LTYPE02
 10
3.750603
 20
0.153554
 30
0.000000
  0
VERTEX
  8
LAYER-1
  6
LTYPE02
 10
3.753767
 20
0.153554
 30
0.000000
  0
SEQEND
  8
LAYER-1
  0
POLYLINE
  8
LAYER-1
  6
LTYPE02
 66
  1
 70
  0
 62
  0
  6
LTYPE02
 10
3.750603
 20
0.157988
 30
0.000000
  0
VERTEX
  8
LAYER-1
  6
LTYPE02
 10
3.750603
 20
0.157988
 30
0.000000
  0
VERTEX
  8
LAYER-1
  6
LTYPE02
 10
3.750603
 20
0.153554
 30
0.000000
  0
SEQEND
  8
LAYER-1
  0
POLYLINE
  8
LAYER-1
  6
LTYPE01
 66
  1
 70
  1
 62
  0
  0
VERTEX
  8
LAYER-1
  6
LTYPE01
 10
3.714572
 20
0.119509
 30
0.000000
  0
VERTEX
  8
LAYER-1
  6
LTYPE01
 10
3.748994
 20
0.119509
 30
0.000000
  0
VERTEX
  8
LAYER-1
  6
LTYPE01
 10
3.748994
 20
0.067356
 30
0.000000
  0
VERTEX
  8
LAYER-1
  6
LTYPE01
 10
3.714572
 20
0.067356
 30
0.000000
  0
SEQEND
  8
LAYER-1
  0
POLYLINE
  8
LAYER-1
  6
LTYPE02
 66
  1
 70
  0
 62
  0
  6
LTYPE02
 10
3.748994
 20
0.119509
 30
0.000000
  0
VERTEX
  8
LAYER-1
  6
LTYPE02
 10
3.748994
 20
0.119509
 30
0.000000
  0
VERTEX
  8
LAYER-1
  6
LTYPE02
 10
3.714572
 20
0.116642
 30
0.000000
  0
SEQEND
  8
LAYER-1
  0
POLYLINE
  8
LAYER-1
  6
LTYPE02
 66
  1
 70
  0
 62
  0
  6
LTYPE02
 10
3.748994
 20
0.117945
 30
0.000000
  0
VERTEX
  8
LAYER-1
  6
LTYPE02
 10
3.748994
 20
0.117945
 30
0.000000
  0
VERTEX
  8
LAYER-1
  6
LTYPE02
 10
3.714572
 20
0.114817
 30
0.000000
  0
SEQEND
  8
LAYER-1
  0
POLYLINE
  8
LAYER-1
  6
LTYPE02
 66
  1
 70
  0
 62
  0
  6
LTYPE02
 10
3.748994
 20
0.114555
 30
0.000000
  0
VERTEX
  8
LAYER-1
  6
LTYPE02
 10
3.748994
 20
0.114555
 30
0.000000
  0
VERTEX
  8
LAYER-1
  6
LTYPE02
 10
3.714572
 20
0.111686
 30
0.000000
  0
SEQEND
  8
LAYER-1
  0
POLYLINE
  8
LAYER-1
  6
LTYPE02
 66
  1
 70
  0
 62
  0
  6
LTYPE02
 10
3.748994
 20
0.112990
 30
0.000000
  0
VERTEX
  8
LAYER-1
  6
LTYPE02
 10
3.748994
 20
0.112990
 30
0.000000
  0
VERTEX
  8
LAYER-1
  6
LTYPE02
 10
3.714572
 20
0.109861
 30
0.000000
  0
SEQEND
  8
LAYER-1
  0
POLYLINE
  8
LAYER-1
  6
LTYPE02
 66
  1
 70
  0
 62
  0
  6
LTYPE02
 10
3.748994
 20
0.109407
 30
0.000000
  0
VERTEX
  8
LAYER-1
  6
LTYPE02
 10
3.748994
 20
0.109407
 30
0.000000
  0
VERTEX
  8
LAYER-1
  6
LTYPE02
 10
3.714572
 20
0.106538
 30
0.000000
  0
SEQEND
  8
LAYER-1
  0
POLYLINE
  8
LAYER-1
  6
LTYPE02
 66
  1
 70
  0
 62
  0
  6
LTYPE02
 10
3.748994
 20
0.107842
 30
0.000000
  0
VERTEX
  8
LAYER-1
  6
LTYPE02
 10
3.748994
 20
0.107842
 30
0.000000
  0
VERTEX
  8
LAYER-1
  6
LTYPE02
 10
3.714572
 20
0.104713
 30
0.000000
  0
SEQEND
  8
LAYER-1
  0
POLYLINE
  8
LAYER-1
  6
LTYPE02
 66
  1
 70
  0
 62
  0
  6
LTYPE02
 10
3.748930
 20
0.104908
 30
0.000000
  0
VERTEX
  8
LAYER-1
  6
LTYPE02
 10
3.748930
 20
0.104908
 30
0.000000
  0
VERTEX
  8
LAYER-1
  6
LTYPE02
 10
3.714507
 20
0.102039
 30
0.000000
  0
SEQEND
  8
LAYER-1
  0
POLYLINE
  8
LAYER-1
  6
LTYPE02
 66
  1
 70
  0
 62
  0
  6
LTYPE02
 10
3.748930
 20
0.103344
 30
0.000000
  0
VERTEX
  8
LAYER-1
  6
LTYPE02
 10
3.748930
 20
0.103344
 30
0.000000
  0
VERTEX
  8
LAYER-1
  6
LTYPE02
 10
3.714507
 20
0.100215
 30
0.000000
  0
SEQEND
  8
LAYER-1
  0
POLYLINE
  8
LAYER-1
  6
LTYPE02
 66
  1
 70
  0
 62
  0
  6
LTYPE02
 10
3.748930
 20
0.100084
 30
0.000000
  0
VERTEX
  8
LAYER-1
  6
LTYPE02
 10
3.748930
 20
0.100084
 30
0.000000
  0
VERTEX
  8
LAYER-1
  6
LTYPE02
 10
3.714507
 20
0.097215
 30
0.000000
  0
SEQEND
  8
LAYER-1
  0
POLYLINE
  8
LAYER-1
  6
LTYPE02
 66
  1
 70
  0
 62
  0
  6
LTYPE02
 10
3.748930
 20
0.098519
 30
0.000000
  0
VERTEX
  8
LAYER-1
  6
LTYPE02
 10
3.748930
 20
0.098519
 30
0.000000
  0
VERTEX
  8
LAYER-1
  6
LTYPE02
 10
3.714507
 20
0.095389
 30
0.000000
  0
SEQEND
  8
LAYER-1
  0
POLYLINE
  8
LAYER-1
  6
LTYPE02
 66
  1
 70
  0
 62
  0
  6
LTYPE02
 10
3.748930
 20
0.095128
 30
0.000000
  0
VERTEX
  8
LAYER-1
  6
LTYPE02
 10
3.748930
 20
0.095128
 30
0.000000
  0
VERTEX
  8
LAYER-1
  6
LTYPE02
 10
3.714507
 20
0.092260
 30
0.000000
  0
SEQEND
  8
LAYER-1
  0
POLYLINE
  8
LAYER-1
  6
LTYPE02
 66
  1
 70
  0
 62
  0
  6
LTYPE02
 10
3.748930
 20
0.093565
 30
0.000000
  0
VERTEX
  8
LAYER-1
  6
LTYPE02
 10
3.748930
 20
0.093565
 30
0.000000
  0
VERTEX
  8
LAYER-1
  6
LTYPE02
 10
3.714507
 20
0.090434
 30
0.000000
  0
SEQEND
  8
LAYER-1
  0
POLYLINE
  8
LAYER-1
  6
LTYPE02
 66
  1
 70
  0
 62
  0
  6
LTYPE02
 10
3.748930
 20
0.089979
 30
0.000000
  0
VERTEX
  8
LAYER-1
  6
LTYPE02
 10
3.748930
 20
0.089979
 30
0.000000
  0
VERTEX
  8
LAYER-1
  6
LTYPE02
 10
3.714507
 20
0.087110
 30
0.000000
  0
SEQEND
  8
LAYER-1
  0
POLYLINE
  8
LAYER-1
  6
LTYPE02
 66
  1
 70
  0
 62
  0
  6
LTYPE02
 10
3.748930
 20
0.088414
 30
0.000000
  0
VERTEX
  8
LAYER-1
  6
LTYPE02
 10
3.748930
 20
0.088414
 30
0.000000
  0
VERTEX
  8
LAYER-1
  6
LTYPE02
 10
3.714507
 20
0.085286
 30
0.000000
  0
SEQEND
  8
LAYER-1
  0
POLYLINE
  8
LAYER-1
  6
LTYPE02
 66
  1
 70
  0
 62
  0
  6
LTYPE02
 10
3.748864
 20
0.085480
 30
0.000000
  0
VERTEX
  8
LAYER-1
  6
LTYPE02
 10
3.748864
 20
0.085480
 30
0.000000
  0
VERTEX
  8
LAYER-1
  6
LTYPE02
 10
3.714443
 20
0.082612
 30
0.000000
  0
SEQEND
  8
LAYER-1
  0
POLYLINE
  8
LAYER-1
  6
LTYPE02
 66
  1
 70
  0
 62
  0
  6
LTYPE02
 10
3.748864
 20
0.083917
 30
0.000000
  0
VERTEX
  8
LAYER-1
  6
LTYPE02
 10
3.748864
 20
0.083917
 30
0.000000
  0
VERTEX
  8
LAYER-1
  6
LTYPE02
 10
3.714443
 20
0.080788
 30
0.000000
  0
SEQEND
  8
LAYER-1
  0
POLYLINE
  8
LAYER-1
  6
LTYPE02
 66
  1
 70
  0
 62
  0
  6
LTYPE02
 10
3.748994
 20
0.081112
 30
0.000000
  0
VERTEX
  8
LAYER-1
  6
LTYPE02
 10
3.748994
 20
0.081112
 30
0.000000
  0
VERTEX
  8
LAYER-1
  6
LTYPE02
 10
3.714572
 20
0.078244
 30
0.000000
  0
SEQEND
  8
LAYER-1
  0
POLYLINE
  8
LAYER-1
  6
LTYPE02
 66
  1
 70
  0
 62
  0
  6
LTYPE02
 10
3.748994
 20
0.079547
 30
0.000000
  0
VERTEX
  8
LAYER-1
  6
LTYPE02
 10
3.748994
 20
0.079547
 30
0.000000
  0
VERTEX
  8
LAYER-1
  6
LTYPE02
 10
3.714572
 20
0.076419
 30
0.000000
  0
SEQEND
  8
LAYER-1
  0
POLYLINE
  8
LAYER-1
  6
LTYPE02
 66
  1
 70
  0
 62
  0
  6
LTYPE02
 10
3.748994
 20
0.076158
 30
0.000000
  0
VERTEX
  8
LAYER-1
  6
LTYPE02
 10
3.748994
 20
0.076158
 30
0.000000
  0
VERTEX
  8
LAYER-1
  6
LTYPE02
 10
3.714572
 20
0.073290
 30
0.000000
  0
SEQEND
  8
LAYER-1
  0
POLYLINE
  8
LAYER-1
  6
LTYPE02
 66
  1
 70
  0
 62
  0
  6
LTYPE02
 10
3.748994
 20
0.074593
 30
0.000000
  0
VERTEX
  8
LAYER-1
  6
LTYPE02
 10
3.748994
 20
0.074593
 30
0.000000
  0
VERTEX
  8
LAYER-1
  6
LTYPE02
 10
3.714572
 20
0.071464
 30
0.000000
  0
SEQEND
  8
LAYER-1
  0
POLYLINE
  8
LAYER-1
  6
LTYPE02
 66
  1
 70
  0
 62
  0
  6
LTYPE02
 10
3.748994
 20
0.071008
 30
0.000000
  0
VERTEX
  8
LAYER-1
  6
LTYPE02
 10
3.748994
 20
0.071008
 30
0.000000
  0
VERTEX
  8
LAYER-1
  6
LTYPE02
 10
3.714572
 20
0.068138
 30
0.000000
  0
SEQEND
  8
LAYER-1
  0
POLYLINE
  8
LAYER-1
  6
LTYPE02
 66
  1
 70
  0
 62
  0
  6
LTYPE02
 10
3.748994
 20
0.069444
 30
0.000000
  0
VERTEX
  8
LAYER-1
  6
LTYPE02
 10
3.748994
 20
0.069444
 30
0.000000
  0
VERTEX
  8
LAYER-1
  6
LTYPE02
 10
3.725981
 20
0.067356
 30
0.000000
  0
SEQEND
  8
LAYER-1
  0
POLYLINE
  8
LAYER-1
  6
LTYPE02
 66
  1
 70
  0
 62
  0
  6
LTYPE02
 10
3.715564
 20
0.178720
 30
0.000000
  0
VERTEX
  8
LAYER-1
  6
LTYPE02
 10
3.715564
 20
0.178720
 30
0.000000
  0
VERTEX
  8
LAYER-1
  6
LTYPE02
 10
3.715564
 20
0.254343
 30
0.000000
  0
SEQEND
  8
LAYER-1
  0
POLYLINE
  8
LAYER-1
  6
LTYPE02
 66
  1
 70
  0
 62
  0
  6
LTYPE02
 10
3.747898
 20
0.178720
 30
0.000000
  0
VERTEX
  8
LAYER-1
  6
LTYPE02
 10
3.747898
 20
0.178720
 30
0.000000
  0
VERTEX
  8
LAYER-1
  6
LTYPE02
 10
3.747898
 20
0.254343
 30
0.000000
  0
SEQEND
  8
LAYER-1
  0
POLYLINE
  8
LAYER-1
  6
LTYPE01
 66
  1
 70
  0
 62
  0
  6
LTYPE01
 10
3.715563
 20
0.178720
 30
0.000000
  0
VERTEX
  8
LAYER-1
  6
LTYPE01
 10
3.715563
 20
0.178720
 30
0.000000
  0
VERTEX
  8
LAYER-1
  6
LTYPE01
 10
3.718330
 20
0.169256
 30
0.000000
  0
VERTEX
  8
LAYER-1
  6
LTYPE01
 10
3.729763
 20
0.164522
 30
0.000000
  0
VERTEX
  8
LAYER-1
  6
LTYPE01
 10
3.741195
 20
0.169256
 30
0.000000
  0
VERTEX
  8
LAYER-1
  6
LTYPE01
 10
3.747899
 20
0.178720
 30
0.000000
  0
SEQEND
  8
LAYER-1
  0
POLYLINE
  8
LAYER-1
 66
  1
 70
  0
 62
  0
 10
3.697831
 20
0.254343
 30
0.000000
  0
VERTEX
  8
LAYER-1
 10
3.697831
 20
0.254343
 30
0.000000
  0
VERTEX
  8
LAYER-1
 10
3.765631
 20
0.254343
 30
0.000000
  0
SEQEND
  8
LAYER-1
  0
POLYLINE
  8
LAYER-1
 66
  1
 70
  1
 62
  0
  0
VERTEX
  8
LAYER-1
 10
2.804647
 20
7.483305
 30
0.000000
  0
VERTEX
  8
LAYER-1
 10
2.829743
 20
7.483305
 30
0.000000
  0
VERTEX
  8
LAYER-1
 10
2.829743
 20
7.416987
 30
0.000000
  0
VERTEX
  8
LAYER-1
 10
2.804647
 20
7.416987
 30
0.000000
  0
SEQEND
  8
LAYER-1
  0
POLYLINE
  8
LAYER-1
 66
  1
 70
  1
 62
  0
  0
VERTEX
  8
LAYER-1
 10
1.983467
 20
7.483305
 30
0.000000
  0
VERTEX
  8
LAYER-1
 10
2.008562
 20
7.483305
 30
0.000000
  0
VERTEX
  8
LAYER-1
 10
2.008562
 20
7.416987
 30
0.000000
  0
VERTEX
  8
LAYER-1
 10
1.983467
 20
7.416987
 30
0.000000
  0
SEQEND
  8
LAYER-1
  0
POLYLINE
  8
LAYER-1
 66
  1
 70
  1
 62
  0
  0
VERTEX
  8
LAYER-1
 10
4.706557
 20
7.483305
 30
0.000000
  0
VERTEX
  8
LAYER-1
 10
4.731652
 20
7.483305
 30
0.000000
  0
VERTEX
  8
LAYER-1
 10
4.731652
 20
7.416987
 30
0.000000
  0
VERTEX
  8
LAYER-1
 10
4.706557
 20
7.416987
 30
0.000000
  0
SEQEND
  8
LAYER-1
  0
POLYLINE
  8
LAYER-1
 66
  1
 70
  1
 62
  0
  0
VERTEX
  8
LAYER-1
 10
5.527738
 20
7.483305
 30
0.000000
  0
VERTEX
  8
LAYER-1
 10
5.552833
 20
7.483305
 30
0.000000
  0
VERTEX
  8
LAYER-1
 10
5.552833
 20
7.416987
 30
0.000000
  0
VERTEX
  8
LAYER-1
 10
5.527738
 20
7.416987
 30
0.000000
  0
SEQEND
  8
LAYER-1
  0
POLYLINE
  8
LAYER-1
 66
  1
 70
  0
 62
  0
 10
2.181858
 20
7.146982
 30
0.000000
  0
VERTEX
  8
LAYER-1
 10
2.181858
 20
7.146982
 30
0.000000
  0
VERTEX
  8
LAYER-1
 10
2.217455
 20
7.146982
 30
0.000000
  0
SEQEND
  8
LAYER-1
  0
POLYLINE
  8
LAYER-1
 66
  1
 70
  0
 62
  0
 10
2.999729
 20
7.146982
 30
0.000000
  0
VERTEX
  8
LAYER-1
 10
2.999729
 20
7.146982
 30
0.000000
  0
VERTEX
  8
LAYER-1
 10
3.035323
 20
7.146982
 30
0.000000
  0
SEQEND
  8
LAYER-1
  0
POLYLINE
  8
LAYER-1
 66
  1
 70
  0
 62
  0
 10
3.647862
 20
7.146906
 30
0.000000
  0
VERTEX
  8
LAYER-1
 10
3.647862
 20
7.146906
 30
0.000000
  0
VERTEX
  8
LAYER-1
 10
3.683457
 20
7.146906
 30
0.000000
  0
SEQEND
  8
LAYER-1
  0
POLYLINE
  8
LAYER-1
 66
  1
 70
  0
 62
  0
 10
5.354019
 20
7.146981
 30
0.000000
  0
VERTEX
  8
LAYER-1
 10
5.354019
 20
7.146981
 30
0.000000
  0
VERTEX
  8
LAYER-1
 10
5.318424
 20
7.146981
 30
0.000000
  0
SEQEND
  8
LAYER-1
  0
POLYLINE
  8
LAYER-1
 66
  1
 70
  0
 62
  0
 10
4.536144
 20
7.146981
 30
0.000000
  0
VERTEX
  8
LAYER-1
 10
4.536144
 20
7.146981
 30
0.000000
  0
VERTEX
  8
LAYER-1
 10
4.500553
 20
7.146981
 30
0.000000
  0
SEQEND
  8
LAYER-1
  0
POLYLINE
  8
LAYER-1
 66
  1
 70
  0
 62
  0
 10
3.888006
 20
7.146905
 30
0.000000
  0
VERTEX
  8
LAYER-1
 10
3.888006
 20
7.146905
 30
0.000000
  0
VERTEX
  8
LAYER-1
 10
3.852414
 20
7.146905
 30
0.000000
  0
SEQEND
  8
LAYER-1
  0
TEXT
  8
LAYER-1
 62
  0
 10
1.087634
 20
7.079225
 30
0.000000
 40
0.125000
  1
Guida
 72
  5
 11
1.615411
 21
7.079225
 31
0.000000
  0
TEXT
  8
LAYER-1
 62
  0
 10
5.893189
 20
5.551448
 30
0.000000
 40
0.125000
  1
Vetro temprato
 72
  5
 11
7.073745
 21
5.551448
 31
0.000000
  0
TEXT
  8
LAYER-1
 62
  0
 10
5.893189
 20
5.357003
 30
0.000000
 40
0.104167
  1
1/8
 72
  5
 11
6.170967
 21
5.357003
 31
0.000000
  0
TEXT
  8
LAYER-1
 62
  0
 10
6.170967
 20
5.357003
 30
0.000000
 40
0.125000
  1
" (3mm)
 72
  5
 11
6.851523
 21
5.357003
 31
0.000000
  0
POLYLINE
  8
LAYER-1
 66
  1
 70
  1
 62
  0
  0
VERTEX
  8
LAYER-1
 10
1.848981
 20
7.129301
 30
0.000000
  0
VERTEX
  8
LAYER-1
 10
2.136712
 20
7.129301
 30
0.000000
  0
VERTEX
  8
LAYER-1
 10
2.136712
 20
3.960991
 30
0.000000
  0
VERTEX
  8
LAYER-1
 10
1.848981
 20
3.960991
 30
0.000000
  0
SEQEND
  8
LAYER-1
  0
POLYLINE
  8
LAYER-1
 66
  1
 70
  1
 62
  0
  0
VERTEX
  8
LAYER-1
 10
2.259044
 20
7.129301
 30
0.000000
  0
VERTEX
  8
LAYER-1
 10
2.546774
 20
7.129301
 30
0.000000
  0
VERTEX
  8
LAYER-1
 10
2.546774
 20
3.960991
 30
0.000000
  0
VERTEX
  8
LAYER-1
 10
2.259044
 20
3.960991
 30
0.000000
  0
SEQEND
  8
LAYER-1
  0
POLYLINE
  8
LAYER-1
 66
  1
 70
  1
 62
  0
  0
VERTEX
  8
LAYER-1
 10
2.669106
 20
7.129301
 30
0.000000
  0
VERTEX
  8
LAYER-1
 10
2.956833
 20
7.129301
 30
0.000000
  0
VERTEX
  8
LAYER-1
 10
2.956833
 20
3.960991
 30
0.000000
  0
VERTEX
  8
LAYER-1
 10
2.669106
 20
3.960991
 30
0.000000
  0
SEQEND
  8
LAYER-1
  0
POLYLINE
  8
LAYER-1
 66
  1
 70
  1
 62
  0
  0
VERTEX
  8
LAYER-1
 10
3.079166
 20
7.129301
 30
0.000000
  0
VERTEX
  8
LAYER-1
 10
3.366895
 20
7.129301
 30
0.000000
  0
VERTEX
  8
LAYER-1
 10
3.366895
 20
3.960991
 30
0.000000
  0
VERTEX
  8
LAYER-1
 10
3.079166
 20
3.960991
 30
0.000000
  0
SEQEND
  8
LAYER-1
  0
POLYLINE
  8
LAYER-1
 66
  1
 70
  1
 62
  0
  0
VERTEX
  8
LAYER-1
 10
5.399165
 20
7.129300
 30
0.000000
  0
VERTEX
  8
LAYER-1
 10
5.686898
 20
7.129300
 30
0.000000
  0
VERTEX
  8
LAYER-1
 10
5.686898
 20
3.960991
 30
0.000000
  0
VERTEX
  8
LAYER-1
 10
5.399165
 20
3.960991
 30
0.000000
  0
SEQEND
  8
LAYER-1
  0
POLYLINE
  8
LAYER-1
 66
  1
 70
  1
 62
  0
  0
VERTEX
  8
LAYER-1
 10
4.989102
 20
7.129300
 30
0.000000
  0
VERTEX
  8
LAYER-1
 10
5.276835
 20
7.129300
 30
0.000000
  0
VERTEX
  8
LAYER-1
 10
5.276835
 20
3.960991
 30
0.000000
  0
VERTEX
  8
LAYER-1
 10
4.989102
 20
3.960991
 30
0.000000
  0
SEQEND
  8
LAYER-1
  0
POLYLINE
  8
LAYER-1
 66
  1
 70
  1
 62
  0
  0
VERTEX
  8
LAYER-1
 10
4.579040
 20
7.129300
 30
0.000000
  0
VERTEX
  8
LAYER-1
 10
4.866773
 20
7.129300
 30
0.000000
  0
VERTEX
  8
LAYER-1
 10
4.866773
 20
3.960991
 30
0.000000
  0
VERTEX
  8
LAYER-1
 10
4.579040
 20
3.960991
 30
0.000000
  0
SEQEND
  8
LAYER-1
  0
POLYLINE
  8
LAYER-1
 66
  1
 70
  1
 62
  0
  0
VERTEX
  8
LAYER-1
 10
4.168978
 20
7.129300
 30
0.000000
  0
VERTEX
  8
LAYER-1
 10
4.456711
 20
7.129300
 30
0.000000
  0
VERTEX
  8
LAYER-1
 10
4.456711
 20
3.960991
 30
0.000000
  0
VERTEX
  8
LAYER-1
 10
4.168978
 20
3.960991
 30
0.000000
  0
SEQEND
  8
LAYER-1
  0
LINE
  8
LAYER-1
 62
  0
 10
1.903720
 20
6.687607
 30
0.000000
 11
2.039808
 21
6.925341
 31
0.000000
  0
LINE
  8
LAYER-1
 62
  0
 10
1.960356
 20
6.655187
 30
0.000000
 11
2.096444
 21
6.892921
 31
0.000000
  0
LINE
  8
LAYER-1
 62
  0
 10
2.313782
 20
6.687607
 30
0.000000
 11
2.449871
 21
6.925341
 31
0.000000
  0
LINE
  8
LAYER-1
 62
  0
 10
2.370418
 20
6.655187
 30
0.000000
 11
2.506506
 21
6.892921
 31
0.000000
  0
LINE
  8
LAYER-1
 62
  0
 10
2.723844
 20
6.687606
 30
0.000000
 11
2.859930
 21
6.925341
 31
0.000000
  0
LINE
  8
LAYER-1
 62
  0
 10
2.780480
 20
6.655187
 30
0.000000
 11
2.916566
 21
6.892921
 31
0.000000
  0
LINE
  8
LAYER-1
 62
  0
 10
3.133904
 20
6.687607
 30
0.000000
 11
3.269991
 21
6.925341
 31
0.000000
  0
LINE
  8
LAYER-1
 62
  0
 10
3.190539
 20
6.655187
 30
0.000000
 11
3.326626
 21
6.892921
 31
0.000000
  0
LINE
  8
LAYER-1
 62
  0
 10
4.622105
 20
6.687606
 30
0.000000
 11
4.758190
 21
6.925341
 31
0.000000
  0
LINE
  8
LAYER-1
 62
  0
 10
4.678741
 20
6.655187
 30
0.000000
 11
4.814826
 21
6.892921
 31
0.000000
  0
LINE
  8
LAYER-1
 62
  0
 10
5.032168
 20
6.687606
 30
0.000000
 11
5.168253
 21
6.925341
 31
0.000000
  0
LINE
  8
LAYER-1
 62
  0
 10
5.088804
 20
6.655187
 30
0.000000
 11
5.224889
 21
6.892921
 31
0.000000
  0
LINE
  8
LAYER-1
 62
  0
 10
5.442229
 20
6.687606
 30
0.000000
 11
5.578315
 21
6.925341
 31
0.000000
  0
LINE
  8
LAYER-1
 62
  0
 10
5.498865
 20
6.655187
 30
0.000000
 11
5.634951
 21
6.892921
 31
0.000000
  0
LINE
  8
LAYER-1
 62
  0
 10
4.217203
 20
6.687607
 30
0.000000
 11
4.353292
 21
6.925341
 31
0.000000
  0
LINE
  8
LAYER-1
 62
  0
 10
4.273839
 20
6.655187
 30
0.000000
 11
4.409928
 21
6.892921
 31
0.000000
  0
LINE
  8
LAYER-1
 62
  0
 10
1.904080
 20
4.300492
 30
0.000000
 11
2.040170
 21
4.538227
 31
0.000000
  0
LINE
  8
LAYER-1
 62
  0
 10
1.960715
 20
4.268071
 30
0.000000
 11
2.096805
 21
4.505806
 31
0.000000
  0
LINE
  8
LAYER-1
 62
  0
 10
2.314142
 20
4.300492
 30
0.000000
 11
2.450232
 21
4.538227
 31
0.000000
  0
LINE
  8
LAYER-1
 62
  0
 10
2.370777
 20
4.268071
 30
0.000000
 11
2.506868
 21
4.505806
 31
0.000000
  0
LINE
  8
LAYER-1
 62
  0
 10
2.724206
 20
4.300491
 30
0.000000
 11
2.860291
 21
4.538226
 31
0.000000
  0
LINE
  8
LAYER-1
 62
  0
 10
2.780841
 20
4.268071
 30
0.000000
 11
2.916927
 21
4.505806
 31
0.000000
  0
LINE
  8
LAYER-1
 62
  0
 10
3.134265
 20
4.300491
 30
0.000000
 11
3.270352
 21
4.538226
 31
0.000000
  0
LINE
  8
LAYER-1
 62
  0
 10
3.190901
 20
4.268071
 30
0.000000
 11
3.326988
 21
4.505806
 31
0.000000
  0
LINE
  8
LAYER-1
 62
  0
 10
4.622463
 20
4.300492
 30
0.000000
 11
4.758552
 21
4.538227
 31
0.000000
  0
LINE
  8
LAYER-1
 62
  0
 10
4.679099
 20
4.268071
 30
0.000000
 11
4.815188
 21
4.505806
 31
0.000000
  0
LINE
  8
LAYER-1
 62
  0
 10
5.032525
 20
4.300492
 30
0.000000
 11
5.168614
 21
4.538227
 31
0.000000
  0
LINE
  8
LAYER-1
 62
  0
 10
5.089161
 20
4.268071
 30
0.000000
 11
5.225250
 21
4.505806
 31
0.000000
  0
LINE
  8
LAYER-1
 62
  0
 10
5.442591
 20
4.300491
 30
0.000000
 11
5.578677
 21
4.538226
 31
0.000000
  0
LINE
  8
LAYER-1
 62
  0
 10
5.499227
 20
4.268071
 30
0.000000
 11
5.635312
 21
4.505806
 31
0.000000
  0
LINE
  8
LAYER-1
 62
  0
 10
4.217562
 20
4.300492
 30
0.000000
 11
4.353653
 21
4.538227
 31
0.000000
  0
LINE
  8
LAYER-1
 62
  0
 10
4.274196
 20
4.268071
 30
0.000000
 11
4.410288
 21
4.505806
 31
0.000000
  0
POLYLINE
  8
LAYER-1
 66
  1
 70
  0
 62
  0
 10
5.830689
 20
5.502836
 30
0.000000
  0
VERTEX
  8
LAYER-1
 10
5.830689
 20
5.502836
 30
0.000000
  0
VERTEX
  8
LAYER-1
 10
5.586415
 20
5.793326
 30
0.000000
  0
SEQEND
  8
LAYER-1
  0
POLYLINE
  8
LAYER-1
 66
  1
 70
  1
 62
  0
  0
VERTEX
  8
LAYER-1
 10
5.573745
 20
5.808392
 30
0.000000
  0
VERTEX
  8
LAYER-1
 10
5.650330
 20
5.782059
 30
0.000000
  0
VERTEX
  8
LAYER-1
 10
5.618440
 20
5.755242
 30
0.000000
  0
VERTEX
  8
LAYER-1
 10
5.586550
 20
5.728425
 30
0.000000
  0
VERTEX
  8
LAYER-1
 10
5.573745
 20
5.808392
 30
0.000000
  0
SEQEND
  8
LAYER-1
  0
POLYLINE
  8
LAYER-1
 66
  1
 70
  0
 62
  0
 10
0.768278
 20
0.037543
 30
0.000000
  0
VERTEX
  8
LAYER-1
 10
0.768278
 20
0.037543
 30
0.000000
  0
VERTEX
  8
LAYER-1
 10
0.794792
 20
0.034087
 30
0.000000
  0
VERTEX
  8
LAYER-1
 10
0.814150
 20
0.034087
 30
0.000000
  0
VERTEX
  8
LAYER-1
 10
0.833509
 20
0.037560
 30
0.000000
  0
VERTEX
  8
LAYER-1
 10
0.852867
 20
0.037560
 30
0.000000
  0
VERTEX
  8
LAYER-1
 10
0.899328
 20
0.044504
 30
0.000000
  0
VERTEX
  8
LAYER-1
 10
0.934173
 20
0.054921
 30
0.000000
  0
VERTEX
  8
LAYER-1
 10
0.956436
 20
0.059261
 30
0.000000
  0
VERTEX
  8
LAYER-1
 10
0.978214
 20
0.060998
 30
0.000000
  0
VERTEX
  8
LAYER-1
 10
1.007736
 20
0.058393
 30
0.000000
  0
VERTEX
  8
LAYER-1
 10
1.038709
 20
0.054921
 30
0.000000
  0
VERTEX
  8
LAYER-1
 10
1.065811
 20
0.047976
 30
0.000000
  0
VERTEX
  8
LAYER-1
 10
1.085170
 20
0.044504
 30
0.000000
  0
VERTEX
  8
LAYER-1
 10
1.116144
 20
0.041032
 30
0.000000
  0
VERTEX
  8
LAYER-1
 10
1.135502
 20
0.037560
 30
0.000000
  0
VERTEX
  8
LAYER-1
 10
1.158732
 20
0.034087
 30
0.000000
  0
VERTEX
  8
LAYER-1
 10
1.185834
 20
0.034087
 30
0.000000
  0
VERTEX
  8
LAYER-1
 10
1.212936
 20
0.034087
 30
0.000000
  0
VERTEX
  8
LAYER-1
 10
1.236167
 20
0.034087
 30
0.000000
  0
VERTEX
  8
LAYER-1
 10
1.259397
 20
0.030615
 30
0.000000
  0
VERTEX
  8
LAYER-1
 10
1.298114
 20
0.030615
 30
0.000000
  0
VERTEX
  8
LAYER-1
 10
1.329088
 20
0.030615
 30
0.000000
  0
VERTEX
  8
LAYER-1
 10
1.348446
 20
0.027143
 30
0.000000
  0
VERTEX
  8
LAYER-1
 10
1.379420
 20
0.023671
 30
0.000000
  0
VERTEX
  8
LAYER-1
 10
1.410394
 20
0.020198
 30
0.000000
  0
VERTEX
  8
LAYER-1
 10
1.449111
 20
0.020198
 30
0.000000
  0
VERTEX
  8
LAYER-1
 10
1.480085
 20
0.020198
 30
0.000000
  0
VERTEX
  8
LAYER-1
 10
1.518801
 20
0.020198
 30
0.000000
  0
VERTEX
  8
LAYER-1
 10
1.549775
 20
0.027143
 30
0.000000
  0
VERTEX
  8
LAYER-1
 10
1.573005
 20
0.027143
 30
0.000000
  0
VERTEX
  8
LAYER-1
 10
1.592364
 20
0.030615
 30
0.000000
  0
VERTEX
  8
LAYER-1
 10
1.615595
 20
0.030615
 30
0.000000
  0
VERTEX
  8
LAYER-1
 10
1.634953
 20
0.030615
 30
0.000000
  0
VERTEX
  8
LAYER-1
 10
1.677542
 20
0.030615
 30
0.000000
  0
VERTEX
  8
LAYER-1
 10
1.724002
 20
0.023671
 30
0.000000
  0
VERTEX
  8
LAYER-1
 10
1.766591
 20
0.020198
 30
0.000000
  0
VERTEX
  8
LAYER-1
 10
1.828539
 20
0.013254
 30
0.000000
  0
VERTEX
  8
LAYER-1
 10
1.886614
 20
0.006310
 30
0.000000
  0
VERTEX
  8
LAYER-1
 10
1.936946
 20
0.006310
 30
0.000000
  0
VERTEX
  8
LAYER-1
 10
1.964048
 20
0.006310
 30
0.000000
  0
VERTEX
  8
LAYER-1
 10
1.998894
 20
0.006310
 30
0.000000
  0
VERTEX
  8
LAYER-1
 10
2.019220
 20
0.007178
 30
0.000000
  0
VERTEX
  8
LAYER-1
 10
2.056485
 20
0.009348
 30
0.000000
  0
VERTEX
  8
LAYER-1
 10
2.103430
 20
0.020198
 30
0.000000
  0
VERTEX
  8
LAYER-1
 10
2.146019
 20
0.034087
 30
0.000000
  0
VERTEX
  8
LAYER-1
 10
2.180864
 20
0.044504
 30
0.000000
  0
VERTEX
  8
LAYER-1
 10
2.207966
 20
0.054921
 30
0.000000
  0
VERTEX
  8
LAYER-1
 10
2.231197
 20
0.061865
 30
0.000000
  0
VERTEX
  8
LAYER-1
 10
2.254427
 20
0.061865
 30
0.000000
  0
VERTEX
  8
LAYER-1
 10
2.277657
 20
0.061865
 30
0.000000
  0
VERTEX
  8
LAYER-1
 10
2.300887
 20
0.061865
 30
0.000000
  0
VERTEX
  8
LAYER-1
 10
2.335733
 20
0.054921
 30
0.000000
  0
VERTEX
  8
LAYER-1
 10
2.366706
 20
0.047976
 30
0.000000
  0
VERTEX
  8
LAYER-1
 10
2.389936
 20
0.041032
 30
0.000000
  0
VERTEX
  8
LAYER-1
 10
2.409295
 20
0.037560
 30
0.000000
  0
VERTEX
  8
LAYER-1
 10
2.432525
 20
0.030615
 30
0.000000
  0
VERTEX
  8
LAYER-1
 10
2.451884
 20
0.023671
 30
0.000000
  0
VERTEX
  8
LAYER-1
 10
2.475114
 20
0.020198
 30
0.000000
  0
VERTEX
  8
LAYER-1
 10
2.494473
 20
0.020198
 30
0.000000
  0
VERTEX
  8
LAYER-1
 10
2.525447
 20
0.016726
 30
0.000000
  0
VERTEX
  8
LAYER-1
 10
2.552548
 20
0.016726
 30
0.000000
  0
VERTEX
  8
LAYER-1
 10
2.587394
 20
0.016726
 30
0.000000
  0
VERTEX
  8
LAYER-1
 10
2.614496
 20
0.020198
 30
0.000000
  0
VERTEX
  8
LAYER-1
 10
2.649341
 20
0.030615
 30
0.000000
  0
VERTEX
  8
LAYER-1
 10
2.668700
 20
0.030615
 30
0.000000
  0
VERTEX
  8
LAYER-1
 10
2.691930
 20
0.030615
 30
0.000000
  0
VERTEX
  8
LAYER-1
 10
2.711289
 20
0.030615
 30
0.000000
  0
VERTEX
  8
LAYER-1
 10
2.734519
 20
0.034087
 30
0.000000
  0
VERTEX
  8
LAYER-1
 10
2.757749
 20
0.037560
 30
0.000000
  0
VERTEX
  8
LAYER-1
 10
2.788723
 20
0.037560
 30
0.000000
  0
VERTEX
  8
LAYER-1
 10
2.819696
 20
0.037560
 30
0.000000
  0
VERTEX
  8
LAYER-1
 10
2.842927
 20
0.037560
 30
0.000000
  0
VERTEX
  8
LAYER-1
 10
2.866157
 20
0.037560
 30
0.000000
  0
VERTEX
  8
LAYER-1
 10
2.885515
 20
0.034087
 30
0.000000
  0
VERTEX
  8
LAYER-1
 10
2.904874
 20
0.030615
 30
0.000000
  0
VERTEX
  8
LAYER-1
 10
2.924233
 20
0.027143
 30
0.000000
  0
VERTEX
  8
LAYER-1
 10
2.943591
 20
0.023671
 30
0.000000
  0
VERTEX
  8
LAYER-1
 10
2.974565
 20
0.016726
 30
0.000000
  0
VERTEX
  8
LAYER-1
 10
2.997795
 20
0.013254
 30
0.000000
  0
VERTEX
  8
LAYER-1
 10
3.021025
 20
0.013254
 30
0.000000
  0
VERTEX
  8
LAYER-1
 10
3.040384
 20
0.013254
 30
0.000000
  0
VERTEX
  8
LAYER-1
 10
3.067486
 20
0.013254
 30
0.000000
  0
VERTEX
  8
LAYER-1
 10
3.098460
 20
0.016726
 30
0.000000
  0
VERTEX
  8
LAYER-1
 10
3.152664
 20
0.027143
 30
0.000000
  0
VERTEX
  8
LAYER-1
 10
3.199124
 20
0.037560
 30
0.000000
  0
VERTEX
  8
LAYER-1
 10
3.241713
 20
0.044504
 30
0.000000
  0
VERTEX
  8
LAYER-1
 10
3.272687
 20
0.047976
 30
0.000000
  0
VERTEX
  8
LAYER-1
 10
3.311403
 20
0.051448
 30
0.000000
  0
VERTEX
  8
LAYER-1
 10
3.342377
 20
0.054921
 30
0.000000
  0
VERTEX
  8
LAYER-1
 10
3.368028
 20
0.055789
 30
0.000000
  0
VERTEX
  8
LAYER-1
 10
3.385450
 20
0.053619
 30
0.000000
  0
VERTEX
  8
LAYER-1
 10
3.406745
 20
0.048844
 30
0.000000
  0
VERTEX
  8
LAYER-1
 10
3.427555
 20
0.037560
 30
0.000000
  0
VERTEX
  8
LAYER-1
 10
3.450785
 20
0.034087
 30
0.000000
  0
VERTEX
  8
LAYER-1
 10
3.470144
 20
0.034087
 30
0.000000
  0
VERTEX
  8
LAYER-1
 10
3.489502
 20
0.034087
 30
0.000000
  0
VERTEX
  8
LAYER-1
 10
3.508861
 20
0.034087
 30
0.000000
  0
VERTEX
  8
LAYER-1
 10
3.539835
 20
0.034087
 30
0.000000
  0
VERTEX
  8
LAYER-1
 10
3.563065
 20
0.034087
 30
0.000000
  0
VERTEX
  8
LAYER-1
 10
3.586294
 20
0.034087
 30
0.000000
  0
VERTEX
  8
LAYER-1
 10
3.605654
 20
0.034087
 30
0.000000
  0
VERTEX
  8
LAYER-1
 10
3.628884
 20
0.034087
 30
0.000000
  0
VERTEX
  8
LAYER-1
 10
3.652114
 20
0.034087
 30
0.000000
  0
VERTEX
  8
LAYER-1
 10
3.671473
 20
0.034087
 30
0.000000
  0
VERTEX
  8
LAYER-1
 10
3.698574
 20
0.034087
 30
0.000000
  0
VERTEX
  8
LAYER-1
 10
3.721805
 20
0.030615
 30
0.000000
  0
VERTEX
  8
LAYER-1
 10
3.744067
 20
0.022803
 30
0.000000
  0
VERTEX
  8
LAYER-1
 10
3.784720
 20
0.020198
 30
0.000000
  0
VERTEX
  8
LAYER-1
 10
3.822469
 20
0.023671
 30
0.000000
  0
VERTEX
  8
LAYER-1
 10
3.841828
 20
0.030615
 30
0.000000
  0
VERTEX
  8
LAYER-1
 10
3.865058
 20
0.037560
 30
0.000000
  0
VERTEX
  8
LAYER-1
 10
3.884901
 20
0.041467
 30
0.000000
  0
VERTEX
  8
LAYER-1
 10
3.907647
 20
0.047976
 30
0.000000
  0
VERTEX
  8
LAYER-1
 10
3.930877
 20
0.047976
 30
0.000000
  0
VERTEX
  8
LAYER-1
 10
3.954108
 20
0.044504
 30
0.000000
  0
VERTEX
  8
LAYER-1
 10
3.977338
 20
0.044504
 30
0.000000
  0
VERTEX
  8
LAYER-1
 10
4.000568
 20
0.044504
 30
0.000000
  0
VERTEX
  8
LAYER-1
 10
4.019927
 20
0.041032
 30
0.000000
  0
VERTEX
  8
LAYER-1
 10
4.047029
 20
0.041032
 30
0.000000
  0
VERTEX
  8
LAYER-1
 10
4.078003
 20
0.041032
 30
0.000000
  0
VERTEX
  8
LAYER-1
 10
4.108976
 20
0.047976
 30
0.000000
  0
VERTEX
  8
LAYER-1
 10
4.128335
 20
0.051448
 30
0.000000
  0
VERTEX
  8
LAYER-1
 10
4.155437
 20
0.051448
 30
0.000000
  0
VERTEX
  8
LAYER-1
 10
4.178667
 20
0.054921
 30
0.000000
  0
VERTEX
  8
LAYER-1
 10
4.209641
 20
0.058393
 30
0.000000
  0
VERTEX
  8
LAYER-1
 10
4.232871
 20
0.058393
 30
0.000000
  0
VERTEX
  8
LAYER-1
 10
4.263845
 20
0.054921
 30
0.000000
  0
VERTEX
  8
LAYER-1
 10
4.306433
 20
0.044504
 30
0.000000
  0
VERTEX
  8
LAYER-1
 10
4.337407
 20
0.034087
 30
0.000000
  0
VERTEX
  8
LAYER-1
 10
4.372253
 20
0.023671
 30
0.000000
  0
VERTEX
  8
LAYER-1
 10
4.415326
 20
0.016725
 30
0.000000
  0
VERTEX
  8
LAYER-1
 10
4.462753
 20
0.017593
 30
0.000000
  0
VERTEX
  8
LAYER-1
 10
4.517925
 20
0.020198
 30
0.000000
  0
VERTEX
  8
LAYER-1
 10
4.585197
 20
0.020198
 30
0.000000
  0
VERTEX
  8
LAYER-1
 10
4.630689
 20
0.008913
 30
0.000000
  0
VERTEX
  8
LAYER-1
 10
4.660695
 20
0.002836
 30
0.000000
  0
VERTEX
  8
LAYER-1
 10
4.683925
 20
0.001968
 30
0.000000
  0
VERTEX
  8
LAYER-1
 10
4.718771
 20
0.001969
 30
0.000000
  0
VERTEX
  8
LAYER-1
 10
4.743937
 20
0.006310
 30
0.000000
  0
VERTEX
  8
LAYER-1
 10
4.771038
 20
0.016726
 30
0.000000
  0
VERTEX
  8
LAYER-1
 10
4.805884
 20
0.023671
 30
0.000000
  0
VERTEX
  8
LAYER-1
 10
4.832986
 20
0.030615
 30
0.000000
  0
VERTEX
  8
LAYER-1
 10
4.856216
 20
0.034087
 30
0.000000
  0
VERTEX
  8
LAYER-1
 10
4.879446
 20
0.037560
 30
0.000000
  0
VERTEX
  8
LAYER-1
 10
4.906548
 20
0.041032
 30
0.000000
  0
VERTEX
  8
LAYER-1
 10
4.933650
 20
0.047976
 30
0.000000
  0
VERTEX
  8
LAYER-1
 10
4.953009
 20
0.051448
 30
0.000000
  0
VERTEX
  8
LAYER-1
 10
4.983983
 20
0.054921
 30
0.000000
  0
VERTEX
  8
LAYER-1
 10
5.007212
 20
0.061865
 30
0.000000
  0
VERTEX
  8
LAYER-1
 10
5.030927
 20
0.072717
 30
0.000000
  0
VERTEX
  8
LAYER-1
 10
5.053673
 20
0.079226
 30
0.000000
  0
VERTEX
  8
LAYER-1
 10
5.076903
 20
0.079226
 30
0.000000
  0
VERTEX
  8
LAYER-1
 10
5.104006
 20
0.079226
 30
0.000000
  0
VERTEX
  8
LAYER-1
 10
5.131107
 20
0.079226
 30
0.000000
  0
VERTEX
  8
LAYER-1
 10
5.169825
 20
0.075754
 30
0.000000
  0
VERTEX
  8
LAYER-1
 10
5.224029
 20
0.072282
 30
0.000000
  0
VERTEX
  8
LAYER-1
 10
5.266617
 20
0.072282
 30
0.000000
  0
VERTEX
  8
LAYER-1
 10
5.297591
 20
0.072282
 30
0.000000
  0
VERTEX
  8
LAYER-1
 10
5.320822
 20
0.072282
 30
0.000000
  0
VERTEX
  8
LAYER-1
 10
5.344052
 20
0.072282
 30
0.000000
  0
VERTEX
  8
LAYER-1
 10
5.375025
 20
0.075754
 30
0.000000
  0
VERTEX
  8
LAYER-1
 10
5.413743
 20
0.075754
 30
0.000000
  0
VERTEX
  8
LAYER-1
 10
5.444716
 20
0.075754
 30
0.000000
  0
VERTEX
  8
LAYER-1
 10
5.467946
 20
0.079226
 30
0.000000
  0
VERTEX
  8
LAYER-1
 10
5.498920
 20
0.079226
 30
0.000000
  0
VERTEX
  8
LAYER-1
 10
5.518279
 20
0.079226
 30
0.000000
  0
VERTEX
  8
LAYER-1
 10
5.549252
 20
0.070546
 30
0.000000
  0
VERTEX
  8
LAYER-1
 10
5.576355
 20
0.058393
 30
0.000000
  0
VERTEX
  8
LAYER-1
 10
5.611199
 20
0.044504
 30
0.000000
  0
VERTEX
  8
LAYER-1
 10
5.638302
 20
0.037560
 30
0.000000
  0
VERTEX
  8
LAYER-1
 10
5.669275
 20
0.030615
 30
0.000000
  0
VERTEX
  8
LAYER-1
 10
5.696861
 20
0.028445
 30
0.000000
  0
VERTEX
  8
LAYER-1
 10
5.723479
 20
0.027143
 30
0.000000
  0
VERTEX
  8
LAYER-1
 10
5.746710
 20
0.030615
 30
0.000000
  0
VERTEX
  8
LAYER-1
 10
5.769939
 20
0.037560
 30
0.000000
  0
VERTEX
  8
LAYER-1
 10
5.797042
 20
0.041032
 30
0.000000
  0
VERTEX
  8
LAYER-1
 10
5.820272
 20
0.044504
 30
0.000000
  0
VERTEX
  8
LAYER-1
 10
5.843502
 20
0.047976
 30
0.000000
  0
VERTEX
  8
LAYER-1
 10
5.862861
 20
0.051448
 30
0.000000
  0
VERTEX
  8
LAYER-1
 10
5.886091
 20
0.051448
 30
0.000000
  0
VERTEX
  8
LAYER-1
 10
5.913193
 20
0.051448
 30
0.000000
  0
VERTEX
  8
LAYER-1
 10
5.933036
 20
0.054053
 30
0.000000
  0
VERTEX
  8
LAYER-1
 10
5.959654
 20
0.058393
 30
0.000000
  0
VERTEX
  8
LAYER-1
 10
5.982884
 20
0.065337
 30
0.000000
  0
VERTEX
  8
LAYER-1
 10
6.013858
 20
0.065337
 30
0.000000
  0
VERTEX
  8
LAYER-1
 10
6.044831
 20
0.065337
 30
0.000000
  0
VERTEX
  8
LAYER-1
 10
6.064190
 20
0.065337
 30
0.000000
  0
VERTEX
  8
LAYER-1
 10
6.118394
 20
0.058393
 30
0.000000
  0
VERTEX
  8
LAYER-1
 10
6.149367
 20
0.051448
 30
0.000000
  0
VERTEX
  8
LAYER-1
 10
6.168726
 20
0.047976
 30
0.000000
  0
VERTEX
  8
LAYER-1
 10
6.203571
 20
0.047976
 30
0.000000
  0
VERTEX
  8
LAYER-1
 10
6.227285
 20
0.055355
 30
0.000000
  0
VERTEX
  8
LAYER-1
 10
6.249064
 20
0.056223
 30
0.000000
  0
VERTEX
  8
LAYER-1
 10
6.300848
 20
0.063167
 30
0.000000
  0
VERTEX
  8
LAYER-1
 10
6.349244
 20
0.073150
 30
0.000000
  0
VERTEX
  8
LAYER-1
 10
6.385542
 20
0.076623
 30
0.000000
  0
VERTEX
  8
LAYER-1
 10
6.418451
 20
0.077056
 30
0.000000
  0
VERTEX
  8
LAYER-1
 10
6.435390
 20
0.072282
 30
0.000000
  0
VERTEX
  8
LAYER-1
 10
6.453781
 20
0.068810
 30
0.000000
  0
VERTEX
  8
LAYER-1
 10
6.484754
 20
0.063601
 30
0.000000
  0
VERTEX
  8
LAYER-1
 10
6.524924
 20
0.071848
 30
0.000000
  0
VERTEX
  8
LAYER-1
 10
6.540410
 20
0.079226
 30
0.000000
  0
VERTEX
  8
LAYER-1
 10
6.563641
 20
0.079226
 30
0.000000
  0
VERTEX
  8
LAYER-1
 10
6.586871
 20
0.079226
 30
0.000000
  0
VERTEX
  8
LAYER-1
 10
6.613973
 20
0.072282
 30
0.000000
  0
VERTEX
  8
LAYER-1
 10
6.637203
 20
0.058393
 30
0.000000
  0
VERTEX
  8
LAYER-1
 10
6.664305
 20
0.047976
 30
0.000000
  0
VERTEX
  8
LAYER-1
 10
6.691407
 20
0.037560
 30
0.000000
  0
VERTEX
  8
LAYER-1
 10
6.714637
 20
0.037560
 30
0.000000
  0
VERTEX
  8
LAYER-1
 10
6.744698
 20
0.037543
 30
0.000000
  0
VERTEX
  8
LAYER-1
 10
6.768841
 20
0.047976
 30
0.000000
  0
SEQEND
  8
LAYER-1
  0
TEXT
  8
LAYER-1
 62
  0
 10
1.809856
 20
8.468114
 30
0.000000
 40
0.125000
  1
VETRO TEMPRATO
 72
  5
 11
3.365411
 21
8.468114
 31
0.000000
  0
TEXT
  8
LAYER-1
 62
  0
 10
5.865411
 20
0.551448
 30
0.000000
 40
0.125000
  1
Vano
 72
  5
 11
6.323745
 21
0.551448
 31
0.000000
  0
TEXT
  8
LAYER-1
 62
  0
 10
5.865411
 20
0.357003
 30
0.000000
 40
0.125000
  1
antipolvere
 72
  5
 11
6.768189
 21
0.357003
 31
0.000000
  0
POLYLINE
  8
LAYER-1
 66
  1
 70
  0
 62
  0
 10
5.851523
 20
0.468114
 30
0.000000
  0
VERTEX
  8
LAYER-1
 10
5.851523
 20
0.468114
 30
0.000000
  0
VERTEX
  8
LAYER-1
 10
3.787657
 20
0.158535
 30
0.000000
  0
SEQEND
  8
LAYER-1
  0
POLYLINE
  8
LAYER-1
 66
  1
 70
  1
 62
  0
  0
VERTEX
  8
LAYER-1
 10
3.768189
 20
0.155614
 30
0.000000
  0
VERTEX
  8
LAYER-1
 10
3.830684
 20
0.207121
 30
0.000000
  0
VERTEX
  8
LAYER-1
 10
3.836865
 20
0.165916
 30
0.000000
  0
VERTEX
  8
LAYER-1
 10
3.843046
 20
0.124710
 30
0.000000
  0
VERTEX
  8
LAYER-1
 10
3.768189
 20
0.155614
 30
0.000000
  0
SEQEND
  8
LAYER-1
  0
LINE
  8
LAYER-1
 62
  0
 10
5.910550
 20
7.416031
 30
0.000000
 11
5.910550
 21
7.147992
 31
0.000000
  0
LINE
  8
LAYER-1
 62
  0
 10
5.827429
 20
7.416031
 30
0.000000
 11
6.035550
 21
7.416031
 31
0.000000
  0
LINE
  8
LAYER-1
 62
  0
 10
5.833292
 20
7.147992
 30
0.000000
 11
6.035550
 21
7.147992
 31
0.000000
  0
LINE
  8
LAYER-1
 62
  0
 10
5.940013
 20
7.386568
 30
0.000000
 11
5.881088
 21
7.445494
 31
0.000000
  0
LINE
  8
LAYER-1
 62
  0
 10
5.940013
 20
7.118529
 30
0.000000
 11
5.881088
 21
7.177455
 31
0.000000
  0
TEXT
  8
LAYER-1
 62
  0
 10
5.786594
 20
7.273429
 30
0.000000
 40
0.125000
  1
 
 50
90.000000
  0
TEXT
  8
LAYER-1
 62
  0
 10
6.212634
 20
7.301448
 30
0.000000
 40
0.125000
  1
4"
 72
  5
 11
6.434856
 21
7.301448
 31
0.000000
  0
TEXT
  8
LAYER-1
 62
  0
 10
5.990411
 20
7.107003
 30
0.000000
 40
0.125000
  1
102mm
 72
  5
 11
6.657078
 21
7.107003
 31
0.000000
  0
LINE
  8
LAYER-1
 62
  0
 10
4.517320
 20
7.679242
 30
0.000000
 11
4.927043
 21
7.679242
 31
0.000000
  0
LINE
  8
LAYER-1
 62
  0
 10
4.517320
 20
7.309451
 30
0.000000
 11
4.517320
 21
7.804242
 31
0.000000
  0
LINE
  8
LAYER-1
 62
  0
 10
4.927043
 20
7.307715
 30
0.000000
 11
4.927043
 21
7.804242
 31
0.000000
  0
LINE
  8
LAYER-1
 62
  0
 10
4.546783
 20
7.708704
 30
0.000000
 11
4.487858
 21
7.649779
 31
0.000000
  0
LINE
  8
LAYER-1
 62
  0
 10
4.956506
 20
7.708704
 30
0.000000
 11
4.897580
 21
7.649779
 31
0.000000
  0
TEXT
  8
LAYER-1
 62
  0
 10
4.717336
 20
7.800901
 30
0.000000
 40
0.125000
  1
 
  0
TEXT
  8
LAYER-1
 62
  0
 10
4.601523
 20
8.023670
 30
0.000000
 40
0.125000
  1
6"
 72
  5
 11
4.823745
 21
8.023670
 31
0.000000
  0
TEXT
  8
LAYER-1
 62
  0
 10
4.379300
 20
7.829225
 30
0.000000
 40
0.125000
  1
152mm
 72
  5
 11
5.045967
 21
7.829225
 31
0.000000
  0
ENDSEC
  0
EOF
