  0
SECTION
  2
HEADER
999
MacDraft 5.0\0
  9
$ACADVER
  1
AC1006
  9
$CLAYER
  8
MERGEDLAYER-2
  9
$EXTMIN
 10
0.000000
 20
0.000000
  9
$EXTMAX
 10
7.555556
 20
9.993866
  9
$FASTZOOM
 70
0
  9
$FILLMODE
 70
1
  0
ENDSEC
  0
SECTION
  2
TABLES
  0
TABLE
  2
LTYPE
 70
16
  0
LTYPE
  2
CONTINUOUS
 70
64
  3
Solid Line
 72
65
 73
0
 40
0.000000
  0
LTYPE
  2
LTYPE01
 70
64
  3
CUSTOM
 72
65
 73
2
 40
0.111111
 49
0.083333
 49
-0.027778
  0
LTYPE
  2
LTYPE02
 70
64
  3
CUSTOM
 72
65
 73
2
 40
0.194444
 49
0.166667
 49
-0.027778
  0
LTYPE
  2
LTYPE03
 70
64
  3
CUSTOM
 72
65
 73
2
 40
0.375000
 49
0.333333
 49
-0.041667
  0
LTYPE
  2
LTYPE04
 70
64
  3
CUSTOM
 72
65
 73
2
 40
0.722222
 49
0.666667
 49
-0.055556
  0
LTYPE
  2
LTYPE05
 70
64
  3
CUSTOM
 72
65
 73
4
 40
0.152778
 49
0.083333
 49
-0.027778
 49
0.013889
 49
-0.027778
  0
LTYPE
  2
LTYPE06
 70
64
  3
CUSTOM
 72
65
 73
4
 40
0.236111
 49
0.166667
 49
-0.027778
 49
0.013889
 49
-0.027778
  0
LTYPE
  2
LTYPE07
 70
64
  3
CUSTOM
 72
65
 73
4
 40
0.444444
 49
0.333333
 49
-0.041667
 49
0.027778
 49
-0.041667
  0
LTYPE
  2
LTYPE08
 70
64
  3
CUSTOM
 72
65
 73
4
 40
0.805556
 49
0.666667
 49
-0.055556
 49
0.027778
 49
-0.055556
  0
LTYPE
  2
LTYPE09
 70
64
  3
CUSTOM
 72
65
 73
6
 40
0.194444
 49
0.083333
 49
-0.027778
 49
0.013889
 49
-0.027778
 49
0.013889
 49
-0.027778
  0
LTYPE
  2
LTYPE10
 70
64
  3
CUSTOM
 72
65
 73
6
 40
0.277778
 49
0.166667
 49
-0.027778
 49
0.013889
 49
-0.027778
 49
0.013889
 49
-0.027778
  0
LTYPE
  2
LTYPE11
 70
64
  3
CUSTOM
 72
65
 73
6
 40
0.500000
 49
0.333333
 49
-0.041667
 49
0.027778
 49
-0.027778
 49
0.027778
 49
-0.041667
  0
LTYPE
  2
LTYPE12
 70
64
  3
CUSTOM
 72
65
 73
6
 40
0.861111
 49
0.666667
 49
-0.055556
 49
0.027778
 49
-0.027778
 49
0.027778
 49
-0.055556
  0
LTYPE
  2
LTYPE13
 70
64
  3
CUSTOM
 72
65
 73
8
 40
0.319444
 49
0.166667
 49
-0.027778
 49
0.013889
 49
-0.027778
 49
0.013889
 49
-0.027778
 49
0.013889
 49
-0.027778
  0
LTYPE
  2
LTYPE14
 70
64
  3
CUSTOM
 72
65
 73
8
 40
0.555556
 49
0.333333
 49
-0.041667
 49
0.027778
 49
-0.027778
 49
0.027778
 49
-0.027778
 49
0.027778
 49
-0.041667
  0
LTYPE
  2
LTYPE15
 70
64
  3
CUSTOM
 72
65
 73
8
 40
0.944444
 49
0.666667
 49
-0.055556
 49
0.027778
 49
-0.041667
 49
0.027778
 49
-0.041667
 49
0.027778
 49
-0.055556
  0
ENDTAB
  0
TABLE
  2
LAYER
 70
1
  0
LAYER
  2
MERGEDLAYER-2
 70
0
 62
7
  6
CONTINUOUS
  0
ENDTAB
  0
ENDSEC
  0
SECTION
  2
BLOCKS
  0
ENDSEC
  0
SECTION
  2
ENTITIES
  0
ARC
  8
MERGEDLAYER-2
 62
  0
 10
5.486335
 20
8.921878
 30
0.000000
 40
0.254425
 50
270.000000
 51
90.000000
  0
POLYLINE
  8
MERGEDLAYER-2
 66
  1
 70
  0
 62
  0
 10
5.486335
 20
9.176303
 30
0.000000
  0
VERTEX
  8
MERGEDLAYER-2
 10
5.486335
 20
9.176303
 30
0.000000
  0
VERTEX
  8
MERGEDLAYER-2
 10
1.821413
 20
9.176303
 30
0.000000
  0
SEQEND
  8
MERGEDLAYER-2
  0
POLYLINE
  8
MERGEDLAYER-2
 66
  1
 70
  0
 62
  0
 10
1.821413
 20
9.176303
 30
0.000000
  0
VERTEX
  8
MERGEDLAYER-2
 10
1.821413
 20
9.176303
 30
0.000000
  0
VERTEX
  8
MERGEDLAYER-2
 10
1.821413
 20
8.667454
 30
0.000000
  0
SEQEND
  8
MERGEDLAYER-2
  0
POLYLINE
  8
MERGEDLAYER-2
 66
  1
 70
  0
 62
  0
 10
5.486335
 20
8.667454
 30
0.000000
  0
VERTEX
  8
MERGEDLAYER-2
 10
5.486335
 20
8.667454
 30
0.000000
  0
VERTEX
  8
MERGEDLAYER-2
 10
1.821413
 20
8.667454
 30
0.000000
  0
SEQEND
  8
MERGEDLAYER-2
  0
TEXT
  8
MERGEDLAYER-2
 62
  0
 10
3.625000
 20
9.472226
 30
0.000000
 40
0.333333
  1
MobilFlex
 72
  5
 11
5.777778
 21
9.472226
 31
0.000000
  0
POLYLINE
  8
MERGEDLAYER-2
 66
  1
 70
  1
 62
  0
  0
VERTEX
  8
MERGEDLAYER-2
 10
1.822917
 20
9.992199
 30
0.000000
  0
VERTEX
  8
MERGEDLAYER-2
 10
2.060764
 20
9.992199
 30
0.000000
  0
VERTEX
  8
MERGEDLAYER-2
 10
2.060764
 20
9.475255
 30
0.000000
  0
VERTEX
  8
MERGEDLAYER-2
 10
1.822917
 20
9.475255
 30
0.000000
  0
SEQEND
  8
MERGEDLAYER-2
  0
POLYLINE
  8
MERGEDLAYER-2
 66
  1
 70
  1
 62
  0
  0
VERTEX
  8
MERGEDLAYER-2
 10
2.135417
 20
9.992199
 30
0.000000
  0
VERTEX
  8
MERGEDLAYER-2
 10
2.373264
 20
9.992199
 30
0.000000
  0
VERTEX
  8
MERGEDLAYER-2
 10
2.373264
 20
9.475255
 30
0.000000
  0
VERTEX
  8
MERGEDLAYER-2
 10
2.135417
 20
9.475255
 30
0.000000
  0
SEQEND
  8
MERGEDLAYER-2
  0
POLYLINE
  8
MERGEDLAYER-2
 66
  1
 70
  1
 62
  0
  0
VERTEX
  8
MERGEDLAYER-2
 10
2.435764
 20
9.992199
 30
0.000000
  0
VERTEX
  8
MERGEDLAYER-2
 10
2.673611
 20
9.992199
 30
0.000000
  0
VERTEX
  8
MERGEDLAYER-2
 10
2.673611
 20
9.475255
 30
0.000000
  0
VERTEX
  8
MERGEDLAYER-2
 10
2.435764
 20
9.475255
 30
0.000000
  0
SEQEND
  8
MERGEDLAYER-2
  0
POLYLINE
  8
MERGEDLAYER-2
 66
  1
 70
  1
 62
  0
  0
VERTEX
  8
MERGEDLAYER-2
 10
2.739583
 20
9.992199
 30
0.000000
  0
VERTEX
  8
MERGEDLAYER-2
 10
2.977431
 20
9.992199
 30
0.000000
  0
VERTEX
  8
MERGEDLAYER-2
 10
2.977431
 20
9.475255
 30
0.000000
  0
VERTEX
  8
MERGEDLAYER-2
 10
2.739583
 20
9.475255
 30
0.000000
  0
SEQEND
  8
MERGEDLAYER-2
  0
POLYLINE
  8
MERGEDLAYER-2
 66
  1
 70
  1
 62
  0
  0
VERTEX
  8
MERGEDLAYER-2
 10
3.056424
 20
9.988285
 30
0.000000
  0
VERTEX
  8
MERGEDLAYER-2
 10
3.431858
 20
9.988285
 30
0.000000
  0
VERTEX
  8
MERGEDLAYER-2
 10
3.431858
 20
9.850264
 30
0.000000
  0
VERTEX
  8
MERGEDLAYER-2
 10
3.056424
 20
9.850264
 30
0.000000
  0
SEQEND
  8
MERGEDLAYER-2
  0
POLYLINE
  8
MERGEDLAYER-2
 66
  1
 70
  1
 62
  0
  0
VERTEX
  8
MERGEDLAYER-2
 10
3.055990
 20
9.760854
 30
0.000000
  0
VERTEX
  8
MERGEDLAYER-2
 10
3.364149
 20
9.760854
 30
0.000000
  0
VERTEX
  8
MERGEDLAYER-2
 10
3.364149
 20
9.626740
 30
0.000000
  0
VERTEX
  8
MERGEDLAYER-2
 10
3.055990
 20
9.626740
 30
0.000000
  0
SEQEND
  8
MERGEDLAYER-2
  0
POLYLINE
  8
MERGEDLAYER-2
 66
  1
 70
  1
 62
  0
  0
VERTEX
  8
MERGEDLAYER-2
 10
1.822917
 20
9.390628
 30
0.000000
  0
VERTEX
  8
MERGEDLAYER-2
 10
5.741319
 20
9.390628
 30
0.000000
  0
VERTEX
  8
MERGEDLAYER-2
 10
5.741319
 20
9.347226
 30
0.000000
  0
VERTEX
  8
MERGEDLAYER-2
 10
1.822917
 20
9.347226
 30
0.000000
  0
SEQEND
  8
MERGEDLAYER-2
  0
POLYLINE
  8
MERGEDLAYER-2
 66
  1
 70
  0
 62
  0
 10
5.768738
 20
6.893997
 30
0.000000
  0
VERTEX
  8
MERGEDLAYER-2
 10
5.768738
 20
6.893997
 30
0.000000
  0
VERTEX
  8
MERGEDLAYER-2
 10
5.759121
 20
7.020914
 30
0.000000
  0
VERTEX
  8
MERGEDLAYER-2
 10
5.730363
 20
7.146609
 30
0.000000
  0
VERTEX
  8
MERGEDLAYER-2
 10
5.682741
 20
7.269870
 30
0.000000
  0
VERTEX
  8
MERGEDLAYER-2
 10
5.616714
 20
7.389513
 30
0.000000
  0
VERTEX
  8
MERGEDLAYER-2
 10
5.532917
 20
7.504383
 30
0.000000
  0
VERTEX
  8
MERGEDLAYER-2
 10
5.432157
 20
7.613374
 30
0.000000
  0
VERTEX
  8
MERGEDLAYER-2
 10
5.315406
 20
7.715438
 30
0.000000
  0
VERTEX
  8
MERGEDLAYER-2
 10
5.183786
 20
7.809591
 30
0.000000
  0
VERTEX
  8
MERGEDLAYER-2
 10
5.038567
 20
7.894926
 30
0.000000
  0
VERTEX
  8
MERGEDLAYER-2
 10
4.881145
 20
7.970622
 30
0.000000
  0
VERTEX
  8
MERGEDLAYER-2
 10
4.713039
 20
8.035949
 30
0.000000
  0
VERTEX
  8
MERGEDLAYER-2
 10
4.535865
 20
8.090278
 30
0.000000
  0
VERTEX
  8
MERGEDLAYER-2
 10
4.351331
 20
8.133086
 30
0.000000
  0
VERTEX
  8
MERGEDLAYER-2
 10
4.161213
 20
8.163962
 30
0.000000
  0
VERTEX
  8
MERGEDLAYER-2
 10
3.967344
 20
8.182607
 30
0.000000
  0
VERTEX
  8
MERGEDLAYER-2
 10
3.771589
 20
8.188842
 30
0.000000
  0
VERTEX
  8
MERGEDLAYER-2
 10
3.575834
 20
8.182607
 30
0.000000
  0
VERTEX
  8
MERGEDLAYER-2
 10
3.381964
 20
8.163962
 30
0.000000
  0
VERTEX
  8
MERGEDLAYER-2
 10
3.191847
 20
8.133086
 30
0.000000
  0
VERTEX
  8
MERGEDLAYER-2
 10
3.007313
 20
8.090278
 30
0.000000
  0
VERTEX
  8
MERGEDLAYER-2
 10
2.830139
 20
8.035949
 30
0.000000
  0
VERTEX
  8
MERGEDLAYER-2
 10
2.662032
 20
7.970622
 30
0.000000
  0
VERTEX
  8
MERGEDLAYER-2
 10
2.504611
 20
7.894926
 30
0.000000
  0
VERTEX
  8
MERGEDLAYER-2
 10
2.359392
 20
7.809591
 30
0.000000
  0
VERTEX
  8
MERGEDLAYER-2
 10
2.227772
 20
7.715438
 30
0.000000
  0
VERTEX
  8
MERGEDLAYER-2
 10
2.111021
 20
7.613374
 30
0.000000
  0
VERTEX
  8
MERGEDLAYER-2
 10
2.010261
 20
7.504383
 30
0.000000
  0
VERTEX
  8
MERGEDLAYER-2
 10
1.926464
 20
7.389513
 30
0.000000
  0
VERTEX
  8
MERGEDLAYER-2
 10
1.860437
 20
7.269870
 30
0.000000
  0
VERTEX
  8
MERGEDLAYER-2
 10
1.812815
 20
7.146609
 30
0.000000
  0
VERTEX
  8
MERGEDLAYER-2
 10
1.784057
 20
7.020914
 30
0.000000
  0
VERTEX
  8
MERGEDLAYER-2
 10
1.774440
 20
6.893997
 30
0.000000
  0
VERTEX
  8
MERGEDLAYER-2
 10
1.784057
 20
6.767080
 30
0.000000
  0
VERTEX
  8
MERGEDLAYER-2
 10
1.812815
 20
6.641385
 30
0.000000
  0
VERTEX
  8
MERGEDLAYER-2
 10
1.860437
 20
6.518123
 30
0.000000
  0
VERTEX
  8
MERGEDLAYER-2
 10
1.926464
 20
6.398482
 30
0.000000
  0
VERTEX
  8
MERGEDLAYER-2
 10
2.010261
 20
6.283611
 30
0.000000
  0
VERTEX
  8
MERGEDLAYER-2
 10
2.111021
 20
6.174620
 30
0.000000
  0
VERTEX
  8
MERGEDLAYER-2
 10
2.227772
 20
6.072556
 30
0.000000
  0
VERTEX
  8
MERGEDLAYER-2
 10
2.359392
 20
5.978403
 30
0.000000
  0
VERTEX
  8
MERGEDLAYER-2
 10
2.504611
 20
5.893069
 30
0.000000
  0
VERTEX
  8
MERGEDLAYER-2
 10
2.662032
 20
5.817373
 30
0.000000
  0
VERTEX
  8
MERGEDLAYER-2
 10
2.830139
 20
5.752046
 30
0.000000
  0
VERTEX
  8
MERGEDLAYER-2
 10
3.007313
 20
5.697716
 30
0.000000
  0
VERTEX
  8
MERGEDLAYER-2
 10
3.191847
 20
5.654907
 30
0.000000
  0
VERTEX
  8
MERGEDLAYER-2
 10
3.381964
 20
5.624032
 30
0.000000
  0
VERTEX
  8
MERGEDLAYER-2
 10
3.575834
 20
5.605387
 30
0.000000
  0
VERTEX
  8
MERGEDLAYER-2
 10
3.771589
 20
5.599152
 30
0.000000
  0
VERTEX
  8
MERGEDLAYER-2
 10
3.967344
 20
5.605387
 30
0.000000
  0
VERTEX
  8
MERGEDLAYER-2
 10
4.161213
 20
5.624032
 30
0.000000
  0
VERTEX
  8
MERGEDLAYER-2
 10
4.351331
 20
5.654907
 30
0.000000
  0
VERTEX
  8
MERGEDLAYER-2
 10
4.535865
 20
5.697716
 30
0.000000
  0
VERTEX
  8
MERGEDLAYER-2
 10
4.713039
 20
5.752046
 30
0.000000
  0
VERTEX
  8
MERGEDLAYER-2
 10
4.881145
 20
5.817373
 30
0.000000
  0
VERTEX
  8
MERGEDLAYER-2
 10
5.038567
 20
5.893069
 30
0.000000
  0
VERTEX
  8
MERGEDLAYER-2
 10
5.183786
 20
5.978403
 30
0.000000
  0
VERTEX
  8
MERGEDLAYER-2
 10
5.315406
 20
6.072556
 30
0.000000
  0
VERTEX
  8
MERGEDLAYER-2
 10
5.432157
 20
6.174620
 30
0.000000
  0
VERTEX
  8
MERGEDLAYER-2
 10
5.532917
 20
6.283611
 30
0.000000
  0
VERTEX
  8
MERGEDLAYER-2
 10
5.616714
 20
6.398482
 30
0.000000
  0
VERTEX
  8
MERGEDLAYER-2
 10
5.682741
 20
6.518123
 30
0.000000
  0
VERTEX
  8
MERGEDLAYER-2
 10
5.730363
 20
6.641385
 30
0.000000
  0
VERTEX
  8
MERGEDLAYER-2
 10
5.759121
 20
6.767080
 30
0.000000
  0
VERTEX
  8
MERGEDLAYER-2
 10
5.768738
 20
6.893997
 30
0.000000
  0
SEQEND
  8
MERGEDLAYER-2
  0
POLYLINE
  8
MERGEDLAYER-2
 66
  1
 70
  1
 62
  7
  0
VERTEX
  8
MERGEDLAYER-2
 10
2.114323
 20
7.349177
 30
0.000000
  0
VERTEX
  8
MERGEDLAYER-2
 10
5.545305
 20
7.349177
 30
0.000000
  0
VERTEX
  8
MERGEDLAYER-2
 10
5.545305
 20
6.523286
 30
0.000000
  0
VERTEX
  8
MERGEDLAYER-2
 10
2.114323
 20
6.523286
 30
0.000000
  0
SEQEND
  8
MERGEDLAYER-2
  0
POLYLINE
  8
MERGEDLAYER-2
 66
  1
 70
  1
 62
  0
  0
VERTEX
  8
MERGEDLAYER-2
 10
0.612405
 20
5.240450
 30
0.000000
  0
VERTEX
  8
MERGEDLAYER-2
 10
6.945153
 20
5.240450
 30
0.000000
  0
VERTEX
  8
MERGEDLAYER-2
 10
6.945153
 20
0.513894
 30
0.000000
  0
VERTEX
  8
MERGEDLAYER-2
 10
0.612405
 20
0.513894
 30
0.000000
  0
SEQEND
  8
MERGEDLAYER-2
  0
POLYLINE
  8
MERGEDLAYER-2
 66
  1
 70
  1
 62
  0
  0
VERTEX
  8
MERGEDLAYER-2
 10
0.614071
 20
0.683787
 30
0.000000
  0
VERTEX
  8
MERGEDLAYER-2
 10
6.943839
 20
0.683787
 30
0.000000
  0
VERTEX
  8
MERGEDLAYER-2
 10
6.943839
 20
0.634359
 30
0.000000
  0
VERTEX
  8
MERGEDLAYER-2
 10
0.614071
 20
0.634359
 30
0.000000
  0
SEQEND
  8
MERGEDLAYER-2
  0
POLYLINE
  8
MERGEDLAYER-2
 66
  1
 70
  0
 62
 15
 10
0.613583
 20
0.659726
 30
0.000000
  0
VERTEX
  8
MERGEDLAYER-2
 10
0.613583
 20
0.659726
 30
0.000000
  0
VERTEX
  8
MERGEDLAYER-2
 10
6.943185
 20
0.659726
 30
0.000000
  0
SEQEND
  8
MERGEDLAYER-2
  0
POLYLINE
  8
MERGEDLAYER-2
 66
  1
 70
  1
 62
  0
  0
VERTEX
  8
MERGEDLAYER-2
 10
0.627831
 20
0.513484
 30
0.000000
  0
VERTEX
  8
MERGEDLAYER-2
 10
6.928796
 20
0.513484
 30
0.000000
  0
VERTEX
  8
MERGEDLAYER-2
 10
6.928796
 20
0.277783
 30
0.000000
  0
VERTEX
  8
MERGEDLAYER-2
 10
0.627831
 20
0.277783
 30
0.000000
  0
SEQEND
  8
MERGEDLAYER-2
  0
POLYLINE
  8
MERGEDLAYER-2
 66
  1
 70
  0
 62
  0
 10
0.628890
 20
0.343430
 30
0.000000
  0
VERTEX
  8
MERGEDLAYER-2
 10
0.628890
 20
0.343430
 30
0.000000
  0
VERTEX
  8
MERGEDLAYER-2
 10
6.929299
 20
0.343430
 30
0.000000
  0
SEQEND
  8
MERGEDLAYER-2
  0
POLYLINE
  8
MERGEDLAYER-2
 66
  1
 70
  0
 62
  0
 10
0.628890
 20
0.322127
 30
0.000000
  0
VERTEX
  8
MERGEDLAYER-2
 10
0.628890
 20
0.322127
 30
0.000000
  0
VERTEX
  8
MERGEDLAYER-2
 10
6.929299
 20
0.322127
 30
0.000000
  0
SEQEND
  8
MERGEDLAYER-2
  0
POLYLINE
  8
MERGEDLAYER-2
 66
  1
 70
  0
 62
  0
 10
0.627831
 20
0.498140
 30
0.000000
  0
VERTEX
  8
MERGEDLAYER-2
 10
0.627831
 20
0.498140
 30
0.000000
  0
VERTEX
  8
MERGEDLAYER-2
 10
6.927951
 20
0.498140
 30
0.000000
  0
SEQEND
  8
MERGEDLAYER-2
  0
TEXT
  8
MERGEDLAYER-2
 62
  7
 10
1.972222
 20
8.791670
 30
0.000000
 40
0.187500
  1
Elevation model Roll-Flex 
 72
  5
 11
5.152778
 21
8.791670
 31
0.000000
  0
TEXT
  8
MERGEDLAYER-2
 62
  7
 10
5.152778
 20
8.791670
 30
0.000000
 40
0.125000
  1
brick
 72
  5
 11
5.625000
 21
8.791670
 31
0.000000
  0
POLYLINE
  8
MERGEDLAYER-2
 66
  1
 70
  0
 62
  0
 10
3.665080
 20
0.406320
 30
0.000000
  0
VERTEX
  8
MERGEDLAYER-2
 10
3.665080
 20
0.406320
 30
0.000000
  0
VERTEX
  8
MERGEDLAYER-2
 10
3.657874
 20
0.423475
 30
0.000000
  0
VERTEX
  8
MERGEDLAYER-2
 10
3.637353
 20
0.438019
 30
0.000000
  0
VERTEX
  8
MERGEDLAYER-2
 10
3.606642
 20
0.447738
 30
0.000000
  0
VERTEX
  8
MERGEDLAYER-2
 10
3.570415
 20
0.451150
 30
0.000000
  0
VERTEX
  8
MERGEDLAYER-2
 10
3.534188
 20
0.447738
 30
0.000000
  0
VERTEX
  8
MERGEDLAYER-2
 10
3.503476
 20
0.438019
 30
0.000000
  0
VERTEX
  8
MERGEDLAYER-2
 10
3.482955
 20
0.423475
 30
0.000000
  0
VERTEX
  8
MERGEDLAYER-2
 10
3.475749
 20
0.406320
 30
0.000000
  0
VERTEX
  8
MERGEDLAYER-2
 10
3.482955
 20
0.389165
 30
0.000000
  0
VERTEX
  8
MERGEDLAYER-2
 10
3.503476
 20
0.374621
 30
0.000000
  0
VERTEX
  8
MERGEDLAYER-2
 10
3.534188
 20
0.364903
 30
0.000000
  0
VERTEX
  8
MERGEDLAYER-2
 10
3.570415
 20
0.361491
 30
0.000000
  0
VERTEX
  8
MERGEDLAYER-2
 10
3.606642
 20
0.364903
 30
0.000000
  0
VERTEX
  8
MERGEDLAYER-2
 10
3.637353
 20
0.374621
 30
0.000000
  0
VERTEX
  8
MERGEDLAYER-2
 10
3.657874
 20
0.389165
 30
0.000000
  0
VERTEX
  8
MERGEDLAYER-2
 10
3.665080
 20
0.406320
 30
0.000000
  0
SEQEND
  8
MERGEDLAYER-2
  0
POLYLINE
  8
MERGEDLAYER-2
 66
  1
 70
  0
 62
  0
 10
3.352217
 20
0.394357
 30
0.000000
  0
VERTEX
  8
MERGEDLAYER-2
 10
3.352217
 20
0.394357
 30
0.000000
  0
VERTEX
  8
MERGEDLAYER-2
 10
3.572611
 20
0.381597
 30
0.000000
  0
SEQEND
  8
MERGEDLAYER-2
  0
POLYLINE
  8
MERGEDLAYER-2
 66
  1
 70
  0
 62
  0
 10
3.352195
 20
0.414347
 30
0.000000
  0
VERTEX
  8
MERGEDLAYER-2
 10
3.352195
 20
0.414347
 30
0.000000
  0
VERTEX
  8
MERGEDLAYER-2
 10
3.340821
 20
0.405731
 30
0.000000
  0
VERTEX
  8
MERGEDLAYER-2
 10
3.352215
 20
0.394355
 30
0.000000
  0
SEQEND
  8
MERGEDLAYER-2
  0
POLYLINE
  8
MERGEDLAYER-2
 66
  1
 70
  0
 62
  0
 10
3.352193
 20
0.414348
 30
0.000000
  0
VERTEX
  8
MERGEDLAYER-2
 10
3.352193
 20
0.414348
 30
0.000000
  0
VERTEX
  8
MERGEDLAYER-2
 10
3.572383
 20
0.427106
 30
0.000000
  0
SEQEND
  8
MERGEDLAYER-2
  0
POLYLINE
  8
MERGEDLAYER-2
 66
  1
 70
  0
 62
  0
 10
3.572611
 20
0.381597
 30
0.000000
  0
VERTEX
  8
MERGEDLAYER-2
 10
3.572611
 20
0.381597
 30
0.000000
  0
VERTEX
  8
MERGEDLAYER-2
 10
3.586666
 20
0.390390
 30
0.000000
  0
VERTEX
  8
MERGEDLAYER-2
 10
3.593170
 20
0.406548
 30
0.000000
  0
VERTEX
  8
MERGEDLAYER-2
 10
3.586344
 20
0.422571
 30
0.000000
  0
VERTEX
  8
MERGEDLAYER-2
 10
3.572383
 20
0.427108
 30
0.000000
  0
SEQEND
  8
MERGEDLAYER-2
  0
POLYLINE
  8
MERGEDLAYER-2
 66
  1
 70
  1
 62
  0
  0
VERTEX
  8
MERGEDLAYER-2
 10
3.761987
 20
0.426021
 30
0.000000
  0
VERTEX
  8
MERGEDLAYER-2
 10
3.807703
 20
0.426021
 30
0.000000
  0
VERTEX
  8
MERGEDLAYER-2
 10
3.807703
 20
0.413829
 30
0.000000
  0
VERTEX
  8
MERGEDLAYER-2
 10
3.761987
 20
0.413829
 30
0.000000
  0
SEQEND
  8
MERGEDLAYER-2
  0
CIRCLE
  8
MERGEDLAYER-2
 62
  0
 10
3.776728
 20
0.420809
 30
0.000000
 40
0.064283
  0
CIRCLE
  8
MERGEDLAYER-2
 62
  7
 10
3.776487
 20
0.420809
 30
0.000000
 40
0.047124
  0
CIRCLE
  8
MERGEDLAYER-2
 62
  0
 10
3.776487
 20
0.420809
 30
0.000000
 40
0.042287
  0
CIRCLE
  8
MERGEDLAYER-2
 62
  0
 10
3.759691
 20
0.420809
 30
0.000000
 40
0.018794
  0
CIRCLE
  8
MERGEDLAYER-2
 62
  0
 10
3.751656
 20
0.420809
 30
0.000000
 40
0.008035
  0
TEXT
  8
MERGEDLAYER-2
 62
  0
 10
3.777778
 20
0.444448
 30
0.000000
 40
0.010417
  1
MobilFlex
 50
270.000000
 72
  5
 11
3.777778
 21
0.291670
 31
0.000000
  0
POLYLINE
  8
MERGEDLAYER-2
 66
  1
 70
  1
 62
  0
 10
3.741445
 20
0.424434
 30
0.000000
  0
VERTEX
  8
MERGEDLAYER-2
 10
3.741445
 20
0.424434
 30
0.000000
  0
VERTEX
  8
MERGEDLAYER-2
 10
3.750146
 20
0.424434
 30
0.000000
  0
VERTEX
  8
MERGEDLAYER-2
 10
3.750146
 20
0.421051
 30
0.000000
  0
VERTEX
  8
MERGEDLAYER-2
 10
3.753529
 20
0.421051
 30
0.000000
  0
VERTEX
  8
MERGEDLAYER-2
 10
3.757154
 20
0.424675
 30
0.000000
  0
VERTEX
  8
MERGEDLAYER-2
 10
3.759570
 20
0.424675
 30
0.000000
  0
VERTEX
  8
MERGEDLAYER-2
 10
3.766821
 20
0.422258
 30
0.000000
  0
VERTEX
  8
MERGEDLAYER-2
 10
3.766821
 20
0.419117
 30
0.000000
  0
VERTEX
  8
MERGEDLAYER-2
 10
3.761503
 20
0.419842
 30
0.000000
  0
VERTEX
  8
MERGEDLAYER-2
 10
3.759570
 20
0.419600
 30
0.000000
  0
VERTEX
  8
MERGEDLAYER-2
 10
3.759570
 20
0.418150
 30
0.000000
  0
VERTEX
  8
MERGEDLAYER-2
 10
3.747246
 20
0.418150
 30
0.000000
  0
VERTEX
  8
MERGEDLAYER-2
 10
3.746037
 20
0.420809
 30
0.000000
  0
VERTEX
  8
MERGEDLAYER-2
 10
3.743621
 20
0.420809
 30
0.000000
  0
VERTEX
  8
MERGEDLAYER-2
 10
3.743137
 20
0.418150
 30
0.000000
  0
VERTEX
  8
MERGEDLAYER-2
 10
3.741445
 20
0.418150
 30
0.000000
  0
SEQEND
  8
MERGEDLAYER-2
  0
POLYLINE
  8
MERGEDLAYER-2
 66
  1
 70
  0
 62
  0
 10
3.138889
 20
0.163200
 30
0.000000
  0
VERTEX
  8
MERGEDLAYER-2
 10
3.138889
 20
0.163200
 30
0.000000
  0
VERTEX
  8
MERGEDLAYER-2
 10
3.524462
 20
0.352165
 30
0.000000
  0
SEQEND
  8
MERGEDLAYER-2
  0
POLYLINE
  8
MERGEDLAYER-2
 66
  1
 70
  1
 62
  0
  0
VERTEX
  8
MERGEDLAYER-2
 10
3.542138
 20
0.360828
 30
0.000000
  0
VERTEX
  8
MERGEDLAYER-2
 10
3.498117
 20
0.292852
 30
0.000000
  0
VERTEX
  8
MERGEDLAYER-2
 10
3.479780
 20
0.330266
 30
0.000000
  0
VERTEX
  8
MERGEDLAYER-2
 10
3.461443
 20
0.367681
 30
0.000000
  0
VERTEX
  8
MERGEDLAYER-2
 10
3.542138
 20
0.360828
 30
0.000000
  0
SEQEND
  8
MERGEDLAYER-2
  0
POLYLINE
  8
MERGEDLAYER-2
 66
  1
 70
  0
 62
  0
 10
2.905814
 20
0.456611
 30
0.000000
  0
VERTEX
  8
MERGEDLAYER-2
 10
2.905814
 20
0.456611
 30
0.000000
  0
VERTEX
  8
MERGEDLAYER-2
 10
2.905814
 20
0.366746
 30
0.000000
  0
SEQEND
  8
MERGEDLAYER-2
  0
POLYLINE
  8
MERGEDLAYER-2
 66
  1
 70
  0
 62
  0
 10
2.923372
 20
0.474168
 30
0.000000
  0
VERTEX
  8
MERGEDLAYER-2
 10
2.923372
 20
0.474168
 30
0.000000
  0
VERTEX
  8
MERGEDLAYER-2
 10
2.952270
 20
0.474168
 30
0.000000
  0
SEQEND
  8
MERGEDLAYER-2
  0
POLYLINE
  8
MERGEDLAYER-2
 66
  1
 70
  0
 62
  0
 10
2.969828
 20
0.456611
 30
0.000000
  0
VERTEX
  8
MERGEDLAYER-2
 10
2.969828
 20
0.456611
 30
0.000000
  0
VERTEX
  8
MERGEDLAYER-2
 10
2.962717
 20
0.470996
 30
0.000000
  0
VERTEX
  8
MERGEDLAYER-2
 10
2.952270
 20
0.474169
 30
0.000000
  0
SEQEND
  8
MERGEDLAYER-2
  0
POLYLINE
  8
MERGEDLAYER-2
 66
  1
 70
  0
 62
  0
 10
2.923372
 20
0.474169
 30
0.000000
  0
VERTEX
  8
MERGEDLAYER-2
 10
2.923372
 20
0.474169
 30
0.000000
  0
VERTEX
  8
MERGEDLAYER-2
 10
2.908988
 20
0.470996
 30
0.000000
  0
VERTEX
  8
MERGEDLAYER-2
 10
2.905814
 20
0.456611
 30
0.000000
  0
SEQEND
  8
MERGEDLAYER-2
  0
POLYLINE
  8
MERGEDLAYER-2
 66
  1
 70
  0
 62
  0
 10
2.969828
 20
0.433016
 30
0.000000
  0
VERTEX
  8
MERGEDLAYER-2
 10
2.969828
 20
0.433016
 30
0.000000
  0
VERTEX
  8
MERGEDLAYER-2
 10
2.969828
 20
0.456611
 30
0.000000
  0
SEQEND
  8
MERGEDLAYER-2
  0
POLYLINE
  8
MERGEDLAYER-2
 66
  1
 70
  0
 62
  0
 10
2.923372
 20
0.349191
 30
0.000000
  0
VERTEX
  8
MERGEDLAYER-2
 10
2.923372
 20
0.349191
 30
0.000000
  0
VERTEX
  8
MERGEDLAYER-2
 10
2.952270
 20
0.349191
 30
0.000000
  0
SEQEND
  8
MERGEDLAYER-2
  0
POLYLINE
  8
MERGEDLAYER-2
 66
  1
 70
  0
 62
  0
 10
2.905814
 20
0.366746
 30
0.000000
  0
VERTEX
  8
MERGEDLAYER-2
 10
2.905814
 20
0.366746
 30
0.000000
  0
VERTEX
  8
MERGEDLAYER-2
 10
2.908988
 20
0.356300
 30
0.000000
  0
VERTEX
  8
MERGEDLAYER-2
 10
2.923372
 20
0.349188
 30
0.000000
  0
SEQEND
  8
MERGEDLAYER-2
  0
POLYLINE
  8
MERGEDLAYER-2
 66
  1
 70
  0
 62
  0
 10
2.969828
 20
0.399120
 30
0.000000
  0
VERTEX
  8
MERGEDLAYER-2
 10
2.969828
 20
0.399120
 30
0.000000
  0
VERTEX
  8
MERGEDLAYER-2
 10
2.969828
 20
0.366746
 30
0.000000
  0
SEQEND
  8
MERGEDLAYER-2
  0
POLYLINE
  8
MERGEDLAYER-2
 66
  1
 70
  0
 62
  0
 10
2.952270
 20
0.349188
 30
0.000000
  0
VERTEX
  8
MERGEDLAYER-2
 10
2.952270
 20
0.349188
 30
0.000000
  0
VERTEX
  8
MERGEDLAYER-2
 10
2.962717
 20
0.356300
 30
0.000000
  0
VERTEX
  8
MERGEDLAYER-2
 10
2.969828
 20
0.366746
 30
0.000000
  0
SEQEND
  8
MERGEDLAYER-2
  0
POLYLINE
  8
MERGEDLAYER-2
 66
  1
 70
  0
 62
  0
 10
3.332575
 20
0.456611
 30
0.000000
  0
VERTEX
  8
MERGEDLAYER-2
 10
3.332575
 20
0.456611
 30
0.000000
  0
VERTEX
  8
MERGEDLAYER-2
 10
3.332575
 20
0.366746
 30
0.000000
  0
SEQEND
  8
MERGEDLAYER-2
  0
POLYLINE
  8
MERGEDLAYER-2
 66
  1
 70
  0
 62
  0
 10
3.332577
 20
0.456611
 30
0.000000
  0
VERTEX
  8
MERGEDLAYER-2
 10
3.332577
 20
0.456611
 30
0.000000
  0
VERTEX
  8
MERGEDLAYER-2
 10
3.325465
 20
0.470996
 30
0.000000
  0
VERTEX
  8
MERGEDLAYER-2
 10
3.315019
 20
0.474169
 30
0.000000
  0
SEQEND
  8
MERGEDLAYER-2
  0
POLYLINE
  8
MERGEDLAYER-2
 66
  1
 70
  0
 62
  0
 10
3.286121
 20
0.474168
 30
0.000000
  0
VERTEX
  8
MERGEDLAYER-2
 10
3.286121
 20
0.474168
 30
0.000000
  0
VERTEX
  8
MERGEDLAYER-2
 10
3.315019
 20
0.474168
 30
0.000000
  0
SEQEND
  8
MERGEDLAYER-2
  0
POLYLINE
  8
MERGEDLAYER-2
 66
  1
 70
  0
 62
  0
 10
3.286121
 20
0.474169
 30
0.000000
  0
VERTEX
  8
MERGEDLAYER-2
 10
3.286121
 20
0.474169
 30
0.000000
  0
VERTEX
  8
MERGEDLAYER-2
 10
3.271736
 20
0.470996
 30
0.000000
  0
VERTEX
  8
MERGEDLAYER-2
 10
3.268562
 20
0.456611
 30
0.000000
  0
SEQEND
  8
MERGEDLAYER-2
  0
POLYLINE
  8
MERGEDLAYER-2
 66
  1
 70
  0
 62
  0
 10
3.268562
 20
0.433016
 30
0.000000
  0
VERTEX
  8
MERGEDLAYER-2
 10
3.268562
 20
0.433016
 30
0.000000
  0
VERTEX
  8
MERGEDLAYER-2
 10
3.268562
 20
0.456611
 30
0.000000
  0
SEQEND
  8
MERGEDLAYER-2
  0
POLYLINE
  8
MERGEDLAYER-2
 66
  1
 70
  0
 62
  0
 10
3.315019
 20
0.349191
 30
0.000000
  0
VERTEX
  8
MERGEDLAYER-2
 10
3.315019
 20
0.349191
 30
0.000000
  0
VERTEX
  8
MERGEDLAYER-2
 10
3.286121
 20
0.349191
 30
0.000000
  0
SEQEND
  8
MERGEDLAYER-2
  0
POLYLINE
  8
MERGEDLAYER-2
 66
  1
 70
  0
 62
  0
 10
3.315019
 20
0.349188
 30
0.000000
  0
VERTEX
  8
MERGEDLAYER-2
 10
3.315019
 20
0.349188
 30
0.000000
  0
VERTEX
  8
MERGEDLAYER-2
 10
3.325465
 20
0.356300
 30
0.000000
  0
VERTEX
  8
MERGEDLAYER-2
 10
3.332577
 20
0.366746
 30
0.000000
  0
SEQEND
  8
MERGEDLAYER-2
  0
POLYLINE
  8
MERGEDLAYER-2
 66
  1
 70
  0
 62
  0
 10
3.268562
 20
0.399120
 30
0.000000
  0
VERTEX
  8
MERGEDLAYER-2
 10
3.268562
 20
0.399120
 30
0.000000
  0
VERTEX
  8
MERGEDLAYER-2
 10
3.268562
 20
0.366746
 30
0.000000
  0
SEQEND
  8
MERGEDLAYER-2
  0
POLYLINE
  8
MERGEDLAYER-2
 66
  1
 70
  0
 62
  0
 10
3.268562
 20
0.366746
 30
0.000000
  0
VERTEX
  8
MERGEDLAYER-2
 10
3.268562
 20
0.366746
 30
0.000000
  0
VERTEX
  8
MERGEDLAYER-2
 10
3.271736
 20
0.356300
 30
0.000000
  0
VERTEX
  8
MERGEDLAYER-2
 10
3.286121
 20
0.349188
 30
0.000000
  0
SEQEND
  8
MERGEDLAYER-2
  0
POLYLINE
  8
MERGEDLAYER-2
 66
  1
 70
  0
 62
  0
 10
3.268562
 20
0.433018
 30
0.000000
  0
VERTEX
  8
MERGEDLAYER-2
 10
3.268562
 20
0.433018
 30
0.000000
  0
VERTEX
  8
MERGEDLAYER-2
 10
3.176800
 20
0.445251
 30
0.000000
  0
VERTEX
  8
MERGEDLAYER-2
 10
3.086433
 20
0.446665
 30
0.000000
  0
VERTEX
  8
MERGEDLAYER-2
 10
2.996363
 20
0.439215
 30
0.000000
  0
VERTEX
  8
MERGEDLAYER-2
 10
2.969828
 20
0.433018
 30
0.000000
  0
SEQEND
  8
MERGEDLAYER-2
  0
CIRCLE
  8
MERGEDLAYER-2
 62
  0
 10
2.937059
 20
0.440638
 30
0.000000
 40
0.005334
  0
CIRCLE
  8
MERGEDLAYER-2
 62
  0
 10
2.937059
 20
0.378147
 30
0.000000
 40
0.005334
  0
CIRCLE
  8
MERGEDLAYER-2
 62
  0
 10
3.299045
 20
0.440638
 30
0.000000
 40
0.004572
  0
CIRCLE
  8
MERGEDLAYER-2
 62
  0
 10
3.299045
 20
0.378147
 30
0.000000
 40
0.004572
  0
POLYLINE
  8
MERGEDLAYER-2
 66
  1
 70
  0
 62
  0
 10
2.969829
 20
0.399119
 30
0.000000
  0
VERTEX
  8
MERGEDLAYER-2
 10
2.969829
 20
0.399119
 30
0.000000
  0
VERTEX
  8
MERGEDLAYER-2
 10
3.057653
 20
0.390823
 30
0.000000
  0
VERTEX
  8
MERGEDLAYER-2
 10
3.148020
 20
0.389409
 30
0.000000
  0
VERTEX
  8
MERGEDLAYER-2
 10
3.238091
 20
0.396859
 30
0.000000
  0
VERTEX
  8
MERGEDLAYER-2
 10
3.268562
 20
0.399119
 30
0.000000
  0
SEQEND
  8
MERGEDLAYER-2
  0
POLYLINE
  8
MERGEDLAYER-2
 66
  1
 70
  1
 62
  0
  0
VERTEX
  8
MERGEDLAYER-2
 10
3.887860
 20
0.486766
 30
0.000000
  0
VERTEX
  8
MERGEDLAYER-2
 10
4.293329
 20
0.486766
 30
0.000000
  0
VERTEX
  8
MERGEDLAYER-2
 10
4.293329
 20
0.360202
 30
0.000000
  0
VERTEX
  8
MERGEDLAYER-2
 10
3.887860
 20
0.360202
 30
0.000000
  0
SEQEND
  8
MERGEDLAYER-2
  0
POLYLINE
  8
MERGEDLAYER-2
 66
  1
 70
  1
 62
  0
  0
VERTEX
  8
MERGEDLAYER-2
 10
3.900750
 20
0.467898
 30
0.000000
  0
VERTEX
  8
MERGEDLAYER-2
 10
3.916337
 20
0.467898
 30
0.000000
  0
VERTEX
  8
MERGEDLAYER-2
 10
3.916337
 20
0.434031
 30
0.000000
  0
VERTEX
  8
MERGEDLAYER-2
 10
3.900750
 20
0.434031
 30
0.000000
  0
SEQEND
  8
MERGEDLAYER-2
  0
POLYLINE
  8
MERGEDLAYER-2
 66
  1
 70
  1
 62
  0
  0
VERTEX
  8
MERGEDLAYER-2
 10
3.921610
 20
0.467898
 30
0.000000
  0
VERTEX
  8
MERGEDLAYER-2
 10
3.936962
 20
0.467898
 30
0.000000
  0
VERTEX
  8
MERGEDLAYER-2
 10
3.936962
 20
0.434031
 30
0.000000
  0
VERTEX
  8
MERGEDLAYER-2
 10
3.921610
 20
0.434031
 30
0.000000
  0
SEQEND
  8
MERGEDLAYER-2
  0
POLYLINE
  8
MERGEDLAYER-2
 66
  1
 70
  1
 62
  0
  0
VERTEX
  8
MERGEDLAYER-2
 10
3.941415
 20
0.467898
 30
0.000000
  0
VERTEX
  8
MERGEDLAYER-2
 10
3.956766
 20
0.467898
 30
0.000000
  0
VERTEX
  8
MERGEDLAYER-2
 10
3.956766
 20
0.434031
 30
0.000000
  0
VERTEX
  8
MERGEDLAYER-2
 10
3.941415
 20
0.434031
 30
0.000000
  0
SEQEND
  8
MERGEDLAYER-2
  0
POLYLINE
  8
MERGEDLAYER-2
 66
  1
 70
  1
 62
  0
  0
VERTEX
  8
MERGEDLAYER-2
 10
3.961806
 20
0.467898
 30
0.000000
  0
VERTEX
  8
MERGEDLAYER-2
 10
3.977157
 20
0.467898
 30
0.000000
  0
VERTEX
  8
MERGEDLAYER-2
 10
3.977157
 20
0.434031
 30
0.000000
  0
VERTEX
  8
MERGEDLAYER-2
 10
3.961806
 20
0.434031
 30
0.000000
  0
SEQEND
  8
MERGEDLAYER-2
  0
POLYLINE
  8
MERGEDLAYER-2
 66
  1
 70
  1
 62
  0
  0
VERTEX
  8
MERGEDLAYER-2
 10
3.982664
 20
0.458640
 30
0.000000
  0
VERTEX
  8
MERGEDLAYER-2
 10
3.982664
 20
0.467429
 30
0.000000
  0
VERTEX
  8
MERGEDLAYER-2
 10
4.007626
 20
0.467429
 30
0.000000
  0
VERTEX
  8
MERGEDLAYER-2
 10
4.007626
 20
0.458640
 30
0.000000
  0
SEQEND
  8
MERGEDLAYER-2
  0
POLYLINE
  8
MERGEDLAYER-2
 66
  1
 70
  1
 62
  0
  0
VERTEX
  8
MERGEDLAYER-2
 10
3.982665
 20
0.443757
 30
0.000000
  0
VERTEX
  8
MERGEDLAYER-2
 10
3.982665
 20
0.452546
 30
0.000000
  0
VERTEX
  8
MERGEDLAYER-2
 10
4.003056
 20
0.452546
 30
0.000000
  0
VERTEX
  8
MERGEDLAYER-2
 10
4.003056
 20
0.443757
 30
0.000000
  0
SEQEND
  8
MERGEDLAYER-2
  0
POLYLINE
  8
MERGEDLAYER-2
 66
  1
 70
  0
 62
  0
 10
3.900750
 20
0.423484
 30
0.000000
  0
VERTEX
  8
MERGEDLAYER-2
 10
3.900750
 20
0.423484
 30
0.000000
  0
VERTEX
  8
MERGEDLAYER-2
 10
4.287998
 20
0.423367
 30
0.000000
  0
SEQEND
  8
MERGEDLAYER-2
  0
TEXT
  8
MERGEDLAYER-2
 62
  0
 10
4.083333
 20
0.444448
 30
0.000000
 40
0.020833
  1
mobilflex.com
 72
  5
 11
4.361111
 21
0.444448
 31
0.000000
  0
TEXT
  8
MERGEDLAYER-2
 62
  0
 10
3.902778
 20
0.375003
 30
0.000000
 40
0.041667
  1
MobilFlex
 72
  5
 11
4.194444
 21
0.375003
 31
0.000000
  0
POLYLINE
  8
MERGEDLAYER-2
 66
  1
 70
  0
 62
  0
 40
0.027778
 41
0.027778
 10
0.027778
 20
0.277785
 30
0.000000
  0
VERTEX
  8
MERGEDLAYER-2
 10
0.027778
 20
0.277785
 30
0.000000
  0
VERTEX
  8
MERGEDLAYER-2
 10
7.527778
 20
0.277785
 30
0.000000
  0
SEQEND
  8
MERGEDLAYER-2
  0
TEXT
  8
MERGEDLAYER-2
 62
  0
 10
6.194444
 20
5.347226
 30
0.000000
 40
0.125000
  1
Guide
 72
  5
 11
6.722222
 21
5.347226
 31
0.000000
  0
TEXT
  8
MERGEDLAYER-2
 62
  0
 10
6.194444
 20
0.083337
 30
0.000000
 40
0.125000
  1
Bottom bar
 72
  5
 11
7.097222
 21
0.083337
 31
0.000000
  0
POLYLINE
  8
MERGEDLAYER-2
 66
  1
 70
  0
 62
  0
 10
6.161062
 20
0.149597
 30
0.000000
  0
VERTEX
  8
MERGEDLAYER-2
 10
6.161062
 20
0.149597
 30
0.000000
  0
VERTEX
  8
MERGEDLAYER-2
 10
5.921266
 20
0.269008
 30
0.000000
  0
SEQEND
  8
MERGEDLAYER-2
  0
POLYLINE
  8
MERGEDLAYER-2
 66
  1
 70
  1
 62
  0
  0
VERTEX
  8
MERGEDLAYER-2
 10
5.903645
 20
0.277783
 30
0.000000
  0
VERTEX
  8
MERGEDLAYER-2
 10
5.984382
 20
0.284126
 30
0.000000
  0
VERTEX
  8
MERGEDLAYER-2
 10
5.965808
 20
0.246828
 30
0.000000
  0
VERTEX
  8
MERGEDLAYER-2
 10
5.947235
 20
0.209529
 30
0.000000
  0
VERTEX
  8
MERGEDLAYER-2
 10
5.903645
 20
0.277783
 30
0.000000
  0
SEQEND
  8
MERGEDLAYER-2
  0
POLYLINE
  8
MERGEDLAYER-2
 66
  1
 70
  1
 62
  0
  0
VERTEX
  8
MERGEDLAYER-2
 10
6.942312
 20
5.239875
 30
0.000000
  0
VERTEX
  8
MERGEDLAYER-2
 10
7.104195
 20
5.239875
 30
0.000000
  0
VERTEX
  8
MERGEDLAYER-2
 10
7.104195
 20
0.279021
 30
0.000000
  0
VERTEX
  8
MERGEDLAYER-2
 10
6.942312
 20
0.279021
 30
0.000000
  0
SEQEND
  8
MERGEDLAYER-2
  0
POLYLINE
  8
MERGEDLAYER-2
 66
  1
 70
  0
 62
  0
 10
6.688368
 20
5.401046
 30
0.000000
  0
VERTEX
  8
MERGEDLAYER-2
 10
6.688368
 20
5.401046
 30
0.000000
  0
VERTEX
  8
MERGEDLAYER-2
 10
6.925691
 20
5.250423
 30
0.000000
  0
SEQEND
  8
MERGEDLAYER-2
  0
POLYLINE
  8
MERGEDLAYER-2
 66
  1
 70
  1
 62
  0
  0
VERTEX
  8
MERGEDLAYER-2
 10
6.942312
 20
5.239875
 30
0.000000
  0
VERTEX
  8
MERGEDLAYER-2
 10
6.861351
 20
5.241908
 30
0.000000
  0
VERTEX
  8
MERGEDLAYER-2
 10
6.883679
 20
5.277088
 30
0.000000
  0
VERTEX
  8
MERGEDLAYER-2
 10
6.906007
 20
5.312267
 30
0.000000
  0
VERTEX
  8
MERGEDLAYER-2
 10
6.942312
 20
5.239875
 30
0.000000
  0
SEQEND
  8
MERGEDLAYER-2
  0
POLYLINE
  8
MERGEDLAYER-2
 66
  1
 70
  1
 62
  0
  0
VERTEX
  8
MERGEDLAYER-2
 10
0.613088
 20
0.852537
 30
0.000000
  0
VERTEX
  8
MERGEDLAYER-2
 10
6.942855
 20
0.852537
 30
0.000000
  0
VERTEX
  8
MERGEDLAYER-2
 10
6.942855
 20
0.803109
 30
0.000000
  0
VERTEX
  8
MERGEDLAYER-2
 10
0.613088
 20
0.803109
 30
0.000000
  0
SEQEND
  8
MERGEDLAYER-2
  0
POLYLINE
  8
MERGEDLAYER-2
 66
  1
 70
  0
 62
 15
 10
0.612600
 20
0.828477
 30
0.000000
  0
VERTEX
  8
MERGEDLAYER-2
 10
0.612600
 20
0.828477
 30
0.000000
  0
VERTEX
  8
MERGEDLAYER-2
 10
6.942199
 20
0.828477
 30
0.000000
  0
SEQEND
  8
MERGEDLAYER-2
  0
POLYLINE
  8
MERGEDLAYER-2
 66
  1
 70
  1
 62
  0
  0
VERTEX
  8
MERGEDLAYER-2
 10
0.613088
 20
1.021287
 30
0.000000
  0
VERTEX
  8
MERGEDLAYER-2
 10
6.942855
 20
1.021287
 30
0.000000
  0
VERTEX
  8
MERGEDLAYER-2
 10
6.942855
 20
0.971859
 30
0.000000
  0
VERTEX
  8
MERGEDLAYER-2
 10
0.613088
 20
0.971859
 30
0.000000
  0
SEQEND
  8
MERGEDLAYER-2
  0
POLYLINE
  8
MERGEDLAYER-2
 66
  1
 70
  0
 62
 15
 10
0.612600
 20
0.997227
 30
0.000000
  0
VERTEX
  8
MERGEDLAYER-2
 10
0.612600
 20
0.997227
 30
0.000000
  0
VERTEX
  8
MERGEDLAYER-2
 10
6.942199
 20
0.997227
 30
0.000000
  0
SEQEND
  8
MERGEDLAYER-2
  0
POLYLINE
  8
MERGEDLAYER-2
 66
  1
 70
  1
 62
  0
  0
VERTEX
  8
MERGEDLAYER-2
 10
0.613088
 20
1.190037
 30
0.000000
  0
VERTEX
  8
MERGEDLAYER-2
 10
6.942855
 20
1.190037
 30
0.000000
  0
VERTEX
  8
MERGEDLAYER-2
 10
6.942855
 20
1.140610
 30
0.000000
  0
VERTEX
  8
MERGEDLAYER-2
 10
0.613088
 20
1.140610
 30
0.000000
  0
SEQEND
  8
MERGEDLAYER-2
  0
POLYLINE
  8
MERGEDLAYER-2
 66
  1
 70
  0
 62
 15
 10
0.612600
 20
1.165977
 30
0.000000
  0
VERTEX
  8
MERGEDLAYER-2
 10
0.612600
 20
1.165977
 30
0.000000
  0
VERTEX
  8
MERGEDLAYER-2
 10
6.942199
 20
1.165977
 30
0.000000
  0
SEQEND
  8
MERGEDLAYER-2
  0
POLYLINE
  8
MERGEDLAYER-2
 66
  1
 70
  1
 62
  0
  0
VERTEX
  8
MERGEDLAYER-2
 10
0.613088
 20
1.358788
 30
0.000000
  0
VERTEX
  8
MERGEDLAYER-2
 10
6.942855
 20
1.358788
 30
0.000000
  0
VERTEX
  8
MERGEDLAYER-2
 10
6.942855
 20
1.309360
 30
0.000000
  0
VERTEX
  8
MERGEDLAYER-2
 10
0.613088
 20
1.309360
 30
0.000000
  0
SEQEND
  8
MERGEDLAYER-2
  0
POLYLINE
  8
MERGEDLAYER-2
 66
  1
 70
  0
 62
 15
 10
0.612600
 20
1.334727
 30
0.000000
  0
VERTEX
  8
MERGEDLAYER-2
 10
0.612600
 20
1.334727
 30
0.000000
  0
VERTEX
  8
MERGEDLAYER-2
 10
6.942199
 20
1.334727
 30
0.000000
  0
SEQEND
  8
MERGEDLAYER-2
  0
POLYLINE
  8
MERGEDLAYER-2
 66
  1
 70
  1
 62
  0
  0
VERTEX
  8
MERGEDLAYER-2
 10
0.613088
 20
1.527538
 30
0.000000
  0
VERTEX
  8
MERGEDLAYER-2
 10
6.942855
 20
1.527538
 30
0.000000
  0
VERTEX
  8
MERGEDLAYER-2
 10
6.942855
 20
1.478110
 30
0.000000
  0
VERTEX
  8
MERGEDLAYER-2
 10
0.613088
 20
1.478110
 30
0.000000
  0
SEQEND
  8
MERGEDLAYER-2
  0
POLYLINE
  8
MERGEDLAYER-2
 66
  1
 70
  0
 62
 15
 10
0.612600
 20
1.503477
 30
0.000000
  0
VERTEX
  8
MERGEDLAYER-2
 10
0.612600
 20
1.503477
 30
0.000000
  0
VERTEX
  8
MERGEDLAYER-2
 10
6.942199
 20
1.503477
 30
0.000000
  0
SEQEND
  8
MERGEDLAYER-2
  0
POLYLINE
  8
MERGEDLAYER-2
 66
  1
 70
  1
 62
  0
  0
VERTEX
  8
MERGEDLAYER-2
 10
0.613088
 20
1.696288
 30
0.000000
  0
VERTEX
  8
MERGEDLAYER-2
 10
6.942855
 20
1.696288
 30
0.000000
  0
VERTEX
  8
MERGEDLAYER-2
 10
6.942855
 20
1.646860
 30
0.000000
  0
VERTEX
  8
MERGEDLAYER-2
 10
0.613088
 20
1.646860
 30
0.000000
  0
SEQEND
  8
MERGEDLAYER-2
  0
POLYLINE
  8
MERGEDLAYER-2
 66
  1
 70
  0
 62
 15
 10
0.612600
 20
1.672228
 30
0.000000
  0
VERTEX
  8
MERGEDLAYER-2
 10
0.612600
 20
1.672228
 30
0.000000
  0
VERTEX
  8
MERGEDLAYER-2
 10
6.942199
 20
1.672228
 30
0.000000
  0
SEQEND
  8
MERGEDLAYER-2
  0
POLYLINE
  8
MERGEDLAYER-2
 66
  1
 70
  1
 62
  0
  0
VERTEX
  8
MERGEDLAYER-2
 10
0.613088
 20
1.865039
 30
0.000000
  0
VERTEX
  8
MERGEDLAYER-2
 10
6.942855
 20
1.865039
 30
0.000000
  0
VERTEX
  8
MERGEDLAYER-2
 10
6.942855
 20
1.815610
 30
0.000000
  0
VERTEX
  8
MERGEDLAYER-2
 10
0.613088
 20
1.815610
 30
0.000000
  0
SEQEND
  8
MERGEDLAYER-2
  0
POLYLINE
  8
MERGEDLAYER-2
 66
  1
 70
  0
 62
 15
 10
0.612600
 20
1.840978
 30
0.000000
  0
VERTEX
  8
MERGEDLAYER-2
 10
0.612600
 20
1.840978
 30
0.000000
  0
VERTEX
  8
MERGEDLAYER-2
 10
6.942199
 20
1.840978
 30
0.000000
  0
SEQEND
  8
MERGEDLAYER-2
  0
POLYLINE
  8
MERGEDLAYER-2
 66
  1
 70
  1
 62
  0
  0
VERTEX
  8
MERGEDLAYER-2
 10
0.613088
 20
2.033789
 30
0.000000
  0
VERTEX
  8
MERGEDLAYER-2
 10
6.942855
 20
2.033789
 30
0.000000
  0
VERTEX
  8
MERGEDLAYER-2
 10
6.942855
 20
1.984361
 30
0.000000
  0
VERTEX
  8
MERGEDLAYER-2
 10
0.613088
 20
1.984361
 30
0.000000
  0
SEQEND
  8
MERGEDLAYER-2
  0
POLYLINE
  8
MERGEDLAYER-2
 66
  1
 70
  0
 62
 15
 10
0.612600
 20
2.009728
 30
0.000000
  0
VERTEX
  8
MERGEDLAYER-2
 10
0.612600
 20
2.009728
 30
0.000000
  0
VERTEX
  8
MERGEDLAYER-2
 10
6.942199
 20
2.009728
 30
0.000000
  0
SEQEND
  8
MERGEDLAYER-2
  0
POLYLINE
  8
MERGEDLAYER-2
 66
  1
 70
  1
 62
  0
  0
VERTEX
  8
MERGEDLAYER-2
 10
0.613088
 20
2.202538
 30
0.000000
  0
VERTEX
  8
MERGEDLAYER-2
 10
6.942855
 20
2.202538
 30
0.000000
  0
VERTEX
  8
MERGEDLAYER-2
 10
6.942855
 20
2.153111
 30
0.000000
  0
VERTEX
  8
MERGEDLAYER-2
 10
0.613088
 20
2.153111
 30
0.000000
  0
SEQEND
  8
MERGEDLAYER-2
  0
POLYLINE
  8
MERGEDLAYER-2
 66
  1
 70
  0
 62
 15
 10
0.612600
 20
2.178479
 30
0.000000
  0
VERTEX
  8
MERGEDLAYER-2
 10
0.612600
 20
2.178479
 30
0.000000
  0
VERTEX
  8
MERGEDLAYER-2
 10
6.942199
 20
2.178479
 30
0.000000
  0
SEQEND
  8
MERGEDLAYER-2
  0
POLYLINE
  8
MERGEDLAYER-2
 66
  1
 70
  1
 62
  0
  0
VERTEX
  8
MERGEDLAYER-2
 10
0.613088
 20
2.371289
 30
0.000000
  0
VERTEX
  8
MERGEDLAYER-2
 10
6.942855
 20
2.371289
 30
0.000000
  0
VERTEX
  8
MERGEDLAYER-2
 10
6.942855
 20
2.321861
 30
0.000000
  0
VERTEX
  8
MERGEDLAYER-2
 10
0.613088
 20
2.321861
 30
0.000000
  0
SEQEND
  8
MERGEDLAYER-2
  0
POLYLINE
  8
MERGEDLAYER-2
 66
  1
 70
  0
 62
 15
 10
0.612600
 20
2.347228
 30
0.000000
  0
VERTEX
  8
MERGEDLAYER-2
 10
0.612600
 20
2.347228
 30
0.000000
  0
VERTEX
  8
MERGEDLAYER-2
 10
6.942199
 20
2.347228
 30
0.000000
  0
SEQEND
  8
MERGEDLAYER-2
  0
POLYLINE
  8
MERGEDLAYER-2
 66
  1
 70
  1
 62
  0
  0
VERTEX
  8
MERGEDLAYER-2
 10
0.613088
 20
2.540039
 30
0.000000
  0
VERTEX
  8
MERGEDLAYER-2
 10
6.942855
 20
2.540039
 30
0.000000
  0
VERTEX
  8
MERGEDLAYER-2
 10
6.942855
 20
2.490611
 30
0.000000
  0
VERTEX
  8
MERGEDLAYER-2
 10
0.613088
 20
2.490611
 30
0.000000
  0
SEQEND
  8
MERGEDLAYER-2
  0
POLYLINE
  8
MERGEDLAYER-2
 66
  1
 70
  0
 62
 15
 10
0.612600
 20
2.515978
 30
0.000000
  0
VERTEX
  8
MERGEDLAYER-2
 10
0.612600
 20
2.515978
 30
0.000000
  0
VERTEX
  8
MERGEDLAYER-2
 10
6.942199
 20
2.515978
 30
0.000000
  0
SEQEND
  8
MERGEDLAYER-2
  0
POLYLINE
  8
MERGEDLAYER-2
 66
  1
 70
  1
 62
  0
  0
VERTEX
  8
MERGEDLAYER-2
 10
0.613088
 20
2.708789
 30
0.000000
  0
VERTEX
  8
MERGEDLAYER-2
 10
6.942855
 20
2.708789
 30
0.000000
  0
VERTEX
  8
MERGEDLAYER-2
 10
6.942855
 20
2.659361
 30
0.000000
  0
VERTEX
  8
MERGEDLAYER-2
 10
0.613088
 20
2.659361
 30
0.000000
  0
SEQEND
  8
MERGEDLAYER-2
  0
POLYLINE
  8
MERGEDLAYER-2
 66
  1
 70
  0
 62
 15
 10
0.612600
 20
2.684729
 30
0.000000
  0
VERTEX
  8
MERGEDLAYER-2
 10
0.612600
 20
2.684729
 30
0.000000
  0
VERTEX
  8
MERGEDLAYER-2
 10
6.942199
 20
2.684729
 30
0.000000
  0
SEQEND
  8
MERGEDLAYER-2
  0
POLYLINE
  8
MERGEDLAYER-2
 66
  1
 70
  1
 62
  0
  0
VERTEX
  8
MERGEDLAYER-2
 10
0.613088
 20
2.877540
 30
0.000000
  0
VERTEX
  8
MERGEDLAYER-2
 10
6.942855
 20
2.877540
 30
0.000000
  0
VERTEX
  8
MERGEDLAYER-2
 10
6.942855
 20
2.828111
 30
0.000000
  0
VERTEX
  8
MERGEDLAYER-2
 10
0.613088
 20
2.828111
 30
0.000000
  0
SEQEND
  8
MERGEDLAYER-2
  0
POLYLINE
  8
MERGEDLAYER-2
 66
  1
 70
  0
 62
 15
 10
0.612600
 20
2.853479
 30
0.000000
  0
VERTEX
  8
MERGEDLAYER-2
 10
0.612600
 20
2.853479
 30
0.000000
  0
VERTEX
  8
MERGEDLAYER-2
 10
6.942199
 20
2.853479
 30
0.000000
  0
SEQEND
  8
MERGEDLAYER-2
  0
POLYLINE
  8
MERGEDLAYER-2
 66
  1
 70
  1
 62
  0
  0
VERTEX
  8
MERGEDLAYER-2
 10
0.613088
 20
3.046290
 30
0.000000
  0
VERTEX
  8
MERGEDLAYER-2
 10
6.942855
 20
3.046290
 30
0.000000
  0
VERTEX
  8
MERGEDLAYER-2
 10
6.942855
 20
2.996862
 30
0.000000
  0
VERTEX
  8
MERGEDLAYER-2
 10
0.613088
 20
2.996862
 30
0.000000
  0
SEQEND
  8
MERGEDLAYER-2
  0
POLYLINE
  8
MERGEDLAYER-2
 66
  1
 70
  0
 62
 15
 10
0.612600
 20
3.022230
 30
0.000000
  0
VERTEX
  8
MERGEDLAYER-2
 10
0.612600
 20
3.022230
 30
0.000000
  0
VERTEX
  8
MERGEDLAYER-2
 10
6.942199
 20
3.022230
 30
0.000000
  0
SEQEND
  8
MERGEDLAYER-2
  0
POLYLINE
  8
MERGEDLAYER-2
 66
  1
 70
  1
 62
  0
  0
VERTEX
  8
MERGEDLAYER-2
 10
0.613088
 20
3.215040
 30
0.000000
  0
VERTEX
  8
MERGEDLAYER-2
 10
6.942855
 20
3.215040
 30
0.000000
  0
VERTEX
  8
MERGEDLAYER-2
 10
6.942855
 20
3.165612
 30
0.000000
  0
VERTEX
  8
MERGEDLAYER-2
 10
0.613088
 20
3.165612
 30
0.000000
  0
SEQEND
  8
MERGEDLAYER-2
  0
POLYLINE
  8
MERGEDLAYER-2
 66
  1
 70
  0
 62
 15
 10
0.612600
 20
3.190980
 30
0.000000
  0
VERTEX
  8
MERGEDLAYER-2
 10
0.612600
 20
3.190980
 30
0.000000
  0
VERTEX
  8
MERGEDLAYER-2
 10
6.942199
 20
3.190980
 30
0.000000
  0
SEQEND
  8
MERGEDLAYER-2
  0
POLYLINE
  8
MERGEDLAYER-2
 66
  1
 70
  1
 62
  0
  0
VERTEX
  8
MERGEDLAYER-2
 10
0.613088
 20
3.383790
 30
0.000000
  0
VERTEX
  8
MERGEDLAYER-2
 10
6.942855
 20
3.383790
 30
0.000000
  0
VERTEX
  8
MERGEDLAYER-2
 10
6.942855
 20
3.334362
 30
0.000000
  0
VERTEX
  8
MERGEDLAYER-2
 10
0.613088
 20
3.334362
 30
0.000000
  0
SEQEND
  8
MERGEDLAYER-2
  0
POLYLINE
  8
MERGEDLAYER-2
 66
  1
 70
  0
 62
 15
 10
0.612600
 20
3.359730
 30
0.000000
  0
VERTEX
  8
MERGEDLAYER-2
 10
0.612600
 20
3.359730
 30
0.000000
  0
VERTEX
  8
MERGEDLAYER-2
 10
6.942199
 20
3.359730
 30
0.000000
  0
SEQEND
  8
MERGEDLAYER-2
  0
POLYLINE
  8
MERGEDLAYER-2
 66
  1
 70
  1
 62
  0
  0
VERTEX
  8
MERGEDLAYER-2
 10
0.613088
 20
3.552540
 30
0.000000
  0
VERTEX
  8
MERGEDLAYER-2
 10
6.942855
 20
3.552540
 30
0.000000
  0
VERTEX
  8
MERGEDLAYER-2
 10
6.942855
 20
3.503112
 30
0.000000
  0
VERTEX
  8
MERGEDLAYER-2
 10
0.613088
 20
3.503112
 30
0.000000
  0
SEQEND
  8
MERGEDLAYER-2
  0
POLYLINE
  8
MERGEDLAYER-2
 66
  1
 70
  0
 62
 15
 10
0.612600
 20
3.528480
 30
0.000000
  0
VERTEX
  8
MERGEDLAYER-2
 10
0.612600
 20
3.528480
 30
0.000000
  0
VERTEX
  8
MERGEDLAYER-2
 10
6.942199
 20
3.528480
 30
0.000000
  0
SEQEND
  8
MERGEDLAYER-2
  0
POLYLINE
  8
MERGEDLAYER-2
 66
  1
 70
  1
 62
  0
  0
VERTEX
  8
MERGEDLAYER-2
 10
0.613088
 20
3.721291
 30
0.000000
  0
VERTEX
  8
MERGEDLAYER-2
 10
6.942855
 20
3.721291
 30
0.000000
  0
VERTEX
  8
MERGEDLAYER-2
 10
6.942855
 20
3.671863
 30
0.000000
  0
VERTEX
  8
MERGEDLAYER-2
 10
0.613088
 20
3.671863
 30
0.000000
  0
SEQEND
  8
MERGEDLAYER-2
  0
POLYLINE
  8
MERGEDLAYER-2
 66
  1
 70
  0
 62
 15
 10
0.612600
 20
3.697230
 30
0.000000
  0
VERTEX
  8
MERGEDLAYER-2
 10
0.612600
 20
3.697230
 30
0.000000
  0
VERTEX
  8
MERGEDLAYER-2
 10
6.942199
 20
3.697230
 30
0.000000
  0
SEQEND
  8
MERGEDLAYER-2
  0
POLYLINE
  8
MERGEDLAYER-2
 66
  1
 70
  1
 62
  0
  0
VERTEX
  8
MERGEDLAYER-2
 10
0.613088
 20
3.890041
 30
0.000000
  0
VERTEX
  8
MERGEDLAYER-2
 10
6.942855
 20
3.890041
 30
0.000000
  0
VERTEX
  8
MERGEDLAYER-2
 10
6.942855
 20
3.840613
 30
0.000000
  0
VERTEX
  8
MERGEDLAYER-2
 10
0.613088
 20
3.840613
 30
0.000000
  0
SEQEND
  8
MERGEDLAYER-2
  0
POLYLINE
  8
MERGEDLAYER-2
 66
  1
 70
  0
 62
 15
 10
0.612600
 20
3.865980
 30
0.000000
  0
VERTEX
  8
MERGEDLAYER-2
 10
0.612600
 20
3.865980
 30
0.000000
  0
VERTEX
  8
MERGEDLAYER-2
 10
6.942199
 20
3.865980
 30
0.000000
  0
SEQEND
  8
MERGEDLAYER-2
  0
POLYLINE
  8
MERGEDLAYER-2
 66
  1
 70
  1
 62
  0
  0
VERTEX
  8
MERGEDLAYER-2
 10
0.613088
 20
4.058791
 30
0.000000
  0
VERTEX
  8
MERGEDLAYER-2
 10
6.942855
 20
4.058791
 30
0.000000
  0
VERTEX
  8
MERGEDLAYER-2
 10
6.942855
 20
4.009363
 30
0.000000
  0
VERTEX
  8
MERGEDLAYER-2
 10
0.613088
 20
4.009363
 30
0.000000
  0
SEQEND
  8
MERGEDLAYER-2
  0
POLYLINE
  8
MERGEDLAYER-2
 66
  1
 70
  0
 62
 15
 10
0.612600
 20
4.034731
 30
0.000000
  0
VERTEX
  8
MERGEDLAYER-2
 10
0.612600
 20
4.034731
 30
0.000000
  0
VERTEX
  8
MERGEDLAYER-2
 10
6.942199
 20
4.034731
 30
0.000000
  0
SEQEND
  8
MERGEDLAYER-2
  0
POLYLINE
  8
MERGEDLAYER-2
 66
  1
 70
  1
 62
  0
  0
VERTEX
  8
MERGEDLAYER-2
 10
0.613088
 20
4.227541
 30
0.000000
  0
VERTEX
  8
MERGEDLAYER-2
 10
6.942855
 20
4.227541
 30
0.000000
  0
VERTEX
  8
MERGEDLAYER-2
 10
6.942855
 20
4.178113
 30
0.000000
  0
VERTEX
  8
MERGEDLAYER-2
 10
0.613088
 20
4.178113
 30
0.000000
  0
SEQEND
  8
MERGEDLAYER-2
  0
POLYLINE
  8
MERGEDLAYER-2
 66
  1
 70
  0
 62
 15
 10
0.612600
 20
4.203481
 30
0.000000
  0
VERTEX
  8
MERGEDLAYER-2
 10
0.612600
 20
4.203481
 30
0.000000
  0
VERTEX
  8
MERGEDLAYER-2
 10
6.942199
 20
4.203481
 30
0.000000
  0
SEQEND
  8
MERGEDLAYER-2
  0
POLYLINE
  8
MERGEDLAYER-2
 66
  1
 70
  1
 62
  0
  0
VERTEX
  8
MERGEDLAYER-2
 10
0.613088
 20
4.396291
 30
0.000000
  0
VERTEX
  8
MERGEDLAYER-2
 10
6.942855
 20
4.396291
 30
0.000000
  0
VERTEX
  8
MERGEDLAYER-2
 10
6.942855
 20
4.346863
 30
0.000000
  0
VERTEX
  8
MERGEDLAYER-2
 10
0.613088
 20
4.346863
 30
0.000000
  0
SEQEND
  8
MERGEDLAYER-2
  0
POLYLINE
  8
MERGEDLAYER-2
 66
  1
 70
  0
 62
 15
 10
0.612600
 20
4.372231
 30
0.000000
  0
VERTEX
  8
MERGEDLAYER-2
 10
0.612600
 20
4.372231
 30
0.000000
  0
VERTEX
  8
MERGEDLAYER-2
 10
6.942199
 20
4.372231
 30
0.000000
  0
SEQEND
  8
MERGEDLAYER-2
  0
POLYLINE
  8
MERGEDLAYER-2
 66
  1
 70
  1
 62
  0
  0
VERTEX
  8
MERGEDLAYER-2
 10
0.613088
 20
4.565041
 30
0.000000
  0
VERTEX
  8
MERGEDLAYER-2
 10
6.942855
 20
4.565041
 30
0.000000
  0
VERTEX
  8
MERGEDLAYER-2
 10
6.942855
 20
4.515614
 30
0.000000
  0
VERTEX
  8
MERGEDLAYER-2
 10
0.613088
 20
4.515614
 30
0.000000
  0
SEQEND
  8
MERGEDLAYER-2
  0
POLYLINE
  8
MERGEDLAYER-2
 66
  1
 70
  0
 62
 15
 10
0.612600
 20
4.540981
 30
0.000000
  0
VERTEX
  8
MERGEDLAYER-2
 10
0.612600
 20
4.540981
 30
0.000000
  0
VERTEX
  8
MERGEDLAYER-2
 10
6.942199
 20
4.540981
 30
0.000000
  0
SEQEND
  8
MERGEDLAYER-2
  0
POLYLINE
  8
MERGEDLAYER-2
 66
  1
 70
  1
 62
  0
  0
VERTEX
  8
MERGEDLAYER-2
 10
0.613088
 20
4.733792
 30
0.000000
  0
VERTEX
  8
MERGEDLAYER-2
 10
6.942855
 20
4.733792
 30
0.000000
  0
VERTEX
  8
MERGEDLAYER-2
 10
6.942855
 20
4.684364
 30
0.000000
  0
VERTEX
  8
MERGEDLAYER-2
 10
0.613088
 20
4.684364
 30
0.000000
  0
SEQEND
  8
MERGEDLAYER-2
  0
POLYLINE
  8
MERGEDLAYER-2
 66
  1
 70
  0
 62
 15
 10
0.612600
 20
4.709731
 30
0.000000
  0
VERTEX
  8
MERGEDLAYER-2
 10
0.612600
 20
4.709731
 30
0.000000
  0
VERTEX
  8
MERGEDLAYER-2
 10
6.942199
 20
4.709731
 30
0.000000
  0
SEQEND
  8
MERGEDLAYER-2
  0
POLYLINE
  8
MERGEDLAYER-2
 66
  1
 70
  1
 62
  0
  0
VERTEX
  8
MERGEDLAYER-2
 10
0.613088
 20
4.902542
 30
0.000000
  0
VERTEX
  8
MERGEDLAYER-2
 10
6.942855
 20
4.902542
 30
0.000000
  0
VERTEX
  8
MERGEDLAYER-2
 10
6.942855
 20
4.853114
 30
0.000000
  0
VERTEX
  8
MERGEDLAYER-2
 10
0.613088
 20
4.853114
 30
0.000000
  0
SEQEND
  8
MERGEDLAYER-2
  0
POLYLINE
  8
MERGEDLAYER-2
 66
  1
 70
  0
 62
 15
 10
0.612600
 20
4.878482
 30
0.000000
  0
VERTEX
  8
MERGEDLAYER-2
 10
0.612600
 20
4.878482
 30
0.000000
  0
VERTEX
  8
MERGEDLAYER-2
 10
6.942199
 20
4.878482
 30
0.000000
  0
SEQEND
  8
MERGEDLAYER-2
  0
POLYLINE
  8
MERGEDLAYER-2
 66
  1
 70
  1
 62
  0
  0
VERTEX
  8
MERGEDLAYER-2
 10
0.613088
 20
5.071292
 30
0.000000
  0
VERTEX
  8
MERGEDLAYER-2
 10
6.942855
 20
5.071292
 30
0.000000
  0
VERTEX
  8
MERGEDLAYER-2
 10
6.942855
 20
5.021864
 30
0.000000
  0
VERTEX
  8
MERGEDLAYER-2
 10
0.613088
 20
5.021864
 30
0.000000
  0
SEQEND
  8
MERGEDLAYER-2
  0
POLYLINE
  8
MERGEDLAYER-2
 66
  1
 70
  0
 62
 15
 10
0.612600
 20
5.047232
 30
0.000000
  0
VERTEX
  8
MERGEDLAYER-2
 10
0.612600
 20
5.047232
 30
0.000000
  0
VERTEX
  8
MERGEDLAYER-2
 10
6.942199
 20
5.047232
 30
0.000000
  0
SEQEND
  8
MERGEDLAYER-2
  0
POLYLINE
  8
MERGEDLAYER-2
 66
  1
 70
  1
 62
  0
  0
VERTEX
  8
MERGEDLAYER-2
 10
0.613088
 20
5.240042
 30
0.000000
  0
VERTEX
  8
MERGEDLAYER-2
 10
6.942855
 20
5.240042
 30
0.000000
  0
VERTEX
  8
MERGEDLAYER-2
 10
6.942855
 20
5.190614
 30
0.000000
  0
VERTEX
  8
MERGEDLAYER-2
 10
0.613088
 20
5.190614
 30
0.000000
  0
SEQEND
  8
MERGEDLAYER-2
  0
POLYLINE
  8
MERGEDLAYER-2
 66
  1
 70
  0
 62
 15
 10
0.612600
 20
5.215982
 30
0.000000
  0
VERTEX
  8
MERGEDLAYER-2
 10
0.612600
 20
5.215982
 30
0.000000
  0
VERTEX
  8
MERGEDLAYER-2
 10
6.942199
 20
5.215982
 30
0.000000
  0
SEQEND
  8
MERGEDLAYER-2
  0
POLYLINE
  8
MERGEDLAYER-2
 66
  1
 70
  1
 62
  0
  0
VERTEX
  8
MERGEDLAYER-2
 10
0.451419
 20
5.240450
 30
0.000000
  0
VERTEX
  8
MERGEDLAYER-2
 10
0.613304
 20
5.240450
 30
0.000000
  0
VERTEX
  8
MERGEDLAYER-2
 10
0.613304
 20
0.279689
 30
0.000000
  0
VERTEX
  8
MERGEDLAYER-2
 10
0.451419
 20
0.279689
 30
0.000000
  0
SEQEND
  8
MERGEDLAYER-2
  0
POLYLINE
  8
MERGEDLAYER-2
 66
  1
 70
  0
 62
  0
 10
2.361111
 20
6.343753
 30
0.000000
  0
VERTEX
  8
MERGEDLAYER-2
 10
2.361111
 20
6.343753
 30
0.000000
  0
VERTEX
  8
MERGEDLAYER-2
 10
2.246825
 20
6.343147
 30
0.000000
  0
SEQEND
  8
MERGEDLAYER-2
  0
TEXT
  8
MERGEDLAYER-2
 62
  0
 10
2.986111
 20
6.069448
 30
0.000000
 40
0.145833
  1
between
 72
  5
 11
3.805556
 21
6.069448
 31
0.000000
  0
TEXT
  8
MERGEDLAYER-2
 62
  0
 10
2.986111
 20
5.847226
 30
0.000000
 40
0.145833
  1
connectors
 72
  5
 11
4.027778
 21
5.847226
 31
0.000000
  0
CIRCLE
  8
MERGEDLAYER-2
 62
  0
 10
1.997787
 20
6.936612
 30
0.000000
 40
0.010221
  0
POLYLINE
  8
MERGEDLAYER-2
 66
  1
 70
  0
 62
  0
 10
2.007301
 20
6.900471
 30
0.000000
  0
VERTEX
  8
MERGEDLAYER-2
 10
2.007301
 20
6.900471
 30
0.000000
  0
VERTEX
  8
MERGEDLAYER-2
 10
2.005907
 20
6.917800
 30
0.000000
  0
VERTEX
  8
MERGEDLAYER-2
 10
1.990546
 20
6.918376
 30
0.000000
  0
VERTEX
  8
MERGEDLAYER-2
 10
1.989971
 20
6.903014
 30
0.000000
  0
VERTEX
  8
MERGEDLAYER-2
 10
1.996082
 20
6.898265
 30
0.000000
  0
SEQEND
  8
MERGEDLAYER-2
  0
POLYLINE
  8
MERGEDLAYER-2
 66
  1
 70
  0
 62
  0
 10
1.994214
 20
6.891143
 30
0.000000
  0
VERTEX
  8
MERGEDLAYER-2
 10
1.994214
 20
6.891143
 30
0.000000
  0
VERTEX
  8
MERGEDLAYER-2
 10
1.989673
 20
6.891144
 30
0.000000
  0
SEQEND
  8
MERGEDLAYER-2
  0
POLYLINE
  8
MERGEDLAYER-2
 66
  1
 70
  0
 62
  0
 10
1.996082
 20
6.898265
 30
0.000000
  0
VERTEX
  8
MERGEDLAYER-2
 10
1.996082
 20
6.898265
 30
0.000000
  0
VERTEX
  8
MERGEDLAYER-2
 10
1.996078
 20
6.893005
 30
0.000000
  0
SEQEND
  8
MERGEDLAYER-2
  0
POLYLINE
  8
MERGEDLAYER-2
 66
  1
 70
  0
 62
  0
 10
1.994214
 20
6.891144
 30
0.000000
  0
VERTEX
  8
MERGEDLAYER-2
 10
1.994214
 20
6.891144
 30
0.000000
  0
VERTEX
  8
MERGEDLAYER-2
 10
1.996078
 20
6.893005
 30
0.000000
  0
SEQEND
  8
MERGEDLAYER-2
  0
POLYLINE
  8
MERGEDLAYER-2
 66
  1
 70
  0
 62
  0
 10
2.016327
 20
6.936571
 30
0.000000
  0
VERTEX
  8
MERGEDLAYER-2
 10
2.016327
 20
6.936571
 30
0.000000
  0
VERTEX
  8
MERGEDLAYER-2
 10
2.019832
 20
6.901631
 30
0.000000
  0
SEQEND
  8
MERGEDLAYER-2
  0
POLYLINE
  8
MERGEDLAYER-2
 66
  1
 70
  0
 62
  0
 10
2.017842
 20
6.896050
 30
0.000000
  0
VERTEX
  8
MERGEDLAYER-2
 10
2.017842
 20
6.896050
 30
0.000000
  0
VERTEX
  8
MERGEDLAYER-2
 10
2.019832
 20
6.901630
 30
0.000000
  0
SEQEND
  8
MERGEDLAYER-2
  0
POLYLINE
  8
MERGEDLAYER-2
 66
  1
 70
  0
 62
  0
 10
2.007301
 20
6.900471
 30
0.000000
  0
VERTEX
  8
MERGEDLAYER-2
 10
2.007301
 20
6.900471
 30
0.000000
  0
VERTEX
  8
MERGEDLAYER-2
 10
2.010422
 20
6.892339
 30
0.000000
  0
SEQEND
  8
MERGEDLAYER-2
  0
POLYLINE
  8
MERGEDLAYER-2
 66
  1
 70
  0
 62
  0
 10
2.013480
 20
6.891689
 30
0.000000
  0
VERTEX
  8
MERGEDLAYER-2
 10
2.013480
 20
6.891689
 30
0.000000
  0
VERTEX
  8
MERGEDLAYER-2
 10
2.017842
 20
6.896050
 30
0.000000
  0
SEQEND
  8
MERGEDLAYER-2
  0
POLYLINE
  8
MERGEDLAYER-2
 66
  1
 70
  0
 62
  0
 10
2.010422
 20
6.892339
 30
0.000000
  0
VERTEX
  8
MERGEDLAYER-2
 10
2.010422
 20
6.892339
 30
0.000000
  0
VERTEX
  8
MERGEDLAYER-2
 10
2.013479
 20
6.891689
 30
0.000000
  0
SEQEND
  8
MERGEDLAYER-2
  0
POLYLINE
  8
MERGEDLAYER-2
 66
  1
 70
  0
 62
  0
 10
1.982557
 20
6.898259
 30
0.000000
  0
VERTEX
  8
MERGEDLAYER-2
 10
1.982557
 20
6.898259
 30
0.000000
  0
VERTEX
  8
MERGEDLAYER-2
 10
1.989673
 20
6.891144
 30
0.000000
  0
SEQEND
  8
MERGEDLAYER-2
  0
POLYLINE
  8
MERGEDLAYER-2
 66
  1
 70
  0
 62
  0
 10
1.982557
 20
6.898259
 30
0.000000
  0
VERTEX
  8
MERGEDLAYER-2
 10
1.982557
 20
6.898259
 30
0.000000
  0
VERTEX
  8
MERGEDLAYER-2
 10
1.979717
 20
6.918674
 30
0.000000
  0
SEQEND
  8
MERGEDLAYER-2
  0
POLYLINE
  8
MERGEDLAYER-2
 66
  1
 70
  0
 62
  0
 10
1.984090
 20
6.923046
 30
0.000000
  0
VERTEX
  8
MERGEDLAYER-2
 10
1.984090
 20
6.923046
 30
0.000000
  0
VERTEX
  8
MERGEDLAYER-2
 10
1.979110
 20
6.928026
 30
0.000000
  0
SEQEND
  8
MERGEDLAYER-2
  0
POLYLINE
  8
MERGEDLAYER-2
 66
  1
 70
  0
 62
  0
 10
1.984090
 20
6.923046
 30
0.000000
  0
VERTEX
  8
MERGEDLAYER-2
 10
1.984090
 20
6.923046
 30
0.000000
  0
VERTEX
  8
MERGEDLAYER-2
 10
1.979717
 20
6.918674
 30
0.000000
  0
SEQEND
  8
MERGEDLAYER-2
  0
POLYLINE
  8
MERGEDLAYER-2
 66
  1
 70
  0
 62
  0
 10
1.979110
 20
6.928026
 30
0.000000
  0
VERTEX
  8
MERGEDLAYER-2
 10
1.979110
 20
6.928026
 30
0.000000
  0
VERTEX
  8
MERGEDLAYER-2
 10
1.979110
 20
6.945116
 30
0.000000
  0
SEQEND
  8
MERGEDLAYER-2
  0
POLYLINE
  8
MERGEDLAYER-2
 66
  1
 70
  0
 62
  0
 10
1.996082
 20
6.974878
 30
0.000000
  0
VERTEX
  8
MERGEDLAYER-2
 10
1.996082
 20
6.974878
 30
0.000000
  0
VERTEX
  8
MERGEDLAYER-2
 10
1.987765
 20
6.962847
 30
0.000000
  0
VERTEX
  8
MERGEDLAYER-2
 10
2.001765
 20
6.956498
 30
0.000000
  0
VERTEX
  8
MERGEDLAYER-2
 10
2.008113
 20
6.970498
 30
0.000000
  0
VERTEX
  8
MERGEDLAYER-2
 10
2.007301
 20
6.972672
 30
0.000000
  0
SEQEND
  8
MERGEDLAYER-2
  0
POLYLINE
  8
MERGEDLAYER-2
 66
  1
 70
  0
 62
  0
 10
1.994214
 20
6.981999
 30
0.000000
  0
VERTEX
  8
MERGEDLAYER-2
 10
1.994214
 20
6.981999
 30
0.000000
  0
VERTEX
  8
MERGEDLAYER-2
 10
1.989673
 20
6.981999
 30
0.000000
  0
SEQEND
  8
MERGEDLAYER-2
  0
POLYLINE
  8
MERGEDLAYER-2
 66
  1
 70
  0
 62
  0
 10
1.996082
 20
6.974877
 30
0.000000
  0
VERTEX
  8
MERGEDLAYER-2
 10
1.996082
 20
6.974877
 30
0.000000
  0
VERTEX
  8
MERGEDLAYER-2
 10
1.996078
 20
6.980137
 30
0.000000
  0
SEQEND
  8
MERGEDLAYER-2
  0
POLYLINE
  8
MERGEDLAYER-2
 66
  1
 70
  0
 62
  0
 10
1.996078
 20
6.980137
 30
0.000000
  0
VERTEX
  8
MERGEDLAYER-2
 10
1.996078
 20
6.980137
 30
0.000000
  0
VERTEX
  8
MERGEDLAYER-2
 10
1.994214
 20
6.981999
 30
0.000000
  0
SEQEND
  8
MERGEDLAYER-2
  0
POLYLINE
  8
MERGEDLAYER-2
 66
  1
 70
  0
 62
  0
 10
2.016327
 20
6.936571
 30
0.000000
  0
VERTEX
  8
MERGEDLAYER-2
 10
2.016327
 20
6.936571
 30
0.000000
  0
VERTEX
  8
MERGEDLAYER-2
 10
2.019832
 20
6.971512
 30
0.000000
  0
SEQEND
  8
MERGEDLAYER-2
  0
POLYLINE
  8
MERGEDLAYER-2
 66
  1
 70
  0
 62
  0
 10
2.019832
 20
6.971512
 30
0.000000
  0
VERTEX
  8
MERGEDLAYER-2
 10
2.019832
 20
6.971512
 30
0.000000
  0
VERTEX
  8
MERGEDLAYER-2
 10
2.017842
 20
6.977091
 30
0.000000
  0
SEQEND
  8
MERGEDLAYER-2
  0
POLYLINE
  8
MERGEDLAYER-2
 66
  1
 70
  0
 62
  0
 10
2.007301
 20
6.972672
 30
0.000000
  0
VERTEX
  8
MERGEDLAYER-2
 10
2.007301
 20
6.972672
 30
0.000000
  0
VERTEX
  8
MERGEDLAYER-2
 10
2.010422
 20
6.980803
 30
0.000000
  0
SEQEND
  8
MERGEDLAYER-2
  0
POLYLINE
  8
MERGEDLAYER-2
 66
  1
 70
  0
 62
  0
 10
2.013480
 20
6.981454
 30
0.000000
  0
VERTEX
  8
MERGEDLAYER-2
 10
2.013480
 20
6.981454
 30
0.000000
  0
VERTEX
  8
MERGEDLAYER-2
 10
2.017842
 20
6.977091
 30
0.000000
  0
SEQEND
  8
MERGEDLAYER-2
  0
POLYLINE
  8
MERGEDLAYER-2
 66
  1
 70
  0
 62
  0
 10
2.013479
 20
6.981454
 30
0.000000
  0
VERTEX
  8
MERGEDLAYER-2
 10
2.013479
 20
6.981454
 30
0.000000
  0
VERTEX
  8
MERGEDLAYER-2
 10
2.010422
 20
6.980804
 30
0.000000
  0
SEQEND
  8
MERGEDLAYER-2
  0
POLYLINE
  8
MERGEDLAYER-2
 66
  1
 70
  0
 62
  0
 10
1.982557
 20
6.974884
 30
0.000000
  0
VERTEX
  8
MERGEDLAYER-2
 10
1.982557
 20
6.974884
 30
0.000000
  0
VERTEX
  8
MERGEDLAYER-2
 10
1.989673
 20
6.981999
 30
0.000000
  0
SEQEND
  8
MERGEDLAYER-2
  0
POLYLINE
  8
MERGEDLAYER-2
 66
  1
 70
  0
 62
  0
 10
1.982557
 20
6.974884
 30
0.000000
  0
VERTEX
  8
MERGEDLAYER-2
 10
1.982557
 20
6.974884
 30
0.000000
  0
VERTEX
  8
MERGEDLAYER-2
 10
1.979717
 20
6.954469
 30
0.000000
  0
SEQEND
  8
MERGEDLAYER-2
  0
POLYLINE
  8
MERGEDLAYER-2
 66
  1
 70
  0
 62
  0
 10
1.984090
 20
6.950097
 30
0.000000
  0
VERTEX
  8
MERGEDLAYER-2
 10
1.984090
 20
6.950097
 30
0.000000
  0
VERTEX
  8
MERGEDLAYER-2
 10
1.979110
 20
6.945116
 30
0.000000
  0
SEQEND
  8
MERGEDLAYER-2
  0
POLYLINE
  8
MERGEDLAYER-2
 66
  1
 70
  0
 62
  0
 10
1.984090
 20
6.950097
 30
0.000000
  0
VERTEX
  8
MERGEDLAYER-2
 10
1.984090
 20
6.950097
 30
0.000000
  0
VERTEX
  8
MERGEDLAYER-2
 10
1.979717
 20
6.954469
 30
0.000000
  0
SEQEND
  8
MERGEDLAYER-2
  0
POLYLINE
  8
MERGEDLAYER-2
 66
  1
 70
  0
 62
  0
 10
2.003864
 20
7.251766
 30
0.000000
  0
VERTEX
  8
MERGEDLAYER-2
 10
2.003864
 20
7.251766
 30
0.000000
  0
VERTEX
  8
MERGEDLAYER-2
 10
2.003149
 20
7.251051
 30
0.000000
  0
SEQEND
  8
MERGEDLAYER-2
  0
POLYLINE
  8
MERGEDLAYER-2
 66
  1
 70
  0
 62
  0
 10
2.003864
 20
7.251766
 30
0.000000
  0
VERTEX
  8
MERGEDLAYER-2
 10
2.003864
 20
7.251766
 30
0.000000
  0
VERTEX
  8
MERGEDLAYER-2
 10
2.003873
 20
7.267316
 30
0.000000
  0
SEQEND
  8
MERGEDLAYER-2
  0
POLYLINE
  8
MERGEDLAYER-2
 66
  1
 70
  0
 62
  0
 10
2.003873
 20
7.267317
 30
0.000000
  0
VERTEX
  8
MERGEDLAYER-2
 10
2.003873
 20
7.267317
 30
0.000000
  0
VERTEX
  8
MERGEDLAYER-2
 10
2.006611
 20
7.281679
 30
0.000000
  0
VERTEX
  8
MERGEDLAYER-2
 10
1.994217
 20
7.286385
 30
0.000000
  0
VERTEX
  8
MERGEDLAYER-2
 10
1.989511
 20
7.273992
 30
0.000000
  0
VERTEX
  8
MERGEDLAYER-2
 10
1.996191
 20
7.267314
 30
0.000000
  0
SEQEND
  8
MERGEDLAYER-2
  0
POLYLINE
  8
MERGEDLAYER-2
 66
  1
 70
  0
 62
  0
 10
1.996201
 20
7.251766
 30
0.000000
  0
VERTEX
  8
MERGEDLAYER-2
 10
1.996201
 20
7.251766
 30
0.000000
  0
VERTEX
  8
MERGEDLAYER-2
 10
1.996191
 20
7.267314
 30
0.000000
  0
SEQEND
  8
MERGEDLAYER-2
  0
POLYLINE
  8
MERGEDLAYER-2
 66
  1
 70
  0
 62
  0
 10
1.996201
 20
7.251766
 30
0.000000
  0
VERTEX
  8
MERGEDLAYER-2
 10
1.996201
 20
7.251766
 30
0.000000
  0
VERTEX
  8
MERGEDLAYER-2
 10
1.996936
 20
7.251030
 30
0.000000
  0
SEQEND
  8
MERGEDLAYER-2
  0
POLYLINE
  8
MERGEDLAYER-2
 66
  1
 70
  0
 62
  0
 10
1.996936
 20
6.989326
 30
0.000000
  0
VERTEX
  8
MERGEDLAYER-2
 10
1.996936
 20
6.989326
 30
0.000000
  0
VERTEX
  8
MERGEDLAYER-2
 10
1.996936
 20
7.251030
 30
0.000000
  0
SEQEND
  8
MERGEDLAYER-2
  0
POLYLINE
  8
MERGEDLAYER-2
 66
  1
 70
  0
 62
  0
 10
1.996198
 20
6.988586
 30
0.000000
  0
VERTEX
  8
MERGEDLAYER-2
 10
1.996198
 20
6.988586
 30
0.000000
  0
VERTEX
  8
MERGEDLAYER-2
 10
1.996936
 20
6.989326
 30
0.000000
  0
SEQEND
  8
MERGEDLAYER-2
  0
POLYLINE
  8
MERGEDLAYER-2
 66
  1
 70
  0
 62
  0
 10
1.996198
 20
6.988586
 30
0.000000
  0
VERTEX
  8
MERGEDLAYER-2
 10
1.996198
 20
6.988586
 30
0.000000
  0
VERTEX
  8
MERGEDLAYER-2
 10
1.996188
 20
6.973036
 30
0.000000
  0
SEQEND
  8
MERGEDLAYER-2
  0
POLYLINE
  8
MERGEDLAYER-2
 66
  1
 70
  0
 62
  0
 10
1.996189
 20
6.973036
 30
0.000000
  0
VERTEX
  8
MERGEDLAYER-2
 10
1.996189
 20
6.973036
 30
0.000000
  0
VERTEX
  8
MERGEDLAYER-2
 10
1.989514
 20
6.962611
 30
0.000000
  0
VERTEX
  8
MERGEDLAYER-2
 10
2.001908
 20
6.957904
 30
0.000000
  0
VERTEX
  8
MERGEDLAYER-2
 10
2.006614
 20
6.970298
 30
0.000000
  0
VERTEX
  8
MERGEDLAYER-2
 10
2.003871
 20
6.973039
 30
0.000000
  0
SEQEND
  8
MERGEDLAYER-2
  0
POLYLINE
  8
MERGEDLAYER-2
 66
  1
 70
  0
 62
  0
 10
2.003860
 20
6.988586
 30
0.000000
  0
VERTEX
  8
MERGEDLAYER-2
 10
2.003860
 20
6.988586
 30
0.000000
  0
VERTEX
  8
MERGEDLAYER-2
 10
2.003871
 20
6.973038
 30
0.000000
  0
SEQEND
  8
MERGEDLAYER-2
  0
POLYLINE
  8
MERGEDLAYER-2
 66
  1
 70
  0
 62
  0
 10
2.003860
 20
6.988586
 30
0.000000
  0
VERTEX
  8
MERGEDLAYER-2
 10
2.003860
 20
6.988586
 30
0.000000
  0
VERTEX
  8
MERGEDLAYER-2
 10
2.003149
 20
6.989298
 30
0.000000
  0
SEQEND
  8
MERGEDLAYER-2
  0
POLYLINE
  8
MERGEDLAYER-2
 66
  1
 70
  0
 62
  0
 10
2.003149
 20
6.989298
 30
0.000000
  0
VERTEX
  8
MERGEDLAYER-2
 10
2.003149
 20
6.989298
 30
0.000000
  0
VERTEX
  8
MERGEDLAYER-2
 10
2.003149
 20
7.251051
 30
0.000000
  0
SEQEND
  8
MERGEDLAYER-2
  0
CIRCLE
  8
MERGEDLAYER-2
 62
  0
 10
1.997855
 20
6.569380
 30
0.000000
 40
0.010221
  0
POLYLINE
  8
MERGEDLAYER-2
 66
  1
 70
  0
 62
  0
 10
2.007369
 20
6.533239
 30
0.000000
  0
VERTEX
  8
MERGEDLAYER-2
 10
2.007369
 20
6.533239
 30
0.000000
  0
VERTEX
  8
MERGEDLAYER-2
 10
2.005975
 20
6.550569
 30
0.000000
  0
VERTEX
  8
MERGEDLAYER-2
 10
1.990614
 20
6.551144
 30
0.000000
  0
VERTEX
  8
MERGEDLAYER-2
 10
1.990039
 20
6.535783
 30
0.000000
  0
VERTEX
  8
MERGEDLAYER-2
 10
1.996150
 20
6.531033
 30
0.000000
  0
SEQEND
  8
MERGEDLAYER-2
  0
POLYLINE
  8
MERGEDLAYER-2
 66
  1
 70
  0
 62
  0
 10
1.994282
 20
6.523911
 30
0.000000
  0
VERTEX
  8
MERGEDLAYER-2
 10
1.994282
 20
6.523911
 30
0.000000
  0
VERTEX
  8
MERGEDLAYER-2
 10
1.989741
 20
6.523912
 30
0.000000
  0
SEQEND
  8
MERGEDLAYER-2
  0
POLYLINE
  8
MERGEDLAYER-2
 66
  1
 70
  0
 62
  0
 10
1.996150
 20
6.531032
 30
0.000000
  0
VERTEX
  8
MERGEDLAYER-2
 10
1.996150
 20
6.531032
 30
0.000000
  0
VERTEX
  8
MERGEDLAYER-2
 10
1.996146
 20
6.525773
 30
0.000000
  0
SEQEND
  8
MERGEDLAYER-2
  0
POLYLINE
  8
MERGEDLAYER-2
 66
  1
 70
  0
 62
  0
 10
1.994282
 20
6.523911
 30
0.000000
  0
VERTEX
  8
MERGEDLAYER-2
 10
1.994282
 20
6.523911
 30
0.000000
  0
VERTEX
  8
MERGEDLAYER-2
 10
1.996146
 20
6.525774
 30
0.000000
  0
SEQEND
  8
MERGEDLAYER-2
  0
POLYLINE
  8
MERGEDLAYER-2
 66
  1
 70
  0
 62
  0
 10
2.016395
 20
6.569339
 30
0.000000
  0
VERTEX
  8
MERGEDLAYER-2
 10
2.016395
 20
6.569339
 30
0.000000
  0
VERTEX
  8
MERGEDLAYER-2
 10
2.019900
 20
6.534398
 30
0.000000
  0
SEQEND
  8
MERGEDLAYER-2
  0
POLYLINE
  8
MERGEDLAYER-2
 66
  1
 70
  0
 62
  0
 10
2.017910
 20
6.528818
 30
0.000000
  0
VERTEX
  8
MERGEDLAYER-2
 10
2.017910
 20
6.528818
 30
0.000000
  0
VERTEX
  8
MERGEDLAYER-2
 10
2.019900
 20
6.534398
 30
0.000000
  0
SEQEND
  8
MERGEDLAYER-2
  0
POLYLINE
  8
MERGEDLAYER-2
 66
  1
 70
  0
 62
  0
 10
2.007369
 20
6.533240
 30
0.000000
  0
VERTEX
  8
MERGEDLAYER-2
 10
2.007369
 20
6.533240
 30
0.000000
  0
VERTEX
  8
MERGEDLAYER-2
 10
2.010490
 20
6.525107
 30
0.000000
  0
SEQEND
  8
MERGEDLAYER-2
  0
POLYLINE
  8
MERGEDLAYER-2
 66
  1
 70
  0
 62
  0
 10
2.013548
 20
6.524457
 30
0.000000
  0
VERTEX
  8
MERGEDLAYER-2
 10
2.013548
 20
6.524457
 30
0.000000
  0
VERTEX
  8
MERGEDLAYER-2
 10
2.017910
 20
6.528819
 30
0.000000
  0
SEQEND
  8
MERGEDLAYER-2
  0
POLYLINE
  8
MERGEDLAYER-2
 66
  1
 70
  0
 62
  0
 10
2.010490
 20
6.525107
 30
0.000000
  0
VERTEX
  8
MERGEDLAYER-2
 10
2.010490
 20
6.525107
 30
0.000000
  0
VERTEX
  8
MERGEDLAYER-2
 10
2.013547
 20
6.524457
 30
0.000000
  0
SEQEND
  8
MERGEDLAYER-2
  0
POLYLINE
  8
MERGEDLAYER-2
 66
  1
 70
  0
 62
  0
 10
1.982625
 20
6.531026
 30
0.000000
  0
VERTEX
  8
MERGEDLAYER-2
 10
1.982625
 20
6.531026
 30
0.000000
  0
VERTEX
  8
MERGEDLAYER-2
 10
1.989741
 20
6.523912
 30
0.000000
  0
SEQEND
  8
MERGEDLAYER-2
  0
POLYLINE
  8
MERGEDLAYER-2
 66
  1
 70
  0
 62
  0
 10
1.982625
 20
6.531026
 30
0.000000
  0
VERTEX
  8
MERGEDLAYER-2
 10
1.982625
 20
6.531026
 30
0.000000
  0
VERTEX
  8
MERGEDLAYER-2
 10
1.979785
 20
6.551441
 30
0.000000
  0
SEQEND
  8
MERGEDLAYER-2
  0
POLYLINE
  8
MERGEDLAYER-2
 66
  1
 70
  0
 62
  0
 10
1.984158
 20
6.555813
 30
0.000000
  0
VERTEX
  8
MERGEDLAYER-2
 10
1.984158
 20
6.555813
 30
0.000000
  0
VERTEX
  8
MERGEDLAYER-2
 10
1.979177
 20
6.560794
 30
0.000000
  0
SEQEND
  8
MERGEDLAYER-2
  0
POLYLINE
  8
MERGEDLAYER-2
 66
  1
 70
  0
 62
  0
 10
1.984158
 20
6.555813
 30
0.000000
  0
VERTEX
  8
MERGEDLAYER-2
 10
1.984158
 20
6.555813
 30
0.000000
  0
VERTEX
  8
MERGEDLAYER-2
 10
1.979785
 20
6.551441
 30
0.000000
  0
SEQEND
  8
MERGEDLAYER-2
  0
POLYLINE
  8
MERGEDLAYER-2
 66
  1
 70
  0
 62
  0
 10
1.979177
 20
6.560794
 30
0.000000
  0
VERTEX
  8
MERGEDLAYER-2
 10
1.979177
 20
6.560794
 30
0.000000
  0
VERTEX
  8
MERGEDLAYER-2
 10
1.979177
 20
6.577884
 30
0.000000
  0
SEQEND
  8
MERGEDLAYER-2
  0
POLYLINE
  8
MERGEDLAYER-2
 66
  1
 70
  0
 62
  0
 10
1.996150
 20
6.607646
 30
0.000000
  0
VERTEX
  8
MERGEDLAYER-2
 10
1.996150
 20
6.607646
 30
0.000000
  0
VERTEX
  8
MERGEDLAYER-2
 10
1.987833
 20
6.595615
 30
0.000000
  0
VERTEX
  8
MERGEDLAYER-2
 10
2.001833
 20
6.589266
 30
0.000000
  0
VERTEX
  8
MERGEDLAYER-2
 10
2.008181
 20
6.603266
 30
0.000000
  0
VERTEX
  8
MERGEDLAYER-2
 10
2.007369
 20
6.605440
 30
0.000000
  0
SEQEND
  8
MERGEDLAYER-2
  0
POLYLINE
  8
MERGEDLAYER-2
 66
  1
 70
  0
 62
  0
 10
1.994282
 20
6.614767
 30
0.000000
  0
VERTEX
  8
MERGEDLAYER-2
 10
1.994282
 20
6.614767
 30
0.000000
  0
VERTEX
  8
MERGEDLAYER-2
 10
1.989741
 20
6.614767
 30
0.000000
  0
SEQEND
  8
MERGEDLAYER-2
  0
POLYLINE
  8
MERGEDLAYER-2
 66
  1
 70
  0
 62
  0
 10
1.996150
 20
6.607646
 30
0.000000
  0
VERTEX
  8
MERGEDLAYER-2
 10
1.996150
 20
6.607646
 30
0.000000
  0
VERTEX
  8
MERGEDLAYER-2
 10
1.996146
 20
6.612905
 30
0.000000
  0
SEQEND
  8
MERGEDLAYER-2
  0
POLYLINE
  8
MERGEDLAYER-2
 66
  1
 70
  0
 62
  0
 10
1.996146
 20
6.612905
 30
0.000000
  0
VERTEX
  8
MERGEDLAYER-2
 10
1.996146
 20
6.612905
 30
0.000000
  0
VERTEX
  8
MERGEDLAYER-2
 10
1.994282
 20
6.614767
 30
0.000000
  0
SEQEND
  8
MERGEDLAYER-2
  0
POLYLINE
  8
MERGEDLAYER-2
 66
  1
 70
  0
 62
  0
 10
2.016395
 20
6.569339
 30
0.000000
  0
VERTEX
  8
MERGEDLAYER-2
 10
2.016395
 20
6.569339
 30
0.000000
  0
VERTEX
  8
MERGEDLAYER-2
 10
2.019900
 20
6.604280
 30
0.000000
  0
SEQEND
  8
MERGEDLAYER-2
  0
POLYLINE
  8
MERGEDLAYER-2
 66
  1
 70
  0
 62
  0
 10
2.019900
 20
6.604280
 30
0.000000
  0
VERTEX
  8
MERGEDLAYER-2
 10
2.019900
 20
6.604280
 30
0.000000
  0
VERTEX
  8
MERGEDLAYER-2
 10
2.017910
 20
6.609859
 30
0.000000
  0
SEQEND
  8
MERGEDLAYER-2
  0
POLYLINE
  8
MERGEDLAYER-2
 66
  1
 70
  0
 62
  0
 10
2.007369
 20
6.605440
 30
0.000000
  0
VERTEX
  8
MERGEDLAYER-2
 10
2.007369
 20
6.605440
 30
0.000000
  0
VERTEX
  8
MERGEDLAYER-2
 10
2.010490
 20
6.613572
 30
0.000000
  0
SEQEND
  8
MERGEDLAYER-2
  0
POLYLINE
  8
MERGEDLAYER-2
 66
  1
 70
  0
 62
  0
 10
2.013548
 20
6.614222
 30
0.000000
  0
VERTEX
  8
MERGEDLAYER-2
 10
2.013548
 20
6.614222
 30
0.000000
  0
VERTEX
  8
MERGEDLAYER-2
 10
2.017910
 20
6.609860
 30
0.000000
  0
SEQEND
  8
MERGEDLAYER-2
  0
POLYLINE
  8
MERGEDLAYER-2
 66
  1
 70
  0
 62
  0
 10
2.013547
 20
6.614221
 30
0.000000
  0
VERTEX
  8
MERGEDLAYER-2
 10
2.013547
 20
6.614221
 30
0.000000
  0
VERTEX
  8
MERGEDLAYER-2
 10
2.010490
 20
6.613571
 30
0.000000
  0
SEQEND
  8
MERGEDLAYER-2
  0
POLYLINE
  8
MERGEDLAYER-2
 66
  1
 70
  0
 62
  0
 10
1.982625
 20
6.607652
 30
0.000000
  0
VERTEX
  8
MERGEDLAYER-2
 10
1.982625
 20
6.607652
 30
0.000000
  0
VERTEX
  8
MERGEDLAYER-2
 10
1.989741
 20
6.614767
 30
0.000000
  0
SEQEND
  8
MERGEDLAYER-2
  0
POLYLINE
  8
MERGEDLAYER-2
 66
  1
 70
  0
 62
  0
 10
1.982625
 20
6.607652
 30
0.000000
  0
VERTEX
  8
MERGEDLAYER-2
 10
1.982625
 20
6.607652
 30
0.000000
  0
VERTEX
  8
MERGEDLAYER-2
 10
1.979785
 20
6.587237
 30
0.000000
  0
SEQEND
  8
MERGEDLAYER-2
  0
POLYLINE
  8
MERGEDLAYER-2
 66
  1
 70
  0
 62
  0
 10
1.984158
 20
6.582865
 30
0.000000
  0
VERTEX
  8
MERGEDLAYER-2
 10
1.984158
 20
6.582865
 30
0.000000
  0
VERTEX
  8
MERGEDLAYER-2
 10
1.979177
 20
6.577884
 30
0.000000
  0
SEQEND
  8
MERGEDLAYER-2
  0
POLYLINE
  8
MERGEDLAYER-2
 66
  1
 70
  0
 62
  0
 10
1.984158
 20
6.582865
 30
0.000000
  0
VERTEX
  8
MERGEDLAYER-2
 10
1.984158
 20
6.582865
 30
0.000000
  0
VERTEX
  8
MERGEDLAYER-2
 10
1.979785
 20
6.587237
 30
0.000000
  0
SEQEND
  8
MERGEDLAYER-2
  0
POLYLINE
  8
MERGEDLAYER-2
 66
  1
 70
  0
 62
  0
 10
2.003932
 20
6.884534
 30
0.000000
  0
VERTEX
  8
MERGEDLAYER-2
 10
2.003932
 20
6.884534
 30
0.000000
  0
VERTEX
  8
MERGEDLAYER-2
 10
2.003217
 20
6.883819
 30
0.000000
  0
SEQEND
  8
MERGEDLAYER-2
  0
POLYLINE
  8
MERGEDLAYER-2
 66
  1
 70
  0
 62
  0
 10
2.003932
 20
6.884534
 30
0.000000
  0
VERTEX
  8
MERGEDLAYER-2
 10
2.003932
 20
6.884534
 30
0.000000
  0
VERTEX
  8
MERGEDLAYER-2
 10
2.003941
 20
6.900085
 30
0.000000
  0
SEQEND
  8
MERGEDLAYER-2
  0
POLYLINE
  8
MERGEDLAYER-2
 66
  1
 70
  0
 62
  0
 10
2.003941
 20
6.900085
 30
0.000000
  0
VERTEX
  8
MERGEDLAYER-2
 10
2.003941
 20
6.900085
 30
0.000000
  0
VERTEX
  8
MERGEDLAYER-2
 10
2.006678
 20
6.914447
 30
0.000000
  0
VERTEX
  8
MERGEDLAYER-2
 10
1.994285
 20
6.919153
 30
0.000000
  0
VERTEX
  8
MERGEDLAYER-2
 10
1.989578
 20
6.906759
 30
0.000000
  0
VERTEX
  8
MERGEDLAYER-2
 10
1.996259
 20
6.900082
 30
0.000000
  0
SEQEND
  8
MERGEDLAYER-2
  0
POLYLINE
  8
MERGEDLAYER-2
 66
  1
 70
  0
 62
  0
 10
1.996269
 20
6.884534
 30
0.000000
  0
VERTEX
  8
MERGEDLAYER-2
 10
1.996269
 20
6.884534
 30
0.000000
  0
VERTEX
  8
MERGEDLAYER-2
 10
1.996259
 20
6.900082
 30
0.000000
  0
SEQEND
  8
MERGEDLAYER-2
  0
POLYLINE
  8
MERGEDLAYER-2
 66
  1
 70
  0
 62
  0
 10
1.996269
 20
6.884534
 30
0.000000
  0
VERTEX
  8
MERGEDLAYER-2
 10
1.996269
 20
6.884534
 30
0.000000
  0
VERTEX
  8
MERGEDLAYER-2
 10
1.997004
 20
6.883798
 30
0.000000
  0
SEQEND
  8
MERGEDLAYER-2
  0
POLYLINE
  8
MERGEDLAYER-2
 66
  1
 70
  0
 62
  0
 10
1.997004
 20
6.622094
 30
0.000000
  0
VERTEX
  8
MERGEDLAYER-2
 10
1.997004
 20
6.622094
 30
0.000000
  0
VERTEX
  8
MERGEDLAYER-2
 10
1.997004
 20
6.883798
 30
0.000000
  0
SEQEND
  8
MERGEDLAYER-2
  0
POLYLINE
  8
MERGEDLAYER-2
 66
  1
 70
  0
 62
  0
 10
1.996266
 20
6.621355
 30
0.000000
  0
VERTEX
  8
MERGEDLAYER-2
 10
1.996266
 20
6.621355
 30
0.000000
  0
VERTEX
  8
MERGEDLAYER-2
 10
1.997004
 20
6.622094
 30
0.000000
  0
SEQEND
  8
MERGEDLAYER-2
  0
POLYLINE
  8
MERGEDLAYER-2
 66
  1
 70
  0
 62
  0
 10
1.996266
 20
6.621355
 30
0.000000
  0
VERTEX
  8
MERGEDLAYER-2
 10
1.996266
 20
6.621355
 30
0.000000
  0
VERTEX
  8
MERGEDLAYER-2
 10
1.996257
 20
6.605804
 30
0.000000
  0
SEQEND
  8
MERGEDLAYER-2
  0
POLYLINE
  8
MERGEDLAYER-2
 66
  1
 70
  0
 62
  0
 10
1.996257
 20
6.605804
 30
0.000000
  0
VERTEX
  8
MERGEDLAYER-2
 10
1.996257
 20
6.605804
 30
0.000000
  0
VERTEX
  8
MERGEDLAYER-2
 10
1.989582
 20
6.595378
 30
0.000000
  0
VERTEX
  8
MERGEDLAYER-2
 10
2.001975
 20
6.590672
 30
0.000000
  0
VERTEX
  8
MERGEDLAYER-2
 10
2.006682
 20
6.603066
 30
0.000000
  0
VERTEX
  8
MERGEDLAYER-2
 10
2.003938
 20
6.605806
 30
0.000000
  0
SEQEND
  8
MERGEDLAYER-2
  0
POLYLINE
  8
MERGEDLAYER-2
 66
  1
 70
  0
 62
  0
 10
2.003928
 20
6.621355
 30
0.000000
  0
VERTEX
  8
MERGEDLAYER-2
 10
2.003928
 20
6.621355
 30
0.000000
  0
VERTEX
  8
MERGEDLAYER-2
 10
2.003938
 20
6.605806
 30
0.000000
  0
SEQEND
  8
MERGEDLAYER-2
  0
POLYLINE
  8
MERGEDLAYER-2
 66
  1
 70
  0
 62
  0
 10
2.003928
 20
6.621355
 30
0.000000
  0
VERTEX
  8
MERGEDLAYER-2
 10
2.003928
 20
6.621355
 30
0.000000
  0
VERTEX
  8
MERGEDLAYER-2
 10
2.003217
 20
6.622066
 30
0.000000
  0
SEQEND
  8
MERGEDLAYER-2
  0
POLYLINE
  8
MERGEDLAYER-2
 66
  1
 70
  0
 62
  0
 10
2.003217
 20
6.622066
 30
0.000000
  0
VERTEX
  8
MERGEDLAYER-2
 10
2.003217
 20
6.622066
 30
0.000000
  0
VERTEX
  8
MERGEDLAYER-2
 10
2.003217
 20
6.883819
 30
0.000000
  0
SEQEND
  8
MERGEDLAYER-2
  0
CIRCLE
  8
MERGEDLAYER-2
 62
  0
 10
1.997855
 20
7.303763
 30
0.000000
 40
0.010221
  0
POLYLINE
  8
MERGEDLAYER-2
 66
  1
 70
  0
 62
  0
 10
2.007369
 20
7.267622
 30
0.000000
  0
VERTEX
  8
MERGEDLAYER-2
 10
2.007369
 20
7.267622
 30
0.000000
  0
VERTEX
  8
MERGEDLAYER-2
 10
2.005975
 20
7.284952
 30
0.000000
  0
VERTEX
  8
MERGEDLAYER-2
 10
1.990614
 20
7.285527
 30
0.000000
  0
VERTEX
  8
MERGEDLAYER-2
 10
1.990039
 20
7.270165
 30
0.000000
  0
VERTEX
  8
MERGEDLAYER-2
 10
1.996150
 20
7.265416
 30
0.000000
  0
SEQEND
  8
MERGEDLAYER-2
  0
POLYLINE
  8
MERGEDLAYER-2
 66
  1
 70
  0
 62
  0
 10
1.994282
 20
7.258294
 30
0.000000
  0
VERTEX
  8
MERGEDLAYER-2
 10
1.994282
 20
7.258294
 30
0.000000
  0
VERTEX
  8
MERGEDLAYER-2
 10
1.989741
 20
7.258295
 30
0.000000
  0
SEQEND
  8
MERGEDLAYER-2
  0
POLYLINE
  8
MERGEDLAYER-2
 66
  1
 70
  0
 62
  0
 10
1.996150
 20
7.265416
 30
0.000000
  0
VERTEX
  8
MERGEDLAYER-2
 10
1.996150
 20
7.265416
 30
0.000000
  0
VERTEX
  8
MERGEDLAYER-2
 10
1.996146
 20
7.260157
 30
0.000000
  0
SEQEND
  8
MERGEDLAYER-2
  0
POLYLINE
  8
MERGEDLAYER-2
 66
  1
 70
  0
 62
  0
 10
1.994282
 20
7.258295
 30
0.000000
  0
VERTEX
  8
MERGEDLAYER-2
 10
1.994282
 20
7.258295
 30
0.000000
  0
VERTEX
  8
MERGEDLAYER-2
 10
1.996146
 20
7.260156
 30
0.000000
  0
SEQEND
  8
MERGEDLAYER-2
  0
POLYLINE
  8
MERGEDLAYER-2
 66
  1
 70
  0
 62
  0
 10
2.016395
 20
7.303723
 30
0.000000
  0
VERTEX
  8
MERGEDLAYER-2
 10
2.016395
 20
7.303723
 30
0.000000
  0
VERTEX
  8
MERGEDLAYER-2
 10
2.019900
 20
7.268782
 30
0.000000
  0
SEQEND
  8
MERGEDLAYER-2
  0
POLYLINE
  8
MERGEDLAYER-2
 66
  1
 70
  0
 62
  0
 10
2.017910
 20
7.263202
 30
0.000000
  0
VERTEX
  8
MERGEDLAYER-2
 10
2.017910
 20
7.263202
 30
0.000000
  0
VERTEX
  8
MERGEDLAYER-2
 10
2.019900
 20
7.268782
 30
0.000000
  0
SEQEND
  8
MERGEDLAYER-2
  0
POLYLINE
  8
MERGEDLAYER-2
 66
  1
 70
  0
 62
  0
 10
2.007369
 20
7.267622
 30
0.000000
  0
VERTEX
  8
MERGEDLAYER-2
 10
2.007369
 20
7.267622
 30
0.000000
  0
VERTEX
  8
MERGEDLAYER-2
 10
2.010490
 20
7.259491
 30
0.000000
  0
SEQEND
  8
MERGEDLAYER-2
  0
POLYLINE
  8
MERGEDLAYER-2
 66
  1
 70
  0
 62
  0
 10
2.013548
 20
7.258840
 30
0.000000
  0
VERTEX
  8
MERGEDLAYER-2
 10
2.013548
 20
7.258840
 30
0.000000
  0
VERTEX
  8
MERGEDLAYER-2
 10
2.017910
 20
7.263202
 30
0.000000
  0
SEQEND
  8
MERGEDLAYER-2
  0
POLYLINE
  8
MERGEDLAYER-2
 66
  1
 70
  0
 62
  0
 10
2.010490
 20
7.259490
 30
0.000000
  0
VERTEX
  8
MERGEDLAYER-2
 10
2.010490
 20
7.259490
 30
0.000000
  0
VERTEX
  8
MERGEDLAYER-2
 10
2.013547
 20
7.258840
 30
0.000000
  0
SEQEND
  8
MERGEDLAYER-2
  0
POLYLINE
  8
MERGEDLAYER-2
 66
  1
 70
  0
 62
  0
 10
1.982625
 20
7.265410
 30
0.000000
  0
VERTEX
  8
MERGEDLAYER-2
 10
1.982625
 20
7.265410
 30
0.000000
  0
VERTEX
  8
MERGEDLAYER-2
 10
1.989741
 20
7.258295
 30
0.000000
  0
SEQEND
  8
MERGEDLAYER-2
  0
POLYLINE
  8
MERGEDLAYER-2
 66
  1
 70
  0
 62
  0
 10
1.982625
 20
7.265410
 30
0.000000
  0
VERTEX
  8
MERGEDLAYER-2
 10
1.982625
 20
7.265410
 30
0.000000
  0
VERTEX
  8
MERGEDLAYER-2
 10
1.979785
 20
7.285824
 30
0.000000
  0
SEQEND
  8
MERGEDLAYER-2
  0
POLYLINE
  8
MERGEDLAYER-2
 66
  1
 70
  0
 62
  0
 10
1.984158
 20
7.290197
 30
0.000000
  0
VERTEX
  8
MERGEDLAYER-2
 10
1.984158
 20
7.290197
 30
0.000000
  0
VERTEX
  8
MERGEDLAYER-2
 10
1.979177
 20
7.295178
 30
0.000000
  0
SEQEND
  8
MERGEDLAYER-2
  0
POLYLINE
  8
MERGEDLAYER-2
 66
  1
 70
  0
 62
  0
 10
1.984158
 20
7.290197
 30
0.000000
  0
VERTEX
  8
MERGEDLAYER-2
 10
1.984158
 20
7.290197
 30
0.000000
  0
VERTEX
  8
MERGEDLAYER-2
 10
1.979785
 20
7.285824
 30
0.000000
  0
SEQEND
  8
MERGEDLAYER-2
  0
POLYLINE
  8
MERGEDLAYER-2
 66
  1
 70
  0
 62
  0
 10
1.979177
 20
7.295178
 30
0.000000
  0
VERTEX
  8
MERGEDLAYER-2
 10
1.979177
 20
7.295178
 30
0.000000
  0
VERTEX
  8
MERGEDLAYER-2
 10
1.979177
 20
7.312268
 30
0.000000
  0
SEQEND
  8
MERGEDLAYER-2
  0
POLYLINE
  8
MERGEDLAYER-2
 66
  1
 70
  0
 62
  0
 10
1.996150
 20
7.342029
 30
0.000000
  0
VERTEX
  8
MERGEDLAYER-2
 10
1.996150
 20
7.342029
 30
0.000000
  0
VERTEX
  8
MERGEDLAYER-2
 10
1.987833
 20
7.329998
 30
0.000000
  0
VERTEX
  8
MERGEDLAYER-2
 10
2.001833
 20
7.323649
 30
0.000000
  0
VERTEX
  8
MERGEDLAYER-2
 10
2.008181
 20
7.337650
 30
0.000000
  0
VERTEX
  8
MERGEDLAYER-2
 10
2.007369
 20
7.339823
 30
0.000000
  0
SEQEND
  8
MERGEDLAYER-2
  0
POLYLINE
  8
MERGEDLAYER-2
 66
  1
 70
  0
 62
  0
 10
1.994282
 20
7.349151
 30
0.000000
  0
VERTEX
  8
MERGEDLAYER-2
 10
1.994282
 20
7.349151
 30
0.000000
  0
VERTEX
  8
MERGEDLAYER-2
 10
1.989741
 20
7.349151
 30
0.000000
  0
SEQEND
  8
MERGEDLAYER-2
  0
POLYLINE
  8
MERGEDLAYER-2
 66
  1
 70
  0
 62
  0
 10
1.996150
 20
7.342029
 30
0.000000
  0
VERTEX
  8
MERGEDLAYER-2
 10
1.996150
 20
7.342029
 30
0.000000
  0
VERTEX
  8
MERGEDLAYER-2
 10
1.996146
 20
7.347288
 30
0.000000
  0
SEQEND
  8
MERGEDLAYER-2
  0
POLYLINE
  8
MERGEDLAYER-2
 66
  1
 70
  0
 62
  0
 10
1.996146
 20
7.347288
 30
0.000000
  0
VERTEX
  8
MERGEDLAYER-2
 10
1.996146
 20
7.347288
 30
0.000000
  0
VERTEX
  8
MERGEDLAYER-2
 10
1.994282
 20
7.349151
 30
0.000000
  0
SEQEND
  8
MERGEDLAYER-2
  0
POLYLINE
  8
MERGEDLAYER-2
 66
  1
 70
  0
 62
  0
 10
2.016395
 20
7.303723
 30
0.000000
  0
VERTEX
  8
MERGEDLAYER-2
 10
2.016395
 20
7.303723
 30
0.000000
  0
VERTEX
  8
MERGEDLAYER-2
 10
2.019900
 20
7.338663
 30
0.000000
  0
SEQEND
  8
MERGEDLAYER-2
  0
POLYLINE
  8
MERGEDLAYER-2
 66
  1
 70
  0
 62
  0
 10
2.019900
 20
7.338664
 30
0.000000
  0
VERTEX
  8
MERGEDLAYER-2
 10
2.019900
 20
7.338664
 30
0.000000
  0
VERTEX
  8
MERGEDLAYER-2
 10
2.017910
 20
7.344243
 30
0.000000
  0
SEQEND
  8
MERGEDLAYER-2
  0
POLYLINE
  8
MERGEDLAYER-2
 66
  1
 70
  0
 62
  0
 10
2.007369
 20
7.339823
 30
0.000000
  0
VERTEX
  8
MERGEDLAYER-2
 10
2.007369
 20
7.339823
 30
0.000000
  0
VERTEX
  8
MERGEDLAYER-2
 10
2.010490
 20
7.347955
 30
0.000000
  0
SEQEND
  8
MERGEDLAYER-2
  0
POLYLINE
  8
MERGEDLAYER-2
 66
  1
 70
  0
 62
  0
 10
2.013548
 20
7.348606
 30
0.000000
  0
VERTEX
  8
MERGEDLAYER-2
 10
2.013548
 20
7.348606
 30
0.000000
  0
VERTEX
  8
MERGEDLAYER-2
 10
2.017910
 20
7.344243
 30
0.000000
  0
SEQEND
  8
MERGEDLAYER-2
  0
POLYLINE
  8
MERGEDLAYER-2
 66
  1
 70
  0
 62
  0
 10
2.013547
 20
7.348605
 30
0.000000
  0
VERTEX
  8
MERGEDLAYER-2
 10
2.013547
 20
7.348605
 30
0.000000
  0
VERTEX
  8
MERGEDLAYER-2
 10
2.010490
 20
7.347955
 30
0.000000
  0
SEQEND
  8
MERGEDLAYER-2
  0
POLYLINE
  8
MERGEDLAYER-2
 66
  1
 70
  0
 62
  0
 10
1.982625
 20
7.342036
 30
0.000000
  0
VERTEX
  8
MERGEDLAYER-2
 10
1.982625
 20
7.342036
 30
0.000000
  0
VERTEX
  8
MERGEDLAYER-2
 10
1.989741
 20
7.349151
 30
0.000000
  0
SEQEND
  8
MERGEDLAYER-2
  0
POLYLINE
  8
MERGEDLAYER-2
 66
  1
 70
  0
 62
  0
 10
1.982625
 20
7.342036
 30
0.000000
  0
VERTEX
  8
MERGEDLAYER-2
 10
1.982625
 20
7.342036
 30
0.000000
  0
VERTEX
  8
MERGEDLAYER-2
 10
1.979785
 20
7.321621
 30
0.000000
  0
SEQEND
  8
MERGEDLAYER-2
  0
POLYLINE
  8
MERGEDLAYER-2
 66
  1
 70
  0
 62
  0
 10
1.984158
 20
7.317248
 30
0.000000
  0
VERTEX
  8
MERGEDLAYER-2
 10
1.984158
 20
7.317248
 30
0.000000
  0
VERTEX
  8
MERGEDLAYER-2
 10
1.979177
 20
7.312268
 30
0.000000
  0
SEQEND
  8
MERGEDLAYER-2
  0
POLYLINE
  8
MERGEDLAYER-2
 66
  1
 70
  0
 62
  0
 10
1.984158
 20
7.317248
 30
0.000000
  0
VERTEX
  8
MERGEDLAYER-2
 10
1.984158
 20
7.317248
 30
0.000000
  0
VERTEX
  8
MERGEDLAYER-2
 10
1.979785
 20
7.321621
 30
0.000000
  0
SEQEND
  8
MERGEDLAYER-2
  0
POLYLINE
  8
MERGEDLAYER-2
 66
  1
 70
  1
 62
  0
  0
VERTEX
  8
MERGEDLAYER-2
 10
0.782501
 20
0.802955
 30
0.000000
  0
VERTEX
  8
MERGEDLAYER-2
 10
1.230500
 20
0.802955
 30
0.000000
  0
VERTEX
  8
MERGEDLAYER-2
 10
1.230500
 20
0.683787
 30
0.000000
  0
VERTEX
  8
MERGEDLAYER-2
 10
0.782501
 20
0.683787
 30
0.000000
  0
SEQEND
  8
MERGEDLAYER-2
  0
POLYLINE
  8
MERGEDLAYER-2
 66
  1
 70
  1
 62
  0
  0
VERTEX
  8
MERGEDLAYER-2
 10
1.398747
 20
0.802955
 30
0.000000
  0
VERTEX
  8
MERGEDLAYER-2
 10
2.461686
 20
0.802955
 30
0.000000
  0
VERTEX
  8
MERGEDLAYER-2
 10
2.461686
 20
0.683787
 30
0.000000
  0
VERTEX
  8
MERGEDLAYER-2
 10
1.398747
 20
0.683787
 30
0.000000
  0
SEQEND
  8
MERGEDLAYER-2
  0
POLYLINE
  8
MERGEDLAYER-2
 66
  1
 70
  1
 62
  0
  0
VERTEX
  8
MERGEDLAYER-2
 10
2.630623
 20
0.802955
 30
0.000000
  0
VERTEX
  8
MERGEDLAYER-2
 10
3.693562
 20
0.802955
 30
0.000000
  0
VERTEX
  8
MERGEDLAYER-2
 10
3.693562
 20
0.683787
 30
0.000000
  0
VERTEX
  8
MERGEDLAYER-2
 10
2.630623
 20
0.683787
 30
0.000000
  0
SEQEND
  8
MERGEDLAYER-2
  0
POLYLINE
  8
MERGEDLAYER-2
 66
  1
 70
  1
 62
  0
  0
VERTEX
  8
MERGEDLAYER-2
 10
3.862500
 20
0.802955
 30
0.000000
  0
VERTEX
  8
MERGEDLAYER-2
 10
4.925437
 20
0.802955
 30
0.000000
  0
VERTEX
  8
MERGEDLAYER-2
 10
4.925437
 20
0.683787
 30
0.000000
  0
VERTEX
  8
MERGEDLAYER-2
 10
3.862500
 20
0.683787
 30
0.000000
  0
SEQEND
  8
MERGEDLAYER-2
  0
POLYLINE
  8
MERGEDLAYER-2
 66
  1
 70
  1
 62
  0
  0
VERTEX
  8
MERGEDLAYER-2
 10
5.094400
 20
0.802955
 30
0.000000
  0
VERTEX
  8
MERGEDLAYER-2
 10
6.157337
 20
0.802955
 30
0.000000
  0
VERTEX
  8
MERGEDLAYER-2
 10
6.157337
 20
0.683787
 30
0.000000
  0
VERTEX
  8
MERGEDLAYER-2
 10
5.094400
 20
0.683787
 30
0.000000
  0
SEQEND
  8
MERGEDLAYER-2
  0
POLYLINE
  8
MERGEDLAYER-2
 66
  1
 70
  1
 62
  0
  0
VERTEX
  8
MERGEDLAYER-2
 10
0.782822
 20
0.971754
 30
0.000000
  0
VERTEX
  8
MERGEDLAYER-2
 10
1.845759
 20
0.971754
 30
0.000000
  0
VERTEX
  8
MERGEDLAYER-2
 10
1.845759
 20
0.852587
 30
0.000000
  0
VERTEX
  8
MERGEDLAYER-2
 10
0.782822
 20
0.852587
 30
0.000000
  0
SEQEND
  8
MERGEDLAYER-2
  0
POLYLINE
  8
MERGEDLAYER-2
 66
  1
 70
  1
 62
  0
  0
VERTEX
  8
MERGEDLAYER-2
 10
2.014697
 20
0.971754
 30
0.000000
  0
VERTEX
  8
MERGEDLAYER-2
 10
3.077636
 20
0.971754
 30
0.000000
  0
VERTEX
  8
MERGEDLAYER-2
 10
3.077636
 20
0.852587
 30
0.000000
  0
VERTEX
  8
MERGEDLAYER-2
 10
2.014697
 20
0.852587
 30
0.000000
  0
SEQEND
  8
MERGEDLAYER-2
  0
POLYLINE
  8
MERGEDLAYER-2
 66
  1
 70
  1
 62
  0
  0
VERTEX
  8
MERGEDLAYER-2
 10
3.246573
 20
0.971754
 30
0.000000
  0
VERTEX
  8
MERGEDLAYER-2
 10
4.309512
 20
0.971754
 30
0.000000
  0
VERTEX
  8
MERGEDLAYER-2
 10
4.309512
 20
0.852587
 30
0.000000
  0
VERTEX
  8
MERGEDLAYER-2
 10
3.246573
 20
0.852587
 30
0.000000
  0
SEQEND
  8
MERGEDLAYER-2
  0
POLYLINE
  8
MERGEDLAYER-2
 66
  1
 70
  1
 62
  0
  0
VERTEX
  8
MERGEDLAYER-2
 10
4.478450
 20
0.971754
 30
0.000000
  0
VERTEX
  8
MERGEDLAYER-2
 10
5.541387
 20
0.971754
 30
0.000000
  0
VERTEX
  8
MERGEDLAYER-2
 10
5.541387
 20
0.852587
 30
0.000000
  0
VERTEX
  8
MERGEDLAYER-2
 10
4.478450
 20
0.852587
 30
0.000000
  0
SEQEND
  8
MERGEDLAYER-2
  0
POLYLINE
  8
MERGEDLAYER-2
 66
  1
 70
  1
 62
  0
  0
VERTEX
  8
MERGEDLAYER-2
 10
5.710350
 20
0.971754
 30
0.000000
  0
VERTEX
  8
MERGEDLAYER-2
 10
6.773287
 20
0.971754
 30
0.000000
  0
VERTEX
  8
MERGEDLAYER-2
 10
6.773287
 20
0.852587
 30
0.000000
  0
VERTEX
  8
MERGEDLAYER-2
 10
5.710350
 20
0.852587
 30
0.000000
  0
SEQEND
  8
MERGEDLAYER-2
  0
POLYLINE
  8
MERGEDLAYER-2
 66
  1
 70
  1
 62
  0
  0
VERTEX
  8
MERGEDLAYER-2
 10
0.782501
 20
1.140555
 30
0.000000
  0
VERTEX
  8
MERGEDLAYER-2
 10
1.230500
 20
1.140555
 30
0.000000
  0
VERTEX
  8
MERGEDLAYER-2
 10
1.230500
 20
1.021387
 30
0.000000
  0
VERTEX
  8
MERGEDLAYER-2
 10
0.782501
 20
1.021387
 30
0.000000
  0
SEQEND
  8
MERGEDLAYER-2
  0
POLYLINE
  8
MERGEDLAYER-2
 66
  1
 70
  1
 62
  0
  0
VERTEX
  8
MERGEDLAYER-2
 10
1.398747
 20
1.140555
 30
0.000000
  0
VERTEX
  8
MERGEDLAYER-2
 10
2.461686
 20
1.140555
 30
0.000000
  0
VERTEX
  8
MERGEDLAYER-2
 10
2.461686
 20
1.021387
 30
0.000000
  0
VERTEX
  8
MERGEDLAYER-2
 10
1.398747
 20
1.021387
 30
0.000000
  0
SEQEND
  8
MERGEDLAYER-2
  0
POLYLINE
  8
MERGEDLAYER-2
 66
  1
 70
  1
 62
  0
  0
VERTEX
  8
MERGEDLAYER-2
 10
2.630623
 20
1.140555
 30
0.000000
  0
VERTEX
  8
MERGEDLAYER-2
 10
3.693562
 20
1.140555
 30
0.000000
  0
VERTEX
  8
MERGEDLAYER-2
 10
3.693562
 20
1.021387
 30
0.000000
  0
VERTEX
  8
MERGEDLAYER-2
 10
2.630623
 20
1.021387
 30
0.000000
  0
SEQEND
  8
MERGEDLAYER-2
  0
POLYLINE
  8
MERGEDLAYER-2
 66
  1
 70
  1
 62
  0
  0
VERTEX
  8
MERGEDLAYER-2
 10
3.862500
 20
1.140555
 30
0.000000
  0
VERTEX
  8
MERGEDLAYER-2
 10
4.925437
 20
1.140555
 30
0.000000
  0
VERTEX
  8
MERGEDLAYER-2
 10
4.925437
 20
1.021387
 30
0.000000
  0
VERTEX
  8
MERGEDLAYER-2
 10
3.862500
 20
1.021387
 30
0.000000
  0
SEQEND
  8
MERGEDLAYER-2
  0
POLYLINE
  8
MERGEDLAYER-2
 66
  1
 70
  1
 62
  0
  0
VERTEX
  8
MERGEDLAYER-2
 10
5.094400
 20
1.140555
 30
0.000000
  0
VERTEX
  8
MERGEDLAYER-2
 10
6.157337
 20
1.140555
 30
0.000000
  0
VERTEX
  8
MERGEDLAYER-2
 10
6.157337
 20
1.021387
 30
0.000000
  0
VERTEX
  8
MERGEDLAYER-2
 10
5.094400
 20
1.021387
 30
0.000000
  0
SEQEND
  8
MERGEDLAYER-2
  0
POLYLINE
  8
MERGEDLAYER-2
 66
  1
 70
  1
 62
  0
  0
VERTEX
  8
MERGEDLAYER-2
 10
0.782822
 20
1.309355
 30
0.000000
  0
VERTEX
  8
MERGEDLAYER-2
 10
1.845759
 20
1.309355
 30
0.000000
  0
VERTEX
  8
MERGEDLAYER-2
 10
1.845759
 20
1.190187
 30
0.000000
  0
VERTEX
  8
MERGEDLAYER-2
 10
0.782822
 20
1.190187
 30
0.000000
  0
SEQEND
  8
MERGEDLAYER-2
  0
POLYLINE
  8
MERGEDLAYER-2
 66
  1
 70
  1
 62
  0
  0
VERTEX
  8
MERGEDLAYER-2
 10
2.014697
 20
1.309355
 30
0.000000
  0
VERTEX
  8
MERGEDLAYER-2
 10
3.077636
 20
1.309355
 30
0.000000
  0
VERTEX
  8
MERGEDLAYER-2
 10
3.077636
 20
1.190187
 30
0.000000
  0
VERTEX
  8
MERGEDLAYER-2
 10
2.014697
 20
1.190187
 30
0.000000
  0
SEQEND
  8
MERGEDLAYER-2
  0
POLYLINE
  8
MERGEDLAYER-2
 66
  1
 70
  1
 62
  0
  0
VERTEX
  8
MERGEDLAYER-2
 10
3.246573
 20
1.309355
 30
0.000000
  0
VERTEX
  8
MERGEDLAYER-2
 10
4.309512
 20
1.309355
 30
0.000000
  0
VERTEX
  8
MERGEDLAYER-2
 10
4.309512
 20
1.190187
 30
0.000000
  0
VERTEX
  8
MERGEDLAYER-2
 10
3.246573
 20
1.190187
 30
0.000000
  0
SEQEND
  8
MERGEDLAYER-2
  0
POLYLINE
  8
MERGEDLAYER-2
 66
  1
 70
  1
 62
  0
  0
VERTEX
  8
MERGEDLAYER-2
 10
4.478450
 20
1.309355
 30
0.000000
  0
VERTEX
  8
MERGEDLAYER-2
 10
5.541387
 20
1.309355
 30
0.000000
  0
VERTEX
  8
MERGEDLAYER-2
 10
5.541387
 20
1.190187
 30
0.000000
  0
VERTEX
  8
MERGEDLAYER-2
 10
4.478450
 20
1.190187
 30
0.000000
  0
SEQEND
  8
MERGEDLAYER-2
  0
POLYLINE
  8
MERGEDLAYER-2
 66
  1
 70
  1
 62
  0
  0
VERTEX
  8
MERGEDLAYER-2
 10
5.710350
 20
1.309355
 30
0.000000
  0
VERTEX
  8
MERGEDLAYER-2
 10
6.773287
 20
1.309355
 30
0.000000
  0
VERTEX
  8
MERGEDLAYER-2
 10
6.773287
 20
1.190187
 30
0.000000
  0
VERTEX
  8
MERGEDLAYER-2
 10
5.710350
 20
1.190187
 30
0.000000
  0
SEQEND
  8
MERGEDLAYER-2
  0
POLYLINE
  8
MERGEDLAYER-2
 66
  1
 70
  1
 62
  0
  0
VERTEX
  8
MERGEDLAYER-2
 10
0.782501
 20
1.478155
 30
0.000000
  0
VERTEX
  8
MERGEDLAYER-2
 10
1.230500
 20
1.478155
 30
0.000000
  0
VERTEX
  8
MERGEDLAYER-2
 10
1.230500
 20
1.358988
 30
0.000000
  0
VERTEX
  8
MERGEDLAYER-2
 10
0.782501
 20
1.358988
 30
0.000000
  0
SEQEND
  8
MERGEDLAYER-2
  0
POLYLINE
  8
MERGEDLAYER-2
 66
  1
 70
  1
 62
  0
  0
VERTEX
  8
MERGEDLAYER-2
 10
1.398747
 20
1.478155
 30
0.000000
  0
VERTEX
  8
MERGEDLAYER-2
 10
2.461686
 20
1.478155
 30
0.000000
  0
VERTEX
  8
MERGEDLAYER-2
 10
2.461686
 20
1.358988
 30
0.000000
  0
VERTEX
  8
MERGEDLAYER-2
 10
1.398747
 20
1.358988
 30
0.000000
  0
SEQEND
  8
MERGEDLAYER-2
  0
POLYLINE
  8
MERGEDLAYER-2
 66
  1
 70
  1
 62
  0
  0
VERTEX
  8
MERGEDLAYER-2
 10
2.630623
 20
1.478155
 30
0.000000
  0
VERTEX
  8
MERGEDLAYER-2
 10
3.693562
 20
1.478155
 30
0.000000
  0
VERTEX
  8
MERGEDLAYER-2
 10
3.693562
 20
1.358988
 30
0.000000
  0
VERTEX
  8
MERGEDLAYER-2
 10
2.630623
 20
1.358988
 30
0.000000
  0
SEQEND
  8
MERGEDLAYER-2
  0
POLYLINE
  8
MERGEDLAYER-2
 66
  1
 70
  1
 62
  0
  0
VERTEX
  8
MERGEDLAYER-2
 10
3.862500
 20
1.478155
 30
0.000000
  0
VERTEX
  8
MERGEDLAYER-2
 10
4.925437
 20
1.478155
 30
0.000000
  0
VERTEX
  8
MERGEDLAYER-2
 10
4.925437
 20
1.358988
 30
0.000000
  0
VERTEX
  8
MERGEDLAYER-2
 10
3.862500
 20
1.358988
 30
0.000000
  0
SEQEND
  8
MERGEDLAYER-2
  0
POLYLINE
  8
MERGEDLAYER-2
 66
  1
 70
  1
 62
  0
  0
VERTEX
  8
MERGEDLAYER-2
 10
5.094400
 20
1.478155
 30
0.000000
  0
VERTEX
  8
MERGEDLAYER-2
 10
6.157337
 20
1.478155
 30
0.000000
  0
VERTEX
  8
MERGEDLAYER-2
 10
6.157337
 20
1.358988
 30
0.000000
  0
VERTEX
  8
MERGEDLAYER-2
 10
5.094400
 20
1.358988
 30
0.000000
  0
SEQEND
  8
MERGEDLAYER-2
  0
POLYLINE
  8
MERGEDLAYER-2
 66
  1
 70
  1
 62
  0
  0
VERTEX
  8
MERGEDLAYER-2
 10
0.782822
 20
1.646956
 30
0.000000
  0
VERTEX
  8
MERGEDLAYER-2
 10
1.845759
 20
1.646956
 30
0.000000
  0
VERTEX
  8
MERGEDLAYER-2
 10
1.845759
 20
1.527788
 30
0.000000
  0
VERTEX
  8
MERGEDLAYER-2
 10
0.782822
 20
1.527788
 30
0.000000
  0
SEQEND
  8
MERGEDLAYER-2
  0
POLYLINE
  8
MERGEDLAYER-2
 66
  1
 70
  1
 62
  0
  0
VERTEX
  8
MERGEDLAYER-2
 10
2.014697
 20
1.646956
 30
0.000000
  0
VERTEX
  8
MERGEDLAYER-2
 10
3.077636
 20
1.646956
 30
0.000000
  0
VERTEX
  8
MERGEDLAYER-2
 10
3.077636
 20
1.527788
 30
0.000000
  0
VERTEX
  8
MERGEDLAYER-2
 10
2.014697
 20
1.527788
 30
0.000000
  0
SEQEND
  8
MERGEDLAYER-2
  0
POLYLINE
  8
MERGEDLAYER-2
 66
  1
 70
  1
 62
  0
  0
VERTEX
  8
MERGEDLAYER-2
 10
3.246573
 20
1.646956
 30
0.000000
  0
VERTEX
  8
MERGEDLAYER-2
 10
4.309512
 20
1.646956
 30
0.000000
  0
VERTEX
  8
MERGEDLAYER-2
 10
4.309512
 20
1.527788
 30
0.000000
  0
VERTEX
  8
MERGEDLAYER-2
 10
3.246573
 20
1.527788
 30
0.000000
  0
SEQEND
  8
MERGEDLAYER-2
  0
POLYLINE
  8
MERGEDLAYER-2
 66
  1
 70
  1
 62
  0
  0
VERTEX
  8
MERGEDLAYER-2
 10
4.478450
 20
1.646956
 30
0.000000
  0
VERTEX
  8
MERGEDLAYER-2
 10
5.541387
 20
1.646956
 30
0.000000
  0
VERTEX
  8
MERGEDLAYER-2
 10
5.541387
 20
1.527788
 30
0.000000
  0
VERTEX
  8
MERGEDLAYER-2
 10
4.478450
 20
1.527788
 30
0.000000
  0
SEQEND
  8
MERGEDLAYER-2
  0
POLYLINE
  8
MERGEDLAYER-2
 66
  1
 70
  1
 62
  0
  0
VERTEX
  8
MERGEDLAYER-2
 10
5.710350
 20
1.646956
 30
0.000000
  0
VERTEX
  8
MERGEDLAYER-2
 10
6.773287
 20
1.646956
 30
0.000000
  0
VERTEX
  8
MERGEDLAYER-2
 10
6.773287
 20
1.527788
 30
0.000000
  0
VERTEX
  8
MERGEDLAYER-2
 10
5.710350
 20
1.527788
 30
0.000000
  0
SEQEND
  8
MERGEDLAYER-2
  0
POLYLINE
  8
MERGEDLAYER-2
 66
  1
 70
  1
 62
  0
  0
VERTEX
  8
MERGEDLAYER-2
 10
0.782501
 20
1.815755
 30
0.000000
  0
VERTEX
  8
MERGEDLAYER-2
 10
1.230500
 20
1.815755
 30
0.000000
  0
VERTEX
  8
MERGEDLAYER-2
 10
1.230500
 20
1.696588
 30
0.000000
  0
VERTEX
  8
MERGEDLAYER-2
 10
0.782501
 20
1.696588
 30
0.000000
  0
SEQEND
  8
MERGEDLAYER-2
  0
POLYLINE
  8
MERGEDLAYER-2
 66
  1
 70
  1
 62
  0
  0
VERTEX
  8
MERGEDLAYER-2
 10
1.398747
 20
1.815755
 30
0.000000
  0
VERTEX
  8
MERGEDLAYER-2
 10
2.461686
 20
1.815755
 30
0.000000
  0
VERTEX
  8
MERGEDLAYER-2
 10
2.461686
 20
1.696588
 30
0.000000
  0
VERTEX
  8
MERGEDLAYER-2
 10
1.398747
 20
1.696588
 30
0.000000
  0
SEQEND
  8
MERGEDLAYER-2
  0
POLYLINE
  8
MERGEDLAYER-2
 66
  1
 70
  1
 62
  0
  0
VERTEX
  8
MERGEDLAYER-2
 10
2.630623
 20
1.815755
 30
0.000000
  0
VERTEX
  8
MERGEDLAYER-2
 10
3.693562
 20
1.815755
 30
0.000000
  0
VERTEX
  8
MERGEDLAYER-2
 10
3.693562
 20
1.696588
 30
0.000000
  0
VERTEX
  8
MERGEDLAYER-2
 10
2.630623
 20
1.696588
 30
0.000000
  0
SEQEND
  8
MERGEDLAYER-2
  0
POLYLINE
  8
MERGEDLAYER-2
 66
  1
 70
  1
 62
  0
  0
VERTEX
  8
MERGEDLAYER-2
 10
3.862500
 20
1.815755
 30
0.000000
  0
VERTEX
  8
MERGEDLAYER-2
 10
4.925437
 20
1.815755
 30
0.000000
  0
VERTEX
  8
MERGEDLAYER-2
 10
4.925437
 20
1.696588
 30
0.000000
  0
VERTEX
  8
MERGEDLAYER-2
 10
3.862500
 20
1.696588
 30
0.000000
  0
SEQEND
  8
MERGEDLAYER-2
  0
POLYLINE
  8
MERGEDLAYER-2
 66
  1
 70
  1
 62
  0
  0
VERTEX
  8
MERGEDLAYER-2
 10
5.094400
 20
1.815755
 30
0.000000
  0
VERTEX
  8
MERGEDLAYER-2
 10
6.157337
 20
1.815755
 30
0.000000
  0
VERTEX
  8
MERGEDLAYER-2
 10
6.157337
 20
1.696588
 30
0.000000
  0
VERTEX
  8
MERGEDLAYER-2
 10
5.094400
 20
1.696588
 30
0.000000
  0
SEQEND
  8
MERGEDLAYER-2
  0
POLYLINE
  8
MERGEDLAYER-2
 66
  1
 70
  1
 62
  0
  0
VERTEX
  8
MERGEDLAYER-2
 10
0.782822
 20
1.984556
 30
0.000000
  0
VERTEX
  8
MERGEDLAYER-2
 10
1.845759
 20
1.984556
 30
0.000000
  0
VERTEX
  8
MERGEDLAYER-2
 10
1.845759
 20
1.865388
 30
0.000000
  0
VERTEX
  8
MERGEDLAYER-2
 10
0.782822
 20
1.865388
 30
0.000000
  0
SEQEND
  8
MERGEDLAYER-2
  0
POLYLINE
  8
MERGEDLAYER-2
 66
  1
 70
  1
 62
  0
  0
VERTEX
  8
MERGEDLAYER-2
 10
2.014697
 20
1.984556
 30
0.000000
  0
VERTEX
  8
MERGEDLAYER-2
 10
3.077636
 20
1.984556
 30
0.000000
  0
VERTEX
  8
MERGEDLAYER-2
 10
3.077636
 20
1.865388
 30
0.000000
  0
VERTEX
  8
MERGEDLAYER-2
 10
2.014697
 20
1.865388
 30
0.000000
  0
SEQEND
  8
MERGEDLAYER-2
  0
POLYLINE
  8
MERGEDLAYER-2
 66
  1
 70
  1
 62
  0
  0
VERTEX
  8
MERGEDLAYER-2
 10
3.246573
 20
1.984556
 30
0.000000
  0
VERTEX
  8
MERGEDLAYER-2
 10
4.309512
 20
1.984556
 30
0.000000
  0
VERTEX
  8
MERGEDLAYER-2
 10
4.309512
 20
1.865388
 30
0.000000
  0
VERTEX
  8
MERGEDLAYER-2
 10
3.246573
 20
1.865388
 30
0.000000
  0
SEQEND
  8
MERGEDLAYER-2
  0
POLYLINE
  8
MERGEDLAYER-2
 66
  1
 70
  1
 62
  0
  0
VERTEX
  8
MERGEDLAYER-2
 10
4.478450
 20
1.984556
 30
0.000000
  0
VERTEX
  8
MERGEDLAYER-2
 10
5.541387
 20
1.984556
 30
0.000000
  0
VERTEX
  8
MERGEDLAYER-2
 10
5.541387
 20
1.865388
 30
0.000000
  0
VERTEX
  8
MERGEDLAYER-2
 10
4.478450
 20
1.865388
 30
0.000000
  0
SEQEND
  8
MERGEDLAYER-2
  0
POLYLINE
  8
MERGEDLAYER-2
 66
  1
 70
  1
 62
  0
  0
VERTEX
  8
MERGEDLAYER-2
 10
5.710350
 20
1.984556
 30
0.000000
  0
VERTEX
  8
MERGEDLAYER-2
 10
6.773287
 20
1.984556
 30
0.000000
  0
VERTEX
  8
MERGEDLAYER-2
 10
6.773287
 20
1.865388
 30
0.000000
  0
VERTEX
  8
MERGEDLAYER-2
 10
5.710350
 20
1.865388
 30
0.000000
  0
SEQEND
  8
MERGEDLAYER-2
  0
POLYLINE
  8
MERGEDLAYER-2
 66
  1
 70
  1
 62
  0
  0
VERTEX
  8
MERGEDLAYER-2
 10
0.782501
 20
2.153356
 30
0.000000
  0
VERTEX
  8
MERGEDLAYER-2
 10
1.230500
 20
2.153356
 30
0.000000
  0
VERTEX
  8
MERGEDLAYER-2
 10
1.230500
 20
2.034188
 30
0.000000
  0
VERTEX
  8
MERGEDLAYER-2
 10
0.782501
 20
2.034188
 30
0.000000
  0
SEQEND
  8
MERGEDLAYER-2
  0
POLYLINE
  8
MERGEDLAYER-2
 66
  1
 70
  1
 62
  0
  0
VERTEX
  8
MERGEDLAYER-2
 10
1.398747
 20
2.153356
 30
0.000000
  0
VERTEX
  8
MERGEDLAYER-2
 10
2.461686
 20
2.153356
 30
0.000000
  0
VERTEX
  8
MERGEDLAYER-2
 10
2.461686
 20
2.034188
 30
0.000000
  0
VERTEX
  8
MERGEDLAYER-2
 10
1.398747
 20
2.034188
 30
0.000000
  0
SEQEND
  8
MERGEDLAYER-2
  0
POLYLINE
  8
MERGEDLAYER-2
 66
  1
 70
  1
 62
  0
  0
VERTEX
  8
MERGEDLAYER-2
 10
2.630623
 20
2.153356
 30
0.000000
  0
VERTEX
  8
MERGEDLAYER-2
 10
3.693562
 20
2.153356
 30
0.000000
  0
VERTEX
  8
MERGEDLAYER-2
 10
3.693562
 20
2.034188
 30
0.000000
  0
VERTEX
  8
MERGEDLAYER-2
 10
2.630623
 20
2.034188
 30
0.000000
  0
SEQEND
  8
MERGEDLAYER-2
  0
POLYLINE
  8
MERGEDLAYER-2
 66
  1
 70
  1
 62
  0
  0
VERTEX
  8
MERGEDLAYER-2
 10
3.862500
 20
2.153356
 30
0.000000
  0
VERTEX
  8
MERGEDLAYER-2
 10
4.925437
 20
2.153356
 30
0.000000
  0
VERTEX
  8
MERGEDLAYER-2
 10
4.925437
 20
2.034188
 30
0.000000
  0
VERTEX
  8
MERGEDLAYER-2
 10
3.862500
 20
2.034188
 30
0.000000
  0
SEQEND
  8
MERGEDLAYER-2
  0
POLYLINE
  8
MERGEDLAYER-2
 66
  1
 70
  1
 62
  0
  0
VERTEX
  8
MERGEDLAYER-2
 10
5.094400
 20
2.153356
 30
0.000000
  0
VERTEX
  8
MERGEDLAYER-2
 10
6.157337
 20
2.153356
 30
0.000000
  0
VERTEX
  8
MERGEDLAYER-2
 10
6.157337
 20
2.034188
 30
0.000000
  0
VERTEX
  8
MERGEDLAYER-2
 10
5.094400
 20
2.034188
 30
0.000000
  0
SEQEND
  8
MERGEDLAYER-2
  0
POLYLINE
  8
MERGEDLAYER-2
 66
  1
 70
  1
 62
  0
  0
VERTEX
  8
MERGEDLAYER-2
 10
0.782822
 20
2.322156
 30
0.000000
  0
VERTEX
  8
MERGEDLAYER-2
 10
1.845759
 20
2.322156
 30
0.000000
  0
VERTEX
  8
MERGEDLAYER-2
 10
1.845759
 20
2.202989
 30
0.000000
  0
VERTEX
  8
MERGEDLAYER-2
 10
0.782822
 20
2.202989
 30
0.000000
  0
SEQEND
  8
MERGEDLAYER-2
  0
POLYLINE
  8
MERGEDLAYER-2
 66
  1
 70
  1
 62
  0
  0
VERTEX
  8
MERGEDLAYER-2
 10
2.014697
 20
2.322156
 30
0.000000
  0
VERTEX
  8
MERGEDLAYER-2
 10
3.077636
 20
2.322156
 30
0.000000
  0
VERTEX
  8
MERGEDLAYER-2
 10
3.077636
 20
2.202989
 30
0.000000
  0
VERTEX
  8
MERGEDLAYER-2
 10
2.014697
 20
2.202989
 30
0.000000
  0
SEQEND
  8
MERGEDLAYER-2
  0
POLYLINE
  8
MERGEDLAYER-2
 66
  1
 70
  1
 62
  0
  0
VERTEX
  8
MERGEDLAYER-2
 10
3.246573
 20
2.322156
 30
0.000000
  0
VERTEX
  8
MERGEDLAYER-2
 10
4.309512
 20
2.322156
 30
0.000000
  0
VERTEX
  8
MERGEDLAYER-2
 10
4.309512
 20
2.202989
 30
0.000000
  0
VERTEX
  8
MERGEDLAYER-2
 10
3.246573
 20
2.202989
 30
0.000000
  0
SEQEND
  8
MERGEDLAYER-2
  0
POLYLINE
  8
MERGEDLAYER-2
 66
  1
 70
  1
 62
  0
  0
VERTEX
  8
MERGEDLAYER-2
 10
4.478450
 20
2.322156
 30
0.000000
  0
VERTEX
  8
MERGEDLAYER-2
 10
5.541387
 20
2.322156
 30
0.000000
  0
VERTEX
  8
MERGEDLAYER-2
 10
5.541387
 20
2.202989
 30
0.000000
  0
VERTEX
  8
MERGEDLAYER-2
 10
4.478450
 20
2.202989
 30
0.000000
  0
SEQEND
  8
MERGEDLAYER-2
  0
POLYLINE
  8
MERGEDLAYER-2
 66
  1
 70
  1
 62
  0
  0
VERTEX
  8
MERGEDLAYER-2
 10
5.710350
 20
2.322156
 30
0.000000
  0
VERTEX
  8
MERGEDLAYER-2
 10
6.773287
 20
2.322156
 30
0.000000
  0
VERTEX
  8
MERGEDLAYER-2
 10
6.773287
 20
2.202989
 30
0.000000
  0
VERTEX
  8
MERGEDLAYER-2
 10
5.710350
 20
2.202989
 30
0.000000
  0
SEQEND
  8
MERGEDLAYER-2
  0
POLYLINE
  8
MERGEDLAYER-2
 66
  1
 70
  1
 62
  0
  0
VERTEX
  8
MERGEDLAYER-2
 10
0.782501
 20
2.490957
 30
0.000000
  0
VERTEX
  8
MERGEDLAYER-2
 10
1.230500
 20
2.490957
 30
0.000000
  0
VERTEX
  8
MERGEDLAYER-2
 10
1.230500
 20
2.371789
 30
0.000000
  0
VERTEX
  8
MERGEDLAYER-2
 10
0.782501
 20
2.371789
 30
0.000000
  0
SEQEND
  8
MERGEDLAYER-2
  0
POLYLINE
  8
MERGEDLAYER-2
 66
  1
 70
  1
 62
  0
  0
VERTEX
  8
MERGEDLAYER-2
 10
1.398747
 20
2.490957
 30
0.000000
  0
VERTEX
  8
MERGEDLAYER-2
 10
2.461686
 20
2.490957
 30
0.000000
  0
VERTEX
  8
MERGEDLAYER-2
 10
2.461686
 20
2.371789
 30
0.000000
  0
VERTEX
  8
MERGEDLAYER-2
 10
1.398747
 20
2.371789
 30
0.000000
  0
SEQEND
  8
MERGEDLAYER-2
  0
POLYLINE
  8
MERGEDLAYER-2
 66
  1
 70
  1
 62
  0
  0
VERTEX
  8
MERGEDLAYER-2
 10
2.630623
 20
2.490957
 30
0.000000
  0
VERTEX
  8
MERGEDLAYER-2
 10
3.693562
 20
2.490957
 30
0.000000
  0
VERTEX
  8
MERGEDLAYER-2
 10
3.693562
 20
2.371789
 30
0.000000
  0
VERTEX
  8
MERGEDLAYER-2
 10
2.630623
 20
2.371789
 30
0.000000
  0
SEQEND
  8
MERGEDLAYER-2
  0
POLYLINE
  8
MERGEDLAYER-2
 66
  1
 70
  1
 62
  0
  0
VERTEX
  8
MERGEDLAYER-2
 10
3.862500
 20
2.490957
 30
0.000000
  0
VERTEX
  8
MERGEDLAYER-2
 10
4.925437
 20
2.490957
 30
0.000000
  0
VERTEX
  8
MERGEDLAYER-2
 10
4.925437
 20
2.371789
 30
0.000000
  0
VERTEX
  8
MERGEDLAYER-2
 10
3.862500
 20
2.371789
 30
0.000000
  0
SEQEND
  8
MERGEDLAYER-2
  0
POLYLINE
  8
MERGEDLAYER-2
 66
  1
 70
  1
 62
  0
  0
VERTEX
  8
MERGEDLAYER-2
 10
5.094400
 20
2.490957
 30
0.000000
  0
VERTEX
  8
MERGEDLAYER-2
 10
6.157337
 20
2.490957
 30
0.000000
  0
VERTEX
  8
MERGEDLAYER-2
 10
6.157337
 20
2.371789
 30
0.000000
  0
VERTEX
  8
MERGEDLAYER-2
 10
5.094400
 20
2.371789
 30
0.000000
  0
SEQEND
  8
MERGEDLAYER-2
  0
POLYLINE
  8
MERGEDLAYER-2
 66
  1
 70
  1
 62
  0
  0
VERTEX
  8
MERGEDLAYER-2
 10
0.782822
 20
2.659756
 30
0.000000
  0
VERTEX
  8
MERGEDLAYER-2
 10
1.845759
 20
2.659756
 30
0.000000
  0
VERTEX
  8
MERGEDLAYER-2
 10
1.845759
 20
2.540589
 30
0.000000
  0
VERTEX
  8
MERGEDLAYER-2
 10
0.782822
 20
2.540589
 30
0.000000
  0
SEQEND
  8
MERGEDLAYER-2
  0
POLYLINE
  8
MERGEDLAYER-2
 66
  1
 70
  1
 62
  0
  0
VERTEX
  8
MERGEDLAYER-2
 10
2.014697
 20
2.659756
 30
0.000000
  0
VERTEX
  8
MERGEDLAYER-2
 10
3.077636
 20
2.659756
 30
0.000000
  0
VERTEX
  8
MERGEDLAYER-2
 10
3.077636
 20
2.540589
 30
0.000000
  0
VERTEX
  8
MERGEDLAYER-2
 10
2.014697
 20
2.540589
 30
0.000000
  0
SEQEND
  8
MERGEDLAYER-2
  0
POLYLINE
  8
MERGEDLAYER-2
 66
  1
 70
  1
 62
  0
  0
VERTEX
  8
MERGEDLAYER-2
 10
3.246573
 20
2.659756
 30
0.000000
  0
VERTEX
  8
MERGEDLAYER-2
 10
4.309512
 20
2.659756
 30
0.000000
  0
VERTEX
  8
MERGEDLAYER-2
 10
4.309512
 20
2.540589
 30
0.000000
  0
VERTEX
  8
MERGEDLAYER-2
 10
3.246573
 20
2.540589
 30
0.000000
  0
SEQEND
  8
MERGEDLAYER-2
  0
POLYLINE
  8
MERGEDLAYER-2
 66
  1
 70
  1
 62
  0
  0
VERTEX
  8
MERGEDLAYER-2
 10
4.478450
 20
2.659756
 30
0.000000
  0
VERTEX
  8
MERGEDLAYER-2
 10
5.541387
 20
2.659756
 30
0.000000
  0
VERTEX
  8
MERGEDLAYER-2
 10
5.541387
 20
2.540589
 30
0.000000
  0
VERTEX
  8
MERGEDLAYER-2
 10
4.478450
 20
2.540589
 30
0.000000
  0
SEQEND
  8
MERGEDLAYER-2
  0
POLYLINE
  8
MERGEDLAYER-2
 66
  1
 70
  1
 62
  0
  0
VERTEX
  8
MERGEDLAYER-2
 10
5.710350
 20
2.659756
 30
0.000000
  0
VERTEX
  8
MERGEDLAYER-2
 10
6.773287
 20
2.659756
 30
0.000000
  0
VERTEX
  8
MERGEDLAYER-2
 10
6.773287
 20
2.540589
 30
0.000000
  0
VERTEX
  8
MERGEDLAYER-2
 10
5.710350
 20
2.540589
 30
0.000000
  0
SEQEND
  8
MERGEDLAYER-2
  0
POLYLINE
  8
MERGEDLAYER-2
 66
  1
 70
  1
 62
  0
  0
VERTEX
  8
MERGEDLAYER-2
 10
0.782501
 20
2.828556
 30
0.000000
  0
VERTEX
  8
MERGEDLAYER-2
 10
1.230500
 20
2.828556
 30
0.000000
  0
VERTEX
  8
MERGEDLAYER-2
 10
1.230500
 20
2.709389
 30
0.000000
  0
VERTEX
  8
MERGEDLAYER-2
 10
0.782501
 20
2.709389
 30
0.000000
  0
SEQEND
  8
MERGEDLAYER-2
  0
POLYLINE
  8
MERGEDLAYER-2
 66
  1
 70
  1
 62
  0
  0
VERTEX
  8
MERGEDLAYER-2
 10
1.398747
 20
2.828556
 30
0.000000
  0
VERTEX
  8
MERGEDLAYER-2
 10
2.461686
 20
2.828556
 30
0.000000
  0
VERTEX
  8
MERGEDLAYER-2
 10
2.461686
 20
2.709389
 30
0.000000
  0
VERTEX
  8
MERGEDLAYER-2
 10
1.398747
 20
2.709389
 30
0.000000
  0
SEQEND
  8
MERGEDLAYER-2
  0
POLYLINE
  8
MERGEDLAYER-2
 66
  1
 70
  1
 62
  0
  0
VERTEX
  8
MERGEDLAYER-2
 10
2.630623
 20
2.828556
 30
0.000000
  0
VERTEX
  8
MERGEDLAYER-2
 10
3.693562
 20
2.828556
 30
0.000000
  0
VERTEX
  8
MERGEDLAYER-2
 10
3.693562
 20
2.709389
 30
0.000000
  0
VERTEX
  8
MERGEDLAYER-2
 10
2.630623
 20
2.709389
 30
0.000000
  0
SEQEND
  8
MERGEDLAYER-2
  0
POLYLINE
  8
MERGEDLAYER-2
 66
  1
 70
  1
 62
  0
  0
VERTEX
  8
MERGEDLAYER-2
 10
3.862500
 20
2.828556
 30
0.000000
  0
VERTEX
  8
MERGEDLAYER-2
 10
4.925437
 20
2.828556
 30
0.000000
  0
VERTEX
  8
MERGEDLAYER-2
 10
4.925437
 20
2.709389
 30
0.000000
  0
VERTEX
  8
MERGEDLAYER-2
 10
3.862500
 20
2.709389
 30
0.000000
  0
SEQEND
  8
MERGEDLAYER-2
  0
POLYLINE
  8
MERGEDLAYER-2
 66
  1
 70
  1
 62
  0
  0
VERTEX
  8
MERGEDLAYER-2
 10
5.094400
 20
2.828556
 30
0.000000
  0
VERTEX
  8
MERGEDLAYER-2
 10
6.157337
 20
2.828556
 30
0.000000
  0
VERTEX
  8
MERGEDLAYER-2
 10
6.157337
 20
2.709389
 30
0.000000
  0
VERTEX
  8
MERGEDLAYER-2
 10
5.094400
 20
2.709389
 30
0.000000
  0
SEQEND
  8
MERGEDLAYER-2
  0
POLYLINE
  8
MERGEDLAYER-2
 66
  1
 70
  1
 62
  0
  0
VERTEX
  8
MERGEDLAYER-2
 10
0.782822
 20
2.997357
 30
0.000000
  0
VERTEX
  8
MERGEDLAYER-2
 10
1.845759
 20
2.997357
 30
0.000000
  0
VERTEX
  8
MERGEDLAYER-2
 10
1.845759
 20
2.878189
 30
0.000000
  0
VERTEX
  8
MERGEDLAYER-2
 10
0.782822
 20
2.878189
 30
0.000000
  0
SEQEND
  8
MERGEDLAYER-2
  0
POLYLINE
  8
MERGEDLAYER-2
 66
  1
 70
  1
 62
  0
  0
VERTEX
  8
MERGEDLAYER-2
 10
2.014697
 20
2.997357
 30
0.000000
  0
VERTEX
  8
MERGEDLAYER-2
 10
3.077636
 20
2.997357
 30
0.000000
  0
VERTEX
  8
MERGEDLAYER-2
 10
3.077636
 20
2.878189
 30
0.000000
  0
VERTEX
  8
MERGEDLAYER-2
 10
2.014697
 20
2.878189
 30
0.000000
  0
SEQEND
  8
MERGEDLAYER-2
  0
POLYLINE
  8
MERGEDLAYER-2
 66
  1
 70
  1
 62
  0
  0
VERTEX
  8
MERGEDLAYER-2
 10
3.246573
 20
2.997357
 30
0.000000
  0
VERTEX
  8
MERGEDLAYER-2
 10
4.309512
 20
2.997357
 30
0.000000
  0
VERTEX
  8
MERGEDLAYER-2
 10
4.309512
 20
2.878189
 30
0.000000
  0
VERTEX
  8
MERGEDLAYER-2
 10
3.246573
 20
2.878189
 30
0.000000
  0
SEQEND
  8
MERGEDLAYER-2
  0
POLYLINE
  8
MERGEDLAYER-2
 66
  1
 70
  1
 62
  0
  0
VERTEX
  8
MERGEDLAYER-2
 10
4.478450
 20
2.997357
 30
0.000000
  0
VERTEX
  8
MERGEDLAYER-2
 10
5.541387
 20
2.997357
 30
0.000000
  0
VERTEX
  8
MERGEDLAYER-2
 10
5.541387
 20
2.878189
 30
0.000000
  0
VERTEX
  8
MERGEDLAYER-2
 10
4.478450
 20
2.878189
 30
0.000000
  0
SEQEND
  8
MERGEDLAYER-2
  0
POLYLINE
  8
MERGEDLAYER-2
 66
  1
 70
  1
 62
  0
  0
VERTEX
  8
MERGEDLAYER-2
 10
5.710350
 20
2.997357
 30
0.000000
  0
VERTEX
  8
MERGEDLAYER-2
 10
6.773287
 20
2.997357
 30
0.000000
  0
VERTEX
  8
MERGEDLAYER-2
 10
6.773287
 20
2.878189
 30
0.000000
  0
VERTEX
  8
MERGEDLAYER-2
 10
5.710350
 20
2.878189
 30
0.000000
  0
SEQEND
  8
MERGEDLAYER-2
  0
POLYLINE
  8
MERGEDLAYER-2
 66
  1
 70
  1
 62
  0
  0
VERTEX
  8
MERGEDLAYER-2
 10
0.782501
 20
3.166157
 30
0.000000
  0
VERTEX
  8
MERGEDLAYER-2
 10
1.230500
 20
3.166157
 30
0.000000
  0
VERTEX
  8
MERGEDLAYER-2
 10
1.230500
 20
3.046989
 30
0.000000
  0
VERTEX
  8
MERGEDLAYER-2
 10
0.782501
 20
3.046989
 30
0.000000
  0
SEQEND
  8
MERGEDLAYER-2
  0
POLYLINE
  8
MERGEDLAYER-2
 66
  1
 70
  1
 62
  0
  0
VERTEX
  8
MERGEDLAYER-2
 10
1.398747
 20
3.166157
 30
0.000000
  0
VERTEX
  8
MERGEDLAYER-2
 10
2.461686
 20
3.166157
 30
0.000000
  0
VERTEX
  8
MERGEDLAYER-2
 10
2.461686
 20
3.046989
 30
0.000000
  0
VERTEX
  8
MERGEDLAYER-2
 10
1.398747
 20
3.046989
 30
0.000000
  0
SEQEND
  8
MERGEDLAYER-2
  0
POLYLINE
  8
MERGEDLAYER-2
 66
  1
 70
  1
 62
  0
  0
VERTEX
  8
MERGEDLAYER-2
 10
2.630623
 20
3.166157
 30
0.000000
  0
VERTEX
  8
MERGEDLAYER-2
 10
3.693562
 20
3.166157
 30
0.000000
  0
VERTEX
  8
MERGEDLAYER-2
 10
3.693562
 20
3.046989
 30
0.000000
  0
VERTEX
  8
MERGEDLAYER-2
 10
2.630623
 20
3.046989
 30
0.000000
  0
SEQEND
  8
MERGEDLAYER-2
  0
POLYLINE
  8
MERGEDLAYER-2
 66
  1
 70
  1
 62
  0
  0
VERTEX
  8
MERGEDLAYER-2
 10
3.862500
 20
3.166157
 30
0.000000
  0
VERTEX
  8
MERGEDLAYER-2
 10
4.925437
 20
3.166157
 30
0.000000
  0
VERTEX
  8
MERGEDLAYER-2
 10
4.925437
 20
3.046989
 30
0.000000
  0
VERTEX
  8
MERGEDLAYER-2
 10
3.862500
 20
3.046989
 30
0.000000
  0
SEQEND
  8
MERGEDLAYER-2
  0
POLYLINE
  8
MERGEDLAYER-2
 66
  1
 70
  1
 62
  0
  0
VERTEX
  8
MERGEDLAYER-2
 10
5.094400
 20
3.166157
 30
0.000000
  0
VERTEX
  8
MERGEDLAYER-2
 10
6.157337
 20
3.166157
 30
0.000000
  0
VERTEX
  8
MERGEDLAYER-2
 10
6.157337
 20
3.046989
 30
0.000000
  0
VERTEX
  8
MERGEDLAYER-2
 10
5.094400
 20
3.046989
 30
0.000000
  0
SEQEND
  8
MERGEDLAYER-2
  0
POLYLINE
  8
MERGEDLAYER-2
 66
  1
 70
  1
 62
  0
  0
VERTEX
  8
MERGEDLAYER-2
 10
0.782822
 20
3.334957
 30
0.000000
  0
VERTEX
  8
MERGEDLAYER-2
 10
1.845759
 20
3.334957
 30
0.000000
  0
VERTEX
  8
MERGEDLAYER-2
 10
1.845759
 20
3.215790
 30
0.000000
  0
VERTEX
  8
MERGEDLAYER-2
 10
0.782822
 20
3.215790
 30
0.000000
  0
SEQEND
  8
MERGEDLAYER-2
  0
POLYLINE
  8
MERGEDLAYER-2
 66
  1
 70
  1
 62
  0
  0
VERTEX
  8
MERGEDLAYER-2
 10
2.014697
 20
3.334957
 30
0.000000
  0
VERTEX
  8
MERGEDLAYER-2
 10
3.077636
 20
3.334957
 30
0.000000
  0
VERTEX
  8
MERGEDLAYER-2
 10
3.077636
 20
3.215790
 30
0.000000
  0
VERTEX
  8
MERGEDLAYER-2
 10
2.014697
 20
3.215790
 30
0.000000
  0
SEQEND
  8
MERGEDLAYER-2
  0
POLYLINE
  8
MERGEDLAYER-2
 66
  1
 70
  1
 62
  0
  0
VERTEX
  8
MERGEDLAYER-2
 10
3.246573
 20
3.334957
 30
0.000000
  0
VERTEX
  8
MERGEDLAYER-2
 10
4.309512
 20
3.334957
 30
0.000000
  0
VERTEX
  8
MERGEDLAYER-2
 10
4.309512
 20
3.215790
 30
0.000000
  0
VERTEX
  8
MERGEDLAYER-2
 10
3.246573
 20
3.215790
 30
0.000000
  0
SEQEND
  8
MERGEDLAYER-2
  0
POLYLINE
  8
MERGEDLAYER-2
 66
  1
 70
  1
 62
  0
  0
VERTEX
  8
MERGEDLAYER-2
 10
4.478450
 20
3.334957
 30
0.000000
  0
VERTEX
  8
MERGEDLAYER-2
 10
5.541387
 20
3.334957
 30
0.000000
  0
VERTEX
  8
MERGEDLAYER-2
 10
5.541387
 20
3.215790
 30
0.000000
  0
VERTEX
  8
MERGEDLAYER-2
 10
4.478450
 20
3.215790
 30
0.000000
  0
SEQEND
  8
MERGEDLAYER-2
  0
POLYLINE
  8
MERGEDLAYER-2
 66
  1
 70
  1
 62
  0
  0
VERTEX
  8
MERGEDLAYER-2
 10
5.710350
 20
3.334957
 30
0.000000
  0
VERTEX
  8
MERGEDLAYER-2
 10
6.773287
 20
3.334957
 30
0.000000
  0
VERTEX
  8
MERGEDLAYER-2
 10
6.773287
 20
3.215790
 30
0.000000
  0
VERTEX
  8
MERGEDLAYER-2
 10
5.710350
 20
3.215790
 30
0.000000
  0
SEQEND
  8
MERGEDLAYER-2
  0
POLYLINE
  8
MERGEDLAYER-2
 66
  1
 70
  1
 62
  0
  0
VERTEX
  8
MERGEDLAYER-2
 10
0.782501
 20
3.503757
 30
0.000000
  0
VERTEX
  8
MERGEDLAYER-2
 10
1.230500
 20
3.503757
 30
0.000000
  0
VERTEX
  8
MERGEDLAYER-2
 10
1.230500
 20
3.384590
 30
0.000000
  0
VERTEX
  8
MERGEDLAYER-2
 10
0.782501
 20
3.384590
 30
0.000000
  0
SEQEND
  8
MERGEDLAYER-2
  0
POLYLINE
  8
MERGEDLAYER-2
 66
  1
 70
  1
 62
  0
  0
VERTEX
  8
MERGEDLAYER-2
 10
1.398747
 20
3.503757
 30
0.000000
  0
VERTEX
  8
MERGEDLAYER-2
 10
2.461686
 20
3.503757
 30
0.000000
  0
VERTEX
  8
MERGEDLAYER-2
 10
2.461686
 20
3.384590
 30
0.000000
  0
VERTEX
  8
MERGEDLAYER-2
 10
1.398747
 20
3.384590
 30
0.000000
  0
SEQEND
  8
MERGEDLAYER-2
  0
POLYLINE
  8
MERGEDLAYER-2
 66
  1
 70
  1
 62
  0
  0
VERTEX
  8
MERGEDLAYER-2
 10
2.630623
 20
3.503757
 30
0.000000
  0
VERTEX
  8
MERGEDLAYER-2
 10
3.693562
 20
3.503757
 30
0.000000
  0
VERTEX
  8
MERGEDLAYER-2
 10
3.693562
 20
3.384590
 30
0.000000
  0
VERTEX
  8
MERGEDLAYER-2
 10
2.630623
 20
3.384590
 30
0.000000
  0
SEQEND
  8
MERGEDLAYER-2
  0
POLYLINE
  8
MERGEDLAYER-2
 66
  1
 70
  1
 62
  0
  0
VERTEX
  8
MERGEDLAYER-2
 10
3.862500
 20
3.503757
 30
0.000000
  0
VERTEX
  8
MERGEDLAYER-2
 10
4.925437
 20
3.503757
 30
0.000000
  0
VERTEX
  8
MERGEDLAYER-2
 10
4.925437
 20
3.384590
 30
0.000000
  0
VERTEX
  8
MERGEDLAYER-2
 10
3.862500
 20
3.384590
 30
0.000000
  0
SEQEND
  8
MERGEDLAYER-2
  0
POLYLINE
  8
MERGEDLAYER-2
 66
  1
 70
  1
 62
  0
  0
VERTEX
  8
MERGEDLAYER-2
 10
5.094400
 20
3.503757
 30
0.000000
  0
VERTEX
  8
MERGEDLAYER-2
 10
6.157337
 20
3.503757
 30
0.000000
  0
VERTEX
  8
MERGEDLAYER-2
 10
6.157337
 20
3.384590
 30
0.000000
  0
VERTEX
  8
MERGEDLAYER-2
 10
5.094400
 20
3.384590
 30
0.000000
  0
SEQEND
  8
MERGEDLAYER-2
  0
POLYLINE
  8
MERGEDLAYER-2
 66
  1
 70
  1
 62
  0
  0
VERTEX
  8
MERGEDLAYER-2
 10
0.782822
 20
3.672557
 30
0.000000
  0
VERTEX
  8
MERGEDLAYER-2
 10
1.845759
 20
3.672557
 30
0.000000
  0
VERTEX
  8
MERGEDLAYER-2
 10
1.845759
 20
3.553390
 30
0.000000
  0
VERTEX
  8
MERGEDLAYER-2
 10
0.782822
 20
3.553390
 30
0.000000
  0
SEQEND
  8
MERGEDLAYER-2
  0
POLYLINE
  8
MERGEDLAYER-2
 66
  1
 70
  1
 62
  0
  0
VERTEX
  8
MERGEDLAYER-2
 10
2.014697
 20
3.672557
 30
0.000000
  0
VERTEX
  8
MERGEDLAYER-2
 10
3.077636
 20
3.672557
 30
0.000000
  0
VERTEX
  8
MERGEDLAYER-2
 10
3.077636
 20
3.553390
 30
0.000000
  0
VERTEX
  8
MERGEDLAYER-2
 10
2.014697
 20
3.553390
 30
0.000000
  0
SEQEND
  8
MERGEDLAYER-2
  0
POLYLINE
  8
MERGEDLAYER-2
 66
  1
 70
  1
 62
  0
  0
VERTEX
  8
MERGEDLAYER-2
 10
3.246573
 20
3.672557
 30
0.000000
  0
VERTEX
  8
MERGEDLAYER-2
 10
4.309512
 20
3.672557
 30
0.000000
  0
VERTEX
  8
MERGEDLAYER-2
 10
4.309512
 20
3.553390
 30
0.000000
  0
VERTEX
  8
MERGEDLAYER-2
 10
3.246573
 20
3.553390
 30
0.000000
  0
SEQEND
  8
MERGEDLAYER-2
  0
POLYLINE
  8
MERGEDLAYER-2
 66
  1
 70
  1
 62
  0
  0
VERTEX
  8
MERGEDLAYER-2
 10
4.478450
 20
3.672557
 30
0.000000
  0
VERTEX
  8
MERGEDLAYER-2
 10
5.541387
 20
3.672557
 30
0.000000
  0
VERTEX
  8
MERGEDLAYER-2
 10
5.541387
 20
3.553390
 30
0.000000
  0
VERTEX
  8
MERGEDLAYER-2
 10
4.478450
 20
3.553390
 30
0.000000
  0
SEQEND
  8
MERGEDLAYER-2
  0
POLYLINE
  8
MERGEDLAYER-2
 66
  1
 70
  1
 62
  0
  0
VERTEX
  8
MERGEDLAYER-2
 10
5.710350
 20
3.672557
 30
0.000000
  0
VERTEX
  8
MERGEDLAYER-2
 10
6.773287
 20
3.672557
 30
0.000000
  0
VERTEX
  8
MERGEDLAYER-2
 10
6.773287
 20
3.553390
 30
0.000000
  0
VERTEX
  8
MERGEDLAYER-2
 10
5.710350
 20
3.553390
 30
0.000000
  0
SEQEND
  8
MERGEDLAYER-2
  0
POLYLINE
  8
MERGEDLAYER-2
 66
  1
 70
  1
 62
  0
  0
VERTEX
  8
MERGEDLAYER-2
 10
0.782501
 20
3.841358
 30
0.000000
  0
VERTEX
  8
MERGEDLAYER-2
 10
1.230500
 20
3.841358
 30
0.000000
  0
VERTEX
  8
MERGEDLAYER-2
 10
1.230500
 20
3.722190
 30
0.000000
  0
VERTEX
  8
MERGEDLAYER-2
 10
0.782501
 20
3.722190
 30
0.000000
  0
SEQEND
  8
MERGEDLAYER-2
  0
POLYLINE
  8
MERGEDLAYER-2
 66
  1
 70
  1
 62
  0
  0
VERTEX
  8
MERGEDLAYER-2
 10
1.398747
 20
3.841358
 30
0.000000
  0
VERTEX
  8
MERGEDLAYER-2
 10
2.461686
 20
3.841358
 30
0.000000
  0
VERTEX
  8
MERGEDLAYER-2
 10
2.461686
 20
3.722190
 30
0.000000
  0
VERTEX
  8
MERGEDLAYER-2
 10
1.398747
 20
3.722190
 30
0.000000
  0
SEQEND
  8
MERGEDLAYER-2
  0
POLYLINE
  8
MERGEDLAYER-2
 66
  1
 70
  1
 62
  0
  0
VERTEX
  8
MERGEDLAYER-2
 10
2.630623
 20
3.841358
 30
0.000000
  0
VERTEX
  8
MERGEDLAYER-2
 10
3.693562
 20
3.841358
 30
0.000000
  0
VERTEX
  8
MERGEDLAYER-2
 10
3.693562
 20
3.722190
 30
0.000000
  0
VERTEX
  8
MERGEDLAYER-2
 10
2.630623
 20
3.722190
 30
0.000000
  0
SEQEND
  8
MERGEDLAYER-2
  0
POLYLINE
  8
MERGEDLAYER-2
 66
  1
 70
  1
 62
  0
  0
VERTEX
  8
MERGEDLAYER-2
 10
3.862500
 20
3.841358
 30
0.000000
  0
VERTEX
  8
MERGEDLAYER-2
 10
4.925437
 20
3.841358
 30
0.000000
  0
VERTEX
  8
MERGEDLAYER-2
 10
4.925437
 20
3.722190
 30
0.000000
  0
VERTEX
  8
MERGEDLAYER-2
 10
3.862500
 20
3.722190
 30
0.000000
  0
SEQEND
  8
MERGEDLAYER-2
  0
POLYLINE
  8
MERGEDLAYER-2
 66
  1
 70
  1
 62
  0
  0
VERTEX
  8
MERGEDLAYER-2
 10
5.094400
 20
3.841358
 30
0.000000
  0
VERTEX
  8
MERGEDLAYER-2
 10
6.157337
 20
3.841358
 30
0.000000
  0
VERTEX
  8
MERGEDLAYER-2
 10
6.157337
 20
3.722190
 30
0.000000
  0
VERTEX
  8
MERGEDLAYER-2
 10
5.094400
 20
3.722190
 30
0.000000
  0
SEQEND
  8
MERGEDLAYER-2
  0
POLYLINE
  8
MERGEDLAYER-2
 66
  1
 70
  1
 62
  0
  0
VERTEX
  8
MERGEDLAYER-2
 10
0.782822
 20
4.010158
 30
0.000000
  0
VERTEX
  8
MERGEDLAYER-2
 10
1.845759
 20
4.010158
 30
0.000000
  0
VERTEX
  8
MERGEDLAYER-2
 10
1.845759
 20
3.890990
 30
0.000000
  0
VERTEX
  8
MERGEDLAYER-2
 10
0.782822
 20
3.890990
 30
0.000000
  0
SEQEND
  8
MERGEDLAYER-2
  0
POLYLINE
  8
MERGEDLAYER-2
 66
  1
 70
  1
 62
  0
  0
VERTEX
  8
MERGEDLAYER-2
 10
2.014697
 20
4.010158
 30
0.000000
  0
VERTEX
  8
MERGEDLAYER-2
 10
3.077636
 20
4.010158
 30
0.000000
  0
VERTEX
  8
MERGEDLAYER-2
 10
3.077636
 20
3.890990
 30
0.000000
  0
VERTEX
  8
MERGEDLAYER-2
 10
2.014697
 20
3.890990
 30
0.000000
  0
SEQEND
  8
MERGEDLAYER-2
  0
POLYLINE
  8
MERGEDLAYER-2
 66
  1
 70
  1
 62
  0
  0
VERTEX
  8
MERGEDLAYER-2
 10
3.246573
 20
4.010158
 30
0.000000
  0
VERTEX
  8
MERGEDLAYER-2
 10
4.309512
 20
4.010158
 30
0.000000
  0
VERTEX
  8
MERGEDLAYER-2
 10
4.309512
 20
3.890990
 30
0.000000
  0
VERTEX
  8
MERGEDLAYER-2
 10
3.246573
 20
3.890990
 30
0.000000
  0
SEQEND
  8
MERGEDLAYER-2
  0
POLYLINE
  8
MERGEDLAYER-2
 66
  1
 70
  1
 62
  0
  0
VERTEX
  8
MERGEDLAYER-2
 10
4.478450
 20
4.010158
 30
0.000000
  0
VERTEX
  8
MERGEDLAYER-2
 10
5.541387
 20
4.010158
 30
0.000000
  0
VERTEX
  8
MERGEDLAYER-2
 10
5.541387
 20
3.890990
 30
0.000000
  0
VERTEX
  8
MERGEDLAYER-2
 10
4.478450
 20
3.890990
 30
0.000000
  0
SEQEND
  8
MERGEDLAYER-2
  0
POLYLINE
  8
MERGEDLAYER-2
 66
  1
 70
  1
 62
  0
  0
VERTEX
  8
MERGEDLAYER-2
 10
5.710350
 20
4.010158
 30
0.000000
  0
VERTEX
  8
MERGEDLAYER-2
 10
6.773287
 20
4.010158
 30
0.000000
  0
VERTEX
  8
MERGEDLAYER-2
 10
6.773287
 20
3.890990
 30
0.000000
  0
VERTEX
  8
MERGEDLAYER-2
 10
5.710350
 20
3.890990
 30
0.000000
  0
SEQEND
  8
MERGEDLAYER-2
  0
POLYLINE
  8
MERGEDLAYER-2
 66
  1
 70
  1
 62
  0
  0
VERTEX
  8
MERGEDLAYER-2
 10
0.782501
 20
4.178958
 30
0.000000
  0
VERTEX
  8
MERGEDLAYER-2
 10
1.230500
 20
4.178958
 30
0.000000
  0
VERTEX
  8
MERGEDLAYER-2
 10
1.230500
 20
4.059791
 30
0.000000
  0
VERTEX
  8
MERGEDLAYER-2
 10
0.782501
 20
4.059791
 30
0.000000
  0
SEQEND
  8
MERGEDLAYER-2
  0
POLYLINE
  8
MERGEDLAYER-2
 66
  1
 70
  1
 62
  0
  0
VERTEX
  8
MERGEDLAYER-2
 10
1.398747
 20
4.178958
 30
0.000000
  0
VERTEX
  8
MERGEDLAYER-2
 10
2.461686
 20
4.178958
 30
0.000000
  0
VERTEX
  8
MERGEDLAYER-2
 10
2.461686
 20
4.059791
 30
0.000000
  0
VERTEX
  8
MERGEDLAYER-2
 10
1.398747
 20
4.059791
 30
0.000000
  0
SEQEND
  8
MERGEDLAYER-2
  0
POLYLINE
  8
MERGEDLAYER-2
 66
  1
 70
  1
 62
  0
  0
VERTEX
  8
MERGEDLAYER-2
 10
2.630623
 20
4.178958
 30
0.000000
  0
VERTEX
  8
MERGEDLAYER-2
 10
3.693562
 20
4.178958
 30
0.000000
  0
VERTEX
  8
MERGEDLAYER-2
 10
3.693562
 20
4.059791
 30
0.000000
  0
VERTEX
  8
MERGEDLAYER-2
 10
2.630623
 20
4.059791
 30
0.000000
  0
SEQEND
  8
MERGEDLAYER-2
  0
POLYLINE
  8
MERGEDLAYER-2
 66
  1
 70
  1
 62
  0
  0
VERTEX
  8
MERGEDLAYER-2
 10
3.862500
 20
4.178958
 30
0.000000
  0
VERTEX
  8
MERGEDLAYER-2
 10
4.925437
 20
4.178958
 30
0.000000
  0
VERTEX
  8
MERGEDLAYER-2
 10
4.925437
 20
4.059791
 30
0.000000
  0
VERTEX
  8
MERGEDLAYER-2
 10
3.862500
 20
4.059791
 30
0.000000
  0
SEQEND
  8
MERGEDLAYER-2
  0
POLYLINE
  8
MERGEDLAYER-2
 66
  1
 70
  1
 62
  0
  0
VERTEX
  8
MERGEDLAYER-2
 10
5.094400
 20
4.178958
 30
0.000000
  0
VERTEX
  8
MERGEDLAYER-2
 10
6.157337
 20
4.178958
 30
0.000000
  0
VERTEX
  8
MERGEDLAYER-2
 10
6.157337
 20
4.059791
 30
0.000000
  0
VERTEX
  8
MERGEDLAYER-2
 10
5.094400
 20
4.059791
 30
0.000000
  0
SEQEND
  8
MERGEDLAYER-2
  0
POLYLINE
  8
MERGEDLAYER-2
 66
  1
 70
  1
 62
  0
  0
VERTEX
  8
MERGEDLAYER-2
 10
0.782822
 20
4.347758
 30
0.000000
  0
VERTEX
  8
MERGEDLAYER-2
 10
1.845759
 20
4.347758
 30
0.000000
  0
VERTEX
  8
MERGEDLAYER-2
 10
1.845759
 20
4.228591
 30
0.000000
  0
VERTEX
  8
MERGEDLAYER-2
 10
0.782822
 20
4.228591
 30
0.000000
  0
SEQEND
  8
MERGEDLAYER-2
  0
POLYLINE
  8
MERGEDLAYER-2
 66
  1
 70
  1
 62
  0
  0
VERTEX
  8
MERGEDLAYER-2
 10
2.014697
 20
4.347758
 30
0.000000
  0
VERTEX
  8
MERGEDLAYER-2
 10
3.077636
 20
4.347758
 30
0.000000
  0
VERTEX
  8
MERGEDLAYER-2
 10
3.077636
 20
4.228591
 30
0.000000
  0
VERTEX
  8
MERGEDLAYER-2
 10
2.014697
 20
4.228591
 30
0.000000
  0
SEQEND
  8
MERGEDLAYER-2
  0
POLYLINE
  8
MERGEDLAYER-2
 66
  1
 70
  1
 62
  0
  0
VERTEX
  8
MERGEDLAYER-2
 10
3.246573
 20
4.347758
 30
0.000000
  0
VERTEX
  8
MERGEDLAYER-2
 10
4.309512
 20
4.347758
 30
0.000000
  0
VERTEX
  8
MERGEDLAYER-2
 10
4.309512
 20
4.228591
 30
0.000000
  0
VERTEX
  8
MERGEDLAYER-2
 10
3.246573
 20
4.228591
 30
0.000000
  0
SEQEND
  8
MERGEDLAYER-2
  0
POLYLINE
  8
MERGEDLAYER-2
 66
  1
 70
  1
 62
  0
  0
VERTEX
  8
MERGEDLAYER-2
 10
4.478450
 20
4.347758
 30
0.000000
  0
VERTEX
  8
MERGEDLAYER-2
 10
5.541387
 20
4.347758
 30
0.000000
  0
VERTEX
  8
MERGEDLAYER-2
 10
5.541387
 20
4.228591
 30
0.000000
  0
VERTEX
  8
MERGEDLAYER-2
 10
4.478450
 20
4.228591
 30
0.000000
  0
SEQEND
  8
MERGEDLAYER-2
  0
POLYLINE
  8
MERGEDLAYER-2
 66
  1
 70
  1
 62
  0
  0
VERTEX
  8
MERGEDLAYER-2
 10
5.710350
 20
4.347758
 30
0.000000
  0
VERTEX
  8
MERGEDLAYER-2
 10
6.773287
 20
4.347758
 30
0.000000
  0
VERTEX
  8
MERGEDLAYER-2
 10
6.773287
 20
4.228591
 30
0.000000
  0
VERTEX
  8
MERGEDLAYER-2
 10
5.710350
 20
4.228591
 30
0.000000
  0
SEQEND
  8
MERGEDLAYER-2
  0
POLYLINE
  8
MERGEDLAYER-2
 66
  1
 70
  1
 62
  0
  0
VERTEX
  8
MERGEDLAYER-2
 10
0.782501
 20
4.516558
 30
0.000000
  0
VERTEX
  8
MERGEDLAYER-2
 10
1.230500
 20
4.516558
 30
0.000000
  0
VERTEX
  8
MERGEDLAYER-2
 10
1.230500
 20
4.397391
 30
0.000000
  0
VERTEX
  8
MERGEDLAYER-2
 10
0.782501
 20
4.397391
 30
0.000000
  0
SEQEND
  8
MERGEDLAYER-2
  0
POLYLINE
  8
MERGEDLAYER-2
 66
  1
 70
  1
 62
  0
  0
VERTEX
  8
MERGEDLAYER-2
 10
1.398747
 20
4.516558
 30
0.000000
  0
VERTEX
  8
MERGEDLAYER-2
 10
2.461686
 20
4.516558
 30
0.000000
  0
VERTEX
  8
MERGEDLAYER-2
 10
2.461686
 20
4.397391
 30
0.000000
  0
VERTEX
  8
MERGEDLAYER-2
 10
1.398747
 20
4.397391
 30
0.000000
  0
SEQEND
  8
MERGEDLAYER-2
  0
POLYLINE
  8
MERGEDLAYER-2
 66
  1
 70
  1
 62
  0
  0
VERTEX
  8
MERGEDLAYER-2
 10
2.630623
 20
4.516558
 30
0.000000
  0
VERTEX
  8
MERGEDLAYER-2
 10
3.693562
 20
4.516558
 30
0.000000
  0
VERTEX
  8
MERGEDLAYER-2
 10
3.693562
 20
4.397391
 30
0.000000
  0
VERTEX
  8
MERGEDLAYER-2
 10
2.630623
 20
4.397391
 30
0.000000
  0
SEQEND
  8
MERGEDLAYER-2
  0
POLYLINE
  8
MERGEDLAYER-2
 66
  1
 70
  1
 62
  0
  0
VERTEX
  8
MERGEDLAYER-2
 10
3.862500
 20
4.516558
 30
0.000000
  0
VERTEX
  8
MERGEDLAYER-2
 10
4.925437
 20
4.516558
 30
0.000000
  0
VERTEX
  8
MERGEDLAYER-2
 10
4.925437
 20
4.397391
 30
0.000000
  0
VERTEX
  8
MERGEDLAYER-2
 10
3.862500
 20
4.397391
 30
0.000000
  0
SEQEND
  8
MERGEDLAYER-2
  0
POLYLINE
  8
MERGEDLAYER-2
 66
  1
 70
  1
 62
  0
  0
VERTEX
  8
MERGEDLAYER-2
 10
5.094400
 20
4.516558
 30
0.000000
  0
VERTEX
  8
MERGEDLAYER-2
 10
6.157337
 20
4.516558
 30
0.000000
  0
VERTEX
  8
MERGEDLAYER-2
 10
6.157337
 20
4.397391
 30
0.000000
  0
VERTEX
  8
MERGEDLAYER-2
 10
5.094400
 20
4.397391
 30
0.000000
  0
SEQEND
  8
MERGEDLAYER-2
  0
POLYLINE
  8
MERGEDLAYER-2
 66
  1
 70
  1
 62
  0
  0
VERTEX
  8
MERGEDLAYER-2
 10
0.782822
 20
4.685359
 30
0.000000
  0
VERTEX
  8
MERGEDLAYER-2
 10
1.845759
 20
4.685359
 30
0.000000
  0
VERTEX
  8
MERGEDLAYER-2
 10
1.845759
 20
4.566191
 30
0.000000
  0
VERTEX
  8
MERGEDLAYER-2
 10
0.782822
 20
4.566191
 30
0.000000
  0
SEQEND
  8
MERGEDLAYER-2
  0
POLYLINE
  8
MERGEDLAYER-2
 66
  1
 70
  1
 62
  0
  0
VERTEX
  8
MERGEDLAYER-2
 10
2.014697
 20
4.685359
 30
0.000000
  0
VERTEX
  8
MERGEDLAYER-2
 10
3.077636
 20
4.685359
 30
0.000000
  0
VERTEX
  8
MERGEDLAYER-2
 10
3.077636
 20
4.566191
 30
0.000000
  0
VERTEX
  8
MERGEDLAYER-2
 10
2.014697
 20
4.566191
 30
0.000000
  0
SEQEND
  8
MERGEDLAYER-2
  0
POLYLINE
  8
MERGEDLAYER-2
 66
  1
 70
  1
 62
  0
  0
VERTEX
  8
MERGEDLAYER-2
 10
3.246573
 20
4.685359
 30
0.000000
  0
VERTEX
  8
MERGEDLAYER-2
 10
4.309512
 20
4.685359
 30
0.000000
  0
VERTEX
  8
MERGEDLAYER-2
 10
4.309512
 20
4.566191
 30
0.000000
  0
VERTEX
  8
MERGEDLAYER-2
 10
3.246573
 20
4.566191
 30
0.000000
  0
SEQEND
  8
MERGEDLAYER-2
  0
POLYLINE
  8
MERGEDLAYER-2
 66
  1
 70
  1
 62
  0
  0
VERTEX
  8
MERGEDLAYER-2
 10
4.478450
 20
4.685359
 30
0.000000
  0
VERTEX
  8
MERGEDLAYER-2
 10
5.541387
 20
4.685359
 30
0.000000
  0
VERTEX
  8
MERGEDLAYER-2
 10
5.541387
 20
4.566191
 30
0.000000
  0
VERTEX
  8
MERGEDLAYER-2
 10
4.478450
 20
4.566191
 30
0.000000
  0
SEQEND
  8
MERGEDLAYER-2
  0
POLYLINE
  8
MERGEDLAYER-2
 66
  1
 70
  1
 62
  0
  0
VERTEX
  8
MERGEDLAYER-2
 10
5.710350
 20
4.685359
 30
0.000000
  0
VERTEX
  8
MERGEDLAYER-2
 10
6.773287
 20
4.685359
 30
0.000000
  0
VERTEX
  8
MERGEDLAYER-2
 10
6.773287
 20
4.566191
 30
0.000000
  0
VERTEX
  8
MERGEDLAYER-2
 10
5.710350
 20
4.566191
 30
0.000000
  0
SEQEND
  8
MERGEDLAYER-2
  0
POLYLINE
  8
MERGEDLAYER-2
 66
  1
 70
  1
 62
  0
  0
VERTEX
  8
MERGEDLAYER-2
 10
0.782501
 20
4.854159
 30
0.000000
  0
VERTEX
  8
MERGEDLAYER-2
 10
1.230500
 20
4.854159
 30
0.000000
  0
VERTEX
  8
MERGEDLAYER-2
 10
1.230500
 20
4.734991
 30
0.000000
  0
VERTEX
  8
MERGEDLAYER-2
 10
0.782501
 20
4.734991
 30
0.000000
  0
SEQEND
  8
MERGEDLAYER-2
  0
POLYLINE
  8
MERGEDLAYER-2
 66
  1
 70
  1
 62
  0
  0
VERTEX
  8
MERGEDLAYER-2
 10
1.398747
 20
4.854159
 30
0.000000
  0
VERTEX
  8
MERGEDLAYER-2
 10
2.461686
 20
4.854159
 30
0.000000
  0
VERTEX
  8
MERGEDLAYER-2
 10
2.461686
 20
4.734991
 30
0.000000
  0
VERTEX
  8
MERGEDLAYER-2
 10
1.398747
 20
4.734991
 30
0.000000
  0
SEQEND
  8
MERGEDLAYER-2
  0
POLYLINE
  8
MERGEDLAYER-2
 66
  1
 70
  1
 62
  0
  0
VERTEX
  8
MERGEDLAYER-2
 10
2.630623
 20
4.854159
 30
0.000000
  0
VERTEX
  8
MERGEDLAYER-2
 10
3.693562
 20
4.854159
 30
0.000000
  0
VERTEX
  8
MERGEDLAYER-2
 10
3.693562
 20
4.734991
 30
0.000000
  0
VERTEX
  8
MERGEDLAYER-2
 10
2.630623
 20
4.734991
 30
0.000000
  0
SEQEND
  8
MERGEDLAYER-2
  0
POLYLINE
  8
MERGEDLAYER-2
 66
  1
 70
  1
 62
  0
  0
VERTEX
  8
MERGEDLAYER-2
 10
3.862500
 20
4.854159
 30
0.000000
  0
VERTEX
  8
MERGEDLAYER-2
 10
4.925437
 20
4.854159
 30
0.000000
  0
VERTEX
  8
MERGEDLAYER-2
 10
4.925437
 20
4.734991
 30
0.000000
  0
VERTEX
  8
MERGEDLAYER-2
 10
3.862500
 20
4.734991
 30
0.000000
  0
SEQEND
  8
MERGEDLAYER-2
  0
POLYLINE
  8
MERGEDLAYER-2
 66
  1
 70
  1
 62
  0
  0
VERTEX
  8
MERGEDLAYER-2
 10
5.094400
 20
4.854159
 30
0.000000
  0
VERTEX
  8
MERGEDLAYER-2
 10
6.157337
 20
4.854159
 30
0.000000
  0
VERTEX
  8
MERGEDLAYER-2
 10
6.157337
 20
4.734991
 30
0.000000
  0
VERTEX
  8
MERGEDLAYER-2
 10
5.094400
 20
4.734991
 30
0.000000
  0
SEQEND
  8
MERGEDLAYER-2
  0
POLYLINE
  8
MERGEDLAYER-2
 66
  1
 70
  1
 62
  0
  0
VERTEX
  8
MERGEDLAYER-2
 10
0.782822
 20
5.022959
 30
0.000000
  0
VERTEX
  8
MERGEDLAYER-2
 10
1.845759
 20
5.022959
 30
0.000000
  0
VERTEX
  8
MERGEDLAYER-2
 10
1.845759
 20
4.903791
 30
0.000000
  0
VERTEX
  8
MERGEDLAYER-2
 10
0.782822
 20
4.903791
 30
0.000000
  0
SEQEND
  8
MERGEDLAYER-2
  0
POLYLINE
  8
MERGEDLAYER-2
 66
  1
 70
  1
 62
  0
  0
VERTEX
  8
MERGEDLAYER-2
 10
2.014697
 20
5.022959
 30
0.000000
  0
VERTEX
  8
MERGEDLAYER-2
 10
3.077636
 20
5.022959
 30
0.000000
  0
VERTEX
  8
MERGEDLAYER-2
 10
3.077636
 20
4.903791
 30
0.000000
  0
VERTEX
  8
MERGEDLAYER-2
 10
2.014697
 20
4.903791
 30
0.000000
  0
SEQEND
  8
MERGEDLAYER-2
  0
POLYLINE
  8
MERGEDLAYER-2
 66
  1
 70
  1
 62
  0
  0
VERTEX
  8
MERGEDLAYER-2
 10
3.246573
 20
5.022959
 30
0.000000
  0
VERTEX
  8
MERGEDLAYER-2
 10
4.309512
 20
5.022959
 30
0.000000
  0
VERTEX
  8
MERGEDLAYER-2
 10
4.309512
 20
4.903791
 30
0.000000
  0
VERTEX
  8
MERGEDLAYER-2
 10
3.246573
 20
4.903791
 30
0.000000
  0
SEQEND
  8
MERGEDLAYER-2
  0
POLYLINE
  8
MERGEDLAYER-2
 66
  1
 70
  1
 62
  0
  0
VERTEX
  8
MERGEDLAYER-2
 10
4.478450
 20
5.022959
 30
0.000000
  0
VERTEX
  8
MERGEDLAYER-2
 10
5.541387
 20
5.022959
 30
0.000000
  0
VERTEX
  8
MERGEDLAYER-2
 10
5.541387
 20
4.903791
 30
0.000000
  0
VERTEX
  8
MERGEDLAYER-2
 10
4.478450
 20
4.903791
 30
0.000000
  0
SEQEND
  8
MERGEDLAYER-2
  0
POLYLINE
  8
MERGEDLAYER-2
 66
  1
 70
  1
 62
  0
  0
VERTEX
  8
MERGEDLAYER-2
 10
5.710350
 20
5.022959
 30
0.000000
  0
VERTEX
  8
MERGEDLAYER-2
 10
6.773287
 20
5.022959
 30
0.000000
  0
VERTEX
  8
MERGEDLAYER-2
 10
6.773287
 20
4.903791
 30
0.000000
  0
VERTEX
  8
MERGEDLAYER-2
 10
5.710350
 20
4.903791
 30
0.000000
  0
SEQEND
  8
MERGEDLAYER-2
  0
POLYLINE
  8
MERGEDLAYER-2
 66
  1
 70
  1
 62
  0
  0
VERTEX
  8
MERGEDLAYER-2
 10
0.782501
 20
5.191759
 30
0.000000
  0
VERTEX
  8
MERGEDLAYER-2
 10
1.230500
 20
5.191759
 30
0.000000
  0
VERTEX
  8
MERGEDLAYER-2
 10
1.230500
 20
5.072592
 30
0.000000
  0
VERTEX
  8
MERGEDLAYER-2
 10
0.782501
 20
5.072592
 30
0.000000
  0
SEQEND
  8
MERGEDLAYER-2
  0
POLYLINE
  8
MERGEDLAYER-2
 66
  1
 70
  1
 62
  0
  0
VERTEX
  8
MERGEDLAYER-2
 10
1.398747
 20
5.191759
 30
0.000000
  0
VERTEX
  8
MERGEDLAYER-2
 10
2.461686
 20
5.191759
 30
0.000000
  0
VERTEX
  8
MERGEDLAYER-2
 10
2.461686
 20
5.072592
 30
0.000000
  0
VERTEX
  8
MERGEDLAYER-2
 10
1.398747
 20
5.072592
 30
0.000000
  0
SEQEND
  8
MERGEDLAYER-2
  0
POLYLINE
  8
MERGEDLAYER-2
 66
  1
 70
  1
 62
  0
  0
VERTEX
  8
MERGEDLAYER-2
 10
2.630623
 20
5.191759
 30
0.000000
  0
VERTEX
  8
MERGEDLAYER-2
 10
3.693562
 20
5.191759
 30
0.000000
  0
VERTEX
  8
MERGEDLAYER-2
 10
3.693562
 20
5.072592
 30
0.000000
  0
VERTEX
  8
MERGEDLAYER-2
 10
2.630623
 20
5.072592
 30
0.000000
  0
SEQEND
  8
MERGEDLAYER-2
  0
POLYLINE
  8
MERGEDLAYER-2
 66
  1
 70
  1
 62
  0
  0
VERTEX
  8
MERGEDLAYER-2
 10
3.862500
 20
5.191759
 30
0.000000
  0
VERTEX
  8
MERGEDLAYER-2
 10
4.925437
 20
5.191759
 30
0.000000
  0
VERTEX
  8
MERGEDLAYER-2
 10
4.925437
 20
5.072592
 30
0.000000
  0
VERTEX
  8
MERGEDLAYER-2
 10
3.862500
 20
5.072592
 30
0.000000
  0
SEQEND
  8
MERGEDLAYER-2
  0
POLYLINE
  8
MERGEDLAYER-2
 66
  1
 70
  1
 62
  0
  0
VERTEX
  8
MERGEDLAYER-2
 10
5.094400
 20
5.191759
 30
0.000000
  0
VERTEX
  8
MERGEDLAYER-2
 10
6.157337
 20
5.191759
 30
0.000000
  0
VERTEX
  8
MERGEDLAYER-2
 10
6.157337
 20
5.072592
 30
0.000000
  0
VERTEX
  8
MERGEDLAYER-2
 10
5.094400
 20
5.072592
 30
0.000000
  0
SEQEND
  8
MERGEDLAYER-2
  0
POLYLINE
  8
MERGEDLAYER-2
 66
  1
 70
  1
 62
  0
  0
VERTEX
  8
MERGEDLAYER-2
 10
2.597826
 20
7.259018
 30
0.000000
  0
VERTEX
  8
MERGEDLAYER-2
 10
5.064137
 20
7.259018
 30
0.000000
  0
VERTEX
  8
MERGEDLAYER-2
 10
5.064137
 20
6.982515
 30
0.000000
  0
VERTEX
  8
MERGEDLAYER-2
 10
2.597826
 20
6.982515
 30
0.000000
  0
SEQEND
  8
MERGEDLAYER-2
  0
POLYLINE
  8
MERGEDLAYER-2
 66
  1
 70
  1
 62
  7
  0
VERTEX
  8
MERGEDLAYER-2
 10
2.108248
 20
7.259119
 30
0.000000
  0
VERTEX
  8
MERGEDLAYER-2
 10
2.205730
 20
7.259119
 30
0.000000
  0
VERTEX
  8
MERGEDLAYER-2
 10
2.205730
 20
6.982697
 30
0.000000
  0
VERTEX
  8
MERGEDLAYER-2
 10
2.108248
 20
6.982697
 30
0.000000
  0
SEQEND
  8
MERGEDLAYER-2
  0
POLYLINE
  8
MERGEDLAYER-2
 66
  1
 70
  0
 62
  0
 10
2.205730
 20
7.259119
 30
0.000000
  0
VERTEX
  8
MERGEDLAYER-2
 10
2.205730
 20
7.259119
 30
0.000000
  0
VERTEX
  8
MERGEDLAYER-2
 10
2.205730
 20
6.982697
 30
0.000000
  0
SEQEND
  8
MERGEDLAYER-2
  0
POLYLINE
  8
MERGEDLAYER-2
 66
  1
 70
  1
 62
  7
  0
VERTEX
  8
MERGEDLAYER-2
 10
2.103582
 20
6.891497
 30
0.000000
  0
VERTEX
  8
MERGEDLAYER-2
 10
3.635570
 20
6.891497
 30
0.000000
  0
VERTEX
  8
MERGEDLAYER-2
 10
3.635570
 20
6.615075
 30
0.000000
  0
VERTEX
  8
MERGEDLAYER-2
 10
2.103582
 20
6.615075
 30
0.000000
  0
SEQEND
  8
MERGEDLAYER-2
  0
POLYLINE
  8
MERGEDLAYER-2
 66
  1
 70
  0
 62
  0
 10
3.635570
 20
6.891497
 30
0.000000
  0
VERTEX
  8
MERGEDLAYER-2
 10
3.635570
 20
6.891497
 30
0.000000
  0
VERTEX
  8
MERGEDLAYER-2
 10
3.635570
 20
6.615075
 30
0.000000
  0
SEQEND
  8
MERGEDLAYER-2
  0
POLYLINE
  8
MERGEDLAYER-2
 66
  1
 70
  1
 62
  7
  0
VERTEX
  8
MERGEDLAYER-2
 10
5.455728
 20
7.259119
 30
0.000000
  0
VERTEX
  8
MERGEDLAYER-2
 10
5.553210
 20
7.259119
 30
0.000000
  0
VERTEX
  8
MERGEDLAYER-2
 10
5.553210
 20
6.982697
 30
0.000000
  0
VERTEX
  8
MERGEDLAYER-2
 10
5.455728
 20
6.982697
 30
0.000000
  0
SEQEND
  8
MERGEDLAYER-2
  0
POLYLINE
  8
MERGEDLAYER-2
 66
  1
 70
  0
 62
  0
 10
5.455728
 20
7.259119
 30
0.000000
  0
VERTEX
  8
MERGEDLAYER-2
 10
5.455728
 20
7.259119
 30
0.000000
  0
VERTEX
  8
MERGEDLAYER-2
 10
5.455728
 20
6.982697
 30
0.000000
  0
SEQEND
  8
MERGEDLAYER-2
  0
POLYLINE
  8
MERGEDLAYER-2
 66
  1
 70
  1
 62
  7
  0
VERTEX
  8
MERGEDLAYER-2
 10
4.027159
 20
6.891497
 30
0.000000
  0
VERTEX
  8
MERGEDLAYER-2
 10
5.583080
 20
6.891497
 30
0.000000
  0
VERTEX
  8
MERGEDLAYER-2
 10
5.583080
 20
6.615075
 30
0.000000
  0
VERTEX
  8
MERGEDLAYER-2
 10
4.027159
 20
6.615075
 30
0.000000
  0
SEQEND
  8
MERGEDLAYER-2
  0
POLYLINE
  8
MERGEDLAYER-2
 66
  1
 70
  0
 62
  0
 10
4.027159
 20
6.891497
 30
0.000000
  0
VERTEX
  8
MERGEDLAYER-2
 10
4.027159
 20
6.891497
 30
0.000000
  0
VERTEX
  8
MERGEDLAYER-2
 10
4.027159
 20
6.615075
 30
0.000000
  0
SEQEND
  8
MERGEDLAYER-2
  0
POLYLINE
  8
MERGEDLAYER-2
 66
  1
 70
  0
 62
  0
 10
2.114323
 20
7.349177
 30
0.000000
  0
VERTEX
  8
MERGEDLAYER-2
 10
2.114323
 20
7.349177
 30
0.000000
  0
VERTEX
  8
MERGEDLAYER-2
 10
5.545305
 20
7.349177
 30
0.000000
  0
SEQEND
  8
MERGEDLAYER-2
  0
POLYLINE
  8
MERGEDLAYER-2
 66
  1
 70
  0
 62
  0
 10
2.114830
 20
7.316910
 30
0.000000
  0
VERTEX
  8
MERGEDLAYER-2
 10
2.114830
 20
7.316910
 30
0.000000
  0
VERTEX
  8
MERGEDLAYER-2
 10
5.545305
 20
7.316910
 30
0.000000
  0
SEQEND
  8
MERGEDLAYER-2
  0
POLYLINE
  8
MERGEDLAYER-2
 66
  1
 70
  0
 62
  0
 10
2.114859
 20
7.289715
 30
0.000000
  0
VERTEX
  8
MERGEDLAYER-2
 10
2.114859
 20
7.289715
 30
0.000000
  0
VERTEX
  8
MERGEDLAYER-2
 10
5.545305
 20
7.289715
 30
0.000000
  0
SEQEND
  8
MERGEDLAYER-2
  0
POLYLINE
  8
MERGEDLAYER-2
 66
  1
 70
  0
 62
  0
 10
2.114323
 20
7.259166
 30
0.000000
  0
VERTEX
  8
MERGEDLAYER-2
 10
2.114323
 20
7.259166
 30
0.000000
  0
VERTEX
  8
MERGEDLAYER-2
 10
5.545305
 20
7.259166
 30
0.000000
  0
SEQEND
  8
MERGEDLAYER-2
  0
POLYLINE
  8
MERGEDLAYER-2
 66
  1
 70
  0
 62
  0
 10
2.114323
 20
6.982697
 30
0.000000
  0
VERTEX
  8
MERGEDLAYER-2
 10
2.114323
 20
6.982697
 30
0.000000
  0
VERTEX
  8
MERGEDLAYER-2
 10
5.545305
 20
6.982697
 30
0.000000
  0
SEQEND
  8
MERGEDLAYER-2
  0
POLYLINE
  8
MERGEDLAYER-2
 66
  1
 70
  0
 62
  0
 10
2.114830
 20
6.951818
 30
0.000000
  0
VERTEX
  8
MERGEDLAYER-2
 10
2.114830
 20
6.951818
 30
0.000000
  0
VERTEX
  8
MERGEDLAYER-2
 10
5.545305
 20
6.951818
 30
0.000000
  0
SEQEND
  8
MERGEDLAYER-2
  0
POLYLINE
  8
MERGEDLAYER-2
 66
  1
 70
  0
 62
  0
 10
2.114870
 20
6.924247
 30
0.000000
  0
VERTEX
  8
MERGEDLAYER-2
 10
2.114870
 20
6.924247
 30
0.000000
  0
VERTEX
  8
MERGEDLAYER-2
 10
5.545305
 20
6.924247
 30
0.000000
  0
SEQEND
  8
MERGEDLAYER-2
  0
POLYLINE
  8
MERGEDLAYER-2
 66
  1
 70
  0
 62
  0
 10
2.114323
 20
6.891606
 30
0.000000
  0
VERTEX
  8
MERGEDLAYER-2
 10
2.114323
 20
6.891606
 30
0.000000
  0
VERTEX
  8
MERGEDLAYER-2
 10
5.545305
 20
6.891606
 30
0.000000
  0
SEQEND
  8
MERGEDLAYER-2
  0
POLYLINE
  8
MERGEDLAYER-2
 66
  1
 70
  0
 62
  0
 10
2.114323
 20
6.614660
 30
0.000000
  0
VERTEX
  8
MERGEDLAYER-2
 10
2.114323
 20
6.614660
 30
0.000000
  0
VERTEX
  8
MERGEDLAYER-2
 10
5.545305
 20
6.614660
 30
0.000000
  0
SEQEND
  8
MERGEDLAYER-2
  0
POLYLINE
  8
MERGEDLAYER-2
 66
  1
 70
  0
 62
  0
 10
2.114830
 20
6.583021
 30
0.000000
  0
VERTEX
  8
MERGEDLAYER-2
 10
2.114830
 20
6.583021
 30
0.000000
  0
VERTEX
  8
MERGEDLAYER-2
 10
5.545305
 20
6.583021
 30
0.000000
  0
SEQEND
  8
MERGEDLAYER-2
  0
POLYLINE
  8
MERGEDLAYER-2
 66
  1
 70
  0
 62
  0
 10
2.114796
 20
6.556202
 30
0.000000
  0
VERTEX
  8
MERGEDLAYER-2
 10
2.114796
 20
6.556202
 30
0.000000
  0
VERTEX
  8
MERGEDLAYER-2
 10
5.545305
 20
6.556202
 30
0.000000
  0
SEQEND
  8
MERGEDLAYER-2
  0
POLYLINE
  8
MERGEDLAYER-2
 66
  1
 70
  0
 62
  0
 10
2.114323
 20
6.523906
 30
0.000000
  0
VERTEX
  8
MERGEDLAYER-2
 10
2.114323
 20
6.523906
 30
0.000000
  0
VERTEX
  8
MERGEDLAYER-2
 10
5.545305
 20
6.523906
 30
0.000000
  0
SEQEND
  8
MERGEDLAYER-2
  0
LINE
  8
MERGEDLAYER-2
 62
  0
 10
2.597826
 20
7.690976
 30
0.000000
 11
5.064137
 21
7.690976
 31
0.000000
  0
LINE
  8
MERGEDLAYER-2
 62
  0
 10
2.597826
 20
7.321518
 30
0.000000
 11
2.597826
 21
7.815976
 31
0.000000
  0
LINE
  8
MERGEDLAYER-2
 62
  0
 10
5.064137
 20
7.321518
 30
0.000000
 11
5.064137
 21
7.815976
 31
0.000000
  0
LINE
  8
MERGEDLAYER-2
 62
  0
 10
2.627289
 20
7.720439
 30
0.000000
 11
2.568363
 21
7.661513
 31
0.000000
  0
LINE
  8
MERGEDLAYER-2
 62
  0
 10
5.093600
 20
7.720439
 30
0.000000
 11
5.034675
 21
7.661513
 31
0.000000
  0
TEXT
  8
MERGEDLAYER-2
 62
  0
 10
3.602800
 20
7.818463
 30
0.000000
 40
0.145833
  1
 
  0
TEXT
  8
MERGEDLAYER-2
 62
  0
 10
3.041667
 20
7.763892
 30
0.000000
 40
0.145833
  1
15 
 72
  5
 11
3.388889
 21
7.763892
 31
0.000000
  0
TEXT
  8
MERGEDLAYER-2
 62
  0
 10
3.388889
 20
7.763892
 30
0.000000
 40
0.125000
  1
3/4
 72
  5
 11
3.694444
 21
7.763892
 31
0.000000
  0
TEXT
  8
MERGEDLAYER-2
 62
  0
 10
3.694444
 20
7.763892
 30
0.000000
 40
0.145833
  1
" (400
 72
  5
 11
4.291667
 21
7.763892
 31
0.000000
  0
TEXT
  8
MERGEDLAYER-2
 62
  0
 10
4.291667
 20
7.763892
 30
0.000000
 40
0.125000
  1
mm
 72
  5
 11
4.666667
 21
7.763892
 31
0.000000
  0
TEXT
  8
MERGEDLAYER-2
 62
  0
 10
4.666667
 20
7.763892
 30
0.000000
 40
0.145833
  1
)
 72
  5
 11
4.805556
 21
7.763892
 31
0.000000
  0
TEXT
  8
MERGEDLAYER-2
 62
  0
 10
3.152778
 20
7.430559
 30
0.000000
 40
0.145833
  1
clear opening
 72
  5
 11
4.416667
 21
7.430559
 31
0.000000
  0
TEXT
  8
MERGEDLAYER-2
 62
  0
 10
2.388889
 20
6.333337
 30
0.000000
 40
0.145833
  1
2 
 72
  5
 11
2.625000
 21
6.333337
 31
0.000000
  0
TEXT
  8
MERGEDLAYER-2
 62
  0
 10
2.625000
 20
6.333337
 30
0.000000
 40
0.125000
  1
1/2
 72
  5
 11
2.930556
 21
6.333337
 31
0.000000
  0
TEXT
  8
MERGEDLAYER-2
 62
  0
 10
2.930556
 20
6.333337
 30
0.000000
 40
0.145833
  1
"
 72
  5
 11
3.069444
 21
6.333337
 31
0.000000
  0
TEXT
  8
MERGEDLAYER-2
 62
  0
 10
2.388889
 20
6.111115
 30
0.000000
 40
0.145833
  1
64
 72
  5
 11
2.680556
 21
6.111115
 31
0.000000
  0
TEXT
  8
MERGEDLAYER-2
 62
  0
 10
2.680556
 20
6.111115
 30
0.000000
 40
0.125000
  1
mm
 72
  5
 11
3.055556
 21
6.111115
 31
0.000000
  0
TEXT
  8
MERGEDLAYER-2
 62
  0
 10
4.263889
 20
6.333337
 30
0.000000
 40
0.145833
  1
2 
 72
  5
 11
4.500000
 21
6.333337
 31
0.000000
  0
TEXT
  8
MERGEDLAYER-2
 62
  0
 10
4.500000
 20
6.333337
 30
0.000000
 40
0.125000
  1
1/2
 72
  5
 11
4.805556
 21
6.333337
 31
0.000000
  0
TEXT
  8
MERGEDLAYER-2
 62
  0
 10
4.805556
 20
6.333337
 30
0.000000
 40
0.145833
  1
"
 72
  5
 11
4.944444
 21
6.333337
 31
0.000000
  0
TEXT
  8
MERGEDLAYER-2
 62
  0
 10
4.263889
 20
6.111115
 30
0.000000
 40
0.145833
  1
64
 72
  5
 11
4.555556
 21
6.111115
 31
0.000000
  0
TEXT
  8
MERGEDLAYER-2
 62
  0
 10
4.555556
 20
6.111115
 30
0.000000
 40
0.125000
  1
mm
 72
  5
 11
4.930556
 21
6.111115
 31
0.000000
  0
POLYLINE
  8
MERGEDLAYER-2
 66
  1
 70
  0
 62
  0
 10
4.027778
 20
6.493059
 30
0.000000
  0
VERTEX
  8
MERGEDLAYER-2
 10
4.027778
 20
6.493059
 30
0.000000
  0
VERTEX
  8
MERGEDLAYER-2
 10
4.027778
 20
6.246530
 30
0.000000
  0
SEQEND
  8
MERGEDLAYER-2
  0
POLYLINE
  8
MERGEDLAYER-2
 66
  1
 70
  0
 62
  0
 10
3.635417
 20
6.246530
 30
0.000000
  0
VERTEX
  8
MERGEDLAYER-2
 10
3.635417
 20
6.246530
 30
0.000000
  0
VERTEX
  8
MERGEDLAYER-2
 10
3.635417
 20
6.493059
 30
0.000000
  0
SEQEND
  8
MERGEDLAYER-2
  0
POLYLINE
  8
MERGEDLAYER-2
 66
  1
 70
  0
 62
  0
 10
4.027778
 20
6.319448
 30
0.000000
  0
VERTEX
  8
MERGEDLAYER-2
 10
4.027778
 20
6.319448
 30
0.000000
  0
VERTEX
  8
MERGEDLAYER-2
 10
3.635417
 20
6.319448
 30
0.000000
  0
SEQEND
  8
MERGEDLAYER-2
  0
LINE
  8
MERGEDLAYER-2
 62
  0
 10
3.998315
 20
6.289985
 30
0.000000
 11
4.057241
 21
6.348910
 31
0.000000
  0
LINE
  8
MERGEDLAYER-2
 62
  0
 10
3.605954
 20
6.289985
 30
0.000000
 11
3.664880
 21
6.348910
 31
0.000000
  0
POLYLINE
  8
MERGEDLAYER-2
 66
  1
 70
  0
 62
  0
 10
4.027778
 20
6.319448
 30
0.000000
  0
VERTEX
  8
MERGEDLAYER-2
 10
4.027778
 20
6.319448
 30
0.000000
  0
VERTEX
  8
MERGEDLAYER-2
 10
4.197917
 20
6.319448
 30
0.000000
  0
SEQEND
  8
MERGEDLAYER-2
  0
TEXT
  8
MERGEDLAYER-2
 62
  0
 10
2.569444
 20
0.083337
 30
0.000000
 40
0.125000
  1
Handle
 72
  5
 11
3.194444
 21
0.083337
 31
0.000000
  0
TEXT
  8
MERGEDLAYER-2
 62
  0
 10
3.972222
 20
0.083337
 30
0.000000
 40
0.125000
  1
Cylinder lock
 72
  5
 11
5.013889
 21
0.083337
 31
0.000000
  0
POLYLINE
  8
MERGEDLAYER-2
 66
  1
 70
  0
 62
  0
 10
3.953991
 20
0.142362
 30
0.000000
  0
VERTEX
  8
MERGEDLAYER-2
 10
3.953991
 20
0.142362
 30
0.000000
  0
VERTEX
  8
MERGEDLAYER-2
 10
3.799497
 20
0.338697
 30
0.000000
  0
SEQEND
  8
MERGEDLAYER-2
  0
POLYLINE
  8
MERGEDLAYER-2
 66
  1
 70
  1
 62
  0
  0
VERTEX
  8
MERGEDLAYER-2
 10
3.787324
 20
0.354168
 30
0.000000
  0
VERTEX
  8
MERGEDLAYER-2
 10
3.863013
 20
0.325360
 30
0.000000
  0
VERTEX
  8
MERGEDLAYER-2
 10
3.830268
 20
0.299594
 30
0.000000
  0
VERTEX
  8
MERGEDLAYER-2
 10
3.797523
 20
0.273827
 30
0.000000
  0
VERTEX
  8
MERGEDLAYER-2
 10
3.787324
 20
0.354168
 30
0.000000
  0
SEQEND
  8
MERGEDLAYER-2
  0
TEXT
  8
MERGEDLAYER-2
 62
  0
 10
1.819444
 20
8.472226
 30
0.000000
 40
0.125000
  1
OPEN STYLE ROLLING CLOSURE
 72
  5
 11
4.555556
 21
8.472226
 31
0.000000
  0
LINE
  8
MERGEDLAYER-2
 62
  0
 10
2.244933
 20
6.614587
 30
0.000000
 11
2.244933
 21
6.892365
 31
0.000000
  0
LINE
  8
MERGEDLAYER-2
 62
  0
 10
2.177082
 20
6.614587
 30
0.000000
 11
2.369933
 21
6.614587
 31
0.000000
  0
LINE
  8
MERGEDLAYER-2
 62
  0
 10
2.184027
 20
6.892365
 30
0.000000
 11
2.369933
 21
6.892365
 31
0.000000
  0
LINE
  8
MERGEDLAYER-2
 62
  0
 10
2.244933
 20
6.892365
 30
0.000000
 11
2.244933
 21
6.344270
 31
0.000000
  0
LINE
  8
MERGEDLAYER-2
 62
  0
 10
2.215470
 20
6.644050
 30
0.000000
 11
2.274395
 21
6.585124
 31
0.000000
  0
LINE
  8
MERGEDLAYER-2
 62
  0
 10
2.215470
 20
6.921828
 30
0.000000
 11
2.274395
 21
6.862902
 31
0.000000
  0
TEXT
  8
MERGEDLAYER-2
 62
  0
 10
2.109759
 20
6.425563
 30
0.000000
 40
0.145833
  1
 
 50
90.000000
  0
POLYLINE
  8
MERGEDLAYER-2
 66
  1
 70
  1
 62
  0
  0
VERTEX
  8
MERGEDLAYER-2
 10
6.325301
 20
0.802955
 30
0.000000
  0
VERTEX
  8
MERGEDLAYER-2
 10
6.773300
 20
0.802955
 30
0.000000
  0
VERTEX
  8
MERGEDLAYER-2
 10
6.773300
 20
0.683787
 30
0.000000
  0
VERTEX
  8
MERGEDLAYER-2
 10
6.325301
 20
0.683787
 30
0.000000
  0
SEQEND
  8
MERGEDLAYER-2
  0
POLYLINE
  8
MERGEDLAYER-2
 66
  1
 70
  1
 62
  0
  0
VERTEX
  8
MERGEDLAYER-2
 10
6.325301
 20
1.140555
 30
0.000000
  0
VERTEX
  8
MERGEDLAYER-2
 10
6.773300
 20
1.140555
 30
0.000000
  0
VERTEX
  8
MERGEDLAYER-2
 10
6.773300
 20
1.021387
 30
0.000000
  0
VERTEX
  8
MERGEDLAYER-2
 10
6.325301
 20
1.021387
 30
0.000000
  0
SEQEND
  8
MERGEDLAYER-2
  0
POLYLINE
  8
MERGEDLAYER-2
 66
  1
 70
  1
 62
  0
  0
VERTEX
  8
MERGEDLAYER-2
 10
6.325301
 20
1.478155
 30
0.000000
  0
VERTEX
  8
MERGEDLAYER-2
 10
6.773300
 20
1.478155
 30
0.000000
  0
VERTEX
  8
MERGEDLAYER-2
 10
6.773300
 20
1.358988
 30
0.000000
  0
VERTEX
  8
MERGEDLAYER-2
 10
6.325301
 20
1.358988
 30
0.000000
  0
SEQEND
  8
MERGEDLAYER-2
  0
POLYLINE
  8
MERGEDLAYER-2
 66
  1
 70
  1
 62
  0
  0
VERTEX
  8
MERGEDLAYER-2
 10
6.325301
 20
1.815755
 30
0.000000
  0
VERTEX
  8
MERGEDLAYER-2
 10
6.773300
 20
1.815755
 30
0.000000
  0
VERTEX
  8
MERGEDLAYER-2
 10
6.773300
 20
1.696588
 30
0.000000
  0
VERTEX
  8
MERGEDLAYER-2
 10
6.325301
 20
1.696588
 30
0.000000
  0
SEQEND
  8
MERGEDLAYER-2
  0
POLYLINE
  8
MERGEDLAYER-2
 66
  1
 70
  1
 62
  0
  0
VERTEX
  8
MERGEDLAYER-2
 10
6.325301
 20
2.153356
 30
0.000000
  0
VERTEX
  8
MERGEDLAYER-2
 10
6.773300
 20
2.153356
 30
0.000000
  0
VERTEX
  8
MERGEDLAYER-2
 10
6.773300
 20
2.034188
 30
0.000000
  0
VERTEX
  8
MERGEDLAYER-2
 10
6.325301
 20
2.034188
 30
0.000000
  0
SEQEND
  8
MERGEDLAYER-2
  0
POLYLINE
  8
MERGEDLAYER-2
 66
  1
 70
  1
 62
  0
  0
VERTEX
  8
MERGEDLAYER-2
 10
6.325301
 20
2.490957
 30
0.000000
  0
VERTEX
  8
MERGEDLAYER-2
 10
6.773300
 20
2.490957
 30
0.000000
  0
VERTEX
  8
MERGEDLAYER-2
 10
6.773300
 20
2.371789
 30
0.000000
  0
VERTEX
  8
MERGEDLAYER-2
 10
6.325301
 20
2.371789
 30
0.000000
  0
SEQEND
  8
MERGEDLAYER-2
  0
POLYLINE
  8
MERGEDLAYER-2
 66
  1
 70
  1
 62
  0
  0
VERTEX
  8
MERGEDLAYER-2
 10
6.325301
 20
2.828556
 30
0.000000
  0
VERTEX
  8
MERGEDLAYER-2
 10
6.773300
 20
2.828556
 30
0.000000
  0
VERTEX
  8
MERGEDLAYER-2
 10
6.773300
 20
2.709389
 30
0.000000
  0
VERTEX
  8
MERGEDLAYER-2
 10
6.325301
 20
2.709389
 30
0.000000
  0
SEQEND
  8
MERGEDLAYER-2
  0
POLYLINE
  8
MERGEDLAYER-2
 66
  1
 70
  1
 62
  0
  0
VERTEX
  8
MERGEDLAYER-2
 10
6.325301
 20
3.166157
 30
0.000000
  0
VERTEX
  8
MERGEDLAYER-2
 10
6.773300
 20
3.166157
 30
0.000000
  0
VERTEX
  8
MERGEDLAYER-2
 10
6.773300
 20
3.046989
 30
0.000000
  0
VERTEX
  8
MERGEDLAYER-2
 10
6.325301
 20
3.046989
 30
0.000000
  0
SEQEND
  8
MERGEDLAYER-2
  0
POLYLINE
  8
MERGEDLAYER-2
 66
  1
 70
  1
 62
  0
  0
VERTEX
  8
MERGEDLAYER-2
 10
6.325301
 20
3.503757
 30
0.000000
  0
VERTEX
  8
MERGEDLAYER-2
 10
6.773300
 20
3.503757
 30
0.000000
  0
VERTEX
  8
MERGEDLAYER-2
 10
6.773300
 20
3.384590
 30
0.000000
  0
VERTEX
  8
MERGEDLAYER-2
 10
6.325301
 20
3.384590
 30
0.000000
  0
SEQEND
  8
MERGEDLAYER-2
  0
POLYLINE
  8
MERGEDLAYER-2
 66
  1
 70
  1
 62
  0
  0
VERTEX
  8
MERGEDLAYER-2
 10
6.325301
 20
3.841358
 30
0.000000
  0
VERTEX
  8
MERGEDLAYER-2
 10
6.773300
 20
3.841358
 30
0.000000
  0
VERTEX
  8
MERGEDLAYER-2
 10
6.773300
 20
3.722190
 30
0.000000
  0
VERTEX
  8
MERGEDLAYER-2
 10
6.325301
 20
3.722190
 30
0.000000
  0
SEQEND
  8
MERGEDLAYER-2
  0
POLYLINE
  8
MERGEDLAYER-2
 66
  1
 70
  1
 62
  0
  0
VERTEX
  8
MERGEDLAYER-2
 10
6.325301
 20
4.178958
 30
0.000000
  0
VERTEX
  8
MERGEDLAYER-2
 10
6.773300
 20
4.178958
 30
0.000000
  0
VERTEX
  8
MERGEDLAYER-2
 10
6.773300
 20
4.059791
 30
0.000000
  0
VERTEX
  8
MERGEDLAYER-2
 10
6.325301
 20
4.059791
 30
0.000000
  0
SEQEND
  8
MERGEDLAYER-2
  0
POLYLINE
  8
MERGEDLAYER-2
 66
  1
 70
  1
 62
  0
  0
VERTEX
  8
MERGEDLAYER-2
 10
6.325301
 20
4.516558
 30
0.000000
  0
VERTEX
  8
MERGEDLAYER-2
 10
6.773300
 20
4.516558
 30
0.000000
  0
VERTEX
  8
MERGEDLAYER-2
 10
6.773300
 20
4.397391
 30
0.000000
  0
VERTEX
  8
MERGEDLAYER-2
 10
6.325301
 20
4.397391
 30
0.000000
  0
SEQEND
  8
MERGEDLAYER-2
  0
POLYLINE
  8
MERGEDLAYER-2
 66
  1
 70
  1
 62
  0
  0
VERTEX
  8
MERGEDLAYER-2
 10
6.325301
 20
4.854159
 30
0.000000
  0
VERTEX
  8
MERGEDLAYER-2
 10
6.773300
 20
4.854159
 30
0.000000
  0
VERTEX
  8
MERGEDLAYER-2
 10
6.773300
 20
4.734991
 30
0.000000
  0
VERTEX
  8
MERGEDLAYER-2
 10
6.325301
 20
4.734991
 30
0.000000
  0
SEQEND
  8
MERGEDLAYER-2
  0
POLYLINE
  8
MERGEDLAYER-2
 66
  1
 70
  1
 62
  0
  0
VERTEX
  8
MERGEDLAYER-2
 10
6.325301
 20
5.191759
 30
0.000000
  0
VERTEX
  8
MERGEDLAYER-2
 10
6.773300
 20
5.191759
 30
0.000000
  0
VERTEX
  8
MERGEDLAYER-2
 10
6.773300
 20
5.072592
 30
0.000000
  0
VERTEX
  8
MERGEDLAYER-2
 10
6.325301
 20
5.072592
 30
0.000000
  0
SEQEND
  8
MERGEDLAYER-2
  0
ENDSEC
  0
EOF
