  0
SECTION
  2
HEADER
999
MacDraft 5.0\0
  9
$ACADVER
  1
AC1006
  9
$CLAYER
  8
ROLL-SHUTTER
  9
$EXTMIN
 10
0.000000
 20
0.000000
  9
$EXTMAX
 10
7.555556
 20
10.063309
  9
$FASTZOOM
 70
0
  9
$FILLMODE
 70
1
  0
ENDSEC
  0
SECTION
  2
TABLES
  0
TABLE
  2
LTYPE
 70
16
  0
LTYPE
  2
CONTINUOUS
 70
64
  3
Solid Line
 72
65
 73
0
 40
0.000000
  0
LTYPE
  2
LTYPE01
 70
64
  3
CUSTOM
 72
65
 73
2
 40
0.111111
 49
0.083333
 49
-0.027778
  0
LTYPE
  2
LTYPE02
 70
64
  3
CUSTOM
 72
65
 73
2
 40
0.194444
 49
0.166667
 49
-0.027778
  0
LTYPE
  2
LTYPE03
 70
64
  3
CUSTOM
 72
65
 73
2
 40
0.375000
 49
0.333333
 49
-0.041667
  0
LTYPE
  2
LTYPE04
 70
64
  3
CUSTOM
 72
65
 73
2
 40
0.722222
 49
0.666667
 49
-0.055556
  0
LTYPE
  2
LTYPE05
 70
64
  3
CUSTOM
 72
65
 73
4
 40
0.152778
 49
0.083333
 49
-0.027778
 49
0.013889
 49
-0.027778
  0
LTYPE
  2
LTYPE06
 70
64
  3
CUSTOM
 72
65
 73
4
 40
0.236111
 49
0.166667
 49
-0.027778
 49
0.013889
 49
-0.027778
  0
LTYPE
  2
LTYPE07
 70
64
  3
CUSTOM
 72
65
 73
4
 40
0.444444
 49
0.333333
 49
-0.041667
 49
0.027778
 49
-0.041667
  0
LTYPE
  2
LTYPE08
 70
64
  3
CUSTOM
 72
65
 73
4
 40
0.805556
 49
0.666667
 49
-0.055556
 49
0.027778
 49
-0.055556
  0
LTYPE
  2
LTYPE09
 70
64
  3
CUSTOM
 72
65
 73
6
 40
0.194444
 49
0.083333
 49
-0.027778
 49
0.013889
 49
-0.027778
 49
0.013889
 49
-0.027778
  0
LTYPE
  2
LTYPE10
 70
64
  3
CUSTOM
 72
65
 73
6
 40
0.277778
 49
0.166667
 49
-0.027778
 49
0.013889
 49
-0.027778
 49
0.013889
 49
-0.027778
  0
LTYPE
  2
LTYPE11
 70
64
  3
CUSTOM
 72
65
 73
6
 40
0.500000
 49
0.333333
 49
-0.041667
 49
0.027778
 49
-0.027778
 49
0.027778
 49
-0.041667
  0
LTYPE
  2
LTYPE12
 70
64
  3
CUSTOM
 72
65
 73
6
 40
0.861111
 49
0.666667
 49
-0.055556
 49
0.027778
 49
-0.027778
 49
0.027778
 49
-0.055556
  0
LTYPE
  2
LTYPE13
 70
64
  3
CUSTOM
 72
65
 73
8
 40
0.319444
 49
0.166667
 49
-0.027778
 49
0.013889
 49
-0.027778
 49
0.013889
 49
-0.027778
 49
0.013889
 49
-0.027778
  0
LTYPE
  2
LTYPE14
 70
64
  3
CUSTOM
 72
65
 73
8
 40
0.555556
 49
0.333333
 49
-0.041667
 49
0.027778
 49
-0.027778
 49
0.027778
 49
-0.027778
 49
0.027778
 49
-0.041667
  0
LTYPE
  2
LTYPE15
 70
64
  3
CUSTOM
 72
65
 73
8
 40
0.944444
 49
0.666667
 49
-0.055556
 49
0.027778
 49
-0.041667
 49
0.027778
 49
-0.041667
 49
0.027778
 49
-0.055556
  0
ENDTAB
  0
TABLE
  2
LAYER
 70
1
  0
LAYER
  2
ROLL-SHUTTER
 70
0
 62
7
  6
CONTINUOUS
  0
ENDTAB
  0
ENDSEC
  0
SECTION
  2
BLOCKS
  0
ENDSEC
  0
SECTION
  2
ENTITIES
  0
ARC
  8
ROLL-SHUTTER
 62
  0
 10
5.490272
 20
8.992622
 30
0.000000
 40
0.254425
 50
270.000000
 51
90.000000
  0
POLYLINE
  8
ROLL-SHUTTER
 66
  1
 70
  0
 62
  0
 10
5.490272
 20
9.247047
 30
0.000000
  0
VERTEX
  8
ROLL-SHUTTER
 10
5.490272
 20
9.247047
 30
0.000000
  0
VERTEX
  8
ROLL-SHUTTER
 10
1.825350
 20
9.247047
 30
0.000000
  0
SEQEND
  8
ROLL-SHUTTER
  0
POLYLINE
  8
ROLL-SHUTTER
 66
  1
 70
  0
 62
  0
 10
1.825350
 20
9.247047
 30
0.000000
  0
VERTEX
  8
ROLL-SHUTTER
 10
1.825350
 20
9.247047
 30
0.000000
  0
VERTEX
  8
ROLL-SHUTTER
 10
1.825350
 20
8.738198
 30
0.000000
  0
SEQEND
  8
ROLL-SHUTTER
  0
POLYLINE
  8
ROLL-SHUTTER
 66
  1
 70
  0
 62
  0
 10
5.490272
 20
8.738198
 30
0.000000
  0
VERTEX
  8
ROLL-SHUTTER
 10
5.490272
 20
8.738198
 30
0.000000
  0
VERTEX
  8
ROLL-SHUTTER
 10
1.825350
 20
8.738198
 30
0.000000
  0
SEQEND
  8
ROLL-SHUTTER
  0
TEXT
  8
ROLL-SHUTTER
 62
  0
 10
3.638889
 20
9.541668
 30
0.000000
 40
0.333333
  1
MobilFlex
 72
  5
 11
5.791667
 21
9.541668
 31
0.000000
  0
POLYLINE
  8
ROLL-SHUTTER
 66
  1
 70
  1
 62
  0
  0
VERTEX
  8
ROLL-SHUTTER
 10
1.826854
 20
10.061642
 30
0.000000
  0
VERTEX
  8
ROLL-SHUTTER
 10
2.064701
 20
10.061642
 30
0.000000
  0
VERTEX
  8
ROLL-SHUTTER
 10
2.064701
 20
9.544697
 30
0.000000
  0
VERTEX
  8
ROLL-SHUTTER
 10
1.826854
 20
9.544697
 30
0.000000
  0
SEQEND
  8
ROLL-SHUTTER
  0
POLYLINE
  8
ROLL-SHUTTER
 66
  1
 70
  1
 62
  0
  0
VERTEX
  8
ROLL-SHUTTER
 10
2.139354
 20
10.061642
 30
0.000000
  0
VERTEX
  8
ROLL-SHUTTER
 10
2.377201
 20
10.061642
 30
0.000000
  0
VERTEX
  8
ROLL-SHUTTER
 10
2.377201
 20
9.544697
 30
0.000000
  0
VERTEX
  8
ROLL-SHUTTER
 10
2.139354
 20
9.544697
 30
0.000000
  0
SEQEND
  8
ROLL-SHUTTER
  0
POLYLINE
  8
ROLL-SHUTTER
 66
  1
 70
  1
 62
  0
  0
VERTEX
  8
ROLL-SHUTTER
 10
2.439701
 20
10.061642
 30
0.000000
  0
VERTEX
  8
ROLL-SHUTTER
 10
2.677548
 20
10.061642
 30
0.000000
  0
VERTEX
  8
ROLL-SHUTTER
 10
2.677548
 20
9.544697
 30
0.000000
  0
VERTEX
  8
ROLL-SHUTTER
 10
2.439701
 20
9.544697
 30
0.000000
  0
SEQEND
  8
ROLL-SHUTTER
  0
POLYLINE
  8
ROLL-SHUTTER
 66
  1
 70
  1
 62
  0
  0
VERTEX
  8
ROLL-SHUTTER
 10
2.743521
 20
10.061642
 30
0.000000
  0
VERTEX
  8
ROLL-SHUTTER
 10
2.981368
 20
10.061642
 30
0.000000
  0
VERTEX
  8
ROLL-SHUTTER
 10
2.981368
 20
9.544697
 30
0.000000
  0
VERTEX
  8
ROLL-SHUTTER
 10
2.743521
 20
9.544697
 30
0.000000
  0
SEQEND
  8
ROLL-SHUTTER
  0
POLYLINE
  8
ROLL-SHUTTER
 66
  1
 70
  1
 62
  0
  0
VERTEX
  8
ROLL-SHUTTER
 10
3.060361
 20
10.057727
 30
0.000000
  0
VERTEX
  8
ROLL-SHUTTER
 10
3.435795
 20
10.057727
 30
0.000000
  0
VERTEX
  8
ROLL-SHUTTER
 10
3.435795
 20
9.919706
 30
0.000000
  0
VERTEX
  8
ROLL-SHUTTER
 10
3.060361
 20
9.919706
 30
0.000000
  0
SEQEND
  8
ROLL-SHUTTER
  0
POLYLINE
  8
ROLL-SHUTTER
 66
  1
 70
  1
 62
  0
  0
VERTEX
  8
ROLL-SHUTTER
 10
3.059927
 20
9.830296
 30
0.000000
  0
VERTEX
  8
ROLL-SHUTTER
 10
3.368086
 20
9.830296
 30
0.000000
  0
VERTEX
  8
ROLL-SHUTTER
 10
3.368086
 20
9.696181
 30
0.000000
  0
VERTEX
  8
ROLL-SHUTTER
 10
3.059927
 20
9.696181
 30
0.000000
  0
SEQEND
  8
ROLL-SHUTTER
  0
POLYLINE
  8
ROLL-SHUTTER
 66
  1
 70
  1
 62
  0
  0
VERTEX
  8
ROLL-SHUTTER
 10
1.826854
 20
9.460070
 30
0.000000
  0
VERTEX
  8
ROLL-SHUTTER
 10
5.745257
 20
9.460070
 30
0.000000
  0
VERTEX
  8
ROLL-SHUTTER
 10
5.745257
 20
9.416668
 30
0.000000
  0
VERTEX
  8
ROLL-SHUTTER
 10
1.826854
 20
9.416668
 30
0.000000
  0
SEQEND
  8
ROLL-SHUTTER
  0
POLYLINE
  8
ROLL-SHUTTER
 66
  1
 70
  0
 62
  0
 10
5.768738
 20
6.880105
 30
0.000000
  0
VERTEX
  8
ROLL-SHUTTER
 10
5.768738
 20
6.880105
 30
0.000000
  0
VERTEX
  8
ROLL-SHUTTER
 10
5.759121
 20
7.007022
 30
0.000000
  0
VERTEX
  8
ROLL-SHUTTER
 10
5.730363
 20
7.132718
 30
0.000000
  0
VERTEX
  8
ROLL-SHUTTER
 10
5.682741
 20
7.255979
 30
0.000000
  0
VERTEX
  8
ROLL-SHUTTER
 10
5.616714
 20
7.375621
 30
0.000000
  0
VERTEX
  8
ROLL-SHUTTER
 10
5.532917
 20
7.490491
 30
0.000000
  0
VERTEX
  8
ROLL-SHUTTER
 10
5.432157
 20
7.599483
 30
0.000000
  0
VERTEX
  8
ROLL-SHUTTER
 10
5.315406
 20
7.701547
 30
0.000000
  0
VERTEX
  8
ROLL-SHUTTER
 10
5.183786
 20
7.795699
 30
0.000000
  0
VERTEX
  8
ROLL-SHUTTER
 10
5.038567
 20
7.881034
 30
0.000000
  0
VERTEX
  8
ROLL-SHUTTER
 10
4.881145
 20
7.956729
 30
0.000000
  0
VERTEX
  8
ROLL-SHUTTER
 10
4.713039
 20
8.022057
 30
0.000000
  0
VERTEX
  8
ROLL-SHUTTER
 10
4.535865
 20
8.076386
 30
0.000000
  0
VERTEX
  8
ROLL-SHUTTER
 10
4.351331
 20
8.119195
 30
0.000000
  0
VERTEX
  8
ROLL-SHUTTER
 10
4.161213
 20
8.150070
 30
0.000000
  0
VERTEX
  8
ROLL-SHUTTER
 10
3.967344
 20
8.168715
 30
0.000000
  0
VERTEX
  8
ROLL-SHUTTER
 10
3.771589
 20
8.174950
 30
0.000000
  0
VERTEX
  8
ROLL-SHUTTER
 10
3.575834
 20
8.168715
 30
0.000000
  0
VERTEX
  8
ROLL-SHUTTER
 10
3.381964
 20
8.150070
 30
0.000000
  0
VERTEX
  8
ROLL-SHUTTER
 10
3.191847
 20
8.119195
 30
0.000000
  0
VERTEX
  8
ROLL-SHUTTER
 10
3.007313
 20
8.076386
 30
0.000000
  0
VERTEX
  8
ROLL-SHUTTER
 10
2.830139
 20
8.022057
 30
0.000000
  0
VERTEX
  8
ROLL-SHUTTER
 10
2.662032
 20
7.956729
 30
0.000000
  0
VERTEX
  8
ROLL-SHUTTER
 10
2.504611
 20
7.881034
 30
0.000000
  0
VERTEX
  8
ROLL-SHUTTER
 10
2.359392
 20
7.795699
 30
0.000000
  0
VERTEX
  8
ROLL-SHUTTER
 10
2.227772
 20
7.701547
 30
0.000000
  0
VERTEX
  8
ROLL-SHUTTER
 10
2.111021
 20
7.599483
 30
0.000000
  0
VERTEX
  8
ROLL-SHUTTER
 10
2.010261
 20
7.490491
 30
0.000000
  0
VERTEX
  8
ROLL-SHUTTER
 10
1.926464
 20
7.375621
 30
0.000000
  0
VERTEX
  8
ROLL-SHUTTER
 10
1.860437
 20
7.255979
 30
0.000000
  0
VERTEX
  8
ROLL-SHUTTER
 10
1.812815
 20
7.132718
 30
0.000000
  0
VERTEX
  8
ROLL-SHUTTER
 10
1.784057
 20
7.007022
 30
0.000000
  0
VERTEX
  8
ROLL-SHUTTER
 10
1.774440
 20
6.880105
 30
0.000000
  0
VERTEX
  8
ROLL-SHUTTER
 10
1.784057
 20
6.753188
 30
0.000000
  0
VERTEX
  8
ROLL-SHUTTER
 10
1.812815
 20
6.627494
 30
0.000000
  0
VERTEX
  8
ROLL-SHUTTER
 10
1.860437
 20
6.504232
 30
0.000000
  0
VERTEX
  8
ROLL-SHUTTER
 10
1.926464
 20
6.384590
 30
0.000000
  0
VERTEX
  8
ROLL-SHUTTER
 10
2.010261
 20
6.269720
 30
0.000000
  0
VERTEX
  8
ROLL-SHUTTER
 10
2.111021
 20
6.160728
 30
0.000000
  0
VERTEX
  8
ROLL-SHUTTER
 10
2.227772
 20
6.058665
 30
0.000000
  0
VERTEX
  8
ROLL-SHUTTER
 10
2.359392
 20
5.964512
 30
0.000000
  0
VERTEX
  8
ROLL-SHUTTER
 10
2.504611
 20
5.879177
 30
0.000000
  0
VERTEX
  8
ROLL-SHUTTER
 10
2.662032
 20
5.803481
 30
0.000000
  0
VERTEX
  8
ROLL-SHUTTER
 10
2.830139
 20
5.738154
 30
0.000000
  0
VERTEX
  8
ROLL-SHUTTER
 10
3.007313
 20
5.683824
 30
0.000000
  0
VERTEX
  8
ROLL-SHUTTER
 10
3.191847
 20
5.641016
 30
0.000000
  0
VERTEX
  8
ROLL-SHUTTER
 10
3.381964
 20
5.610140
 30
0.000000
  0
VERTEX
  8
ROLL-SHUTTER
 10
3.575834
 20
5.591496
 30
0.000000
  0
VERTEX
  8
ROLL-SHUTTER
 10
3.771589
 20
5.585260
 30
0.000000
  0
VERTEX
  8
ROLL-SHUTTER
 10
3.967344
 20
5.591496
 30
0.000000
  0
VERTEX
  8
ROLL-SHUTTER
 10
4.161213
 20
5.610140
 30
0.000000
  0
VERTEX
  8
ROLL-SHUTTER
 10
4.351331
 20
5.641016
 30
0.000000
  0
VERTEX
  8
ROLL-SHUTTER
 10
4.535865
 20
5.683824
 30
0.000000
  0
VERTEX
  8
ROLL-SHUTTER
 10
4.713039
 20
5.738154
 30
0.000000
  0
VERTEX
  8
ROLL-SHUTTER
 10
4.881145
 20
5.803481
 30
0.000000
  0
VERTEX
  8
ROLL-SHUTTER
 10
5.038567
 20
5.879177
 30
0.000000
  0
VERTEX
  8
ROLL-SHUTTER
 10
5.183786
 20
5.964512
 30
0.000000
  0
VERTEX
  8
ROLL-SHUTTER
 10
5.315406
 20
6.058665
 30
0.000000
  0
VERTEX
  8
ROLL-SHUTTER
 10
5.432157
 20
6.160728
 30
0.000000
  0
VERTEX
  8
ROLL-SHUTTER
 10
5.532917
 20
6.269720
 30
0.000000
  0
VERTEX
  8
ROLL-SHUTTER
 10
5.616714
 20
6.384590
 30
0.000000
  0
VERTEX
  8
ROLL-SHUTTER
 10
5.682741
 20
6.504232
 30
0.000000
  0
VERTEX
  8
ROLL-SHUTTER
 10
5.730363
 20
6.627494
 30
0.000000
  0
VERTEX
  8
ROLL-SHUTTER
 10
5.759121
 20
6.753188
 30
0.000000
  0
VERTEX
  8
ROLL-SHUTTER
 10
5.768738
 20
6.880105
 30
0.000000
  0
SEQEND
  8
ROLL-SHUTTER
  0
POLYLINE
  8
ROLL-SHUTTER
 66
  1
 70
  1
 62
  7
  0
VERTEX
  8
ROLL-SHUTTER
 10
2.482286
 20
7.448371
 30
0.000000
  0
VERTEX
  8
ROLL-SHUTTER
 10
5.184238
 20
7.448371
 30
0.000000
  0
VERTEX
  8
ROLL-SHUTTER
 10
5.184238
 20
6.344936
 30
0.000000
  0
VERTEX
  8
ROLL-SHUTTER
 10
2.482286
 20
6.344936
 30
0.000000
  0
SEQEND
  8
ROLL-SHUTTER
  0
POLYLINE
  8
ROLL-SHUTTER
 66
  1
 70
  0
 62
  0
 10
2.482286
 20
7.448371
 30
0.000000
  0
VERTEX
  8
ROLL-SHUTTER
 10
2.482286
 20
7.448371
 30
0.000000
  0
VERTEX
  8
ROLL-SHUTTER
 10
5.184238
 20
7.448371
 30
0.000000
  0
SEQEND
  8
ROLL-SHUTTER
  0
POLYLINE
  8
ROLL-SHUTTER
 66
  1
 70
  0
 62
  0
 10
2.482685
 20
7.405229
 30
0.000000
  0
VERTEX
  8
ROLL-SHUTTER
 10
2.482685
 20
7.405229
 30
0.000000
  0
VERTEX
  8
ROLL-SHUTTER
 10
5.184029
 20
7.405229
 30
0.000000
  0
SEQEND
  8
ROLL-SHUTTER
  0
POLYLINE
  8
ROLL-SHUTTER
 66
  1
 70
  0
 62
  0
 10
2.482708
 20
7.368867
 30
0.000000
  0
VERTEX
  8
ROLL-SHUTTER
 10
2.482708
 20
7.368867
 30
0.000000
  0
VERTEX
  8
ROLL-SHUTTER
 10
5.184052
 20
7.368867
 30
0.000000
  0
SEQEND
  8
ROLL-SHUTTER
  0
POLYLINE
  8
ROLL-SHUTTER
 66
  1
 70
  0
 62
  0
 10
2.482286
 20
7.327442
 30
0.000000
  0
VERTEX
  8
ROLL-SHUTTER
 10
2.482286
 20
7.327442
 30
0.000000
  0
VERTEX
  8
ROLL-SHUTTER
 10
5.184238
 20
7.327442
 30
0.000000
  0
SEQEND
  8
ROLL-SHUTTER
  0
POLYLINE
  8
ROLL-SHUTTER
 66
  1
 70
  0
 62
  0
 10
2.482286
 20
6.957386
 30
0.000000
  0
VERTEX
  8
ROLL-SHUTTER
 10
2.482286
 20
6.957386
 30
0.000000
  0
VERTEX
  8
ROLL-SHUTTER
 10
5.184238
 20
6.957386
 30
0.000000
  0
SEQEND
  8
ROLL-SHUTTER
  0
POLYLINE
  8
ROLL-SHUTTER
 66
  1
 70
  0
 62
  0
 10
2.482685
 20
6.916098
 30
0.000000
  0
VERTEX
  8
ROLL-SHUTTER
 10
2.482685
 20
6.916098
 30
0.000000
  0
VERTEX
  8
ROLL-SHUTTER
 10
5.184029
 20
6.916098
 30
0.000000
  0
SEQEND
  8
ROLL-SHUTTER
  0
POLYLINE
  8
ROLL-SHUTTER
 66
  1
 70
  0
 62
  0
 10
2.482717
 20
6.879235
 30
0.000000
  0
VERTEX
  8
ROLL-SHUTTER
 10
2.482717
 20
6.879235
 30
0.000000
  0
VERTEX
  8
ROLL-SHUTTER
 10
5.184061
 20
6.879235
 30
0.000000
  0
SEQEND
  8
ROLL-SHUTTER
  0
POLYLINE
  8
ROLL-SHUTTER
 66
  1
 70
  0
 62
  0
 10
2.482286
 20
6.835592
 30
0.000000
  0
VERTEX
  8
ROLL-SHUTTER
 10
2.482286
 20
6.835592
 30
0.000000
  0
VERTEX
  8
ROLL-SHUTTER
 10
5.184238
 20
6.835592
 30
0.000000
  0
SEQEND
  8
ROLL-SHUTTER
  0
POLYLINE
  8
ROLL-SHUTTER
 66
  1
 70
  0
 62
  0
 10
2.482286
 20
6.466280
 30
0.000000
  0
VERTEX
  8
ROLL-SHUTTER
 10
2.482286
 20
6.466280
 30
0.000000
  0
VERTEX
  8
ROLL-SHUTTER
 10
5.184238
 20
6.466280
 30
0.000000
  0
SEQEND
  8
ROLL-SHUTTER
  0
POLYLINE
  8
ROLL-SHUTTER
 66
  1
 70
  0
 62
  0
 10
2.482685
 20
6.423977
 30
0.000000
  0
VERTEX
  8
ROLL-SHUTTER
 10
2.482685
 20
6.423977
 30
0.000000
  0
VERTEX
  8
ROLL-SHUTTER
 10
5.184029
 20
6.423977
 30
0.000000
  0
SEQEND
  8
ROLL-SHUTTER
  0
POLYLINE
  8
ROLL-SHUTTER
 66
  1
 70
  0
 62
  0
 10
2.482659
 20
6.388119
 30
0.000000
  0
VERTEX
  8
ROLL-SHUTTER
 10
2.482659
 20
6.388119
 30
0.000000
  0
VERTEX
  8
ROLL-SHUTTER
 10
5.184004
 20
6.388119
 30
0.000000
  0
SEQEND
  8
ROLL-SHUTTER
  0
POLYLINE
  8
ROLL-SHUTTER
 66
  1
 70
  0
 62
  0
 10
2.482286
 20
6.344936
 30
0.000000
  0
VERTEX
  8
ROLL-SHUTTER
 10
2.482286
 20
6.344936
 30
0.000000
  0
VERTEX
  8
ROLL-SHUTTER
 10
5.184238
 20
6.344936
 30
0.000000
  0
SEQEND
  8
ROLL-SHUTTER
  0
POLYLINE
  8
ROLL-SHUTTER
 66
  1
 70
  0
 62
  0
 10
3.076389
 20
6.118057
 30
0.000000
  0
VERTEX
  8
ROLL-SHUTTER
 10
3.076389
 20
6.118057
 30
0.000000
  0
VERTEX
  8
ROLL-SHUTTER
 10
2.371528
 20
6.118057
 30
0.000000
  0
SEQEND
  8
ROLL-SHUTTER
  0
TEXT
  8
ROLL-SHUTTER
 62
  0
 10
3.347222
 20
7.833334
 30
0.000000
 40
0.145833
  1
full width
 72
  5
 11
4.180556
 21
7.833334
 31
0.000000
  0
TEXT
  8
ROLL-SHUTTER
 62
  0
 10
3.069444
 20
7.611112
 30
0.000000
 40
0.145833
  1
aluminum slats
 72
  5
 11
4.458333
 21
7.611112
 31
0.000000
  0
TEXT
  8
ROLL-SHUTTER
 62
  0
 10
3.180556
 20
6.055556
 30
0.000000
 40
0.145833
  1
2 
 72
  5
 11
3.416667
 21
6.055556
 31
0.000000
  0
TEXT
  8
ROLL-SHUTTER
 62
  0
 10
3.416667
 20
6.055556
 30
0.000000
 40
0.125000
  1
1/2
 72
  5
 11
3.722222
 21
6.055556
 31
0.000000
  0
TEXT
  8
ROLL-SHUTTER
 62
  0
 10
3.722222
 20
6.055556
 30
0.000000
 40
0.145833
  1
" (64
 72
  5
 11
4.208333
 21
6.055556
 31
0.000000
  0
TEXT
  8
ROLL-SHUTTER
 62
  0
 10
4.208333
 20
6.055556
 30
0.000000
 40
0.125000
  1
mm)
 72
  5
 11
4.638889
 21
6.055556
 31
0.000000
  0
TEXT
  8
ROLL-SHUTTER
 62
  0
 10
2.888889
 20
5.833334
 30
0.000000
 40
0.145833
  1
between connectors
 72
  5
 11
4.736111
 21
5.833334
 31
0.000000
  0
CIRCLE
  8
ROLL-SHUTTER
 62
  0
 10
2.170606
 20
6.896748
 30
0.000000
 40
0.013666
  0
POLYLINE
  8
ROLL-SHUTTER
 66
  1
 70
  0
 62
  0
 10
2.183325
 20
6.848425
 30
0.000000
  0
VERTEX
  8
ROLL-SHUTTER
 10
2.183325
 20
6.848425
 30
0.000000
  0
VERTEX
  8
ROLL-SHUTTER
 10
2.185994
 20
6.860504
 30
0.000000
  0
VERTEX
  8
ROLL-SHUTTER
 10
2.182125
 20
6.870932
 30
0.000000
  0
VERTEX
  8
ROLL-SHUTTER
 10
2.172015
 20
6.875571
 30
0.000000
  0
VERTEX
  8
ROLL-SHUTTER
 10
2.161587
 20
6.871701
 30
0.000000
  0
VERTEX
  8
ROLL-SHUTTER
 10
2.156949
 20
6.861591
 30
0.000000
  0
VERTEX
  8
ROLL-SHUTTER
 10
2.160818
 20
6.851162
 30
0.000000
  0
VERTEX
  8
ROLL-SHUTTER
 10
2.168325
 20
6.845476
 30
0.000000
  0
SEQEND
  8
ROLL-SHUTTER
  0
POLYLINE
  8
ROLL-SHUTTER
 66
  1
 70
  0
 62
  0
 10
2.165827
 20
6.835954
 30
0.000000
  0
VERTEX
  8
ROLL-SHUTTER
 10
2.165827
 20
6.835954
 30
0.000000
  0
VERTEX
  8
ROLL-SHUTTER
 10
2.159755
 20
6.835954
 30
0.000000
  0
SEQEND
  8
ROLL-SHUTTER
  0
POLYLINE
  8
ROLL-SHUTTER
 66
  1
 70
  0
 62
  0
 10
2.168325
 20
6.845475
 30
0.000000
  0
VERTEX
  8
ROLL-SHUTTER
 10
2.168325
 20
6.845475
 30
0.000000
  0
VERTEX
  8
ROLL-SHUTTER
 10
2.168319
 20
6.838443
 30
0.000000
  0
SEQEND
  8
ROLL-SHUTTER
  0
POLYLINE
  8
ROLL-SHUTTER
 66
  1
 70
  0
 62
  0
 10
2.165827
 20
6.835954
 30
0.000000
  0
VERTEX
  8
ROLL-SHUTTER
 10
2.165827
 20
6.835954
 30
0.000000
  0
VERTEX
  8
ROLL-SHUTTER
 10
2.168319
 20
6.838443
 30
0.000000
  0
SEQEND
  8
ROLL-SHUTTER
  0
POLYLINE
  8
ROLL-SHUTTER
 66
  1
 70
  0
 62
  0
 10
2.195394
 20
6.896694
 30
0.000000
  0
VERTEX
  8
ROLL-SHUTTER
 10
2.195394
 20
6.896694
 30
0.000000
  0
VERTEX
  8
ROLL-SHUTTER
 10
2.200080
 20
6.849976
 30
0.000000
  0
SEQEND
  8
ROLL-SHUTTER
  0
POLYLINE
  8
ROLL-SHUTTER
 66
  1
 70
  0
 62
  0
 10
2.197419
 20
6.842515
 30
0.000000
  0
VERTEX
  8
ROLL-SHUTTER
 10
2.197419
 20
6.842515
 30
0.000000
  0
VERTEX
  8
ROLL-SHUTTER
 10
2.196500
 20
6.845737
 30
0.000000
  0
VERTEX
  8
ROLL-SHUTTER
 10
2.197312
 20
6.847157
 30
0.000000
  0
VERTEX
  8
ROLL-SHUTTER
 10
2.197861
 20
6.848696
 30
0.000000
  0
VERTEX
  8
ROLL-SHUTTER
 10
2.198131
 20
6.850309
 30
0.000000
  0
VERTEX
  8
ROLL-SHUTTER
 10
2.198112
 20
6.851944
 30
0.000000
  0
VERTEX
  8
ROLL-SHUTTER
 10
2.200080
 20
6.849976
 30
0.000000
  0
SEQEND
  8
ROLL-SHUTTER
  0
POLYLINE
  8
ROLL-SHUTTER
 66
  1
 70
  0
 62
  0
 10
2.183325
 20
6.848425
 30
0.000000
  0
VERTEX
  8
ROLL-SHUTTER
 10
2.183325
 20
6.848425
 30
0.000000
  0
VERTEX
  8
ROLL-SHUTTER
 10
2.187498
 20
6.837552
 30
0.000000
  0
SEQEND
  8
ROLL-SHUTTER
  0
POLYLINE
  8
ROLL-SHUTTER
 66
  1
 70
  0
 62
  0
 10
2.191586
 20
6.836683
 30
0.000000
  0
VERTEX
  8
ROLL-SHUTTER
 10
2.191586
 20
6.836683
 30
0.000000
  0
VERTEX
  8
ROLL-SHUTTER
 10
2.197419
 20
6.842515
 30
0.000000
  0
SEQEND
  8
ROLL-SHUTTER
  0
POLYLINE
  8
ROLL-SHUTTER
 66
  1
 70
  0
 62
  0
 10
2.187499
 20
6.837552
 30
0.000000
  0
VERTEX
  8
ROLL-SHUTTER
 10
2.187499
 20
6.837552
 30
0.000000
  0
VERTEX
  8
ROLL-SHUTTER
 10
2.191586
 20
6.836683
 30
0.000000
  0
SEQEND
  8
ROLL-SHUTTER
  0
POLYLINE
  8
ROLL-SHUTTER
 66
  1
 70
  0
 62
  0
 10
2.150242
 20
6.845467
 30
0.000000
  0
VERTEX
  8
ROLL-SHUTTER
 10
2.150242
 20
6.845467
 30
0.000000
  0
VERTEX
  8
ROLL-SHUTTER
 10
2.159755
 20
6.835954
 30
0.000000
  0
SEQEND
  8
ROLL-SHUTTER
  0
POLYLINE
  8
ROLL-SHUTTER
 66
  1
 70
  0
 62
  0
 10
2.150242
 20
6.845467
 30
0.000000
  0
VERTEX
  8
ROLL-SHUTTER
 10
2.150242
 20
6.845467
 30
0.000000
  0
VERTEX
  8
ROLL-SHUTTER
 10
2.146445
 20
6.872763
 30
0.000000
  0
SEQEND
  8
ROLL-SHUTTER
  0
POLYLINE
  8
ROLL-SHUTTER
 66
  1
 70
  0
 62
  0
 10
2.152291
 20
6.878609
 30
0.000000
  0
VERTEX
  8
ROLL-SHUTTER
 10
2.152291
 20
6.878609
 30
0.000000
  0
VERTEX
  8
ROLL-SHUTTER
 10
2.145632
 20
6.885268
 30
0.000000
  0
SEQEND
  8
ROLL-SHUTTER
  0
POLYLINE
  8
ROLL-SHUTTER
 66
  1
 70
  0
 62
  0
 10
2.152291
 20
6.878609
 30
0.000000
  0
VERTEX
  8
ROLL-SHUTTER
 10
2.152291
 20
6.878609
 30
0.000000
  0
VERTEX
  8
ROLL-SHUTTER
 10
2.146445
 20
6.872763
 30
0.000000
  0
SEQEND
  8
ROLL-SHUTTER
  0
POLYLINE
  8
ROLL-SHUTTER
 66
  1
 70
  0
 62
  0
 10
2.145632
 20
6.885268
 30
0.000000
  0
VERTEX
  8
ROLL-SHUTTER
 10
2.145632
 20
6.885268
 30
0.000000
  0
VERTEX
  8
ROLL-SHUTTER
 10
2.145632
 20
6.908118
 30
0.000000
  0
SEQEND
  8
ROLL-SHUTTER
  0
POLYLINE
  8
ROLL-SHUTTER
 66
  1
 70
  0
 62
  0
 10
2.168325
 20
6.947912
 30
0.000000
  0
VERTEX
  8
ROLL-SHUTTER
 10
2.168325
 20
6.947912
 30
0.000000
  0
VERTEX
  8
ROLL-SHUTTER
 10
2.158236
 20
6.942279
 30
0.000000
  0
VERTEX
  8
ROLL-SHUTTER
 10
2.157868
 20
6.931161
 30
0.000000
  0
VERTEX
  8
ROLL-SHUTTER
 10
2.165470
 20
6.923040
 30
0.000000
  0
VERTEX
  8
ROLL-SHUTTER
 10
2.176587
 20
6.922673
 30
0.000000
  0
VERTEX
  8
ROLL-SHUTTER
 10
2.184707
 20
6.930275
 30
0.000000
  0
VERTEX
  8
ROLL-SHUTTER
 10
2.185075
 20
6.941392
 30
0.000000
  0
VERTEX
  8
ROLL-SHUTTER
 10
2.183325
 20
6.944962
 30
0.000000
  0
SEQEND
  8
ROLL-SHUTTER
  0
POLYLINE
  8
ROLL-SHUTTER
 66
  1
 70
  0
 62
  0
 10
2.165827
 20
6.957433
 30
0.000000
  0
VERTEX
  8
ROLL-SHUTTER
 10
2.165827
 20
6.957433
 30
0.000000
  0
VERTEX
  8
ROLL-SHUTTER
 10
2.159755
 20
6.957433
 30
0.000000
  0
SEQEND
  8
ROLL-SHUTTER
  0
POLYLINE
  8
ROLL-SHUTTER
 66
  1
 70
  0
 62
  0
 10
2.168325
 20
6.947911
 30
0.000000
  0
VERTEX
  8
ROLL-SHUTTER
 10
2.168325
 20
6.947911
 30
0.000000
  0
VERTEX
  8
ROLL-SHUTTER
 10
2.168319
 20
6.954943
 30
0.000000
  0
SEQEND
  8
ROLL-SHUTTER
  0
POLYLINE
  8
ROLL-SHUTTER
 66
  1
 70
  0
 62
  0
 10
2.168319
 20
6.954943
 30
0.000000
  0
VERTEX
  8
ROLL-SHUTTER
 10
2.168319
 20
6.954943
 30
0.000000
  0
VERTEX
  8
ROLL-SHUTTER
 10
2.165827
 20
6.957433
 30
0.000000
  0
SEQEND
  8
ROLL-SHUTTER
  0
POLYLINE
  8
ROLL-SHUTTER
 66
  1
 70
  0
 62
  0
 10
2.195394
 20
6.896694
 30
0.000000
  0
VERTEX
  8
ROLL-SHUTTER
 10
2.195394
 20
6.896694
 30
0.000000
  0
VERTEX
  8
ROLL-SHUTTER
 10
2.200080
 20
6.943411
 30
0.000000
  0
SEQEND
  8
ROLL-SHUTTER
  0
POLYLINE
  8
ROLL-SHUTTER
 66
  1
 70
  0
 62
  0
 10
2.200080
 20
6.943411
 30
0.000000
  0
VERTEX
  8
ROLL-SHUTTER
 10
2.200080
 20
6.943411
 30
0.000000
  0
VERTEX
  8
ROLL-SHUTTER
 10
2.198131
 20
6.947014
 30
0.000000
  0
VERTEX
  8
ROLL-SHUTTER
 10
2.197861
 20
6.948627
 30
0.000000
  0
VERTEX
  8
ROLL-SHUTTER
 10
2.197312
 20
6.950166
 30
0.000000
  0
VERTEX
  8
ROLL-SHUTTER
 10
2.196500
 20
6.951586
 30
0.000000
  0
VERTEX
  8
ROLL-SHUTTER
 10
2.195450
 20
6.952839
 30
0.000000
  0
VERTEX
  8
ROLL-SHUTTER
 10
2.197419
 20
6.950871
 30
0.000000
  0
SEQEND
  8
ROLL-SHUTTER
  0
POLYLINE
  8
ROLL-SHUTTER
 66
  1
 70
  0
 62
  0
 10
2.183325
 20
6.944962
 30
0.000000
  0
VERTEX
  8
ROLL-SHUTTER
 10
2.183325
 20
6.944962
 30
0.000000
  0
VERTEX
  8
ROLL-SHUTTER
 10
2.187498
 20
6.955834
 30
0.000000
  0
SEQEND
  8
ROLL-SHUTTER
  0
POLYLINE
  8
ROLL-SHUTTER
 66
  1
 70
  0
 62
  0
 10
2.191586
 20
6.956704
 30
0.000000
  0
VERTEX
  8
ROLL-SHUTTER
 10
2.191586
 20
6.956704
 30
0.000000
  0
VERTEX
  8
ROLL-SHUTTER
 10
2.197419
 20
6.950871
 30
0.000000
  0
SEQEND
  8
ROLL-SHUTTER
  0
POLYLINE
  8
ROLL-SHUTTER
 66
  1
 70
  0
 62
  0
 10
2.191586
 20
6.956703
 30
0.000000
  0
VERTEX
  8
ROLL-SHUTTER
 10
2.191586
 20
6.956703
 30
0.000000
  0
VERTEX
  8
ROLL-SHUTTER
 10
2.187499
 20
6.955834
 30
0.000000
  0
SEQEND
  8
ROLL-SHUTTER
  0
POLYLINE
  8
ROLL-SHUTTER
 66
  1
 70
  0
 62
  0
 10
2.150242
 20
6.947920
 30
0.000000
  0
VERTEX
  8
ROLL-SHUTTER
 10
2.150242
 20
6.947920
 30
0.000000
  0
VERTEX
  8
ROLL-SHUTTER
 10
2.159755
 20
6.957433
 30
0.000000
  0
SEQEND
  8
ROLL-SHUTTER
  0
POLYLINE
  8
ROLL-SHUTTER
 66
  1
 70
  0
 62
  0
 10
2.150242
 20
6.947920
 30
0.000000
  0
VERTEX
  8
ROLL-SHUTTER
 10
2.150242
 20
6.947920
 30
0.000000
  0
VERTEX
  8
ROLL-SHUTTER
 10
2.146445
 20
6.920624
 30
0.000000
  0
SEQEND
  8
ROLL-SHUTTER
  0
POLYLINE
  8
ROLL-SHUTTER
 66
  1
 70
  0
 62
  0
 10
2.152291
 20
6.914778
 30
0.000000
  0
VERTEX
  8
ROLL-SHUTTER
 10
2.152291
 20
6.914778
 30
0.000000
  0
VERTEX
  8
ROLL-SHUTTER
 10
2.145632
 20
6.908118
 30
0.000000
  0
SEQEND
  8
ROLL-SHUTTER
  0
POLYLINE
  8
ROLL-SHUTTER
 66
  1
 70
  0
 62
  0
 10
2.152291
 20
6.914778
 30
0.000000
  0
VERTEX
  8
ROLL-SHUTTER
 10
2.152291
 20
6.914778
 30
0.000000
  0
VERTEX
  8
ROLL-SHUTTER
 10
2.146445
 20
6.920624
 30
0.000000
  0
SEQEND
  8
ROLL-SHUTTER
  0
POLYLINE
  8
ROLL-SHUTTER
 66
  1
 70
  0
 62
  0
 10
2.178729
 20
7.318126
 30
0.000000
  0
VERTEX
  8
ROLL-SHUTTER
 10
2.178729
 20
7.318126
 30
0.000000
  0
VERTEX
  8
ROLL-SHUTTER
 10
2.177774
 20
7.317170
 30
0.000000
  0
SEQEND
  8
ROLL-SHUTTER
  0
POLYLINE
  8
ROLL-SHUTTER
 66
  1
 70
  0
 62
  0
 10
2.178729
 20
7.318126
 30
0.000000
  0
VERTEX
  8
ROLL-SHUTTER
 10
2.178729
 20
7.318126
 30
0.000000
  0
VERTEX
  8
ROLL-SHUTTER
 10
2.178741
 20
7.338918
 30
0.000000
  0
SEQEND
  8
ROLL-SHUTTER
  0
POLYLINE
  8
ROLL-SHUTTER
 66
  1
 70
  0
 62
  0
 10
2.178742
 20
7.338919
 30
0.000000
  0
VERTEX
  8
ROLL-SHUTTER
 10
2.178742
 20
7.338919
 30
0.000000
  0
VERTEX
  8
ROLL-SHUTTER
 10
2.183066
 20
7.357458
 30
0.000000
  0
VERTEX
  8
ROLL-SHUTTER
 10
2.166495
 20
7.363751
 30
0.000000
  0
VERTEX
  8
ROLL-SHUTTER
 10
2.160202
 20
7.347180
 30
0.000000
  0
VERTEX
  8
ROLL-SHUTTER
 10
2.168470
 20
7.338916
 30
0.000000
  0
SEQEND
  8
ROLL-SHUTTER
  0
POLYLINE
  8
ROLL-SHUTTER
 66
  1
 70
  0
 62
  0
 10
2.168484
 20
7.318126
 30
0.000000
  0
VERTEX
  8
ROLL-SHUTTER
 10
2.168484
 20
7.318126
 30
0.000000
  0
VERTEX
  8
ROLL-SHUTTER
 10
2.168470
 20
7.338916
 30
0.000000
  0
SEQEND
  8
ROLL-SHUTTER
  0
POLYLINE
  8
ROLL-SHUTTER
 66
  1
 70
  0
 62
  0
 10
2.168484
 20
7.318126
 30
0.000000
  0
VERTEX
  8
ROLL-SHUTTER
 10
2.168484
 20
7.318126
 30
0.000000
  0
VERTEX
  8
ROLL-SHUTTER
 10
2.169468
 20
7.317142
 30
0.000000
  0
SEQEND
  8
ROLL-SHUTTER
  0
POLYLINE
  8
ROLL-SHUTTER
 66
  1
 70
  0
 62
  0
 10
2.169468
 20
6.967229
 30
0.000000
  0
VERTEX
  8
ROLL-SHUTTER
 10
2.169468
 20
6.967229
 30
0.000000
  0
VERTEX
  8
ROLL-SHUTTER
 10
2.169468
 20
7.317142
 30
0.000000
  0
SEQEND
  8
ROLL-SHUTTER
  0
POLYLINE
  8
ROLL-SHUTTER
 66
  1
 70
  0
 62
  0
 10
2.168480
 20
6.966241
 30
0.000000
  0
VERTEX
  8
ROLL-SHUTTER
 10
2.168480
 20
6.966241
 30
0.000000
  0
VERTEX
  8
ROLL-SHUTTER
 10
2.169468
 20
6.967229
 30
0.000000
  0
SEQEND
  8
ROLL-SHUTTER
  0
POLYLINE
  8
ROLL-SHUTTER
 66
  1
 70
  0
 62
  0
 10
2.168480
 20
6.966241
 30
0.000000
  0
VERTEX
  8
ROLL-SHUTTER
 10
2.168480
 20
6.966241
 30
0.000000
  0
VERTEX
  8
ROLL-SHUTTER
 10
2.168467
 20
6.945448
 30
0.000000
  0
SEQEND
  8
ROLL-SHUTTER
  0
POLYLINE
  8
ROLL-SHUTTER
 66
  1
 70
  0
 62
  0
 10
2.168468
 20
6.945448
 30
0.000000
  0
VERTEX
  8
ROLL-SHUTTER
 10
2.168468
 20
6.945448
 30
0.000000
  0
VERTEX
  8
ROLL-SHUTTER
 10
2.160206
 20
6.930846
 30
0.000000
  0
VERTEX
  8
ROLL-SHUTTER
 10
2.176778
 20
6.924553
 30
0.000000
  0
VERTEX
  8
ROLL-SHUTTER
 10
2.183070
 20
6.941124
 30
0.000000
  0
VERTEX
  8
ROLL-SHUTTER
 10
2.178739
 20
6.945452
 30
0.000000
  0
SEQEND
  8
ROLL-SHUTTER
  0
POLYLINE
  8
ROLL-SHUTTER
 66
  1
 70
  0
 62
  0
 10
2.178725
 20
6.966241
 30
0.000000
  0
VERTEX
  8
ROLL-SHUTTER
 10
2.178725
 20
6.966241
 30
0.000000
  0
VERTEX
  8
ROLL-SHUTTER
 10
2.178738
 20
6.945452
 30
0.000000
  0
SEQEND
  8
ROLL-SHUTTER
  0
POLYLINE
  8
ROLL-SHUTTER
 66
  1
 70
  0
 62
  0
 10
2.178725
 20
6.966241
 30
0.000000
  0
VERTEX
  8
ROLL-SHUTTER
 10
2.178725
 20
6.966241
 30
0.000000
  0
VERTEX
  8
ROLL-SHUTTER
 10
2.177774
 20
6.967192
 30
0.000000
  0
SEQEND
  8
ROLL-SHUTTER
  0
POLYLINE
  8
ROLL-SHUTTER
 66
  1
 70
  0
 62
  0
 10
2.177774
 20
6.967192
 30
0.000000
  0
VERTEX
  8
ROLL-SHUTTER
 10
2.177774
 20
6.967192
 30
0.000000
  0
VERTEX
  8
ROLL-SHUTTER
 10
2.177774
 20
7.317170
 30
0.000000
  0
SEQEND
  8
ROLL-SHUTTER
  0
CIRCLE
  8
ROLL-SHUTTER
 62
  0
 10
2.170696
 20
6.405738
 30
0.000000
 40
0.013666
  0
POLYLINE
  8
ROLL-SHUTTER
 66
  1
 70
  0
 62
  0
 10
2.183416
 20
6.357416
 30
0.000000
  0
VERTEX
  8
ROLL-SHUTTER
 10
2.183416
 20
6.357416
 30
0.000000
  0
VERTEX
  8
ROLL-SHUTTER
 10
2.186085
 20
6.369495
 30
0.000000
  0
VERTEX
  8
ROLL-SHUTTER
 10
2.182216
 20
6.379923
 30
0.000000
  0
VERTEX
  8
ROLL-SHUTTER
 10
2.172106
 20
6.384561
 30
0.000000
  0
VERTEX
  8
ROLL-SHUTTER
 10
2.161677
 20
6.380692
 30
0.000000
  0
VERTEX
  8
ROLL-SHUTTER
 10
2.157039
 20
6.370581
 30
0.000000
  0
VERTEX
  8
ROLL-SHUTTER
 10
2.160908
 20
6.360153
 30
0.000000
  0
VERTEX
  8
ROLL-SHUTTER
 10
2.168415
 20
6.354466
 30
0.000000
  0
SEQEND
  8
ROLL-SHUTTER
  0
POLYLINE
  8
ROLL-SHUTTER
 66
  1
 70
  0
 62
  0
 10
2.165918
 20
6.344944
 30
0.000000
  0
VERTEX
  8
ROLL-SHUTTER
 10
2.165918
 20
6.344944
 30
0.000000
  0
VERTEX
  8
ROLL-SHUTTER
 10
2.159846
 20
6.344944
 30
0.000000
  0
SEQEND
  8
ROLL-SHUTTER
  0
POLYLINE
  8
ROLL-SHUTTER
 66
  1
 70
  0
 62
  0
 10
2.168415
 20
6.354465
 30
0.000000
  0
VERTEX
  8
ROLL-SHUTTER
 10
2.168415
 20
6.354465
 30
0.000000
  0
VERTEX
  8
ROLL-SHUTTER
 10
2.168410
 20
6.347434
 30
0.000000
  0
SEQEND
  8
ROLL-SHUTTER
  0
POLYLINE
  8
ROLL-SHUTTER
 66
  1
 70
  0
 62
  0
 10
2.165918
 20
6.344944
 30
0.000000
  0
VERTEX
  8
ROLL-SHUTTER
 10
2.165918
 20
6.344944
 30
0.000000
  0
VERTEX
  8
ROLL-SHUTTER
 10
2.168410
 20
6.347434
 30
0.000000
  0
SEQEND
  8
ROLL-SHUTTER
  0
POLYLINE
  8
ROLL-SHUTTER
 66
  1
 70
  0
 62
  0
 10
2.195485
 20
6.405683
 30
0.000000
  0
VERTEX
  8
ROLL-SHUTTER
 10
2.195485
 20
6.405683
 30
0.000000
  0
VERTEX
  8
ROLL-SHUTTER
 10
2.200171
 20
6.358966
 30
0.000000
  0
SEQEND
  8
ROLL-SHUTTER
  0
POLYLINE
  8
ROLL-SHUTTER
 66
  1
 70
  0
 62
  0
 10
2.197510
 20
6.351505
 30
0.000000
  0
VERTEX
  8
ROLL-SHUTTER
 10
2.197510
 20
6.351505
 30
0.000000
  0
VERTEX
  8
ROLL-SHUTTER
 10
2.196590
 20
6.354727
 30
0.000000
  0
VERTEX
  8
ROLL-SHUTTER
 10
2.197402
 20
6.356146
 30
0.000000
  0
VERTEX
  8
ROLL-SHUTTER
 10
2.197952
 20
6.357686
 30
0.000000
  0
VERTEX
  8
ROLL-SHUTTER
 10
2.198221
 20
6.359299
 30
0.000000
  0
VERTEX
  8
ROLL-SHUTTER
 10
2.198203
 20
6.360934
 30
0.000000
  0
VERTEX
  8
ROLL-SHUTTER
 10
2.200171
 20
6.358965
 30
0.000000
  0
SEQEND
  8
ROLL-SHUTTER
  0
POLYLINE
  8
ROLL-SHUTTER
 66
  1
 70
  0
 62
  0
 10
2.183416
 20
6.357416
 30
0.000000
  0
VERTEX
  8
ROLL-SHUTTER
 10
2.183416
 20
6.357416
 30
0.000000
  0
VERTEX
  8
ROLL-SHUTTER
 10
2.187589
 20
6.346543
 30
0.000000
  0
SEQEND
  8
ROLL-SHUTTER
  0
POLYLINE
  8
ROLL-SHUTTER
 66
  1
 70
  0
 62
  0
 10
2.191677
 20
6.345674
 30
0.000000
  0
VERTEX
  8
ROLL-SHUTTER
 10
2.191677
 20
6.345674
 30
0.000000
  0
VERTEX
  8
ROLL-SHUTTER
 10
2.197510
 20
6.351506
 30
0.000000
  0
SEQEND
  8
ROLL-SHUTTER
  0
POLYLINE
  8
ROLL-SHUTTER
 66
  1
 70
  0
 62
  0
 10
2.187589
 20
6.346543
 30
0.000000
  0
VERTEX
  8
ROLL-SHUTTER
 10
2.187589
 20
6.346543
 30
0.000000
  0
VERTEX
  8
ROLL-SHUTTER
 10
2.191677
 20
6.345674
 30
0.000000
  0
SEQEND
  8
ROLL-SHUTTER
  0
POLYLINE
  8
ROLL-SHUTTER
 66
  1
 70
  0
 62
  0
 10
2.150333
 20
6.354457
 30
0.000000
  0
VERTEX
  8
ROLL-SHUTTER
 10
2.150333
 20
6.354457
 30
0.000000
  0
VERTEX
  8
ROLL-SHUTTER
 10
2.159846
 20
6.344944
 30
0.000000
  0
SEQEND
  8
ROLL-SHUTTER
  0
POLYLINE
  8
ROLL-SHUTTER
 66
  1
 70
  0
 62
  0
 10
2.150333
 20
6.354457
 30
0.000000
  0
VERTEX
  8
ROLL-SHUTTER
 10
2.150333
 20
6.354457
 30
0.000000
  0
VERTEX
  8
ROLL-SHUTTER
 10
2.146535
 20
6.381753
 30
0.000000
  0
SEQEND
  8
ROLL-SHUTTER
  0
POLYLINE
  8
ROLL-SHUTTER
 66
  1
 70
  0
 62
  0
 10
2.152382
 20
6.387599
 30
0.000000
  0
VERTEX
  8
ROLL-SHUTTER
 10
2.152382
 20
6.387599
 30
0.000000
  0
VERTEX
  8
ROLL-SHUTTER
 10
2.145722
 20
6.394259
 30
0.000000
  0
SEQEND
  8
ROLL-SHUTTER
  0
POLYLINE
  8
ROLL-SHUTTER
 66
  1
 70
  0
 62
  0
 10
2.152382
 20
6.387599
 30
0.000000
  0
VERTEX
  8
ROLL-SHUTTER
 10
2.152382
 20
6.387599
 30
0.000000
  0
VERTEX
  8
ROLL-SHUTTER
 10
2.146535
 20
6.381753
 30
0.000000
  0
SEQEND
  8
ROLL-SHUTTER
  0
POLYLINE
  8
ROLL-SHUTTER
 66
  1
 70
  0
 62
  0
 10
2.145722
 20
6.394259
 30
0.000000
  0
VERTEX
  8
ROLL-SHUTTER
 10
2.145722
 20
6.394259
 30
0.000000
  0
VERTEX
  8
ROLL-SHUTTER
 10
2.145722
 20
6.417108
 30
0.000000
  0
SEQEND
  8
ROLL-SHUTTER
  0
POLYLINE
  8
ROLL-SHUTTER
 66
  1
 70
  0
 62
  0
 10
2.168415
 20
6.456902
 30
0.000000
  0
VERTEX
  8
ROLL-SHUTTER
 10
2.168415
 20
6.456902
 30
0.000000
  0
VERTEX
  8
ROLL-SHUTTER
 10
2.158326
 20
6.451269
 30
0.000000
  0
VERTEX
  8
ROLL-SHUTTER
 10
2.157959
 20
6.440152
 30
0.000000
  0
VERTEX
  8
ROLL-SHUTTER
 10
2.165560
 20
6.432031
 30
0.000000
  0
VERTEX
  8
ROLL-SHUTTER
 10
2.176677
 20
6.431664
 30
0.000000
  0
VERTEX
  8
ROLL-SHUTTER
 10
2.184798
 20
6.439265
 30
0.000000
  0
VERTEX
  8
ROLL-SHUTTER
 10
2.185165
 20
6.450382
 30
0.000000
  0
VERTEX
  8
ROLL-SHUTTER
 10
2.183416
 20
6.453952
 30
0.000000
  0
SEQEND
  8
ROLL-SHUTTER
  0
POLYLINE
  8
ROLL-SHUTTER
 66
  1
 70
  0
 62
  0
 10
2.165918
 20
6.466423
 30
0.000000
  0
VERTEX
  8
ROLL-SHUTTER
 10
2.165918
 20
6.466423
 30
0.000000
  0
VERTEX
  8
ROLL-SHUTTER
 10
2.159846
 20
6.466423
 30
0.000000
  0
SEQEND
  8
ROLL-SHUTTER
  0
POLYLINE
  8
ROLL-SHUTTER
 66
  1
 70
  0
 62
  0
 10
2.168415
 20
6.456902
 30
0.000000
  0
VERTEX
  8
ROLL-SHUTTER
 10
2.168415
 20
6.456902
 30
0.000000
  0
VERTEX
  8
ROLL-SHUTTER
 10
2.168410
 20
6.463934
 30
0.000000
  0
SEQEND
  8
ROLL-SHUTTER
  0
POLYLINE
  8
ROLL-SHUTTER
 66
  1
 70
  0
 62
  0
 10
2.168410
 20
6.463933
 30
0.000000
  0
VERTEX
  8
ROLL-SHUTTER
 10
2.168410
 20
6.463933
 30
0.000000
  0
VERTEX
  8
ROLL-SHUTTER
 10
2.165918
 20
6.466423
 30
0.000000
  0
SEQEND
  8
ROLL-SHUTTER
  0
POLYLINE
  8
ROLL-SHUTTER
 66
  1
 70
  0
 62
  0
 10
2.195485
 20
6.405683
 30
0.000000
  0
VERTEX
  8
ROLL-SHUTTER
 10
2.195485
 20
6.405683
 30
0.000000
  0
VERTEX
  8
ROLL-SHUTTER
 10
2.200171
 20
6.452401
 30
0.000000
  0
SEQEND
  8
ROLL-SHUTTER
  0
POLYLINE
  8
ROLL-SHUTTER
 66
  1
 70
  0
 62
  0
 10
2.200171
 20
6.452401
 30
0.000000
  0
VERTEX
  8
ROLL-SHUTTER
 10
2.200171
 20
6.452401
 30
0.000000
  0
VERTEX
  8
ROLL-SHUTTER
 10
2.198221
 20
6.456005
 30
0.000000
  0
VERTEX
  8
ROLL-SHUTTER
 10
2.197952
 20
6.457617
 30
0.000000
  0
VERTEX
  8
ROLL-SHUTTER
 10
2.197402
 20
6.459157
 30
0.000000
  0
VERTEX
  8
ROLL-SHUTTER
 10
2.196590
 20
6.460576
 30
0.000000
  0
VERTEX
  8
ROLL-SHUTTER
 10
2.195541
 20
6.461830
 30
0.000000
  0
VERTEX
  8
ROLL-SHUTTER
 10
2.197510
 20
6.459861
 30
0.000000
  0
SEQEND
  8
ROLL-SHUTTER
  0
POLYLINE
  8
ROLL-SHUTTER
 66
  1
 70
  0
 62
  0
 10
2.183416
 20
6.453952
 30
0.000000
  0
VERTEX
  8
ROLL-SHUTTER
 10
2.183416
 20
6.453952
 30
0.000000
  0
VERTEX
  8
ROLL-SHUTTER
 10
2.187589
 20
6.464825
 30
0.000000
  0
SEQEND
  8
ROLL-SHUTTER
  0
POLYLINE
  8
ROLL-SHUTTER
 66
  1
 70
  0
 62
  0
 10
2.191677
 20
6.465694
 30
0.000000
  0
VERTEX
  8
ROLL-SHUTTER
 10
2.191677
 20
6.465694
 30
0.000000
  0
VERTEX
  8
ROLL-SHUTTER
 10
2.197510
 20
6.459861
 30
0.000000
  0
SEQEND
  8
ROLL-SHUTTER
  0
POLYLINE
  8
ROLL-SHUTTER
 66
  1
 70
  0
 62
  0
 10
2.191677
 20
6.465693
 30
0.000000
  0
VERTEX
  8
ROLL-SHUTTER
 10
2.191677
 20
6.465693
 30
0.000000
  0
VERTEX
  8
ROLL-SHUTTER
 10
2.187589
 20
6.464824
 30
0.000000
  0
SEQEND
  8
ROLL-SHUTTER
  0
POLYLINE
  8
ROLL-SHUTTER
 66
  1
 70
  0
 62
  0
 10
2.150333
 20
6.456910
 30
0.000000
  0
VERTEX
  8
ROLL-SHUTTER
 10
2.150333
 20
6.456910
 30
0.000000
  0
VERTEX
  8
ROLL-SHUTTER
 10
2.159846
 20
6.466423
 30
0.000000
  0
SEQEND
  8
ROLL-SHUTTER
  0
POLYLINE
  8
ROLL-SHUTTER
 66
  1
 70
  0
 62
  0
 10
2.150333
 20
6.456910
 30
0.000000
  0
VERTEX
  8
ROLL-SHUTTER
 10
2.150333
 20
6.456910
 30
0.000000
  0
VERTEX
  8
ROLL-SHUTTER
 10
2.146535
 20
6.429614
 30
0.000000
  0
SEQEND
  8
ROLL-SHUTTER
  0
POLYLINE
  8
ROLL-SHUTTER
 66
  1
 70
  0
 62
  0
 10
2.152382
 20
6.423768
 30
0.000000
  0
VERTEX
  8
ROLL-SHUTTER
 10
2.152382
 20
6.423768
 30
0.000000
  0
VERTEX
  8
ROLL-SHUTTER
 10
2.145722
 20
6.417108
 30
0.000000
  0
SEQEND
  8
ROLL-SHUTTER
  0
POLYLINE
  8
ROLL-SHUTTER
 66
  1
 70
  0
 62
  0
 10
2.152382
 20
6.423768
 30
0.000000
  0
VERTEX
  8
ROLL-SHUTTER
 10
2.152382
 20
6.423768
 30
0.000000
  0
VERTEX
  8
ROLL-SHUTTER
 10
2.146535
 20
6.429614
 30
0.000000
  0
SEQEND
  8
ROLL-SHUTTER
  0
POLYLINE
  8
ROLL-SHUTTER
 66
  1
 70
  0
 62
  0
 10
2.178820
 20
6.827116
 30
0.000000
  0
VERTEX
  8
ROLL-SHUTTER
 10
2.178820
 20
6.827116
 30
0.000000
  0
VERTEX
  8
ROLL-SHUTTER
 10
2.177864
 20
6.826160
 30
0.000000
  0
SEQEND
  8
ROLL-SHUTTER
  0
POLYLINE
  8
ROLL-SHUTTER
 66
  1
 70
  0
 62
  0
 10
2.178820
 20
6.827116
 30
0.000000
  0
VERTEX
  8
ROLL-SHUTTER
 10
2.178820
 20
6.827116
 30
0.000000
  0
VERTEX
  8
ROLL-SHUTTER
 10
2.178832
 20
6.847908
 30
0.000000
  0
SEQEND
  8
ROLL-SHUTTER
  0
POLYLINE
  8
ROLL-SHUTTER
 66
  1
 70
  0
 62
  0
 10
2.178832
 20
6.847908
 30
0.000000
  0
VERTEX
  8
ROLL-SHUTTER
 10
2.178832
 20
6.847908
 30
0.000000
  0
VERTEX
  8
ROLL-SHUTTER
 10
2.183156
 20
6.866448
 30
0.000000
  0
VERTEX
  8
ROLL-SHUTTER
 10
2.166585
 20
6.872741
 30
0.000000
  0
VERTEX
  8
ROLL-SHUTTER
 10
2.160293
 20
6.856170
 30
0.000000
  0
VERTEX
  8
ROLL-SHUTTER
 10
2.168561
 20
6.847905
 30
0.000000
  0
SEQEND
  8
ROLL-SHUTTER
  0
POLYLINE
  8
ROLL-SHUTTER
 66
  1
 70
  0
 62
  0
 10
2.168575
 20
6.827116
 30
0.000000
  0
VERTEX
  8
ROLL-SHUTTER
 10
2.168575
 20
6.827116
 30
0.000000
  0
VERTEX
  8
ROLL-SHUTTER
 10
2.168561
 20
6.847905
 30
0.000000
  0
SEQEND
  8
ROLL-SHUTTER
  0
POLYLINE
  8
ROLL-SHUTTER
 66
  1
 70
  0
 62
  0
 10
2.168575
 20
6.827116
 30
0.000000
  0
VERTEX
  8
ROLL-SHUTTER
 10
2.168575
 20
6.827116
 30
0.000000
  0
VERTEX
  8
ROLL-SHUTTER
 10
2.169558
 20
6.826132
 30
0.000000
  0
SEQEND
  8
ROLL-SHUTTER
  0
POLYLINE
  8
ROLL-SHUTTER
 66
  1
 70
  0
 62
  0
 10
2.169558
 20
6.476220
 30
0.000000
  0
VERTEX
  8
ROLL-SHUTTER
 10
2.169558
 20
6.476220
 30
0.000000
  0
VERTEX
  8
ROLL-SHUTTER
 10
2.169558
 20
6.826132
 30
0.000000
  0
SEQEND
  8
ROLL-SHUTTER
  0
POLYLINE
  8
ROLL-SHUTTER
 66
  1
 70
  0
 62
  0
 10
2.168570
 20
6.475231
 30
0.000000
  0
VERTEX
  8
ROLL-SHUTTER
 10
2.168570
 20
6.475231
 30
0.000000
  0
VERTEX
  8
ROLL-SHUTTER
 10
2.169558
 20
6.476220
 30
0.000000
  0
SEQEND
  8
ROLL-SHUTTER
  0
POLYLINE
  8
ROLL-SHUTTER
 66
  1
 70
  0
 62
  0
 10
2.168570
 20
6.475231
 30
0.000000
  0
VERTEX
  8
ROLL-SHUTTER
 10
2.168570
 20
6.475231
 30
0.000000
  0
VERTEX
  8
ROLL-SHUTTER
 10
2.168558
 20
6.454439
 30
0.000000
  0
SEQEND
  8
ROLL-SHUTTER
  0
POLYLINE
  8
ROLL-SHUTTER
 66
  1
 70
  0
 62
  0
 10
2.168558
 20
6.454439
 30
0.000000
  0
VERTEX
  8
ROLL-SHUTTER
 10
2.168558
 20
6.454439
 30
0.000000
  0
VERTEX
  8
ROLL-SHUTTER
 10
2.160297
 20
6.439836
 30
0.000000
  0
VERTEX
  8
ROLL-SHUTTER
 10
2.176868
 20
6.433543
 30
0.000000
  0
VERTEX
  8
ROLL-SHUTTER
 10
2.183161
 20
6.450114
 30
0.000000
  0
VERTEX
  8
ROLL-SHUTTER
 10
2.178829
 20
6.454442
 30
0.000000
  0
SEQEND
  8
ROLL-SHUTTER
  0
POLYLINE
  8
ROLL-SHUTTER
 66
  1
 70
  0
 62
  0
 10
2.178816
 20
6.475231
 30
0.000000
  0
VERTEX
  8
ROLL-SHUTTER
 10
2.178816
 20
6.475231
 30
0.000000
  0
VERTEX
  8
ROLL-SHUTTER
 10
2.178829
 20
6.454442
 30
0.000000
  0
SEQEND
  8
ROLL-SHUTTER
  0
POLYLINE
  8
ROLL-SHUTTER
 66
  1
 70
  0
 62
  0
 10
2.178816
 20
6.475231
 30
0.000000
  0
VERTEX
  8
ROLL-SHUTTER
 10
2.178816
 20
6.475231
 30
0.000000
  0
VERTEX
  8
ROLL-SHUTTER
 10
2.177864
 20
6.476182
 30
0.000000
  0
SEQEND
  8
ROLL-SHUTTER
  0
POLYLINE
  8
ROLL-SHUTTER
 66
  1
 70
  0
 62
  0
 10
2.177864
 20
6.476182
 30
0.000000
  0
VERTEX
  8
ROLL-SHUTTER
 10
2.177864
 20
6.476182
 30
0.000000
  0
VERTEX
  8
ROLL-SHUTTER
 10
2.177864
 20
6.826160
 30
0.000000
  0
SEQEND
  8
ROLL-SHUTTER
  0
CIRCLE
  8
ROLL-SHUTTER
 62
  0
 10
2.170696
 20
7.387650
 30
0.000000
 40
0.013666
  0
POLYLINE
  8
ROLL-SHUTTER
 66
  1
 70
  0
 62
  0
 10
2.183416
 20
7.339327
 30
0.000000
  0
VERTEX
  8
ROLL-SHUTTER
 10
2.183416
 20
7.339327
 30
0.000000
  0
VERTEX
  8
ROLL-SHUTTER
 10
2.186085
 20
7.351406
 30
0.000000
  0
VERTEX
  8
ROLL-SHUTTER
 10
2.182216
 20
7.361835
 30
0.000000
  0
VERTEX
  8
ROLL-SHUTTER
 10
2.172106
 20
7.366473
 30
0.000000
  0
VERTEX
  8
ROLL-SHUTTER
 10
2.161677
 20
7.362603
 30
0.000000
  0
VERTEX
  8
ROLL-SHUTTER
 10
2.157039
 20
7.352493
 30
0.000000
  0
VERTEX
  8
ROLL-SHUTTER
 10
2.160908
 20
7.342065
 30
0.000000
  0
VERTEX
  8
ROLL-SHUTTER
 10
2.168415
 20
7.336377
 30
0.000000
  0
SEQEND
  8
ROLL-SHUTTER
  0
POLYLINE
  8
ROLL-SHUTTER
 66
  1
 70
  0
 62
  0
 10
2.165918
 20
7.326855
 30
0.000000
  0
VERTEX
  8
ROLL-SHUTTER
 10
2.165918
 20
7.326855
 30
0.000000
  0
VERTEX
  8
ROLL-SHUTTER
 10
2.159846
 20
7.326856
 30
0.000000
  0
SEQEND
  8
ROLL-SHUTTER
  0
POLYLINE
  8
ROLL-SHUTTER
 66
  1
 70
  0
 62
  0
 10
2.168415
 20
7.336377
 30
0.000000
  0
VERTEX
  8
ROLL-SHUTTER
 10
2.168415
 20
7.336377
 30
0.000000
  0
VERTEX
  8
ROLL-SHUTTER
 10
2.168410
 20
7.329346
 30
0.000000
  0
SEQEND
  8
ROLL-SHUTTER
  0
POLYLINE
  8
ROLL-SHUTTER
 66
  1
 70
  0
 62
  0
 10
2.165918
 20
7.326855
 30
0.000000
  0
VERTEX
  8
ROLL-SHUTTER
 10
2.165918
 20
7.326855
 30
0.000000
  0
VERTEX
  8
ROLL-SHUTTER
 10
2.168410
 20
7.329345
 30
0.000000
  0
SEQEND
  8
ROLL-SHUTTER
  0
POLYLINE
  8
ROLL-SHUTTER
 66
  1
 70
  0
 62
  0
 10
2.195485
 20
7.387595
 30
0.000000
  0
VERTEX
  8
ROLL-SHUTTER
 10
2.195485
 20
7.387595
 30
0.000000
  0
VERTEX
  8
ROLL-SHUTTER
 10
2.200171
 20
7.340878
 30
0.000000
  0
SEQEND
  8
ROLL-SHUTTER
  0
POLYLINE
  8
ROLL-SHUTTER
 66
  1
 70
  0
 62
  0
 10
2.197510
 20
7.333416
 30
0.000000
  0
VERTEX
  8
ROLL-SHUTTER
 10
2.197510
 20
7.333416
 30
0.000000
  0
VERTEX
  8
ROLL-SHUTTER
 10
2.196590
 20
7.336639
 30
0.000000
  0
VERTEX
  8
ROLL-SHUTTER
 10
2.197402
 20
7.338058
 30
0.000000
  0
VERTEX
  8
ROLL-SHUTTER
 10
2.197952
 20
7.339598
 30
0.000000
  0
VERTEX
  8
ROLL-SHUTTER
 10
2.198221
 20
7.341211
 30
0.000000
  0
VERTEX
  8
ROLL-SHUTTER
 10
2.198203
 20
7.342845
 30
0.000000
  0
VERTEX
  8
ROLL-SHUTTER
 10
2.200171
 20
7.340877
 30
0.000000
  0
SEQEND
  8
ROLL-SHUTTER
  0
POLYLINE
  8
ROLL-SHUTTER
 66
  1
 70
  0
 62
  0
 10
2.183416
 20
7.339327
 30
0.000000
  0
VERTEX
  8
ROLL-SHUTTER
 10
2.183416
 20
7.339327
 30
0.000000
  0
VERTEX
  8
ROLL-SHUTTER
 10
2.187589
 20
7.328455
 30
0.000000
  0
SEQEND
  8
ROLL-SHUTTER
  0
POLYLINE
  8
ROLL-SHUTTER
 66
  1
 70
  0
 62
  0
 10
2.191677
 20
7.327585
 30
0.000000
  0
VERTEX
  8
ROLL-SHUTTER
 10
2.191677
 20
7.327585
 30
0.000000
  0
VERTEX
  8
ROLL-SHUTTER
 10
2.197510
 20
7.333418
 30
0.000000
  0
SEQEND
  8
ROLL-SHUTTER
  0
POLYLINE
  8
ROLL-SHUTTER
 66
  1
 70
  0
 62
  0
 10
2.187589
 20
7.328454
 30
0.000000
  0
VERTEX
  8
ROLL-SHUTTER
 10
2.187589
 20
7.328454
 30
0.000000
  0
VERTEX
  8
ROLL-SHUTTER
 10
2.191677
 20
7.327585
 30
0.000000
  0
SEQEND
  8
ROLL-SHUTTER
  0
POLYLINE
  8
ROLL-SHUTTER
 66
  1
 70
  0
 62
  0
 10
2.150333
 20
7.336369
 30
0.000000
  0
VERTEX
  8
ROLL-SHUTTER
 10
2.150333
 20
7.336369
 30
0.000000
  0
VERTEX
  8
ROLL-SHUTTER
 10
2.159846
 20
7.326856
 30
0.000000
  0
SEQEND
  8
ROLL-SHUTTER
  0
POLYLINE
  8
ROLL-SHUTTER
 66
  1
 70
  0
 62
  0
 10
2.150333
 20
7.336369
 30
0.000000
  0
VERTEX
  8
ROLL-SHUTTER
 10
2.150333
 20
7.336369
 30
0.000000
  0
VERTEX
  8
ROLL-SHUTTER
 10
2.146535
 20
7.363664
 30
0.000000
  0
SEQEND
  8
ROLL-SHUTTER
  0
POLYLINE
  8
ROLL-SHUTTER
 66
  1
 70
  0
 62
  0
 10
2.152382
 20
7.369511
 30
0.000000
  0
VERTEX
  8
ROLL-SHUTTER
 10
2.152382
 20
7.369511
 30
0.000000
  0
VERTEX
  8
ROLL-SHUTTER
 10
2.145722
 20
7.376170
 30
0.000000
  0
SEQEND
  8
ROLL-SHUTTER
  0
POLYLINE
  8
ROLL-SHUTTER
 66
  1
 70
  0
 62
  0
 10
2.152382
 20
7.369511
 30
0.000000
  0
VERTEX
  8
ROLL-SHUTTER
 10
2.152382
 20
7.369511
 30
0.000000
  0
VERTEX
  8
ROLL-SHUTTER
 10
2.146535
 20
7.363664
 30
0.000000
  0
SEQEND
  8
ROLL-SHUTTER
  0
POLYLINE
  8
ROLL-SHUTTER
 66
  1
 70
  0
 62
  0
 10
2.145722
 20
7.376170
 30
0.000000
  0
VERTEX
  8
ROLL-SHUTTER
 10
2.145722
 20
7.376170
 30
0.000000
  0
VERTEX
  8
ROLL-SHUTTER
 10
2.145722
 20
7.399020
 30
0.000000
  0
SEQEND
  8
ROLL-SHUTTER
  0
POLYLINE
  8
ROLL-SHUTTER
 66
  1
 70
  0
 62
  0
 10
2.168415
 20
7.438814
 30
0.000000
  0
VERTEX
  8
ROLL-SHUTTER
 10
2.168415
 20
7.438814
 30
0.000000
  0
VERTEX
  8
ROLL-SHUTTER
 10
2.158326
 20
7.433180
 30
0.000000
  0
VERTEX
  8
ROLL-SHUTTER
 10
2.157959
 20
7.422063
 30
0.000000
  0
VERTEX
  8
ROLL-SHUTTER
 10
2.165560
 20
7.413942
 30
0.000000
  0
VERTEX
  8
ROLL-SHUTTER
 10
2.176677
 20
7.413575
 30
0.000000
  0
VERTEX
  8
ROLL-SHUTTER
 10
2.184798
 20
7.421176
 30
0.000000
  0
VERTEX
  8
ROLL-SHUTTER
 10
2.185165
 20
7.432294
 30
0.000000
  0
VERTEX
  8
ROLL-SHUTTER
 10
2.183416
 20
7.435864
 30
0.000000
  0
SEQEND
  8
ROLL-SHUTTER
  0
POLYLINE
  8
ROLL-SHUTTER
 66
  1
 70
  0
 62
  0
 10
2.165918
 20
7.448335
 30
0.000000
  0
VERTEX
  8
ROLL-SHUTTER
 10
2.165918
 20
7.448335
 30
0.000000
  0
VERTEX
  8
ROLL-SHUTTER
 10
2.159846
 20
7.448335
 30
0.000000
  0
SEQEND
  8
ROLL-SHUTTER
  0
POLYLINE
  8
ROLL-SHUTTER
 66
  1
 70
  0
 62
  0
 10
2.168415
 20
7.438813
 30
0.000000
  0
VERTEX
  8
ROLL-SHUTTER
 10
2.168415
 20
7.438813
 30
0.000000
  0
VERTEX
  8
ROLL-SHUTTER
 10
2.168410
 20
7.445846
 30
0.000000
  0
SEQEND
  8
ROLL-SHUTTER
  0
POLYLINE
  8
ROLL-SHUTTER
 66
  1
 70
  0
 62
  0
 10
2.168410
 20
7.445845
 30
0.000000
  0
VERTEX
  8
ROLL-SHUTTER
 10
2.168410
 20
7.445845
 30
0.000000
  0
VERTEX
  8
ROLL-SHUTTER
 10
2.165918
 20
7.448335
 30
0.000000
  0
SEQEND
  8
ROLL-SHUTTER
  0
POLYLINE
  8
ROLL-SHUTTER
 66
  1
 70
  0
 62
  0
 10
2.195485
 20
7.387595
 30
0.000000
  0
VERTEX
  8
ROLL-SHUTTER
 10
2.195485
 20
7.387595
 30
0.000000
  0
VERTEX
  8
ROLL-SHUTTER
 10
2.200171
 20
7.434313
 30
0.000000
  0
SEQEND
  8
ROLL-SHUTTER
  0
POLYLINE
  8
ROLL-SHUTTER
 66
  1
 70
  0
 62
  0
 10
2.200171
 20
7.434313
 30
0.000000
  0
VERTEX
  8
ROLL-SHUTTER
 10
2.200171
 20
7.434313
 30
0.000000
  0
VERTEX
  8
ROLL-SHUTTER
 10
2.198221
 20
7.437916
 30
0.000000
  0
VERTEX
  8
ROLL-SHUTTER
 10
2.197952
 20
7.439529
 30
0.000000
  0
VERTEX
  8
ROLL-SHUTTER
 10
2.197402
 20
7.441069
 30
0.000000
  0
VERTEX
  8
ROLL-SHUTTER
 10
2.196590
 20
7.442488
 30
0.000000
  0
VERTEX
  8
ROLL-SHUTTER
 10
2.195541
 20
7.443742
 30
0.000000
  0
VERTEX
  8
ROLL-SHUTTER
 10
2.197510
 20
7.441773
 30
0.000000
  0
SEQEND
  8
ROLL-SHUTTER
  0
POLYLINE
  8
ROLL-SHUTTER
 66
  1
 70
  0
 62
  0
 10
2.183416
 20
7.435864
 30
0.000000
  0
VERTEX
  8
ROLL-SHUTTER
 10
2.183416
 20
7.435864
 30
0.000000
  0
VERTEX
  8
ROLL-SHUTTER
 10
2.187589
 20
7.446737
 30
0.000000
  0
SEQEND
  8
ROLL-SHUTTER
  0
POLYLINE
  8
ROLL-SHUTTER
 66
  1
 70
  0
 62
  0
 10
2.191677
 20
7.447606
 30
0.000000
  0
VERTEX
  8
ROLL-SHUTTER
 10
2.191677
 20
7.447606
 30
0.000000
  0
VERTEX
  8
ROLL-SHUTTER
 10
2.197510
 20
7.441773
 30
0.000000
  0
SEQEND
  8
ROLL-SHUTTER
  0
POLYLINE
  8
ROLL-SHUTTER
 66
  1
 70
  0
 62
  0
 10
2.191677
 20
7.447605
 30
0.000000
  0
VERTEX
  8
ROLL-SHUTTER
 10
2.191677
 20
7.447605
 30
0.000000
  0
VERTEX
  8
ROLL-SHUTTER
 10
2.187589
 20
7.446737
 30
0.000000
  0
SEQEND
  8
ROLL-SHUTTER
  0
POLYLINE
  8
ROLL-SHUTTER
 66
  1
 70
  0
 62
  0
 10
2.150333
 20
7.438822
 30
0.000000
  0
VERTEX
  8
ROLL-SHUTTER
 10
2.150333
 20
7.438822
 30
0.000000
  0
VERTEX
  8
ROLL-SHUTTER
 10
2.159846
 20
7.448335
 30
0.000000
  0
SEQEND
  8
ROLL-SHUTTER
  0
POLYLINE
  8
ROLL-SHUTTER
 66
  1
 70
  0
 62
  0
 10
2.150333
 20
7.438822
 30
0.000000
  0
VERTEX
  8
ROLL-SHUTTER
 10
2.150333
 20
7.438822
 30
0.000000
  0
VERTEX
  8
ROLL-SHUTTER
 10
2.146535
 20
7.411526
 30
0.000000
  0
SEQEND
  8
ROLL-SHUTTER
  0
POLYLINE
  8
ROLL-SHUTTER
 66
  1
 70
  0
 62
  0
 10
2.152382
 20
7.405679
 30
0.000000
  0
VERTEX
  8
ROLL-SHUTTER
 10
2.152382
 20
7.405679
 30
0.000000
  0
VERTEX
  8
ROLL-SHUTTER
 10
2.145722
 20
7.399020
 30
0.000000
  0
SEQEND
  8
ROLL-SHUTTER
  0
POLYLINE
  8
ROLL-SHUTTER
 66
  1
 70
  0
 62
  0
 10
2.152382
 20
7.405679
 30
0.000000
  0
VERTEX
  8
ROLL-SHUTTER
 10
2.152382
 20
7.405679
 30
0.000000
  0
VERTEX
  8
ROLL-SHUTTER
 10
2.146535
 20
7.411526
 30
0.000000
  0
SEQEND
  8
ROLL-SHUTTER
  0
POLYLINE
  8
ROLL-SHUTTER
 66
  1
 70
  0
 62
  0
 10
2.371528
 20
6.836806
 30
0.000000
  0
VERTEX
  8
ROLL-SHUTTER
 10
2.371528
 20
6.836806
 30
0.000000
  0
VERTEX
  8
ROLL-SHUTTER
 10
2.371528
 20
6.465279
 30
0.000000
  0
SEQEND
  8
ROLL-SHUTTER
  0
LINE
  8
ROLL-SHUTTER
 62
  0
 10
2.400991
 20
6.807344
 30
0.000000
 11
2.342066
 21
6.866269
 31
0.000000
  0
LINE
  8
ROLL-SHUTTER
 62
  0
 10
2.400991
 20
6.435816
 30
0.000000
 11
2.342066
 21
6.494741
 31
0.000000
  0
POLYLINE
  8
ROLL-SHUTTER
 66
  1
 70
  0
 62
  0
 10
2.371528
 20
6.465279
 30
0.000000
  0
VERTEX
  8
ROLL-SHUTTER
 10
2.371528
 20
6.465279
 30
0.000000
  0
VERTEX
  8
ROLL-SHUTTER
 10
2.371528
 20
6.118057
 30
0.000000
  0
SEQEND
  8
ROLL-SHUTTER
  0
POLYLINE
  8
ROLL-SHUTTER
 66
  1
 70
  0
 62
  0
 10
2.447917
 20
6.836806
 30
0.000000
  0
VERTEX
  8
ROLL-SHUTTER
 10
2.447917
 20
6.836806
 30
0.000000
  0
VERTEX
  8
ROLL-SHUTTER
 10
2.260417
 20
6.836806
 30
0.000000
  0
SEQEND
  8
ROLL-SHUTTER
  0
POLYLINE
  8
ROLL-SHUTTER
 66
  1
 70
  0
 62
  0
 10
2.447917
 20
6.465279
 30
0.000000
  0
VERTEX
  8
ROLL-SHUTTER
 10
2.447917
 20
6.465279
 30
0.000000
  0
VERTEX
  8
ROLL-SHUTTER
 10
2.260417
 20
6.465279
 30
0.000000
  0
SEQEND
  8
ROLL-SHUTTER
  0
POLYLINE
  8
ROLL-SHUTTER
 66
  1
 70
  1
 62
  0
  0
VERTEX
  8
ROLL-SHUTTER
 10
0.968775
 20
5.240448
 30
0.000000
  0
VERTEX
  8
ROLL-SHUTTER
 10
6.572917
 20
5.240448
 30
0.000000
  0
VERTEX
  8
ROLL-SHUTTER
 10
6.572917
 20
0.513891
 30
0.000000
  0
VERTEX
  8
ROLL-SHUTTER
 10
0.968775
 20
0.513891
 30
0.000000
  0
SEQEND
  8
ROLL-SHUTTER
  0
POLYLINE
  8
ROLL-SHUTTER
 66
  1
 70
  1
 62
  0
  0
VERTEX
  8
ROLL-SHUTTER
 10
0.986542
 20
0.683784
 30
0.000000
  0
VERTEX
  8
ROLL-SHUTTER
 10
6.571757
 20
0.683784
 30
0.000000
  0
VERTEX
  8
ROLL-SHUTTER
 10
6.571757
 20
0.634356
 30
0.000000
  0
VERTEX
  8
ROLL-SHUTTER
 10
0.986542
 20
0.634356
 30
0.000000
  0
SEQEND
  8
ROLL-SHUTTER
  0
POLYLINE
  8
ROLL-SHUTTER
 66
  1
 70
  0
 62
 15
 10
0.986111
 20
0.659724
 30
0.000000
  0
VERTEX
  8
ROLL-SHUTTER
 10
0.986111
 20
0.659724
 30
0.000000
  0
VERTEX
  8
ROLL-SHUTTER
 10
6.571181
 20
0.659724
 30
0.000000
  0
SEQEND
  8
ROLL-SHUTTER
  0
POLYLINE
  8
ROLL-SHUTTER
 66
  1
 70
  1
 62
  0
  0
VERTEX
  8
ROLL-SHUTTER
 10
0.998683
 20
0.513481
 30
0.000000
  0
VERTEX
  8
ROLL-SHUTTER
 10
6.558483
 20
0.513481
 30
0.000000
  0
VERTEX
  8
ROLL-SHUTTER
 10
6.558483
 20
0.277780
 30
0.000000
  0
VERTEX
  8
ROLL-SHUTTER
 10
0.998683
 20
0.277780
 30
0.000000
  0
SEQEND
  8
ROLL-SHUTTER
  0
POLYLINE
  8
ROLL-SHUTTER
 66
  1
 70
  0
 62
  0
 10
0.999618
 20
0.343427
 30
0.000000
  0
VERTEX
  8
ROLL-SHUTTER
 10
0.999618
 20
0.343427
 30
0.000000
  0
VERTEX
  8
ROLL-SHUTTER
 10
6.558929
 20
0.343427
 30
0.000000
  0
SEQEND
  8
ROLL-SHUTTER
  0
POLYLINE
  8
ROLL-SHUTTER
 66
  1
 70
  0
 62
  0
 10
0.999618
 20
0.322125
 30
0.000000
  0
VERTEX
  8
ROLL-SHUTTER
 10
0.999618
 20
0.322125
 30
0.000000
  0
VERTEX
  8
ROLL-SHUTTER
 10
6.558929
 20
0.322125
 30
0.000000
  0
SEQEND
  8
ROLL-SHUTTER
  0
POLYLINE
  8
ROLL-SHUTTER
 66
  1
 70
  0
 62
  0
 10
0.998683
 20
0.498138
 30
0.000000
  0
VERTEX
  8
ROLL-SHUTTER
 10
0.998683
 20
0.498138
 30
0.000000
  0
VERTEX
  8
ROLL-SHUTTER
 10
6.557738
 20
0.498138
 30
0.000000
  0
SEQEND
  8
ROLL-SHUTTER
  0
TEXT
  8
ROLL-SHUTTER
 62
  7
 10
2.013889
 20
8.861112
 30
0.000000
 40
0.187500
  1
Elevation model Roll-Shutter
 72
  5
 11
5.500000
 21
8.861112
 31
0.000000
  0
POLYLINE
  8
ROLL-SHUTTER
 66
  1
 70
  0
 62
  0
 10
3.665080
 20
0.406318
 30
0.000000
  0
VERTEX
  8
ROLL-SHUTTER
 10
3.665080
 20
0.406318
 30
0.000000
  0
VERTEX
  8
ROLL-SHUTTER
 10
3.657874
 20
0.423473
 30
0.000000
  0
VERTEX
  8
ROLL-SHUTTER
 10
3.637353
 20
0.438016
 30
0.000000
  0
VERTEX
  8
ROLL-SHUTTER
 10
3.606642
 20
0.447735
 30
0.000000
  0
VERTEX
  8
ROLL-SHUTTER
 10
3.570415
 20
0.451147
 30
0.000000
  0
VERTEX
  8
ROLL-SHUTTER
 10
3.534188
 20
0.447735
 30
0.000000
  0
VERTEX
  8
ROLL-SHUTTER
 10
3.503476
 20
0.438016
 30
0.000000
  0
VERTEX
  8
ROLL-SHUTTER
 10
3.482955
 20
0.423473
 30
0.000000
  0
VERTEX
  8
ROLL-SHUTTER
 10
3.475749
 20
0.406318
 30
0.000000
  0
VERTEX
  8
ROLL-SHUTTER
 10
3.482955
 20
0.389163
 30
0.000000
  0
VERTEX
  8
ROLL-SHUTTER
 10
3.503476
 20
0.374619
 30
0.000000
  0
VERTEX
  8
ROLL-SHUTTER
 10
3.534188
 20
0.364900
 30
0.000000
  0
VERTEX
  8
ROLL-SHUTTER
 10
3.570415
 20
0.361488
 30
0.000000
  0
VERTEX
  8
ROLL-SHUTTER
 10
3.606642
 20
0.364900
 30
0.000000
  0
VERTEX
  8
ROLL-SHUTTER
 10
3.637353
 20
0.374619
 30
0.000000
  0
VERTEX
  8
ROLL-SHUTTER
 10
3.657874
 20
0.389163
 30
0.000000
  0
VERTEX
  8
ROLL-SHUTTER
 10
3.665080
 20
0.406318
 30
0.000000
  0
SEQEND
  8
ROLL-SHUTTER
  0
POLYLINE
  8
ROLL-SHUTTER
 66
  1
 70
  0
 62
  0
 10
3.352217
 20
0.394355
 30
0.000000
  0
VERTEX
  8
ROLL-SHUTTER
 10
3.352217
 20
0.394355
 30
0.000000
  0
VERTEX
  8
ROLL-SHUTTER
 10
3.572611
 20
0.381594
 30
0.000000
  0
SEQEND
  8
ROLL-SHUTTER
  0
POLYLINE
  8
ROLL-SHUTTER
 66
  1
 70
  0
 62
  0
 10
3.352195
 20
0.414345
 30
0.000000
  0
VERTEX
  8
ROLL-SHUTTER
 10
3.352195
 20
0.414345
 30
0.000000
  0
VERTEX
  8
ROLL-SHUTTER
 10
3.340821
 20
0.405729
 30
0.000000
  0
VERTEX
  8
ROLL-SHUTTER
 10
3.352215
 20
0.394352
 30
0.000000
  0
SEQEND
  8
ROLL-SHUTTER
  0
POLYLINE
  8
ROLL-SHUTTER
 66
  1
 70
  0
 62
  0
 10
3.352193
 20
0.414346
 30
0.000000
  0
VERTEX
  8
ROLL-SHUTTER
 10
3.352193
 20
0.414346
 30
0.000000
  0
VERTEX
  8
ROLL-SHUTTER
 10
3.572383
 20
0.427104
 30
0.000000
  0
SEQEND
  8
ROLL-SHUTTER
  0
POLYLINE
  8
ROLL-SHUTTER
 66
  1
 70
  0
 62
  0
 10
3.572611
 20
0.381594
 30
0.000000
  0
VERTEX
  8
ROLL-SHUTTER
 10
3.572611
 20
0.381594
 30
0.000000
  0
VERTEX
  8
ROLL-SHUTTER
 10
3.586666
 20
0.390388
 30
0.000000
  0
VERTEX
  8
ROLL-SHUTTER
 10
3.593170
 20
0.406545
 30
0.000000
  0
VERTEX
  8
ROLL-SHUTTER
 10
3.586344
 20
0.422568
 30
0.000000
  0
VERTEX
  8
ROLL-SHUTTER
 10
3.572383
 20
0.427105
 30
0.000000
  0
SEQEND
  8
ROLL-SHUTTER
  0
POLYLINE
  8
ROLL-SHUTTER
 66
  1
 70
  1
 62
  0
  0
VERTEX
  8
ROLL-SHUTTER
 10
3.761987
 20
0.426019
 30
0.000000
  0
VERTEX
  8
ROLL-SHUTTER
 10
3.807703
 20
0.426019
 30
0.000000
  0
VERTEX
  8
ROLL-SHUTTER
 10
3.807703
 20
0.413826
 30
0.000000
  0
VERTEX
  8
ROLL-SHUTTER
 10
3.761987
 20
0.413826
 30
0.000000
  0
SEQEND
  8
ROLL-SHUTTER
  0
POLYLINE
  8
ROLL-SHUTTER
 66
  1
 70
  0
 62
  0
 40
0.027778
 41
0.027778
 10
0.027778
 20
0.277783
 30
0.000000
  0
VERTEX
  8
ROLL-SHUTTER
 10
0.027778
 20
0.277783
 30
0.000000
  0
VERTEX
  8
ROLL-SHUTTER
 10
7.527778
 20
0.277783
 30
0.000000
  0
SEQEND
  8
ROLL-SHUTTER
  0
CIRCLE
  8
ROLL-SHUTTER
 62
  0
 10
3.776728
 20
0.420806
 30
0.000000
 40
0.064283
  0
CIRCLE
  8
ROLL-SHUTTER
 62
  7
 10
3.776487
 20
0.420806
 30
0.000000
 40
0.047124
  0
CIRCLE
  8
ROLL-SHUTTER
 62
  0
 10
3.776487
 20
0.420806
 30
0.000000
 40
0.042287
  0
CIRCLE
  8
ROLL-SHUTTER
 62
  0
 10
3.759691
 20
0.420806
 30
0.000000
 40
0.018794
  0
CIRCLE
  8
ROLL-SHUTTER
 62
  0
 10
3.751656
 20
0.420806
 30
0.000000
 40
0.008035
  0
TEXT
  8
ROLL-SHUTTER
 62
  0
 10
3.777778
 20
0.444445
 30
0.000000
 40
0.010417
  1
MobilFlex
 50
270.000000
 72
  5
 11
3.777778
 21
0.291668
 31
0.000000
  0
POLYLINE
  8
ROLL-SHUTTER
 66
  1
 70
  1
 62
  0
 10
3.741445
 20
0.424432
 30
0.000000
  0
VERTEX
  8
ROLL-SHUTTER
 10
3.741445
 20
0.424432
 30
0.000000
  0
VERTEX
  8
ROLL-SHUTTER
 10
3.750146
 20
0.424432
 30
0.000000
  0
VERTEX
  8
ROLL-SHUTTER
 10
3.750146
 20
0.421048
 30
0.000000
  0
VERTEX
  8
ROLL-SHUTTER
 10
3.753529
 20
0.421048
 30
0.000000
  0
VERTEX
  8
ROLL-SHUTTER
 10
3.757154
 20
0.424672
 30
0.000000
  0
VERTEX
  8
ROLL-SHUTTER
 10
3.759570
 20
0.424672
 30
0.000000
  0
VERTEX
  8
ROLL-SHUTTER
 10
3.766821
 20
0.422256
 30
0.000000
  0
VERTEX
  8
ROLL-SHUTTER
 10
3.766821
 20
0.419115
 30
0.000000
  0
VERTEX
  8
ROLL-SHUTTER
 10
3.761503
 20
0.419840
 30
0.000000
  0
VERTEX
  8
ROLL-SHUTTER
 10
3.759570
 20
0.419597
 30
0.000000
  0
VERTEX
  8
ROLL-SHUTTER
 10
3.759570
 20
0.418148
 30
0.000000
  0
VERTEX
  8
ROLL-SHUTTER
 10
3.747246
 20
0.418148
 30
0.000000
  0
VERTEX
  8
ROLL-SHUTTER
 10
3.746037
 20
0.420806
 30
0.000000
  0
VERTEX
  8
ROLL-SHUTTER
 10
3.743621
 20
0.420806
 30
0.000000
  0
VERTEX
  8
ROLL-SHUTTER
 10
3.743137
 20
0.418148
 30
0.000000
  0
VERTEX
  8
ROLL-SHUTTER
 10
3.741445
 20
0.418148
 30
0.000000
  0
SEQEND
  8
ROLL-SHUTTER
  0
TEXT
  8
ROLL-SHUTTER
 62
  0
 10
5.819444
 20
5.347223
 30
0.000000
 40
0.125000
  1
Guide
 72
  5
 11
6.347222
 21
5.347223
 31
0.000000
  0
TEXT
  8
ROLL-SHUTTER
 62
  0
 10
5.819444
 20
0.083334
 30
0.000000
 40
0.125000
  1
Bottom bar
 72
  5
 11
6.722222
 21
0.083334
 31
0.000000
  0
POLYLINE
  8
ROLL-SHUTTER
 66
  1
 70
  0
 62
  0
 10
3.138889
 20
0.163197
 30
0.000000
  0
VERTEX
  8
ROLL-SHUTTER
 10
3.138889
 20
0.163197
 30
0.000000
  0
VERTEX
  8
ROLL-SHUTTER
 10
3.524462
 20
0.352163
 30
0.000000
  0
SEQEND
  8
ROLL-SHUTTER
  0
POLYLINE
  8
ROLL-SHUTTER
 66
  1
 70
  1
 62
  0
  0
VERTEX
  8
ROLL-SHUTTER
 10
3.542138
 20
0.360825
 30
0.000000
  0
VERTEX
  8
ROLL-SHUTTER
 10
3.498117
 20
0.292849
 30
0.000000
  0
VERTEX
  8
ROLL-SHUTTER
 10
3.479780
 20
0.330264
 30
0.000000
  0
VERTEX
  8
ROLL-SHUTTER
 10
3.461443
 20
0.367678
 30
0.000000
  0
VERTEX
  8
ROLL-SHUTTER
 10
3.542138
 20
0.360825
 30
0.000000
  0
SEQEND
  8
ROLL-SHUTTER
  0
POLYLINE
  8
ROLL-SHUTTER
 66
  1
 70
  0
 62
  0
 10
5.788666
 20
0.149595
 30
0.000000
  0
VERTEX
  8
ROLL-SHUTTER
 10
5.788666
 20
0.149595
 30
0.000000
  0
VERTEX
  8
ROLL-SHUTTER
 10
5.548871
 20
0.269006
 30
0.000000
  0
SEQEND
  8
ROLL-SHUTTER
  0
POLYLINE
  8
ROLL-SHUTTER
 66
  1
 70
  1
 62
  0
  0
VERTEX
  8
ROLL-SHUTTER
 10
5.531250
 20
0.277780
 30
0.000000
  0
VERTEX
  8
ROLL-SHUTTER
 10
5.611986
 20
0.284124
 30
0.000000
  0
VERTEX
  8
ROLL-SHUTTER
 10
5.593413
 20
0.246825
 30
0.000000
  0
VERTEX
  8
ROLL-SHUTTER
 10
5.574840
 20
0.209527
 30
0.000000
  0
VERTEX
  8
ROLL-SHUTTER
 10
5.531250
 20
0.277780
 30
0.000000
  0
SEQEND
  8
ROLL-SHUTTER
  0
POLYLINE
  8
ROLL-SHUTTER
 66
  1
 70
  1
 62
  0
  0
VERTEX
  8
ROLL-SHUTTER
 10
0.985675
 20
0.852535
 30
0.000000
  0
VERTEX
  8
ROLL-SHUTTER
 10
6.570889
 20
0.852535
 30
0.000000
  0
VERTEX
  8
ROLL-SHUTTER
 10
6.570889
 20
0.803107
 30
0.000000
  0
VERTEX
  8
ROLL-SHUTTER
 10
0.985675
 20
0.803107
 30
0.000000
  0
SEQEND
  8
ROLL-SHUTTER
  0
POLYLINE
  8
ROLL-SHUTTER
 66
  1
 70
  0
 62
 15
 10
0.985243
 20
0.828474
 30
0.000000
  0
VERTEX
  8
ROLL-SHUTTER
 10
0.985243
 20
0.828474
 30
0.000000
  0
VERTEX
  8
ROLL-SHUTTER
 10
6.570311
 20
0.828474
 30
0.000000
  0
SEQEND
  8
ROLL-SHUTTER
  0
POLYLINE
  8
ROLL-SHUTTER
 66
  1
 70
  1
 62
  0
  0
VERTEX
  8
ROLL-SHUTTER
 10
0.985675
 20
1.021284
 30
0.000000
  0
VERTEX
  8
ROLL-SHUTTER
 10
6.570889
 20
1.021284
 30
0.000000
  0
VERTEX
  8
ROLL-SHUTTER
 10
6.570889
 20
0.971857
 30
0.000000
  0
VERTEX
  8
ROLL-SHUTTER
 10
0.985675
 20
0.971857
 30
0.000000
  0
SEQEND
  8
ROLL-SHUTTER
  0
POLYLINE
  8
ROLL-SHUTTER
 66
  1
 70
  0
 62
 15
 10
0.985243
 20
0.997225
 30
0.000000
  0
VERTEX
  8
ROLL-SHUTTER
 10
0.985243
 20
0.997225
 30
0.000000
  0
VERTEX
  8
ROLL-SHUTTER
 10
6.570311
 20
0.997225
 30
0.000000
  0
SEQEND
  8
ROLL-SHUTTER
  0
POLYLINE
  8
ROLL-SHUTTER
 66
  1
 70
  1
 62
  0
  0
VERTEX
  8
ROLL-SHUTTER
 10
0.985675
 20
1.190035
 30
0.000000
  0
VERTEX
  8
ROLL-SHUTTER
 10
6.570889
 20
1.190035
 30
0.000000
  0
VERTEX
  8
ROLL-SHUTTER
 10
6.570889
 20
1.140607
 30
0.000000
  0
VERTEX
  8
ROLL-SHUTTER
 10
0.985675
 20
1.140607
 30
0.000000
  0
SEQEND
  8
ROLL-SHUTTER
  0
POLYLINE
  8
ROLL-SHUTTER
 66
  1
 70
  0
 62
 15
 10
0.985243
 20
1.165975
 30
0.000000
  0
VERTEX
  8
ROLL-SHUTTER
 10
0.985243
 20
1.165975
 30
0.000000
  0
VERTEX
  8
ROLL-SHUTTER
 10
6.570311
 20
1.165975
 30
0.000000
  0
SEQEND
  8
ROLL-SHUTTER
  0
POLYLINE
  8
ROLL-SHUTTER
 66
  1
 70
  1
 62
  0
  0
VERTEX
  8
ROLL-SHUTTER
 10
0.985675
 20
1.358785
 30
0.000000
  0
VERTEX
  8
ROLL-SHUTTER
 10
6.570889
 20
1.358785
 30
0.000000
  0
VERTEX
  8
ROLL-SHUTTER
 10
6.570889
 20
1.309358
 30
0.000000
  0
VERTEX
  8
ROLL-SHUTTER
 10
0.985675
 20
1.309358
 30
0.000000
  0
SEQEND
  8
ROLL-SHUTTER
  0
POLYLINE
  8
ROLL-SHUTTER
 66
  1
 70
  0
 62
 15
 10
0.985243
 20
1.334724
 30
0.000000
  0
VERTEX
  8
ROLL-SHUTTER
 10
0.985243
 20
1.334724
 30
0.000000
  0
VERTEX
  8
ROLL-SHUTTER
 10
6.570311
 20
1.334724
 30
0.000000
  0
SEQEND
  8
ROLL-SHUTTER
  0
POLYLINE
  8
ROLL-SHUTTER
 66
  1
 70
  1
 62
  0
  0
VERTEX
  8
ROLL-SHUTTER
 10
0.985675
 20
1.527535
 30
0.000000
  0
VERTEX
  8
ROLL-SHUTTER
 10
6.570889
 20
1.527535
 30
0.000000
  0
VERTEX
  8
ROLL-SHUTTER
 10
6.570889
 20
1.478107
 30
0.000000
  0
VERTEX
  8
ROLL-SHUTTER
 10
0.985675
 20
1.478107
 30
0.000000
  0
SEQEND
  8
ROLL-SHUTTER
  0
POLYLINE
  8
ROLL-SHUTTER
 66
  1
 70
  0
 62
 15
 10
0.985243
 20
1.503475
 30
0.000000
  0
VERTEX
  8
ROLL-SHUTTER
 10
0.985243
 20
1.503475
 30
0.000000
  0
VERTEX
  8
ROLL-SHUTTER
 10
6.570311
 20
1.503475
 30
0.000000
  0
SEQEND
  8
ROLL-SHUTTER
  0
POLYLINE
  8
ROLL-SHUTTER
 66
  1
 70
  1
 62
  0
  0
VERTEX
  8
ROLL-SHUTTER
 10
0.985675
 20
1.696286
 30
0.000000
  0
VERTEX
  8
ROLL-SHUTTER
 10
6.570889
 20
1.696286
 30
0.000000
  0
VERTEX
  8
ROLL-SHUTTER
 10
6.570889
 20
1.646857
 30
0.000000
  0
VERTEX
  8
ROLL-SHUTTER
 10
0.985675
 20
1.646857
 30
0.000000
  0
SEQEND
  8
ROLL-SHUTTER
  0
POLYLINE
  8
ROLL-SHUTTER
 66
  1
 70
  0
 62
 15
 10
0.985243
 20
1.672225
 30
0.000000
  0
VERTEX
  8
ROLL-SHUTTER
 10
0.985243
 20
1.672225
 30
0.000000
  0
VERTEX
  8
ROLL-SHUTTER
 10
6.570311
 20
1.672225
 30
0.000000
  0
SEQEND
  8
ROLL-SHUTTER
  0
POLYLINE
  8
ROLL-SHUTTER
 66
  1
 70
  1
 62
  0
  0
VERTEX
  8
ROLL-SHUTTER
 10
0.985675
 20
1.865036
 30
0.000000
  0
VERTEX
  8
ROLL-SHUTTER
 10
6.570889
 20
1.865036
 30
0.000000
  0
VERTEX
  8
ROLL-SHUTTER
 10
6.570889
 20
1.815608
 30
0.000000
  0
VERTEX
  8
ROLL-SHUTTER
 10
0.985675
 20
1.815608
 30
0.000000
  0
SEQEND
  8
ROLL-SHUTTER
  0
POLYLINE
  8
ROLL-SHUTTER
 66
  1
 70
  0
 62
 15
 10
0.985243
 20
1.840975
 30
0.000000
  0
VERTEX
  8
ROLL-SHUTTER
 10
0.985243
 20
1.840975
 30
0.000000
  0
VERTEX
  8
ROLL-SHUTTER
 10
6.570311
 20
1.840975
 30
0.000000
  0
SEQEND
  8
ROLL-SHUTTER
  0
POLYLINE
  8
ROLL-SHUTTER
 66
  1
 70
  1
 62
  0
  0
VERTEX
  8
ROLL-SHUTTER
 10
0.985675
 20
2.033786
 30
0.000000
  0
VERTEX
  8
ROLL-SHUTTER
 10
6.570889
 20
2.033786
 30
0.000000
  0
VERTEX
  8
ROLL-SHUTTER
 10
6.570889
 20
1.984358
 30
0.000000
  0
VERTEX
  8
ROLL-SHUTTER
 10
0.985675
 20
1.984358
 30
0.000000
  0
SEQEND
  8
ROLL-SHUTTER
  0
POLYLINE
  8
ROLL-SHUTTER
 66
  1
 70
  0
 62
 15
 10
0.985243
 20
2.009726
 30
0.000000
  0
VERTEX
  8
ROLL-SHUTTER
 10
0.985243
 20
2.009726
 30
0.000000
  0
VERTEX
  8
ROLL-SHUTTER
 10
6.570311
 20
2.009726
 30
0.000000
  0
SEQEND
  8
ROLL-SHUTTER
  0
POLYLINE
  8
ROLL-SHUTTER
 66
  1
 70
  1
 62
  0
  0
VERTEX
  8
ROLL-SHUTTER
 10
0.985675
 20
2.202536
 30
0.000000
  0
VERTEX
  8
ROLL-SHUTTER
 10
6.570889
 20
2.202536
 30
0.000000
  0
VERTEX
  8
ROLL-SHUTTER
 10
6.570889
 20
2.153108
 30
0.000000
  0
VERTEX
  8
ROLL-SHUTTER
 10
0.985675
 20
2.153108
 30
0.000000
  0
SEQEND
  8
ROLL-SHUTTER
  0
POLYLINE
  8
ROLL-SHUTTER
 66
  1
 70
  0
 62
 15
 10
0.985243
 20
2.178476
 30
0.000000
  0
VERTEX
  8
ROLL-SHUTTER
 10
0.985243
 20
2.178476
 30
0.000000
  0
VERTEX
  8
ROLL-SHUTTER
 10
6.570311
 20
2.178476
 30
0.000000
  0
SEQEND
  8
ROLL-SHUTTER
  0
POLYLINE
  8
ROLL-SHUTTER
 66
  1
 70
  1
 62
  0
  0
VERTEX
  8
ROLL-SHUTTER
 10
0.985675
 20
2.371286
 30
0.000000
  0
VERTEX
  8
ROLL-SHUTTER
 10
6.570889
 20
2.371286
 30
0.000000
  0
VERTEX
  8
ROLL-SHUTTER
 10
6.570889
 20
2.321859
 30
0.000000
  0
VERTEX
  8
ROLL-SHUTTER
 10
0.985675
 20
2.321859
 30
0.000000
  0
SEQEND
  8
ROLL-SHUTTER
  0
POLYLINE
  8
ROLL-SHUTTER
 66
  1
 70
  0
 62
 15
 10
0.985243
 20
2.347226
 30
0.000000
  0
VERTEX
  8
ROLL-SHUTTER
 10
0.985243
 20
2.347226
 30
0.000000
  0
VERTEX
  8
ROLL-SHUTTER
 10
6.570311
 20
2.347226
 30
0.000000
  0
SEQEND
  8
ROLL-SHUTTER
  0
POLYLINE
  8
ROLL-SHUTTER
 66
  1
 70
  1
 62
  0
  0
VERTEX
  8
ROLL-SHUTTER
 10
0.985675
 20
2.540037
 30
0.000000
  0
VERTEX
  8
ROLL-SHUTTER
 10
6.570889
 20
2.540037
 30
0.000000
  0
VERTEX
  8
ROLL-SHUTTER
 10
6.570889
 20
2.490608
 30
0.000000
  0
VERTEX
  8
ROLL-SHUTTER
 10
0.985675
 20
2.490608
 30
0.000000
  0
SEQEND
  8
ROLL-SHUTTER
  0
POLYLINE
  8
ROLL-SHUTTER
 66
  1
 70
  0
 62
 15
 10
0.985243
 20
2.515976
 30
0.000000
  0
VERTEX
  8
ROLL-SHUTTER
 10
0.985243
 20
2.515976
 30
0.000000
  0
VERTEX
  8
ROLL-SHUTTER
 10
6.570311
 20
2.515976
 30
0.000000
  0
SEQEND
  8
ROLL-SHUTTER
  0
POLYLINE
  8
ROLL-SHUTTER
 66
  1
 70
  1
 62
  0
  0
VERTEX
  8
ROLL-SHUTTER
 10
0.985675
 20
2.708787
 30
0.000000
  0
VERTEX
  8
ROLL-SHUTTER
 10
6.570889
 20
2.708787
 30
0.000000
  0
VERTEX
  8
ROLL-SHUTTER
 10
6.570889
 20
2.659359
 30
0.000000
  0
VERTEX
  8
ROLL-SHUTTER
 10
0.985675
 20
2.659359
 30
0.000000
  0
SEQEND
  8
ROLL-SHUTTER
  0
POLYLINE
  8
ROLL-SHUTTER
 66
  1
 70
  0
 62
 15
 10
0.985243
 20
2.684726
 30
0.000000
  0
VERTEX
  8
ROLL-SHUTTER
 10
0.985243
 20
2.684726
 30
0.000000
  0
VERTEX
  8
ROLL-SHUTTER
 10
6.570311
 20
2.684726
 30
0.000000
  0
SEQEND
  8
ROLL-SHUTTER
  0
POLYLINE
  8
ROLL-SHUTTER
 66
  1
 70
  1
 62
  0
  0
VERTEX
  8
ROLL-SHUTTER
 10
0.985675
 20
2.877537
 30
0.000000
  0
VERTEX
  8
ROLL-SHUTTER
 10
6.570889
 20
2.877537
 30
0.000000
  0
VERTEX
  8
ROLL-SHUTTER
 10
6.570889
 20
2.828109
 30
0.000000
  0
VERTEX
  8
ROLL-SHUTTER
 10
0.985675
 20
2.828109
 30
0.000000
  0
SEQEND
  8
ROLL-SHUTTER
  0
POLYLINE
  8
ROLL-SHUTTER
 66
  1
 70
  0
 62
 15
 10
0.985243
 20
2.853477
 30
0.000000
  0
VERTEX
  8
ROLL-SHUTTER
 10
0.985243
 20
2.853477
 30
0.000000
  0
VERTEX
  8
ROLL-SHUTTER
 10
6.570311
 20
2.853477
 30
0.000000
  0
SEQEND
  8
ROLL-SHUTTER
  0
POLYLINE
  8
ROLL-SHUTTER
 66
  1
 70
  1
 62
  0
  0
VERTEX
  8
ROLL-SHUTTER
 10
0.985675
 20
3.046288
 30
0.000000
  0
VERTEX
  8
ROLL-SHUTTER
 10
6.570889
 20
3.046288
 30
0.000000
  0
VERTEX
  8
ROLL-SHUTTER
 10
6.570889
 20
2.996859
 30
0.000000
  0
VERTEX
  8
ROLL-SHUTTER
 10
0.985675
 20
2.996859
 30
0.000000
  0
SEQEND
  8
ROLL-SHUTTER
  0
POLYLINE
  8
ROLL-SHUTTER
 66
  1
 70
  0
 62
 15
 10
0.985243
 20
3.022227
 30
0.000000
  0
VERTEX
  8
ROLL-SHUTTER
 10
0.985243
 20
3.022227
 30
0.000000
  0
VERTEX
  8
ROLL-SHUTTER
 10
6.570311
 20
3.022227
 30
0.000000
  0
SEQEND
  8
ROLL-SHUTTER
  0
POLYLINE
  8
ROLL-SHUTTER
 66
  1
 70
  1
 62
  0
  0
VERTEX
  8
ROLL-SHUTTER
 10
0.985675
 20
3.215037
 30
0.000000
  0
VERTEX
  8
ROLL-SHUTTER
 10
6.570889
 20
3.215037
 30
0.000000
  0
VERTEX
  8
ROLL-SHUTTER
 10
6.570889
 20
3.165610
 30
0.000000
  0
VERTEX
  8
ROLL-SHUTTER
 10
0.985675
 20
3.165610
 30
0.000000
  0
SEQEND
  8
ROLL-SHUTTER
  0
POLYLINE
  8
ROLL-SHUTTER
 66
  1
 70
  0
 62
 15
 10
0.985243
 20
3.190977
 30
0.000000
  0
VERTEX
  8
ROLL-SHUTTER
 10
0.985243
 20
3.190977
 30
0.000000
  0
VERTEX
  8
ROLL-SHUTTER
 10
6.570311
 20
3.190977
 30
0.000000
  0
SEQEND
  8
ROLL-SHUTTER
  0
POLYLINE
  8
ROLL-SHUTTER
 66
  1
 70
  1
 62
  0
  0
VERTEX
  8
ROLL-SHUTTER
 10
0.985675
 20
3.383787
 30
0.000000
  0
VERTEX
  8
ROLL-SHUTTER
 10
6.570889
 20
3.383787
 30
0.000000
  0
VERTEX
  8
ROLL-SHUTTER
 10
6.570889
 20
3.334359
 30
0.000000
  0
VERTEX
  8
ROLL-SHUTTER
 10
0.985675
 20
3.334359
 30
0.000000
  0
SEQEND
  8
ROLL-SHUTTER
  0
POLYLINE
  8
ROLL-SHUTTER
 66
  1
 70
  0
 62
 15
 10
0.985243
 20
3.359727
 30
0.000000
  0
VERTEX
  8
ROLL-SHUTTER
 10
0.985243
 20
3.359727
 30
0.000000
  0
VERTEX
  8
ROLL-SHUTTER
 10
6.570311
 20
3.359727
 30
0.000000
  0
SEQEND
  8
ROLL-SHUTTER
  0
POLYLINE
  8
ROLL-SHUTTER
 66
  1
 70
  1
 62
  0
  0
VERTEX
  8
ROLL-SHUTTER
 10
0.985675
 20
3.552538
 30
0.000000
  0
VERTEX
  8
ROLL-SHUTTER
 10
6.570889
 20
3.552538
 30
0.000000
  0
VERTEX
  8
ROLL-SHUTTER
 10
6.570889
 20
3.503110
 30
0.000000
  0
VERTEX
  8
ROLL-SHUTTER
 10
0.985675
 20
3.503110
 30
0.000000
  0
SEQEND
  8
ROLL-SHUTTER
  0
POLYLINE
  8
ROLL-SHUTTER
 66
  1
 70
  0
 62
 15
 10
0.985243
 20
3.528478
 30
0.000000
  0
VERTEX
  8
ROLL-SHUTTER
 10
0.985243
 20
3.528478
 30
0.000000
  0
VERTEX
  8
ROLL-SHUTTER
 10
6.570311
 20
3.528478
 30
0.000000
  0
SEQEND
  8
ROLL-SHUTTER
  0
POLYLINE
  8
ROLL-SHUTTER
 66
  1
 70
  1
 62
  0
  0
VERTEX
  8
ROLL-SHUTTER
 10
0.985675
 20
3.721288
 30
0.000000
  0
VERTEX
  8
ROLL-SHUTTER
 10
6.570889
 20
3.721288
 30
0.000000
  0
VERTEX
  8
ROLL-SHUTTER
 10
6.570889
 20
3.671860
 30
0.000000
  0
VERTEX
  8
ROLL-SHUTTER
 10
0.985675
 20
3.671860
 30
0.000000
  0
SEQEND
  8
ROLL-SHUTTER
  0
POLYLINE
  8
ROLL-SHUTTER
 66
  1
 70
  0
 62
 15
 10
0.985243
 20
3.697227
 30
0.000000
  0
VERTEX
  8
ROLL-SHUTTER
 10
0.985243
 20
3.697227
 30
0.000000
  0
VERTEX
  8
ROLL-SHUTTER
 10
6.570311
 20
3.697227
 30
0.000000
  0
SEQEND
  8
ROLL-SHUTTER
  0
POLYLINE
  8
ROLL-SHUTTER
 66
  1
 70
  1
 62
  0
  0
VERTEX
  8
ROLL-SHUTTER
 10
0.985675
 20
3.890038
 30
0.000000
  0
VERTEX
  8
ROLL-SHUTTER
 10
6.570889
 20
3.890038
 30
0.000000
  0
VERTEX
  8
ROLL-SHUTTER
 10
6.570889
 20
3.840610
 30
0.000000
  0
VERTEX
  8
ROLL-SHUTTER
 10
0.985675
 20
3.840610
 30
0.000000
  0
SEQEND
  8
ROLL-SHUTTER
  0
POLYLINE
  8
ROLL-SHUTTER
 66
  1
 70
  0
 62
 15
 10
0.985243
 20
3.865978
 30
0.000000
  0
VERTEX
  8
ROLL-SHUTTER
 10
0.985243
 20
3.865978
 30
0.000000
  0
VERTEX
  8
ROLL-SHUTTER
 10
6.570311
 20
3.865978
 30
0.000000
  0
SEQEND
  8
ROLL-SHUTTER
  0
POLYLINE
  8
ROLL-SHUTTER
 66
  1
 70
  1
 62
  0
  0
VERTEX
  8
ROLL-SHUTTER
 10
0.985675
 20
4.058788
 30
0.000000
  0
VERTEX
  8
ROLL-SHUTTER
 10
6.570889
 20
4.058788
 30
0.000000
  0
VERTEX
  8
ROLL-SHUTTER
 10
6.570889
 20
4.009360
 30
0.000000
  0
VERTEX
  8
ROLL-SHUTTER
 10
0.985675
 20
4.009360
 30
0.000000
  0
SEQEND
  8
ROLL-SHUTTER
  0
POLYLINE
  8
ROLL-SHUTTER
 66
  1
 70
  0
 62
 15
 10
0.985243
 20
4.034728
 30
0.000000
  0
VERTEX
  8
ROLL-SHUTTER
 10
0.985243
 20
4.034728
 30
0.000000
  0
VERTEX
  8
ROLL-SHUTTER
 10
6.570311
 20
4.034728
 30
0.000000
  0
SEQEND
  8
ROLL-SHUTTER
  0
POLYLINE
  8
ROLL-SHUTTER
 66
  1
 70
  1
 62
  0
  0
VERTEX
  8
ROLL-SHUTTER
 10
0.985675
 20
4.227539
 30
0.000000
  0
VERTEX
  8
ROLL-SHUTTER
 10
6.570889
 20
4.227539
 30
0.000000
  0
VERTEX
  8
ROLL-SHUTTER
 10
6.570889
 20
4.178111
 30
0.000000
  0
VERTEX
  8
ROLL-SHUTTER
 10
0.985675
 20
4.178111
 30
0.000000
  0
SEQEND
  8
ROLL-SHUTTER
  0
POLYLINE
  8
ROLL-SHUTTER
 66
  1
 70
  0
 62
 15
 10
0.985243
 20
4.203478
 30
0.000000
  0
VERTEX
  8
ROLL-SHUTTER
 10
0.985243
 20
4.203478
 30
0.000000
  0
VERTEX
  8
ROLL-SHUTTER
 10
6.570311
 20
4.203478
 30
0.000000
  0
SEQEND
  8
ROLL-SHUTTER
  0
POLYLINE
  8
ROLL-SHUTTER
 66
  1
 70
  1
 62
  0
  0
VERTEX
  8
ROLL-SHUTTER
 10
0.985675
 20
4.396289
 30
0.000000
  0
VERTEX
  8
ROLL-SHUTTER
 10
6.570889
 20
4.396289
 30
0.000000
  0
VERTEX
  8
ROLL-SHUTTER
 10
6.570889
 20
4.346861
 30
0.000000
  0
VERTEX
  8
ROLL-SHUTTER
 10
0.985675
 20
4.346861
 30
0.000000
  0
SEQEND
  8
ROLL-SHUTTER
  0
POLYLINE
  8
ROLL-SHUTTER
 66
  1
 70
  0
 62
 15
 10
0.985243
 20
4.372228
 30
0.000000
  0
VERTEX
  8
ROLL-SHUTTER
 10
0.985243
 20
4.372228
 30
0.000000
  0
VERTEX
  8
ROLL-SHUTTER
 10
6.570311
 20
4.372228
 30
0.000000
  0
SEQEND
  8
ROLL-SHUTTER
  0
POLYLINE
  8
ROLL-SHUTTER
 66
  1
 70
  1
 62
  0
  0
VERTEX
  8
ROLL-SHUTTER
 10
0.985675
 20
4.565039
 30
0.000000
  0
VERTEX
  8
ROLL-SHUTTER
 10
6.570889
 20
4.565039
 30
0.000000
  0
VERTEX
  8
ROLL-SHUTTER
 10
6.570889
 20
4.515611
 30
0.000000
  0
VERTEX
  8
ROLL-SHUTTER
 10
0.985675
 20
4.515611
 30
0.000000
  0
SEQEND
  8
ROLL-SHUTTER
  0
POLYLINE
  8
ROLL-SHUTTER
 66
  1
 70
  0
 62
 15
 10
0.985243
 20
4.540979
 30
0.000000
  0
VERTEX
  8
ROLL-SHUTTER
 10
0.985243
 20
4.540979
 30
0.000000
  0
VERTEX
  8
ROLL-SHUTTER
 10
6.570311
 20
4.540979
 30
0.000000
  0
SEQEND
  8
ROLL-SHUTTER
  0
POLYLINE
  8
ROLL-SHUTTER
 66
  1
 70
  1
 62
  0
  0
VERTEX
  8
ROLL-SHUTTER
 10
0.985675
 20
4.733789
 30
0.000000
  0
VERTEX
  8
ROLL-SHUTTER
 10
6.570889
 20
4.733789
 30
0.000000
  0
VERTEX
  8
ROLL-SHUTTER
 10
6.570889
 20
4.684361
 30
0.000000
  0
VERTEX
  8
ROLL-SHUTTER
 10
0.985675
 20
4.684361
 30
0.000000
  0
SEQEND
  8
ROLL-SHUTTER
  0
POLYLINE
  8
ROLL-SHUTTER
 66
  1
 70
  0
 62
 15
 10
0.985243
 20
4.709729
 30
0.000000
  0
VERTEX
  8
ROLL-SHUTTER
 10
0.985243
 20
4.709729
 30
0.000000
  0
VERTEX
  8
ROLL-SHUTTER
 10
6.570311
 20
4.709729
 30
0.000000
  0
SEQEND
  8
ROLL-SHUTTER
  0
POLYLINE
  8
ROLL-SHUTTER
 66
  1
 70
  1
 62
  0
  0
VERTEX
  8
ROLL-SHUTTER
 10
0.985675
 20
4.902539
 30
0.000000
  0
VERTEX
  8
ROLL-SHUTTER
 10
6.570889
 20
4.902539
 30
0.000000
  0
VERTEX
  8
ROLL-SHUTTER
 10
6.570889
 20
4.853111
 30
0.000000
  0
VERTEX
  8
ROLL-SHUTTER
 10
0.985675
 20
4.853111
 30
0.000000
  0
SEQEND
  8
ROLL-SHUTTER
  0
POLYLINE
  8
ROLL-SHUTTER
 66
  1
 70
  0
 62
 15
 10
0.985243
 20
4.878479
 30
0.000000
  0
VERTEX
  8
ROLL-SHUTTER
 10
0.985243
 20
4.878479
 30
0.000000
  0
VERTEX
  8
ROLL-SHUTTER
 10
6.570311
 20
4.878479
 30
0.000000
  0
SEQEND
  8
ROLL-SHUTTER
  0
POLYLINE
  8
ROLL-SHUTTER
 66
  1
 70
  1
 62
  0
  0
VERTEX
  8
ROLL-SHUTTER
 10
0.985675
 20
5.071289
 30
0.000000
  0
VERTEX
  8
ROLL-SHUTTER
 10
6.570889
 20
5.071289
 30
0.000000
  0
VERTEX
  8
ROLL-SHUTTER
 10
6.570889
 20
5.021862
 30
0.000000
  0
VERTEX
  8
ROLL-SHUTTER
 10
0.985675
 20
5.021862
 30
0.000000
  0
SEQEND
  8
ROLL-SHUTTER
  0
POLYLINE
  8
ROLL-SHUTTER
 66
  1
 70
  0
 62
 15
 10
0.985243
 20
5.047229
 30
0.000000
  0
VERTEX
  8
ROLL-SHUTTER
 10
0.985243
 20
5.047229
 30
0.000000
  0
VERTEX
  8
ROLL-SHUTTER
 10
6.570311
 20
5.047229
 30
0.000000
  0
SEQEND
  8
ROLL-SHUTTER
  0
POLYLINE
  8
ROLL-SHUTTER
 66
  1
 70
  1
 62
  0
  0
VERTEX
  8
ROLL-SHUTTER
 10
0.985675
 20
5.240040
 30
0.000000
  0
VERTEX
  8
ROLL-SHUTTER
 10
6.570889
 20
5.240040
 30
0.000000
  0
VERTEX
  8
ROLL-SHUTTER
 10
6.570889
 20
5.190612
 30
0.000000
  0
VERTEX
  8
ROLL-SHUTTER
 10
0.985675
 20
5.190612
 30
0.000000
  0
SEQEND
  8
ROLL-SHUTTER
  0
POLYLINE
  8
ROLL-SHUTTER
 66
  1
 70
  0
 62
 15
 10
0.985243
 20
5.215979
 30
0.000000
  0
VERTEX
  8
ROLL-SHUTTER
 10
0.985243
 20
5.215979
 30
0.000000
  0
VERTEX
  8
ROLL-SHUTTER
 10
6.570311
 20
5.215979
 30
0.000000
  0
SEQEND
  8
ROLL-SHUTTER
  0
POLYLINE
  8
ROLL-SHUTTER
 66
  1
 70
  1
 62
  0
  0
VERTEX
  8
ROLL-SHUTTER
 10
0.823815
 20
5.240448
 30
0.000000
  0
VERTEX
  8
ROLL-SHUTTER
 10
0.985699
 20
5.240448
 30
0.000000
  0
VERTEX
  8
ROLL-SHUTTER
 10
0.985699
 20
0.279687
 30
0.000000
  0
VERTEX
  8
ROLL-SHUTTER
 10
0.823815
 20
0.279687
 30
0.000000
  0
SEQEND
  8
ROLL-SHUTTER
  0
POLYLINE
  8
ROLL-SHUTTER
 66
  1
 70
  1
 62
  0
  0
VERTEX
  8
ROLL-SHUTTER
 10
6.569915
 20
5.239872
 30
0.000000
  0
VERTEX
  8
ROLL-SHUTTER
 10
6.731799
 20
5.239872
 30
0.000000
  0
VERTEX
  8
ROLL-SHUTTER
 10
6.731799
 20
0.279018
 30
0.000000
  0
VERTEX
  8
ROLL-SHUTTER
 10
6.569915
 20
0.279018
 30
0.000000
  0
SEQEND
  8
ROLL-SHUTTER
  0
POLYLINE
  8
ROLL-SHUTTER
 66
  1
 70
  0
 62
  0
 10
6.315972
 20
5.401044
 30
0.000000
  0
VERTEX
  8
ROLL-SHUTTER
 10
6.315972
 20
5.401044
 30
0.000000
  0
VERTEX
  8
ROLL-SHUTTER
 10
6.553295
 20
5.250421
 30
0.000000
  0
SEQEND
  8
ROLL-SHUTTER
  0
POLYLINE
  8
ROLL-SHUTTER
 66
  1
 70
  1
 62
  0
  0
VERTEX
  8
ROLL-SHUTTER
 10
6.569915
 20
5.239872
 30
0.000000
  0
VERTEX
  8
ROLL-SHUTTER
 10
6.488956
 20
5.241906
 30
0.000000
  0
VERTEX
  8
ROLL-SHUTTER
 10
6.511283
 20
5.277085
 30
0.000000
  0
VERTEX
  8
ROLL-SHUTTER
 10
6.533610
 20
5.312265
 30
0.000000
  0
VERTEX
  8
ROLL-SHUTTER
 10
6.569915
 20
5.239872
 30
0.000000
  0
SEQEND
  8
ROLL-SHUTTER
  0
POLYLINE
  8
ROLL-SHUTTER
 66
  1
 70
  0
 62
  0
 10
2.905814
 20
0.456608
 30
0.000000
  0
VERTEX
  8
ROLL-SHUTTER
 10
2.905814
 20
0.456608
 30
0.000000
  0
VERTEX
  8
ROLL-SHUTTER
 10
2.905814
 20
0.366743
 30
0.000000
  0
SEQEND
  8
ROLL-SHUTTER
  0
POLYLINE
  8
ROLL-SHUTTER
 66
  1
 70
  0
 62
  0
 10
2.923372
 20
0.474165
 30
0.000000
  0
VERTEX
  8
ROLL-SHUTTER
 10
2.923372
 20
0.474165
 30
0.000000
  0
VERTEX
  8
ROLL-SHUTTER
 10
2.952270
 20
0.474165
 30
0.000000
  0
SEQEND
  8
ROLL-SHUTTER
  0
POLYLINE
  8
ROLL-SHUTTER
 66
  1
 70
  0
 62
  0
 10
2.969828
 20
0.456608
 30
0.000000
  0
VERTEX
  8
ROLL-SHUTTER
 10
2.969828
 20
0.456608
 30
0.000000
  0
VERTEX
  8
ROLL-SHUTTER
 10
2.962717
 20
0.470993
 30
0.000000
  0
VERTEX
  8
ROLL-SHUTTER
 10
2.952270
 20
0.474167
 30
0.000000
  0
SEQEND
  8
ROLL-SHUTTER
  0
POLYLINE
  8
ROLL-SHUTTER
 66
  1
 70
  0
 62
  0
 10
2.923372
 20
0.474167
 30
0.000000
  0
VERTEX
  8
ROLL-SHUTTER
 10
2.923372
 20
0.474167
 30
0.000000
  0
VERTEX
  8
ROLL-SHUTTER
 10
2.908988
 20
0.470993
 30
0.000000
  0
VERTEX
  8
ROLL-SHUTTER
 10
2.905814
 20
0.456608
 30
0.000000
  0
SEQEND
  8
ROLL-SHUTTER
  0
POLYLINE
  8
ROLL-SHUTTER
 66
  1
 70
  0
 62
  0
 10
2.969828
 20
0.433013
 30
0.000000
  0
VERTEX
  8
ROLL-SHUTTER
 10
2.969828
 20
0.433013
 30
0.000000
  0
VERTEX
  8
ROLL-SHUTTER
 10
2.969828
 20
0.456608
 30
0.000000
  0
SEQEND
  8
ROLL-SHUTTER
  0
POLYLINE
  8
ROLL-SHUTTER
 66
  1
 70
  0
 62
  0
 10
2.923372
 20
0.349188
 30
0.000000
  0
VERTEX
  8
ROLL-SHUTTER
 10
2.923372
 20
0.349188
 30
0.000000
  0
VERTEX
  8
ROLL-SHUTTER
 10
2.952270
 20
0.349188
 30
0.000000
  0
SEQEND
  8
ROLL-SHUTTER
  0
POLYLINE
  8
ROLL-SHUTTER
 66
  1
 70
  0
 62
  0
 10
2.905814
 20
0.366743
 30
0.000000
  0
VERTEX
  8
ROLL-SHUTTER
 10
2.905814
 20
0.366743
 30
0.000000
  0
VERTEX
  8
ROLL-SHUTTER
 10
2.908988
 20
0.356297
 30
0.000000
  0
VERTEX
  8
ROLL-SHUTTER
 10
2.923372
 20
0.349186
 30
0.000000
  0
SEQEND
  8
ROLL-SHUTTER
  0
POLYLINE
  8
ROLL-SHUTTER
 66
  1
 70
  0
 62
  0
 10
2.969828
 20
0.399117
 30
0.000000
  0
VERTEX
  8
ROLL-SHUTTER
 10
2.969828
 20
0.399117
 30
0.000000
  0
VERTEX
  8
ROLL-SHUTTER
 10
2.969828
 20
0.366743
 30
0.000000
  0
SEQEND
  8
ROLL-SHUTTER
  0
POLYLINE
  8
ROLL-SHUTTER
 66
  1
 70
  0
 62
  0
 10
2.952270
 20
0.349186
 30
0.000000
  0
VERTEX
  8
ROLL-SHUTTER
 10
2.952270
 20
0.349186
 30
0.000000
  0
VERTEX
  8
ROLL-SHUTTER
 10
2.962717
 20
0.356297
 30
0.000000
  0
VERTEX
  8
ROLL-SHUTTER
 10
2.969828
 20
0.366743
 30
0.000000
  0
SEQEND
  8
ROLL-SHUTTER
  0
POLYLINE
  8
ROLL-SHUTTER
 66
  1
 70
  0
 62
  0
 10
3.332575
 20
0.456608
 30
0.000000
  0
VERTEX
  8
ROLL-SHUTTER
 10
3.332575
 20
0.456608
 30
0.000000
  0
VERTEX
  8
ROLL-SHUTTER
 10
3.332575
 20
0.366743
 30
0.000000
  0
SEQEND
  8
ROLL-SHUTTER
  0
POLYLINE
  8
ROLL-SHUTTER
 66
  1
 70
  0
 62
  0
 10
3.332577
 20
0.456608
 30
0.000000
  0
VERTEX
  8
ROLL-SHUTTER
 10
3.332577
 20
0.456608
 30
0.000000
  0
VERTEX
  8
ROLL-SHUTTER
 10
3.325465
 20
0.470993
 30
0.000000
  0
VERTEX
  8
ROLL-SHUTTER
 10
3.315019
 20
0.474167
 30
0.000000
  0
SEQEND
  8
ROLL-SHUTTER
  0
POLYLINE
  8
ROLL-SHUTTER
 66
  1
 70
  0
 62
  0
 10
3.286121
 20
0.474165
 30
0.000000
  0
VERTEX
  8
ROLL-SHUTTER
 10
3.286121
 20
0.474165
 30
0.000000
  0
VERTEX
  8
ROLL-SHUTTER
 10
3.315019
 20
0.474165
 30
0.000000
  0
SEQEND
  8
ROLL-SHUTTER
  0
POLYLINE
  8
ROLL-SHUTTER
 66
  1
 70
  0
 62
  0
 10
3.286121
 20
0.474167
 30
0.000000
  0
VERTEX
  8
ROLL-SHUTTER
 10
3.286121
 20
0.474167
 30
0.000000
  0
VERTEX
  8
ROLL-SHUTTER
 10
3.271736
 20
0.470993
 30
0.000000
  0
VERTEX
  8
ROLL-SHUTTER
 10
3.268562
 20
0.456608
 30
0.000000
  0
SEQEND
  8
ROLL-SHUTTER
  0
POLYLINE
  8
ROLL-SHUTTER
 66
  1
 70
  0
 62
  0
 10
3.268562
 20
0.433013
 30
0.000000
  0
VERTEX
  8
ROLL-SHUTTER
 10
3.268562
 20
0.433013
 30
0.000000
  0
VERTEX
  8
ROLL-SHUTTER
 10
3.268562
 20
0.456608
 30
0.000000
  0
SEQEND
  8
ROLL-SHUTTER
  0
POLYLINE
  8
ROLL-SHUTTER
 66
  1
 70
  0
 62
  0
 10
3.315019
 20
0.349188
 30
0.000000
  0
VERTEX
  8
ROLL-SHUTTER
 10
3.315019
 20
0.349188
 30
0.000000
  0
VERTEX
  8
ROLL-SHUTTER
 10
3.286121
 20
0.349188
 30
0.000000
  0
SEQEND
  8
ROLL-SHUTTER
  0
POLYLINE
  8
ROLL-SHUTTER
 66
  1
 70
  0
 62
  0
 10
3.315019
 20
0.349186
 30
0.000000
  0
VERTEX
  8
ROLL-SHUTTER
 10
3.315019
 20
0.349186
 30
0.000000
  0
VERTEX
  8
ROLL-SHUTTER
 10
3.325465
 20
0.356297
 30
0.000000
  0
VERTEX
  8
ROLL-SHUTTER
 10
3.332577
 20
0.366743
 30
0.000000
  0
SEQEND
  8
ROLL-SHUTTER
  0
POLYLINE
  8
ROLL-SHUTTER
 66
  1
 70
  0
 62
  0
 10
3.268562
 20
0.399117
 30
0.000000
  0
VERTEX
  8
ROLL-SHUTTER
 10
3.268562
 20
0.399117
 30
0.000000
  0
VERTEX
  8
ROLL-SHUTTER
 10
3.268562
 20
0.366743
 30
0.000000
  0
SEQEND
  8
ROLL-SHUTTER
  0
POLYLINE
  8
ROLL-SHUTTER
 66
  1
 70
  0
 62
  0
 10
3.268562
 20
0.366743
 30
0.000000
  0
VERTEX
  8
ROLL-SHUTTER
 10
3.268562
 20
0.366743
 30
0.000000
  0
VERTEX
  8
ROLL-SHUTTER
 10
3.271736
 20
0.356297
 30
0.000000
  0
VERTEX
  8
ROLL-SHUTTER
 10
3.286121
 20
0.349186
 30
0.000000
  0
SEQEND
  8
ROLL-SHUTTER
  0
POLYLINE
  8
ROLL-SHUTTER
 66
  1
 70
  0
 62
  0
 10
3.268562
 20
0.433016
 30
0.000000
  0
VERTEX
  8
ROLL-SHUTTER
 10
3.268562
 20
0.433016
 30
0.000000
  0
VERTEX
  8
ROLL-SHUTTER
 10
3.176800
 20
0.445249
 30
0.000000
  0
VERTEX
  8
ROLL-SHUTTER
 10
3.086433
 20
0.446663
 30
0.000000
  0
VERTEX
  8
ROLL-SHUTTER
 10
2.996363
 20
0.439212
 30
0.000000
  0
VERTEX
  8
ROLL-SHUTTER
 10
2.969828
 20
0.433016
 30
0.000000
  0
SEQEND
  8
ROLL-SHUTTER
  0
CIRCLE
  8
ROLL-SHUTTER
 62
  0
 10
2.937059
 20
0.440636
 30
0.000000
 40
0.005334
  0
CIRCLE
  8
ROLL-SHUTTER
 62
  0
 10
2.937059
 20
0.378144
 30
0.000000
 40
0.005334
  0
CIRCLE
  8
ROLL-SHUTTER
 62
  0
 10
3.299045
 20
0.440636
 30
0.000000
 40
0.004572
  0
CIRCLE
  8
ROLL-SHUTTER
 62
  0
 10
3.299045
 20
0.378144
 30
0.000000
 40
0.004572
  0
POLYLINE
  8
ROLL-SHUTTER
 66
  1
 70
  0
 62
  0
 10
2.969829
 20
0.399117
 30
0.000000
  0
VERTEX
  8
ROLL-SHUTTER
 10
2.969829
 20
0.399117
 30
0.000000
  0
VERTEX
  8
ROLL-SHUTTER
 10
3.057653
 20
0.390820
 30
0.000000
  0
VERTEX
  8
ROLL-SHUTTER
 10
3.148020
 20
0.389407
 30
0.000000
  0
VERTEX
  8
ROLL-SHUTTER
 10
3.238091
 20
0.396857
 30
0.000000
  0
VERTEX
  8
ROLL-SHUTTER
 10
3.268562
 20
0.399117
 30
0.000000
  0
SEQEND
  8
ROLL-SHUTTER
  0
POLYLINE
  8
ROLL-SHUTTER
 66
  1
 70
  1
 62
  0
  0
VERTEX
  8
ROLL-SHUTTER
 10
3.887860
 20
0.486763
 30
0.000000
  0
VERTEX
  8
ROLL-SHUTTER
 10
4.293329
 20
0.486763
 30
0.000000
  0
VERTEX
  8
ROLL-SHUTTER
 10
4.293329
 20
0.360200
 30
0.000000
  0
VERTEX
  8
ROLL-SHUTTER
 10
3.887860
 20
0.360200
 30
0.000000
  0
SEQEND
  8
ROLL-SHUTTER
  0
POLYLINE
  8
ROLL-SHUTTER
 66
  1
 70
  1
 62
  0
  0
VERTEX
  8
ROLL-SHUTTER
 10
3.900750
 20
0.467896
 30
0.000000
  0
VERTEX
  8
ROLL-SHUTTER
 10
3.916337
 20
0.467896
 30
0.000000
  0
VERTEX
  8
ROLL-SHUTTER
 10
3.916337
 20
0.434029
 30
0.000000
  0
VERTEX
  8
ROLL-SHUTTER
 10
3.900750
 20
0.434029
 30
0.000000
  0
SEQEND
  8
ROLL-SHUTTER
  0
POLYLINE
  8
ROLL-SHUTTER
 66
  1
 70
  1
 62
  0
  0
VERTEX
  8
ROLL-SHUTTER
 10
3.921610
 20
0.467896
 30
0.000000
  0
VERTEX
  8
ROLL-SHUTTER
 10
3.936962
 20
0.467896
 30
0.000000
  0
VERTEX
  8
ROLL-SHUTTER
 10
3.936962
 20
0.434029
 30
0.000000
  0
VERTEX
  8
ROLL-SHUTTER
 10
3.921610
 20
0.434029
 30
0.000000
  0
SEQEND
  8
ROLL-SHUTTER
  0
POLYLINE
  8
ROLL-SHUTTER
 66
  1
 70
  1
 62
  0
  0
VERTEX
  8
ROLL-SHUTTER
 10
3.941415
 20
0.467896
 30
0.000000
  0
VERTEX
  8
ROLL-SHUTTER
 10
3.956766
 20
0.467896
 30
0.000000
  0
VERTEX
  8
ROLL-SHUTTER
 10
3.956766
 20
0.434029
 30
0.000000
  0
VERTEX
  8
ROLL-SHUTTER
 10
3.941415
 20
0.434029
 30
0.000000
  0
SEQEND
  8
ROLL-SHUTTER
  0
POLYLINE
  8
ROLL-SHUTTER
 66
  1
 70
  1
 62
  0
  0
VERTEX
  8
ROLL-SHUTTER
 10
3.961806
 20
0.467896
 30
0.000000
  0
VERTEX
  8
ROLL-SHUTTER
 10
3.977157
 20
0.467896
 30
0.000000
  0
VERTEX
  8
ROLL-SHUTTER
 10
3.977157
 20
0.434029
 30
0.000000
  0
VERTEX
  8
ROLL-SHUTTER
 10
3.961806
 20
0.434029
 30
0.000000
  0
SEQEND
  8
ROLL-SHUTTER
  0
POLYLINE
  8
ROLL-SHUTTER
 66
  1
 70
  1
 62
  0
  0
VERTEX
  8
ROLL-SHUTTER
 10
3.982664
 20
0.458638
 30
0.000000
  0
VERTEX
  8
ROLL-SHUTTER
 10
3.982664
 20
0.467427
 30
0.000000
  0
VERTEX
  8
ROLL-SHUTTER
 10
4.007626
 20
0.467427
 30
0.000000
  0
VERTEX
  8
ROLL-SHUTTER
 10
4.007626
 20
0.458638
 30
0.000000
  0
SEQEND
  8
ROLL-SHUTTER
  0
POLYLINE
  8
ROLL-SHUTTER
 66
  1
 70
  1
 62
  0
  0
VERTEX
  8
ROLL-SHUTTER
 10
3.982665
 20
0.443754
 30
0.000000
  0
VERTEX
  8
ROLL-SHUTTER
 10
3.982665
 20
0.452543
 30
0.000000
  0
VERTEX
  8
ROLL-SHUTTER
 10
4.003056
 20
0.452543
 30
0.000000
  0
VERTEX
  8
ROLL-SHUTTER
 10
4.003056
 20
0.443754
 30
0.000000
  0
SEQEND
  8
ROLL-SHUTTER
  0
POLYLINE
  8
ROLL-SHUTTER
 66
  1
 70
  0
 62
  0
 10
3.900750
 20
0.423481
 30
0.000000
  0
VERTEX
  8
ROLL-SHUTTER
 10
3.900750
 20
0.423481
 30
0.000000
  0
VERTEX
  8
ROLL-SHUTTER
 10
4.287998
 20
0.423364
 30
0.000000
  0
SEQEND
  8
ROLL-SHUTTER
  0
TEXT
  8
ROLL-SHUTTER
 62
  0
 10
4.083333
 20
0.444445
 30
0.000000
 40
0.020833
  1
mobilflex.com
 72
  5
 11
4.361111
 21
0.444445
 31
0.000000
  0
TEXT
  8
ROLL-SHUTTER
 62
  0
 10
3.902778
 20
0.375001
 30
0.000000
 40
0.041667
  1
MobilFlex
 72
  5
 11
4.194444
 21
0.375001
 31
0.000000
  0
TEXT
  8
ROLL-SHUTTER
 62
  0
 10
2.569444
 20
0.083334
 30
0.000000
 40
0.125000
  1
Handle
 72
  5
 11
3.194444
 21
0.083334
 31
0.000000
  0
TEXT
  8
ROLL-SHUTTER
 62
  0
 10
3.972222
 20
0.083334
 30
0.000000
 40
0.125000
  1
Cylinder lock
 72
  5
 11
5.013889
 21
0.083334
 31
0.000000
  0
POLYLINE
  8
ROLL-SHUTTER
 66
  1
 70
  0
 62
  0
 10
3.946181
 20
0.142362
 30
0.000000
  0
VERTEX
  8
ROLL-SHUTTER
 10
3.946181
 20
0.142362
 30
0.000000
  0
VERTEX
  8
ROLL-SHUTTER
 10
3.791686
 20
0.338698
 30
0.000000
  0
SEQEND
  8
ROLL-SHUTTER
  0
POLYLINE
  8
ROLL-SHUTTER
 66
  1
 70
  1
 62
  0
  0
VERTEX
  8
ROLL-SHUTTER
 10
3.779513
 20
0.354168
 30
0.000000
  0
VERTEX
  8
ROLL-SHUTTER
 10
3.855202
 20
0.325360
 30
0.000000
  0
VERTEX
  8
ROLL-SHUTTER
 10
3.822458
 20
0.299594
 30
0.000000
  0
VERTEX
  8
ROLL-SHUTTER
 10
3.789713
 20
0.273827
 30
0.000000
  0
VERTEX
  8
ROLL-SHUTTER
 10
3.779513
 20
0.354168
 30
0.000000
  0
SEQEND
  8
ROLL-SHUTTER
  0
TEXT
  8
ROLL-SHUTTER
 62
  0
 10
1.833333
 20
8.527779
 30
0.000000
 40
0.125000
  1
OPAQUE, SOLID ROLLING SHUTTER
 72
  5
 11
4.791667
 21
8.527779
 31
0.000000
  0
ENDSEC
  0
EOF
