  0
SECTION
  2
HEADER
999
MacDraft 5.0\0
  9
$ACADVER
  1
AC1006
  9
$CLAYER
  8
MERGEDLAYER-2
  9
$EXTMIN
 10
0.000000
 20
0.000000
  9
$EXTMAX
 10
55.626034
 20
51.727277
  9
$FASTZOOM
 70
0
  9
$FILLMODE
 70
1
  0
ENDSEC
  0
SECTION
  2
TABLES
  0
TABLE
  2
LTYPE
 70
16
  0
LTYPE
  2
CONTINUOUS
 70
64
  3
Solid Line
 72
65
 73
0
 40
0.000000
  0
LTYPE
  2
LTYPE01
 70
64
  3
CUSTOM
 72
65
 73
2
 40
0.072727
 49
0.054545
 49
-0.018182
  0
LTYPE
  2
LTYPE02
 70
64
  3
CUSTOM
 72
65
 73
2
 40
0.127273
 49
0.109091
 49
-0.018182
  0
LTYPE
  2
LTYPE03
 70
64
  3
CUSTOM
 72
65
 73
2
 40
0.245455
 49
0.218182
 49
-0.027273
  0
LTYPE
  2
LTYPE04
 70
64
  3
CUSTOM
 72
65
 73
2
 40
0.472727
 49
0.436364
 49
-0.036364
  0
LTYPE
  2
LTYPE05
 70
64
  3
CUSTOM
 72
65
 73
4
 40
0.100000
 49
0.054545
 49
-0.018182
 49
0.009091
 49
-0.018182
  0
LTYPE
  2
LTYPE06
 70
64
  3
CUSTOM
 72
65
 73
4
 40
0.154545
 49
0.109091
 49
-0.018182
 49
0.009091
 49
-0.018182
  0
LTYPE
  2
LTYPE07
 70
64
  3
CUSTOM
 72
65
 73
4
 40
0.290909
 49
0.218182
 49
-0.027273
 49
0.018182
 49
-0.027273
  0
LTYPE
  2
LTYPE08
 70
64
  3
CUSTOM
 72
65
 73
4
 40
0.527273
 49
0.436364
 49
-0.036364
 49
0.018182
 49
-0.036364
  0
LTYPE
  2
LTYPE09
 70
64
  3
CUSTOM
 72
65
 73
6
 40
0.127273
 49
0.054545
 49
-0.018182
 49
0.009091
 49
-0.018182
 49
0.009091
 49
-0.018182
  0
LTYPE
  2
LTYPE10
 70
64
  3
CUSTOM
 72
65
 73
6
 40
0.181818
 49
0.109091
 49
-0.018182
 49
0.009091
 49
-0.018182
 49
0.009091
 49
-0.018182
  0
LTYPE
  2
LTYPE11
 70
64
  3
CUSTOM
 72
65
 73
6
 40
0.327273
 49
0.218182
 49
-0.027273
 49
0.018182
 49
-0.018182
 49
0.018182
 49
-0.027273
  0
LTYPE
  2
LTYPE12
 70
64
  3
CUSTOM
 72
65
 73
6
 40
0.563636
 49
0.436364
 49
-0.036364
 49
0.018182
 49
-0.018182
 49
0.018182
 49
-0.036364
  0
LTYPE
  2
LTYPE13
 70
64
  3
CUSTOM
 72
65
 73
8
 40
0.209091
 49
0.109091
 49
-0.018182
 49
0.009091
 49
-0.018182
 49
0.009091
 49
-0.018182
 49
0.009091
 49
-0.018182
  0
LTYPE
  2
LTYPE14
 70
64
  3
CUSTOM
 72
65
 73
8
 40
0.363636
 49
0.218182
 49
-0.027273
 49
0.018182
 49
-0.018182
 49
0.018182
 49
-0.018182
 49
0.018182
 49
-0.027273
  0
LTYPE
  2
LTYPE15
 70
64
  3
CUSTOM
 72
65
 73
8
 40
0.618182
 49
0.436364
 49
-0.036364
 49
0.018182
 49
-0.027273
 49
0.018182
 49
-0.027273
 49
0.018182
 49
-0.036364
  0
ENDTAB
  0
TABLE
  2
LAYER
 70
1
  0
LAYER
  2
MERGEDLAYER-2
 70
0
 62
7
  6
CONTINUOUS
  0
ENDTAB
  0
ENDSEC
  0
SECTION
  2
BLOCKS
  0
ENDSEC
  0
SECTION
  2
ENTITIES
  0
POLYLINE
  8
MERGEDLAYER-2
 66
  1
 70
  1
 62
255
  0
VERTEX
  8
MERGEDLAYER-2
 10
0.591996
 20
43.557440
 30
0.000000
  0
VERTEX
  8
MERGEDLAYER-2
 10
6.940951
 20
43.557440
 30
0.000000
  0
VERTEX
  8
MERGEDLAYER-2
 10
6.940951
 20
41.224885
 30
0.000000
  0
VERTEX
  8
MERGEDLAYER-2
 10
0.591996
 20
41.224885
 30
0.000000
  0
SEQEND
  8
MERGEDLAYER-2
  0
ARC
  8
MERGEDLAYER-2
 62
  7
 10
5.471989
 20
50.183030
 30
0.000000
 40
0.254425
 50
270.000000
 51
90.000000
  0
POLYLINE
  8
MERGEDLAYER-2
 66
  1
 70
  0
 62
  7
 10
5.471989
 20
50.437456
 30
0.000000
  0
VERTEX
  8
MERGEDLAYER-2
 10
5.471989
 20
50.437456
 30
0.000000
  0
VERTEX
  8
MERGEDLAYER-2
 10
1.807067
 20
50.437456
 30
0.000000
  0
SEQEND
  8
MERGEDLAYER-2
  0
POLYLINE
  8
MERGEDLAYER-2
 66
  1
 70
  0
 62
  7
 10
1.807067
 20
50.437456
 30
0.000000
  0
VERTEX
  8
MERGEDLAYER-2
 10
1.807067
 20
50.437456
 30
0.000000
  0
VERTEX
  8
MERGEDLAYER-2
 10
1.807067
 20
49.928604
 30
0.000000
  0
SEQEND
  8
MERGEDLAYER-2
  0
POLYLINE
  8
MERGEDLAYER-2
 66
  1
 70
  0
 62
  7
 10
5.471989
 20
49.928604
 30
0.000000
  0
VERTEX
  8
MERGEDLAYER-2
 10
5.471989
 20
49.928604
 30
0.000000
  0
VERTEX
  8
MERGEDLAYER-2
 10
1.807067
 20
49.928604
 30
0.000000
  0
SEQEND
  8
MERGEDLAYER-2
  0
TEXT
  8
MERGEDLAYER-2
 62
  7
 10
3.598762
 20
50.736368
 30
0.000000
 40
0.340909
  1
MobilFlex
 72
  5
 11
5.807853
 21
50.736368
 31
0.000000
  0
POLYLINE
  8
MERGEDLAYER-2
 66
  1
 70
  1
 62
  7
  0
VERTEX
  8
MERGEDLAYER-2
 10
1.808571
 20
51.252051
 30
0.000000
  0
VERTEX
  8
MERGEDLAYER-2
 10
2.046418
 20
51.252051
 30
0.000000
  0
VERTEX
  8
MERGEDLAYER-2
 10
2.046418
 20
50.735103
 30
0.000000
  0
VERTEX
  8
MERGEDLAYER-2
 10
1.808571
 20
50.735103
 30
0.000000
  0
SEQEND
  8
MERGEDLAYER-2
  0
POLYLINE
  8
MERGEDLAYER-2
 66
  1
 70
  1
 62
  7
  0
VERTEX
  8
MERGEDLAYER-2
 10
2.121071
 20
51.252051
 30
0.000000
  0
VERTEX
  8
MERGEDLAYER-2
 10
2.358918
 20
51.252051
 30
0.000000
  0
VERTEX
  8
MERGEDLAYER-2
 10
2.358918
 20
50.735103
 30
0.000000
  0
VERTEX
  8
MERGEDLAYER-2
 10
2.121071
 20
50.735103
 30
0.000000
  0
SEQEND
  8
MERGEDLAYER-2
  0
POLYLINE
  8
MERGEDLAYER-2
 66
  1
 70
  1
 62
  7
  0
VERTEX
  8
MERGEDLAYER-2
 10
2.421418
 20
51.252051
 30
0.000000
  0
VERTEX
  8
MERGEDLAYER-2
 10
2.659265
 20
51.252051
 30
0.000000
  0
VERTEX
  8
MERGEDLAYER-2
 10
2.659265
 20
50.735103
 30
0.000000
  0
VERTEX
  8
MERGEDLAYER-2
 10
2.421418
 20
50.735103
 30
0.000000
  0
SEQEND
  8
MERGEDLAYER-2
  0
POLYLINE
  8
MERGEDLAYER-2
 66
  1
 70
  1
 62
  7
  0
VERTEX
  8
MERGEDLAYER-2
 10
2.725237
 20
51.252051
 30
0.000000
  0
VERTEX
  8
MERGEDLAYER-2
 10
2.963085
 20
51.252051
 30
0.000000
  0
VERTEX
  8
MERGEDLAYER-2
 10
2.963085
 20
50.735103
 30
0.000000
  0
VERTEX
  8
MERGEDLAYER-2
 10
2.725237
 20
50.735103
 30
0.000000
  0
SEQEND
  8
MERGEDLAYER-2
  0
POLYLINE
  8
MERGEDLAYER-2
 66
  1
 70
  1
 62
  7
  0
VERTEX
  8
MERGEDLAYER-2
 10
3.042078
 20
51.248136
 30
0.000000
  0
VERTEX
  8
MERGEDLAYER-2
 10
3.417512
 20
51.248136
 30
0.000000
  0
VERTEX
  8
MERGEDLAYER-2
 10
3.417512
 20
51.110112
 30
0.000000
  0
VERTEX
  8
MERGEDLAYER-2
 10
3.042078
 20
51.110112
 30
0.000000
  0
SEQEND
  8
MERGEDLAYER-2
  0
POLYLINE
  8
MERGEDLAYER-2
 66
  1
 70
  1
 62
  7
  0
VERTEX
  8
MERGEDLAYER-2
 10
3.041644
 20
51.020703
 30
0.000000
  0
VERTEX
  8
MERGEDLAYER-2
 10
3.349803
 20
51.020703
 30
0.000000
  0
VERTEX
  8
MERGEDLAYER-2
 10
3.349803
 20
50.886590
 30
0.000000
  0
VERTEX
  8
MERGEDLAYER-2
 10
3.041644
 20
50.886590
 30
0.000000
  0
SEQEND
  8
MERGEDLAYER-2
  0
POLYLINE
  8
MERGEDLAYER-2
 66
  1
 70
  1
 62
  7
  0
VERTEX
  8
MERGEDLAYER-2
 10
1.808571
 20
50.650479
 30
0.000000
  0
VERTEX
  8
MERGEDLAYER-2
 10
5.726973
 20
50.650479
 30
0.000000
  0
VERTEX
  8
MERGEDLAYER-2
 10
5.726973
 20
50.607076
 30
0.000000
  0
VERTEX
  8
MERGEDLAYER-2
 10
1.808571
 20
50.607076
 30
0.000000
  0
SEQEND
  8
MERGEDLAYER-2
  0
TEXT
  8
MERGEDLAYER-2
 62
  7
 10
1.898762
 20
50.081823
 30
0.000000
 40
0.177273
  1
Elevation model  SLIM Roll-Vision
 72
  5
 11
5.716944
 21
50.081823
 31
0.000000
  0
TEXT
  8
MERGEDLAYER-2
 62
  7
 10
1.789671
 20
49.763641
 30
0.000000
 40
0.122727
  1
POLYCARBONATE ROLLING CLOSURE
 72
  5
 11
4.889671
 21
49.763641
 31
0.000000
  0
TEXT
  8
MERGEDLAYER-2
 62
  7
 10
1.789671
 20
49.572732
 30
0.000000
 40
0.122727
  1
For 4" (102mm) & 4 
 72
  5
 11
3.307853
 21
49.572732
 31
0.000000
  0
TEXT
  8
MERGEDLAYER-2
 62
  7
 10
3.307853
 20
49.572732
 30
0.000000
 40
0.102273
  1
1/2
 72
  5
 11
3.535126
 21
49.572732
 31
0.000000
  0
TEXT
  8
MERGEDLAYER-2
 62
  7
 10
3.535126
 20
49.572732
 30
0.000000
 40
0.122727
  1
" (114mm) barrels
 72
  5
 11
4.880581
 21
49.572732
 31
0.000000
  0
POLYLINE
  8
MERGEDLAYER-2
 66
  1
 70
  0
 62
  7
 10
5.757399
 20
47.987735
 30
0.000000
  0
VERTEX
  8
MERGEDLAYER-2
 10
5.757399
 20
47.987735
 30
0.000000
  0
VERTEX
  8
MERGEDLAYER-2
 10
5.754993
 20
48.051270
 30
0.000000
  0
VERTEX
  8
MERGEDLAYER-2
 10
5.747782
 20
48.114653
 30
0.000000
  0
VERTEX
  8
MERGEDLAYER-2
 10
5.735783
 20
48.177730
 30
0.000000
  0
VERTEX
  8
MERGEDLAYER-2
 10
5.719024
 20
48.240350
 30
0.000000
  0
VERTEX
  8
MERGEDLAYER-2
 10
5.697546
 20
48.302357
 30
0.000000
  0
VERTEX
  8
MERGEDLAYER-2
 10
5.671402
 20
48.363610
 30
0.000000
  0
VERTEX
  8
MERGEDLAYER-2
 10
5.640654
 20
48.423957
 30
0.000000
  0
VERTEX
  8
MERGEDLAYER-2
 10
5.605376
 20
48.483252
 30
0.000000
  0
VERTEX
  8
MERGEDLAYER-2
 10
5.565652
 20
48.541353
 30
0.000000
  0
VERTEX
  8
MERGEDLAYER-2
 10
5.521579
 20
48.598122
 30
0.000000
  0
VERTEX
  8
MERGEDLAYER-2
 10
5.473261
 20
48.653418
 30
0.000000
  0
VERTEX
  8
MERGEDLAYER-2
 10
5.420819
 20
48.707111
 30
0.000000
  0
VERTEX
  8
MERGEDLAYER-2
 10
5.364374
 20
48.759073
 30
0.000000
  0
VERTEX
  8
MERGEDLAYER-2
 10
5.304067
 20
48.809175
 30
0.000000
  0
VERTEX
  8
MERGEDLAYER-2
 10
5.240040
 20
48.857302
 30
0.000000
  0
VERTEX
  8
MERGEDLAYER-2
 10
5.172448
 20
48.903329
 30
0.000000
  0
VERTEX
  8
MERGEDLAYER-2
 10
5.101454
 20
48.947155
 30
0.000000
  0
VERTEX
  8
MERGEDLAYER-2
 10
5.027228
 20
48.988663
 30
0.000000
  0
VERTEX
  8
MERGEDLAYER-2
 10
4.949950
 20
49.027765
 30
0.000000
  0
VERTEX
  8
MERGEDLAYER-2
 10
4.869806
 20
49.064360
 30
0.000000
  0
VERTEX
  8
MERGEDLAYER-2
 10
4.786990
 20
49.098362
 30
0.000000
  0
VERTEX
  8
MERGEDLAYER-2
 10
4.701700
 20
49.129688
 30
0.000000
  0
VERTEX
  8
MERGEDLAYER-2
 10
4.614141
 20
49.158261
 30
0.000000
  0
VERTEX
  8
MERGEDLAYER-2
 10
4.524526
 20
49.184015
 30
0.000000
  0
VERTEX
  8
MERGEDLAYER-2
 10
4.433070
 20
49.206889
 30
0.000000
  0
VERTEX
  8
MERGEDLAYER-2
 10
4.339992
 20
49.226824
 30
0.000000
  0
VERTEX
  8
MERGEDLAYER-2
 10
4.245518
 20
49.243777
 30
0.000000
  0
VERTEX
  8
MERGEDLAYER-2
 10
4.149875
 20
49.257702
 30
0.000000
  0
VERTEX
  8
MERGEDLAYER-2
 10
4.053293
 20
49.268568
 30
0.000000
  0
VERTEX
  8
MERGEDLAYER-2
 10
3.956005
 20
49.276345
 30
0.000000
  0
VERTEX
  8
MERGEDLAYER-2
 10
3.858246
 20
49.281019
 30
0.000000
  0
VERTEX
  8
MERGEDLAYER-2
 10
3.760250
 20
49.282582
 30
0.000000
  0
VERTEX
  8
MERGEDLAYER-2
 10
3.662254
 20
49.281019
 30
0.000000
  0
VERTEX
  8
MERGEDLAYER-2
 10
3.564495
 20
49.276345
 30
0.000000
  0
VERTEX
  8
MERGEDLAYER-2
 10
3.467208
 20
49.268568
 30
0.000000
  0
VERTEX
  8
MERGEDLAYER-2
 10
3.370626
 20
49.257702
 30
0.000000
  0
VERTEX
  8
MERGEDLAYER-2
 10
3.274983
 20
49.243777
 30
0.000000
  0
VERTEX
  8
MERGEDLAYER-2
 10
3.180508
 20
49.226824
 30
0.000000
  0
VERTEX
  8
MERGEDLAYER-2
 10
3.087431
 20
49.206889
 30
0.000000
  0
VERTEX
  8
MERGEDLAYER-2
 10
2.995974
 20
49.184015
 30
0.000000
  0
VERTEX
  8
MERGEDLAYER-2
 10
2.906359
 20
49.158261
 30
0.000000
  0
VERTEX
  8
MERGEDLAYER-2
 10
2.818801
 20
49.129688
 30
0.000000
  0
VERTEX
  8
MERGEDLAYER-2
 10
2.733511
 20
49.098362
 30
0.000000
  0
VERTEX
  8
MERGEDLAYER-2
 10
2.650694
 20
49.064360
 30
0.000000
  0
VERTEX
  8
MERGEDLAYER-2
 10
2.570550
 20
49.027765
 30
0.000000
  0
VERTEX
  8
MERGEDLAYER-2
 10
2.493273
 20
48.988663
 30
0.000000
  0
VERTEX
  8
MERGEDLAYER-2
 10
2.419047
 20
48.947155
 30
0.000000
  0
VERTEX
  8
MERGEDLAYER-2
 10
2.348053
 20
48.903329
 30
0.000000
  0
VERTEX
  8
MERGEDLAYER-2
 10
2.280460
 20
48.857302
 30
0.000000
  0
VERTEX
  8
MERGEDLAYER-2
 10
2.216433
 20
48.809175
 30
0.000000
  0
VERTEX
  8
MERGEDLAYER-2
 10
2.156125
 20
48.759073
 30
0.000000
  0
VERTEX
  8
MERGEDLAYER-2
 10
2.099682
 20
48.707111
 30
0.000000
  0
VERTEX
  8
MERGEDLAYER-2
 10
2.047239
 20
48.653418
 30
0.000000
  0
VERTEX
  8
MERGEDLAYER-2
 10
1.998922
 20
48.598122
 30
0.000000
  0
VERTEX
  8
MERGEDLAYER-2
 10
1.954849
 20
48.541353
 30
0.000000
  0
VERTEX
  8
MERGEDLAYER-2
 10
1.915125
 20
48.483252
 30
0.000000
  0
VERTEX
  8
MERGEDLAYER-2
 10
1.879847
 20
48.423957
 30
0.000000
  0
VERTEX
  8
MERGEDLAYER-2
 10
1.849098
 20
48.363610
 30
0.000000
  0
VERTEX
  8
MERGEDLAYER-2
 10
1.822953
 20
48.302357
 30
0.000000
  0
VERTEX
  8
MERGEDLAYER-2
 10
1.801476
 20
48.240350
 30
0.000000
  0
VERTEX
  8
MERGEDLAYER-2
 10
1.784717
 20
48.177730
 30
0.000000
  0
VERTEX
  8
MERGEDLAYER-2
 10
1.772718
 20
48.114653
 30
0.000000
  0
VERTEX
  8
MERGEDLAYER-2
 10
1.765507
 20
48.051270
 30
0.000000
  0
VERTEX
  8
MERGEDLAYER-2
 10
1.763101
 20
47.987735
 30
0.000000
  0
VERTEX
  8
MERGEDLAYER-2
 10
1.765507
 20
47.924201
 30
0.000000
  0
VERTEX
  8
MERGEDLAYER-2
 10
1.772718
 20
47.860818
 30
0.000000
  0
VERTEX
  8
MERGEDLAYER-2
 10
1.784717
 20
47.797745
 30
0.000000
  0
VERTEX
  8
MERGEDLAYER-2
 10
1.801476
 20
47.735125
 30
0.000000
  0
VERTEX
  8
MERGEDLAYER-2
 10
1.822953
 20
47.673113
 30
0.000000
  0
VERTEX
  8
MERGEDLAYER-2
 10
1.849098
 20
47.611861
 30
0.000000
  0
VERTEX
  8
MERGEDLAYER-2
 10
1.879847
 20
47.551518
 30
0.000000
  0
VERTEX
  8
MERGEDLAYER-2
 10
1.915125
 20
47.492219
 30
0.000000
  0
VERTEX
  8
MERGEDLAYER-2
 10
1.954849
 20
47.434118
 30
0.000000
  0
VERTEX
  8
MERGEDLAYER-2
 10
1.998922
 20
47.377353
 30
0.000000
  0
VERTEX
  8
MERGEDLAYER-2
 10
2.047239
 20
47.322053
 30
0.000000
  0
VERTEX
  8
MERGEDLAYER-2
 10
2.099682
 20
47.268359
 30
0.000000
  0
VERTEX
  8
MERGEDLAYER-2
 10
2.156125
 20
47.216397
 30
0.000000
  0
VERTEX
  8
MERGEDLAYER-2
 10
2.216433
 20
47.166295
 30
0.000000
  0
VERTEX
  8
MERGEDLAYER-2
 10
2.280460
 20
47.118173
 30
0.000000
  0
VERTEX
  8
MERGEDLAYER-2
 10
2.348053
 20
47.072141
 30
0.000000
  0
VERTEX
  8
MERGEDLAYER-2
 10
2.419047
 20
47.028320
 30
0.000000
  0
VERTEX
  8
MERGEDLAYER-2
 10
2.493273
 20
46.986808
 30
0.000000
  0
VERTEX
  8
MERGEDLAYER-2
 10
2.570550
 20
46.947705
 30
0.000000
  0
VERTEX
  8
MERGEDLAYER-2
 10
2.650694
 20
46.911111
 30
0.000000
  0
VERTEX
  8
MERGEDLAYER-2
 10
2.733511
 20
46.877108
 30
0.000000
  0
VERTEX
  8
MERGEDLAYER-2
 10
2.818801
 20
46.845783
 30
0.000000
  0
VERTEX
  8
MERGEDLAYER-2
 10
2.906359
 20
46.817210
 30
0.000000
  0
VERTEX
  8
MERGEDLAYER-2
 10
2.995974
 20
46.791455
 30
0.000000
  0
VERTEX
  8
MERGEDLAYER-2
 10
3.087431
 20
46.768581
 30
0.000000
  0
VERTEX
  8
MERGEDLAYER-2
 10
3.180508
 20
46.748646
 30
0.000000
  0
VERTEX
  8
MERGEDLAYER-2
 10
3.274983
 20
46.731694
 30
0.000000
  0
VERTEX
  8
MERGEDLAYER-2
 10
3.370626
 20
46.717773
 30
0.000000
  0
VERTEX
  8
MERGEDLAYER-2
 10
3.467208
 20
46.706907
 30
0.000000
  0
VERTEX
  8
MERGEDLAYER-2
 10
3.564495
 20
46.699126
 30
0.000000
  0
VERTEX
  8
MERGEDLAYER-2
 10
3.662254
 20
46.694451
 30
0.000000
  0
VERTEX
  8
MERGEDLAYER-2
 10
3.760250
 20
46.692889
 30
0.000000
  0
VERTEX
  8
MERGEDLAYER-2
 10
3.858246
 20
46.694451
 30
0.000000
  0
VERTEX
  8
MERGEDLAYER-2
 10
3.956005
 20
46.699126
 30
0.000000
  0
VERTEX
  8
MERGEDLAYER-2
 10
4.053293
 20
46.706907
 30
0.000000
  0
VERTEX
  8
MERGEDLAYER-2
 10
4.149875
 20
46.717773
 30
0.000000
  0
VERTEX
  8
MERGEDLAYER-2
 10
4.245518
 20
46.731694
 30
0.000000
  0
VERTEX
  8
MERGEDLAYER-2
 10
4.339992
 20
46.748646
 30
0.000000
  0
VERTEX
  8
MERGEDLAYER-2
 10
4.433070
 20
46.768581
 30
0.000000
  0
VERTEX
  8
MERGEDLAYER-2
 10
4.524526
 20
46.791455
 30
0.000000
  0
VERTEX
  8
MERGEDLAYER-2
 10
4.614141
 20
46.817210
 30
0.000000
  0
VERTEX
  8
MERGEDLAYER-2
 10
4.701700
 20
46.845783
 30
0.000000
  0
VERTEX
  8
MERGEDLAYER-2
 10
4.786990
 20
46.877108
 30
0.000000
  0
VERTEX
  8
MERGEDLAYER-2
 10
4.869806
 20
46.911111
 30
0.000000
  0
VERTEX
  8
MERGEDLAYER-2
 10
4.949950
 20
46.947705
 30
0.000000
  0
VERTEX
  8
MERGEDLAYER-2
 10
5.027228
 20
46.986808
 30
0.000000
  0
VERTEX
  8
MERGEDLAYER-2
 10
5.101454
 20
47.028320
 30
0.000000
  0
VERTEX
  8
MERGEDLAYER-2
 10
5.172448
 20
47.072141
 30
0.000000
  0
VERTEX
  8
MERGEDLAYER-2
 10
5.240040
 20
47.118173
 30
0.000000
  0
VERTEX
  8
MERGEDLAYER-2
 10
5.304067
 20
47.166295
 30
0.000000
  0
VERTEX
  8
MERGEDLAYER-2
 10
5.364374
 20
47.216397
 30
0.000000
  0
VERTEX
  8
MERGEDLAYER-2
 10
5.420819
 20
47.268359
 30
0.000000
  0
VERTEX
  8
MERGEDLAYER-2
 10
5.473261
 20
47.322053
 30
0.000000
  0
VERTEX
  8
MERGEDLAYER-2
 10
5.521579
 20
47.377353
 30
0.000000
  0
VERTEX
  8
MERGEDLAYER-2
 10
5.565652
 20
47.434118
 30
0.000000
  0
VERTEX
  8
MERGEDLAYER-2
 10
5.605376
 20
47.492219
 30
0.000000
  0
VERTEX
  8
MERGEDLAYER-2
 10
5.640654
 20
47.551518
 30
0.000000
  0
VERTEX
  8
MERGEDLAYER-2
 10
5.671402
 20
47.611861
 30
0.000000
  0
VERTEX
  8
MERGEDLAYER-2
 10
5.697546
 20
47.673113
 30
0.000000
  0
VERTEX
  8
MERGEDLAYER-2
 10
5.719024
 20
47.735125
 30
0.000000
  0
VERTEX
  8
MERGEDLAYER-2
 10
5.735783
 20
47.797745
 30
0.000000
  0
VERTEX
  8
MERGEDLAYER-2
 10
5.747782
 20
47.860818
 30
0.000000
  0
VERTEX
  8
MERGEDLAYER-2
 10
5.754993
 20
47.924201
 30
0.000000
  0
VERTEX
  8
MERGEDLAYER-2
 10
5.757399
 20
47.987735
 30
0.000000
  0
SEQEND
  8
MERGEDLAYER-2
  0
POLYLINE
  8
MERGEDLAYER-2
 66
  1
 70
  1
 62
254
  0
VERTEX
  8
MERGEDLAYER-2
 10
2.106456
 20
48.372190
 30
0.000000
  0
VERTEX
  8
MERGEDLAYER-2
 10
5.537439
 20
48.372190
 30
0.000000
  0
VERTEX
  8
MERGEDLAYER-2
 10
5.537439
 20
47.672377
 30
0.000000
  0
VERTEX
  8
MERGEDLAYER-2
 10
2.106456
 20
47.672377
 30
0.000000
  0
SEQEND
  8
MERGEDLAYER-2
  0
TEXT
  8
MERGEDLAYER-2
 62
  7
 10
6.162399
 20
46.554550
 30
0.000000
 40
0.122727
  1
Guide
 72
  5
 11
6.644217
 21
46.554550
 31
0.000000
  0
POLYLINE
  8
MERGEDLAYER-2
 66
  1
 70
  0
 62
  7
 10
6.677029
 20
46.585693
 30
0.000000
  0
VERTEX
  8
MERGEDLAYER-2
 10
6.677029
 20
46.585693
 30
0.000000
  0
VERTEX
  8
MERGEDLAYER-2
 10
6.782941
 20
46.443213
 30
0.000000
  0
SEQEND
  8
MERGEDLAYER-2
  0
POLYLINE
  8
MERGEDLAYER-2
 66
  1
 70
  1
 62
  7
  0
VERTEX
  8
MERGEDLAYER-2
 10
6.794686
 20
46.427415
 30
0.000000
  0
VERTEX
  8
MERGEDLAYER-2
 10
6.745680
 20
46.447625
 30
0.000000
  0
VERTEX
  8
MERGEDLAYER-2
 10
6.767568
 20
46.463894
 30
0.000000
  0
VERTEX
  8
MERGEDLAYER-2
 10
6.789455
 20
46.480167
 30
0.000000
  0
VERTEX
  8
MERGEDLAYER-2
 10
6.794686
 20
46.427415
 30
0.000000
  0
SEQEND
  8
MERGEDLAYER-2
  0
POLYLINE
  8
MERGEDLAYER-2
 66
  1
 70
  0
 62
  7
 10
2.360189
 20
47.430549
 30
0.000000
  0
VERTEX
  8
MERGEDLAYER-2
 10
2.360189
 20
47.430549
 30
0.000000
  0
VERTEX
  8
MERGEDLAYER-2
 10
2.251248
 20
47.429932
 30
0.000000
  0
SEQEND
  8
MERGEDLAYER-2
  0
TEXT
  8
MERGEDLAYER-2
 62
  7
 10
3.007853
 20
47.172732
 30
0.000000
 40
0.150000
  1
between
 72
  5
 11
3.798762
 21
47.172732
 31
0.000000
  0
TEXT
  8
MERGEDLAYER-2
 62
  7
 10
3.007853
 20
46.936368
 30
0.000000
 40
0.150000
  1
connectors
 72
  5
 11
4.016944
 21
46.936368
 31
0.000000
  0
TEXT
  8
MERGEDLAYER-2
 62
  7
 10
2.407853
 20
47.436368
 30
0.000000
 40
0.150000
  1
1 
 72
  5
 11
2.616944
 21
47.436368
 31
0.000000
  0
TEXT
  8
MERGEDLAYER-2
 62
  7
 10
2.616944
 20
47.436368
 30
0.000000
 40
0.122727
  1
3/8
 72
  5
 11
2.889671
 21
47.436368
 31
0.000000
  0
TEXT
  8
MERGEDLAYER-2
 62
  7
 10
2.889671
 20
47.436368
 30
0.000000
 40
0.150000
  1
"
 72
  5
 11
3.007853
 21
47.436368
 31
0.000000
  0
TEXT
  8
MERGEDLAYER-2
 62
  7
 10
2.407853
 20
47.200004
 30
0.000000
 40
0.150000
  1
35
 72
  5
 11
2.671490
 21
47.200004
 31
0.000000
  0
TEXT
  8
MERGEDLAYER-2
 62
  7
 10
2.671490
 20
47.200004
 30
0.000000
 40
0.122727
  1
mm
 72
  5
 11
2.989671
 21
47.200004
 31
0.000000
  0
TEXT
  8
MERGEDLAYER-2
 62
  7
 10
4.462399
 20
47.436368
 30
0.000000
 40
0.150000
  1
1 
 72
  5
 11
4.671490
 21
47.436368
 31
0.000000
  0
TEXT
  8
MERGEDLAYER-2
 62
  7
 10
4.671490
 20
47.436368
 30
0.000000
 40
0.122727
  1
3/4
 72
  5
 11
4.944217
 21
47.436368
 31
0.000000
  0
TEXT
  8
MERGEDLAYER-2
 62
  7
 10
4.944217
 20
47.436368
 30
0.000000
 40
0.150000
  1
"
 72
  5
 11
5.062399
 21
47.436368
 31
0.000000
  0
TEXT
  8
MERGEDLAYER-2
 62
  7
 10
4.462399
 20
47.200004
 30
0.000000
 40
0.150000
  1
44
 72
  5
 11
4.726035
 21
47.200004
 31
0.000000
  0
TEXT
  8
MERGEDLAYER-2
 62
  7
 10
4.726035
 20
47.200004
 30
0.000000
 40
0.122727
  1
mm
 72
  5
 11
5.044217
 21
47.200004
 31
0.000000
  0
POLYLINE
  8
MERGEDLAYER-2
 66
  1
 70
  1
 62
  7
  0
VERTEX
  8
MERGEDLAYER-2
 10
2.589579
 20
47.972878
 30
0.000000
  0
VERTEX
  8
MERGEDLAYER-2
 10
5.055890
 20
47.972878
 30
0.000000
  0
VERTEX
  8
MERGEDLAYER-2
 10
5.055890
 20
47.771635
 30
0.000000
  0
VERTEX
  8
MERGEDLAYER-2
 10
2.589579
 20
47.771635
 30
0.000000
  0
SEQEND
  8
MERGEDLAYER-2
  0
POLYLINE
  8
MERGEDLAYER-2
 66
  1
 70
  1
 62
  7
  0
VERTEX
  8
MERGEDLAYER-2
 10
2.589959
 20
48.273158
 30
0.000000
  0
VERTEX
  8
MERGEDLAYER-2
 10
5.056270
 20
48.273158
 30
0.000000
  0
VERTEX
  8
MERGEDLAYER-2
 10
5.056270
 20
48.071915
 30
0.000000
  0
VERTEX
  8
MERGEDLAYER-2
 10
2.589959
 20
48.071915
 30
0.000000
  0
SEQEND
  8
MERGEDLAYER-2
  0
POLYLINE
  8
MERGEDLAYER-2
 66
  1
 70
  1
 62
  7
  0
VERTEX
  8
MERGEDLAYER-2
 10
2.090831
 20
48.274370
 30
0.000000
  0
VERTEX
  8
MERGEDLAYER-2
 10
2.315912
 20
48.274370
 30
0.000000
  0
VERTEX
  8
MERGEDLAYER-2
 10
2.315912
 20
48.072097
 30
0.000000
  0
VERTEX
  8
MERGEDLAYER-2
 10
2.090831
 20
48.072097
 30
0.000000
  0
SEQEND
  8
MERGEDLAYER-2
  0
POLYLINE
  8
MERGEDLAYER-2
 66
  1
 70
  0
 62
  7
 10
2.315912
 20
48.274370
 30
0.000000
  0
VERTEX
  8
MERGEDLAYER-2
 10
2.315912
 20
48.274370
 30
0.000000
  0
VERTEX
  8
MERGEDLAYER-2
 10
2.315912
 20
48.072097
 30
0.000000
  0
SEQEND
  8
MERGEDLAYER-2
  0
POLYLINE
  8
MERGEDLAYER-2
 66
  1
 70
  1
 62
  7
  0
VERTEX
  8
MERGEDLAYER-2
 10
2.076508
 20
47.973193
 30
0.000000
  0
VERTEX
  8
MERGEDLAYER-2
 10
2.316513
 20
47.973193
 30
0.000000
  0
VERTEX
  8
MERGEDLAYER-2
 10
2.316513
 20
47.770943
 30
0.000000
  0
VERTEX
  8
MERGEDLAYER-2
 10
2.076508
 20
47.770943
 30
0.000000
  0
SEQEND
  8
MERGEDLAYER-2
  0
POLYLINE
  8
MERGEDLAYER-2
 66
  1
 70
  0
 62
  7
 10
2.315912
 20
47.973193
 30
0.000000
  0
VERTEX
  8
MERGEDLAYER-2
 10
2.315912
 20
47.973193
 30
0.000000
  0
VERTEX
  8
MERGEDLAYER-2
 10
2.315912
 20
47.770943
 30
0.000000
  0
SEQEND
  8
MERGEDLAYER-2
  0
POLYLINE
  8
MERGEDLAYER-2
 66
  1
 70
  1
 62
  7
  0
VERTEX
  8
MERGEDLAYER-2
 10
5.330288
 20
48.274370
 30
0.000000
  0
VERTEX
  8
MERGEDLAYER-2
 10
5.553064
 20
48.274370
 30
0.000000
  0
VERTEX
  8
MERGEDLAYER-2
 10
5.553064
 20
48.072097
 30
0.000000
  0
VERTEX
  8
MERGEDLAYER-2
 10
5.330288
 20
48.072097
 30
0.000000
  0
SEQEND
  8
MERGEDLAYER-2
  0
POLYLINE
  8
MERGEDLAYER-2
 66
  1
 70
  0
 62
  7
 10
5.330288
 20
48.274370
 30
0.000000
  0
VERTEX
  8
MERGEDLAYER-2
 10
5.330288
 20
48.274370
 30
0.000000
  0
VERTEX
  8
MERGEDLAYER-2
 10
5.330288
 20
48.072097
 30
0.000000
  0
SEQEND
  8
MERGEDLAYER-2
  0
POLYLINE
  8
MERGEDLAYER-2
 66
  1
 70
  1
 62
  7
  0
VERTEX
  8
MERGEDLAYER-2
 10
5.330288
 20
47.973193
 30
0.000000
  0
VERTEX
  8
MERGEDLAYER-2
 10
5.551762
 20
47.973193
 30
0.000000
  0
VERTEX
  8
MERGEDLAYER-2
 10
5.551762
 20
47.770943
 30
0.000000
  0
VERTEX
  8
MERGEDLAYER-2
 10
5.330288
 20
47.770943
 30
0.000000
  0
SEQEND
  8
MERGEDLAYER-2
  0
POLYLINE
  8
MERGEDLAYER-2
 66
  1
 70
  0
 62
  7
 10
5.330288
 20
47.973193
 30
0.000000
  0
VERTEX
  8
MERGEDLAYER-2
 10
5.330288
 20
47.973193
 30
0.000000
  0
VERTEX
  8
MERGEDLAYER-2
 10
5.330288
 20
47.770943
 30
0.000000
  0
SEQEND
  8
MERGEDLAYER-2
  0
POLYLINE
  8
MERGEDLAYER-2
 66
  1
 70
  0
 62
  7
 10
2.106456
 20
48.072097
 30
0.000000
  0
VERTEX
  8
MERGEDLAYER-2
 10
2.106456
 20
48.072097
 30
0.000000
  0
VERTEX
  8
MERGEDLAYER-2
 10
5.537439
 20
48.072097
 30
0.000000
  0
SEQEND
  8
MERGEDLAYER-2
  0
POLYLINE
  8
MERGEDLAYER-2
 66
  1
 70
  0
 62
  7
 10
2.106964
 20
48.038614
 30
0.000000
  0
VERTEX
  8
MERGEDLAYER-2
 10
2.106964
 20
48.038614
 30
0.000000
  0
VERTEX
  8
MERGEDLAYER-2
 10
5.537439
 20
48.038614
 30
0.000000
  0
SEQEND
  8
MERGEDLAYER-2
  0
POLYLINE
  8
MERGEDLAYER-2
 66
  1
 70
  0
 62
  7
 10
2.107003
 20
48.008438
 30
0.000000
  0
VERTEX
  8
MERGEDLAYER-2
 10
2.107003
 20
48.008438
 30
0.000000
  0
VERTEX
  8
MERGEDLAYER-2
 10
5.537439
 20
48.008438
 30
0.000000
  0
SEQEND
  8
MERGEDLAYER-2
  0
POLYLINE
  8
MERGEDLAYER-2
 66
  1
 70
  0
 62
  7
 10
2.106456
 20
47.973193
 30
0.000000
  0
VERTEX
  8
MERGEDLAYER-2
 10
2.106456
 20
47.973193
 30
0.000000
  0
VERTEX
  8
MERGEDLAYER-2
 10
5.537439
 20
47.973193
 30
0.000000
  0
SEQEND
  8
MERGEDLAYER-2
  0
LINE
  8
MERGEDLAYER-2
 62
  7
 10
2.589959
 20
48.777770
 30
0.000000
 11
5.056270
 21
48.777770
 31
0.000000
  0
LINE
  8
MERGEDLAYER-2
 62
  7
 10
2.589959
 20
48.408314
 30
0.000000
 11
2.589959
 21
48.902770
 31
0.000000
  0
LINE
  8
MERGEDLAYER-2
 62
  7
 10
5.056270
 20
48.408314
 30
0.000000
 11
5.056270
 21
48.902770
 31
0.000000
  0
LINE
  8
MERGEDLAYER-2
 62
  7
 10
2.609244
 20
48.797057
 30
0.000000
 11
2.570675
 21
48.758487
 31
0.000000
  0
LINE
  8
MERGEDLAYER-2
 62
  7
 10
5.075555
 20
48.797057
 30
0.000000
 11
5.036985
 21
48.758487
 31
0.000000
  0
TEXT
  8
MERGEDLAYER-2
 62
  7
 10
3.591461
 20
48.871730
 30
0.000000
 40
0.081818
  1
 
  0
TEXT
  8
MERGEDLAYER-2
 62
  7
 10
3.116944
 20
48.863641
 30
0.000000
 40
0.150000
  1
15 
 72
  5
 11
3.435126
 21
48.863641
 31
0.000000
  0
TEXT
  8
MERGEDLAYER-2
 62
  7
 10
3.435126
 20
48.863641
 30
0.000000
 40
0.122727
  1
3/4
 72
  5
 11
3.707853
 21
48.863641
 31
0.000000
  0
TEXT
  8
MERGEDLAYER-2
 62
  7
 10
3.707853
 20
48.863641
 30
0.000000
 40
0.150000
  1
" (400
 72
  5
 11
4.271490
 21
48.863641
 31
0.000000
  0
TEXT
  8
MERGEDLAYER-2
 62
  7
 10
4.271490
 20
48.863641
 30
0.000000
 40
0.122727
  1
mm)
 72
  5
 11
4.644217
 21
48.863641
 31
0.000000
  0
TEXT
  8
MERGEDLAYER-2
 62
  7
 10
2.926035
 20
48.509095
 30
0.000000
 40
0.150000
  1
clear polycarbonate
 72
  5
 11
4.689671
 21
48.509095
 31
0.000000
  0
POLYLINE
  8
MERGEDLAYER-2
 66
  1
 70
  0
 62
  7
 10
5.329807
 20
47.600688
 30
0.000000
  0
VERTEX
  8
MERGEDLAYER-2
 10
5.329807
 20
47.600688
 30
0.000000
  0
VERTEX
  8
MERGEDLAYER-2
 10
5.329807
 20
47.354159
 30
0.000000
  0
SEQEND
  8
MERGEDLAYER-2
  0
POLYLINE
  8
MERGEDLAYER-2
 66
  1
 70
  0
 62
  7
 10
5.054633
 20
47.354159
 30
0.000000
  0
VERTEX
  8
MERGEDLAYER-2
 10
5.054633
 20
47.354159
 30
0.000000
  0
VERTEX
  8
MERGEDLAYER-2
 10
5.054633
 20
47.600688
 30
0.000000
  0
SEQEND
  8
MERGEDLAYER-2
  0
POLYLINE
  8
MERGEDLAYER-2
 66
  1
 70
  0
 62
  7
 10
5.330155
 20
47.427073
 30
0.000000
  0
VERTEX
  8
MERGEDLAYER-2
 10
5.330155
 20
47.427073
 30
0.000000
  0
VERTEX
  8
MERGEDLAYER-2
 10
5.054633
 20
47.427073
 30
0.000000
  0
SEQEND
  8
MERGEDLAYER-2
  0
LINE
  8
MERGEDLAYER-2
 62
  7
 10
5.310870
 20
47.407790
 30
0.000000
 11
5.349440
 21
47.446360
 31
0.000000
  0
LINE
  8
MERGEDLAYER-2
 62
  7
 10
5.035348
 20
47.407790
 30
0.000000
 11
5.073918
 21
47.446360
 31
0.000000
  0
POLYLINE
  8
MERGEDLAYER-2
 66
  1
 70
  0
 62
  7
 10
5.054633
 20
47.427073
 30
0.000000
  0
VERTEX
  8
MERGEDLAYER-2
 10
5.054633
 20
47.427073
 30
0.000000
  0
VERTEX
  8
MERGEDLAYER-2
 10
4.946994
 20
47.427073
 30
0.000000
  0
SEQEND
  8
MERGEDLAYER-2
  0
POLYLINE
  8
MERGEDLAYER-2
 66
  1
 70
  1
 62
  7
  0
VERTEX
  8
MERGEDLAYER-2
 10
0.591996
 20
43.557440
 30
0.000000
  0
VERTEX
  8
MERGEDLAYER-2
 10
6.940951
 20
43.557440
 30
0.000000
  0
VERTEX
  8
MERGEDLAYER-2
 10
6.940951
 20
41.224885
 30
0.000000
  0
VERTEX
  8
MERGEDLAYER-2
 10
0.591996
 20
41.224885
 30
0.000000
  0
SEQEND
  8
MERGEDLAYER-2
  0
POLYLINE
  8
MERGEDLAYER-2
 66
  1
 70
  0
 62
  7
 40
0.018182
 41
0.018182
 10
0.018182
 20
41.223957
 30
0.000000
  0
VERTEX
  8
MERGEDLAYER-2
 10
0.018182
 20
41.223957
 30
0.000000
  0
VERTEX
  8
MERGEDLAYER-2
 10
7.518178
 20
41.223957
 30
0.000000
  0
SEQEND
  8
MERGEDLAYER-2
  0
POLYLINE
  8
MERGEDLAYER-2
 66
  1
 70
  0
 62
  7
 10
0.592828
 20
43.154510
 30
0.000000
  0
VERTEX
  8
MERGEDLAYER-2
 10
0.592828
 20
43.154510
 30
0.000000
  0
VERTEX
  8
MERGEDLAYER-2
 10
6.939217
 20
43.154510
 30
0.000000
  0
SEQEND
  8
MERGEDLAYER-2
  0
POLYLINE
  8
MERGEDLAYER-2
 66
  1
 70
  0
 62
  7
 10
0.632267
 20
43.154510
 30
0.000000
  0
VERTEX
  8
MERGEDLAYER-2
 10
0.632267
 20
43.154510
 30
0.000000
  0
VERTEX
  8
MERGEDLAYER-2
 10
0.632267
 20
41.224885
 30
0.000000
  0
SEQEND
  8
MERGEDLAYER-2
  0
POLYLINE
  8
MERGEDLAYER-2
 66
  1
 70
  0
 62
  7
 10
6.891900
 20
41.224885
 30
0.000000
  0
VERTEX
  8
MERGEDLAYER-2
 10
6.891900
 20
41.224885
 30
0.000000
  0
VERTEX
  8
MERGEDLAYER-2
 10
6.891900
 20
43.154510
 30
0.000000
  0
SEQEND
  8
MERGEDLAYER-2
  0
POLYLINE
  8
MERGEDLAYER-2
 66
  1
 70
  0
 62
  7
 10
5.779067
 20
43.427379
 30
0.000000
  0
VERTEX
  8
MERGEDLAYER-2
 10
5.779067
 20
43.427379
 30
0.000000
  0
VERTEX
  8
MERGEDLAYER-2
 10
5.539271
 20
43.546786
 30
0.000000
  0
SEQEND
  8
MERGEDLAYER-2
  0
POLYLINE
  8
MERGEDLAYER-2
 66
  1
 70
  1
 62
  7
  0
VERTEX
  8
MERGEDLAYER-2
 10
5.521651
 20
43.555562
 30
0.000000
  0
VERTEX
  8
MERGEDLAYER-2
 10
5.574496
 20
43.559712
 30
0.000000
  0
VERTEX
  8
MERGEDLAYER-2
 10
5.562339
 20
43.535298
 30
0.000000
  0
VERTEX
  8
MERGEDLAYER-2
 10
5.550182
 20
43.510884
 30
0.000000
  0
VERTEX
  8
MERGEDLAYER-2
 10
5.521651
 20
43.555562
 30
0.000000
  0
SEQEND
  8
MERGEDLAYER-2
  0
POLYLINE
  8
MERGEDLAYER-2
 66
  1
 70
  1
 62
  7
  0
VERTEX
  8
MERGEDLAYER-2
 10
2.760003
 20
43.532551
 30
0.000000
  0
VERTEX
  8
MERGEDLAYER-2
 10
3.353752
 20
43.532551
 30
0.000000
  0
VERTEX
  8
MERGEDLAYER-2
 10
3.353752
 20
43.321613
 30
0.000000
  0
VERTEX
  8
MERGEDLAYER-2
 10
2.760003
 20
43.321613
 30
0.000000
  0
SEQEND
  8
MERGEDLAYER-2
  0
TEXT
  8
MERGEDLAYER-2
 62
  7
 10
2.780581
 20
43.381823
 30
0.000000
 40
0.122727
  1
Handle
 72
  5
 11
3.344217
 21
43.381823
 31
0.000000
  0
POLYLINE
  8
MERGEDLAYER-2
 66
  1
 70
  1
 62
  7
  0
VERTEX
  8
MERGEDLAYER-2
 10
3.932674
 20
43.532986
 30
0.000000
  0
VERTEX
  8
MERGEDLAYER-2
 10
4.952206
 20
43.532986
 30
0.000000
  0
VERTEX
  8
MERGEDLAYER-2
 10
4.952206
 20
43.322044
 30
0.000000
  0
VERTEX
  8
MERGEDLAYER-2
 10
3.932674
 20
43.322044
 30
0.000000
  0
SEQEND
  8
MERGEDLAYER-2
  0
POLYLINE
  8
MERGEDLAYER-2
 66
  1
 70
  1
 62
  7
  0
VERTEX
  8
MERGEDLAYER-2
 10
5.772519
 20
43.534286
 30
0.000000
  0
VERTEX
  8
MERGEDLAYER-2
 10
6.674861
 20
43.534286
 30
0.000000
  0
VERTEX
  8
MERGEDLAYER-2
 10
6.674861
 20
43.323349
 30
0.000000
  0
VERTEX
  8
MERGEDLAYER-2
 10
5.772519
 20
43.323349
 30
0.000000
  0
SEQEND
  8
MERGEDLAYER-2
  0
TEXT
  8
MERGEDLAYER-2
 62
  7
 10
3.944217
 20
43.381823
 30
0.000000
 40
0.122727
  1
Cylinder lock
 72
  5
 11
4.926035
 21
43.381823
 31
0.000000
  0
TEXT
  8
MERGEDLAYER-2
 62
  7
 10
5.798762
 20
43.381823
 30
0.000000
 40
0.122727
  1
Bottom bar
 72
  5
 11
6.644217
 21
43.381823
 31
0.000000
  0
POLYLINE
  8
MERGEDLAYER-2
 66
  1
 70
  0
 62
  7
 10
2.692933
 20
43.154510
 30
0.000000
  0
VERTEX
  8
MERGEDLAYER-2
 10
2.692933
 20
43.154510
 30
0.000000
  0
VERTEX
  8
MERGEDLAYER-2
 10
2.692933
 20
41.224885
 30
0.000000
  0
SEQEND
  8
MERGEDLAYER-2
  0
POLYLINE
  8
MERGEDLAYER-2
 66
  1
 70
  0
 62
  7
 10
2.733234
 20
43.154510
 30
0.000000
  0
VERTEX
  8
MERGEDLAYER-2
 10
2.733234
 20
43.154510
 30
0.000000
  0
VERTEX
  8
MERGEDLAYER-2
 10
2.733234
 20
41.224885
 30
0.000000
  0
SEQEND
  8
MERGEDLAYER-2
  0
POLYLINE
  8
MERGEDLAYER-2
 66
  1
 70
  0
 62
  7
 10
4.793246
 20
43.154510
 30
0.000000
  0
VERTEX
  8
MERGEDLAYER-2
 10
4.793246
 20
43.154510
 30
0.000000
  0
VERTEX
  8
MERGEDLAYER-2
 10
4.793246
 20
41.224885
 30
0.000000
  0
SEQEND
  8
MERGEDLAYER-2
  0
POLYLINE
  8
MERGEDLAYER-2
 66
  1
 70
  0
 62
  7
 10
4.833547
 20
43.154510
 30
0.000000
  0
VERTEX
  8
MERGEDLAYER-2
 10
4.833547
 20
43.154510
 30
0.000000
  0
VERTEX
  8
MERGEDLAYER-2
 10
4.833547
 20
41.224885
 30
0.000000
  0
SEQEND
  8
MERGEDLAYER-2
  0
POLYLINE
  8
MERGEDLAYER-2
 66
  1
 70
  0
 62
  7
 10
2.106456
 20
48.372190
 30
0.000000
  0
VERTEX
  8
MERGEDLAYER-2
 10
2.106456
 20
48.372190
 30
0.000000
  0
VERTEX
  8
MERGEDLAYER-2
 10
5.537439
 20
48.372190
 30
0.000000
  0
SEQEND
  8
MERGEDLAYER-2
  0
POLYLINE
  8
MERGEDLAYER-2
 66
  1
 70
  0
 62
  7
 10
2.106964
 20
48.338623
 30
0.000000
  0
VERTEX
  8
MERGEDLAYER-2
 10
2.106964
 20
48.338623
 30
0.000000
  0
VERTEX
  8
MERGEDLAYER-2
 10
5.537439
 20
48.338623
 30
0.000000
  0
SEQEND
  8
MERGEDLAYER-2
  0
POLYLINE
  8
MERGEDLAYER-2
 66
  1
 70
  0
 62
  7
 10
2.106993
 20
48.308825
 30
0.000000
  0
VERTEX
  8
MERGEDLAYER-2
 10
2.106993
 20
48.308825
 30
0.000000
  0
VERTEX
  8
MERGEDLAYER-2
 10
5.537439
 20
48.308825
 30
0.000000
  0
SEQEND
  8
MERGEDLAYER-2
  0
POLYLINE
  8
MERGEDLAYER-2
 66
  1
 70
  0
 62
  7
 10
2.106456
 20
48.274370
 30
0.000000
  0
VERTEX
  8
MERGEDLAYER-2
 10
2.106456
 20
48.274370
 30
0.000000
  0
VERTEX
  8
MERGEDLAYER-2
 10
5.537439
 20
48.274370
 30
0.000000
  0
SEQEND
  8
MERGEDLAYER-2
  0
POLYLINE
  8
MERGEDLAYER-2
 66
  1
 70
  0
 62
  7
 10
2.106456
 20
47.770943
 30
0.000000
  0
VERTEX
  8
MERGEDLAYER-2
 10
2.106456
 20
47.770943
 30
0.000000
  0
VERTEX
  8
MERGEDLAYER-2
 10
5.537439
 20
47.770943
 30
0.000000
  0
SEQEND
  8
MERGEDLAYER-2
  0
POLYLINE
  8
MERGEDLAYER-2
 66
  1
 70
  0
 62
  7
 10
2.106964
 20
47.738002
 30
0.000000
  0
VERTEX
  8
MERGEDLAYER-2
 10
2.106964
 20
47.738002
 30
0.000000
  0
VERTEX
  8
MERGEDLAYER-2
 10
5.537439
 20
47.738002
 30
0.000000
  0
SEQEND
  8
MERGEDLAYER-2
  0
POLYLINE
  8
MERGEDLAYER-2
 66
  1
 70
  0
 62
  7
 10
2.106930
 20
47.707275
 30
0.000000
  0
VERTEX
  8
MERGEDLAYER-2
 10
2.106930
 20
47.707275
 30
0.000000
  0
VERTEX
  8
MERGEDLAYER-2
 10
5.537439
 20
47.707275
 30
0.000000
  0
SEQEND
  8
MERGEDLAYER-2
  0
POLYLINE
  8
MERGEDLAYER-2
 66
  1
 70
  0
 62
  7
 10
2.106456
 20
47.672377
 30
0.000000
  0
VERTEX
  8
MERGEDLAYER-2
 10
2.106456
 20
47.672377
 30
0.000000
  0
VERTEX
  8
MERGEDLAYER-2
 10
5.537439
 20
47.672377
 30
0.000000
  0
SEQEND
  8
MERGEDLAYER-2
  0
CIRCLE
  8
MERGEDLAYER-2
 62
  7
 10
1.986256
 20
48.023415
 30
0.000000
 40
0.011368
  0
POLYLINE
  8
MERGEDLAYER-2
 66
  1
 70
  0
 62
  7
 10
1.996837
 20
47.983216
 30
0.000000
  0
VERTEX
  8
MERGEDLAYER-2
 10
1.996837
 20
47.983216
 30
0.000000
  0
VERTEX
  8
MERGEDLAYER-2
 10
1.998727
 20
47.993595
 30
0.000000
  0
VERTEX
  8
MERGEDLAYER-2
 10
1.995508
 20
48.002273
 30
0.000000
  0
VERTEX
  8
MERGEDLAYER-2
 10
1.987098
 20
48.006130
 30
0.000000
  0
VERTEX
  8
MERGEDLAYER-2
 10
1.978422
 20
48.002912
 30
0.000000
  0
VERTEX
  8
MERGEDLAYER-2
 10
1.974564
 20
47.994500
 30
0.000000
  0
VERTEX
  8
MERGEDLAYER-2
 10
1.977783
 20
47.985827
 30
0.000000
  0
VERTEX
  8
MERGEDLAYER-2
 10
1.984359
 20
47.980762
 30
0.000000
  0
SEQEND
  8
MERGEDLAYER-2
  0
POLYLINE
  8
MERGEDLAYER-2
 66
  1
 70
  0
 62
  7
 10
1.982281
 20
47.972843
 30
0.000000
  0
VERTEX
  8
MERGEDLAYER-2
 10
1.982281
 20
47.972843
 30
0.000000
  0
VERTEX
  8
MERGEDLAYER-2
 10
1.977230
 20
47.972843
 30
0.000000
  0
SEQEND
  8
MERGEDLAYER-2
  0
POLYLINE
  8
MERGEDLAYER-2
 66
  1
 70
  0
 62
  7
 10
1.984359
 20
47.980762
 30
0.000000
  0
VERTEX
  8
MERGEDLAYER-2
 10
1.984359
 20
47.980762
 30
0.000000
  0
VERTEX
  8
MERGEDLAYER-2
 10
1.984354
 20
47.974911
 30
0.000000
  0
SEQEND
  8
MERGEDLAYER-2
  0
POLYLINE
  8
MERGEDLAYER-2
 66
  1
 70
  0
 62
  7
 10
1.982281
 20
47.972843
 30
0.000000
  0
VERTEX
  8
MERGEDLAYER-2
 10
1.982281
 20
47.972843
 30
0.000000
  0
VERTEX
  8
MERGEDLAYER-2
 10
1.984354
 20
47.974911
 30
0.000000
  0
SEQEND
  8
MERGEDLAYER-2
  0
POLYLINE
  8
MERGEDLAYER-2
 66
  1
 70
  0
 62
  7
 10
2.006877
 20
48.023371
 30
0.000000
  0
VERTEX
  8
MERGEDLAYER-2
 10
2.006877
 20
48.023371
 30
0.000000
  0
VERTEX
  8
MERGEDLAYER-2
 10
2.010776
 20
47.984508
 30
0.000000
  0
SEQEND
  8
MERGEDLAYER-2
  0
POLYLINE
  8
MERGEDLAYER-2
 66
  1
 70
  0
 62
  7
 10
2.008562
 20
47.978303
 30
0.000000
  0
VERTEX
  8
MERGEDLAYER-2
 10
2.008562
 20
47.978303
 30
0.000000
  0
VERTEX
  8
MERGEDLAYER-2
 10
2.010776
 20
47.984508
 30
0.000000
  0
SEQEND
  8
MERGEDLAYER-2
  0
POLYLINE
  8
MERGEDLAYER-2
 66
  1
 70
  0
 62
  7
 10
1.996837
 20
47.983216
 30
0.000000
  0
VERTEX
  8
MERGEDLAYER-2
 10
1.996837
 20
47.983216
 30
0.000000
  0
VERTEX
  8
MERGEDLAYER-2
 10
2.000309
 20
47.974170
 30
0.000000
  0
SEQEND
  8
MERGEDLAYER-2
  0
POLYLINE
  8
MERGEDLAYER-2
 66
  1
 70
  0
 62
  7
 10
2.003710
 20
47.973446
 30
0.000000
  0
VERTEX
  8
MERGEDLAYER-2
 10
2.003710
 20
47.973446
 30
0.000000
  0
VERTEX
  8
MERGEDLAYER-2
 10
2.008562
 20
47.978298
 30
0.000000
  0
SEQEND
  8
MERGEDLAYER-2
  0
POLYLINE
  8
MERGEDLAYER-2
 66
  1
 70
  0
 62
  7
 10
2.000309
 20
47.974174
 30
0.000000
  0
VERTEX
  8
MERGEDLAYER-2
 10
2.000309
 20
47.974174
 30
0.000000
  0
VERTEX
  8
MERGEDLAYER-2
 10
2.003709
 20
47.973451
 30
0.000000
  0
SEQEND
  8
MERGEDLAYER-2
  0
POLYLINE
  8
MERGEDLAYER-2
 66
  1
 70
  0
 62
  7
 10
1.969316
 20
47.980757
 30
0.000000
  0
VERTEX
  8
MERGEDLAYER-2
 10
1.969316
 20
47.980757
 30
0.000000
  0
VERTEX
  8
MERGEDLAYER-2
 10
1.977230
 20
47.972843
 30
0.000000
  0
SEQEND
  8
MERGEDLAYER-2
  0
POLYLINE
  8
MERGEDLAYER-2
 66
  1
 70
  0
 62
  7
 10
1.969316
 20
47.980757
 30
0.000000
  0
VERTEX
  8
MERGEDLAYER-2
 10
1.969316
 20
47.980757
 30
0.000000
  0
VERTEX
  8
MERGEDLAYER-2
 10
1.966157
 20
48.003462
 30
0.000000
  0
SEQEND
  8
MERGEDLAYER-2
  0
POLYLINE
  8
MERGEDLAYER-2
 66
  1
 70
  0
 62
  7
 10
1.971021
 20
48.008327
 30
0.000000
  0
VERTEX
  8
MERGEDLAYER-2
 10
1.971021
 20
48.008327
 30
0.000000
  0
VERTEX
  8
MERGEDLAYER-2
 10
1.965481
 20
48.013867
 30
0.000000
  0
SEQEND
  8
MERGEDLAYER-2
  0
POLYLINE
  8
MERGEDLAYER-2
 66
  1
 70
  0
 62
  7
 10
1.971021
 20
48.008327
 30
0.000000
  0
VERTEX
  8
MERGEDLAYER-2
 10
1.971021
 20
48.008327
 30
0.000000
  0
VERTEX
  8
MERGEDLAYER-2
 10
1.966157
 20
48.003462
 30
0.000000
  0
SEQEND
  8
MERGEDLAYER-2
  0
POLYLINE
  8
MERGEDLAYER-2
 66
  1
 70
  0
 62
  7
 10
1.965481
 20
48.013867
 30
0.000000
  0
VERTEX
  8
MERGEDLAYER-2
 10
1.965481
 20
48.013867
 30
0.000000
  0
VERTEX
  8
MERGEDLAYER-2
 10
1.965481
 20
48.032875
 30
0.000000
  0
SEQEND
  8
MERGEDLAYER-2
  0
POLYLINE
  8
MERGEDLAYER-2
 66
  1
 70
  0
 62
  7
 10
1.984359
 20
48.065976
 30
0.000000
  0
VERTEX
  8
MERGEDLAYER-2
 10
1.984359
 20
48.065976
 30
0.000000
  0
VERTEX
  8
MERGEDLAYER-2
 10
1.975635
 20
48.061621
 30
0.000000
  0
VERTEX
  8
MERGEDLAYER-2
 10
1.975329
 20
48.052375
 30
0.000000
  0
VERTEX
  8
MERGEDLAYER-2
 10
1.981653
 20
48.045619
 30
0.000000
  0
VERTEX
  8
MERGEDLAYER-2
 10
1.990901
 20
48.045313
 30
0.000000
  0
VERTEX
  8
MERGEDLAYER-2
 10
1.997657
 20
48.051638
 30
0.000000
  0
VERTEX
  8
MERGEDLAYER-2
 10
1.997962
 20
48.060884
 30
0.000000
  0
VERTEX
  8
MERGEDLAYER-2
 10
1.996837
 20
48.063525
 30
0.000000
  0
SEQEND
  8
MERGEDLAYER-2
  0
POLYLINE
  8
MERGEDLAYER-2
 66
  1
 70
  0
 62
  7
 10
1.982281
 20
48.073899
 30
0.000000
  0
VERTEX
  8
MERGEDLAYER-2
 10
1.982281
 20
48.073899
 30
0.000000
  0
VERTEX
  8
MERGEDLAYER-2
 10
1.977230
 20
48.073899
 30
0.000000
  0
SEQEND
  8
MERGEDLAYER-2
  0
POLYLINE
  8
MERGEDLAYER-2
 66
  1
 70
  0
 62
  7
 10
1.984359
 20
48.065976
 30
0.000000
  0
VERTEX
  8
MERGEDLAYER-2
 10
1.984359
 20
48.065976
 30
0.000000
  0
VERTEX
  8
MERGEDLAYER-2
 10
1.984354
 20
48.071826
 30
0.000000
  0
SEQEND
  8
MERGEDLAYER-2
  0
POLYLINE
  8
MERGEDLAYER-2
 66
  1
 70
  0
 62
  7
 10
1.984354
 20
48.071826
 30
0.000000
  0
VERTEX
  8
MERGEDLAYER-2
 10
1.984354
 20
48.071826
 30
0.000000
  0
VERTEX
  8
MERGEDLAYER-2
 10
1.982281
 20
48.073899
 30
0.000000
  0
SEQEND
  8
MERGEDLAYER-2
  0
POLYLINE
  8
MERGEDLAYER-2
 66
  1
 70
  0
 62
  7
 10
2.006877
 20
48.023371
 30
0.000000
  0
VERTEX
  8
MERGEDLAYER-2
 10
2.006877
 20
48.023371
 30
0.000000
  0
VERTEX
  8
MERGEDLAYER-2
 10
2.010776
 20
48.062234
 30
0.000000
  0
SEQEND
  8
MERGEDLAYER-2
  0
POLYLINE
  8
MERGEDLAYER-2
 66
  1
 70
  0
 62
  7
 10
2.010776
 20
48.062234
 30
0.000000
  0
VERTEX
  8
MERGEDLAYER-2
 10
2.010776
 20
48.062234
 30
0.000000
  0
VERTEX
  8
MERGEDLAYER-2
 10
2.008562
 20
48.068439
 30
0.000000
  0
SEQEND
  8
MERGEDLAYER-2
  0
POLYLINE
  8
MERGEDLAYER-2
 66
  1
 70
  0
 62
  7
 10
1.996837
 20
48.063525
 30
0.000000
  0
VERTEX
  8
MERGEDLAYER-2
 10
1.996837
 20
48.063525
 30
0.000000
  0
VERTEX
  8
MERGEDLAYER-2
 10
2.000309
 20
48.072567
 30
0.000000
  0
SEQEND
  8
MERGEDLAYER-2
  0
POLYLINE
  8
MERGEDLAYER-2
 66
  1
 70
  0
 62
  7
 10
2.003710
 20
48.073291
 30
0.000000
  0
VERTEX
  8
MERGEDLAYER-2
 10
2.003710
 20
48.073291
 30
0.000000
  0
VERTEX
  8
MERGEDLAYER-2
 10
2.008562
 20
48.068439
 30
0.000000
  0
SEQEND
  8
MERGEDLAYER-2
  0
POLYLINE
  8
MERGEDLAYER-2
 66
  1
 70
  0
 62
  7
 10
2.003709
 20
48.073291
 30
0.000000
  0
VERTEX
  8
MERGEDLAYER-2
 10
2.003709
 20
48.073291
 30
0.000000
  0
VERTEX
  8
MERGEDLAYER-2
 10
2.000309
 20
48.072567
 30
0.000000
  0
SEQEND
  8
MERGEDLAYER-2
  0
POLYLINE
  8
MERGEDLAYER-2
 66
  1
 70
  0
 62
  7
 10
1.969316
 20
48.065985
 30
0.000000
  0
VERTEX
  8
MERGEDLAYER-2
 10
1.969316
 20
48.065985
 30
0.000000
  0
VERTEX
  8
MERGEDLAYER-2
 10
1.977230
 20
48.073899
 30
0.000000
  0
SEQEND
  8
MERGEDLAYER-2
  0
POLYLINE
  8
MERGEDLAYER-2
 66
  1
 70
  0
 62
  7
 10
1.969316
 20
48.065985
 30
0.000000
  0
VERTEX
  8
MERGEDLAYER-2
 10
1.969316
 20
48.065985
 30
0.000000
  0
VERTEX
  8
MERGEDLAYER-2
 10
1.966157
 20
48.043279
 30
0.000000
  0
SEQEND
  8
MERGEDLAYER-2
  0
POLYLINE
  8
MERGEDLAYER-2
 66
  1
 70
  0
 62
  7
 10
1.971021
 20
48.038414
 30
0.000000
  0
VERTEX
  8
MERGEDLAYER-2
 10
1.971021
 20
48.038414
 30
0.000000
  0
VERTEX
  8
MERGEDLAYER-2
 10
1.965481
 20
48.032875
 30
0.000000
  0
SEQEND
  8
MERGEDLAYER-2
  0
POLYLINE
  8
MERGEDLAYER-2
 66
  1
 70
  0
 62
  7
 10
1.971021
 20
48.038414
 30
0.000000
  0
VERTEX
  8
MERGEDLAYER-2
 10
1.971021
 20
48.038414
 30
0.000000
  0
VERTEX
  8
MERGEDLAYER-2
 10
1.966157
 20
48.043279
 30
0.000000
  0
SEQEND
  8
MERGEDLAYER-2
  0
CIRCLE
  8
MERGEDLAYER-2
 62
  7
 10
1.986331
 20
47.722705
 30
0.000000
 40
0.011368
  0
POLYLINE
  8
MERGEDLAYER-2
 66
  1
 70
  0
 62
  7
 10
1.996913
 20
47.682506
 30
0.000000
  0
VERTEX
  8
MERGEDLAYER-2
 10
1.996913
 20
47.682506
 30
0.000000
  0
VERTEX
  8
MERGEDLAYER-2
 10
1.998802
 20
47.692889
 30
0.000000
  0
VERTEX
  8
MERGEDLAYER-2
 10
1.995584
 20
47.701563
 30
0.000000
  0
VERTEX
  8
MERGEDLAYER-2
 10
1.987173
 20
47.705420
 30
0.000000
  0
VERTEX
  8
MERGEDLAYER-2
 10
1.978498
 20
47.702202
 30
0.000000
  0
VERTEX
  8
MERGEDLAYER-2
 10
1.974640
 20
47.693790
 30
0.000000
  0
VERTEX
  8
MERGEDLAYER-2
 10
1.977858
 20
47.685116
 30
0.000000
  0
VERTEX
  8
MERGEDLAYER-2
 10
1.984434
 20
47.680056
 30
0.000000
  0
SEQEND
  8
MERGEDLAYER-2
  0
POLYLINE
  8
MERGEDLAYER-2
 66
  1
 70
  0
 62
  7
 10
1.982357
 20
47.672132
 30
0.000000
  0
VERTEX
  8
MERGEDLAYER-2
 10
1.982357
 20
47.672132
 30
0.000000
  0
VERTEX
  8
MERGEDLAYER-2
 10
1.977305
 20
47.672132
 30
0.000000
  0
SEQEND
  8
MERGEDLAYER-2
  0
POLYLINE
  8
MERGEDLAYER-2
 66
  1
 70
  0
 62
  7
 10
1.984434
 20
47.680051
 30
0.000000
  0
VERTEX
  8
MERGEDLAYER-2
 10
1.984434
 20
47.680051
 30
0.000000
  0
VERTEX
  8
MERGEDLAYER-2
 10
1.984430
 20
47.674205
 30
0.000000
  0
SEQEND
  8
MERGEDLAYER-2
  0
POLYLINE
  8
MERGEDLAYER-2
 66
  1
 70
  0
 62
  7
 10
1.982357
 20
47.672132
 30
0.000000
  0
VERTEX
  8
MERGEDLAYER-2
 10
1.982357
 20
47.672132
 30
0.000000
  0
VERTEX
  8
MERGEDLAYER-2
 10
1.984430
 20
47.674205
 30
0.000000
  0
SEQEND
  8
MERGEDLAYER-2
  0
POLYLINE
  8
MERGEDLAYER-2
 66
  1
 70
  0
 62
  7
 10
2.006953
 20
47.722661
 30
0.000000
  0
VERTEX
  8
MERGEDLAYER-2
 10
2.006953
 20
47.722661
 30
0.000000
  0
VERTEX
  8
MERGEDLAYER-2
 10
2.010851
 20
47.683798
 30
0.000000
  0
SEQEND
  8
MERGEDLAYER-2
  0
POLYLINE
  8
MERGEDLAYER-2
 66
  1
 70
  0
 62
  7
 10
2.008637
 20
47.677592
 30
0.000000
  0
VERTEX
  8
MERGEDLAYER-2
 10
2.008637
 20
47.677592
 30
0.000000
  0
VERTEX
  8
MERGEDLAYER-2
 10
2.010851
 20
47.683798
 30
0.000000
  0
SEQEND
  8
MERGEDLAYER-2
  0
POLYLINE
  8
MERGEDLAYER-2
 66
  1
 70
  0
 62
  7
 10
1.996913
 20
47.682506
 30
0.000000
  0
VERTEX
  8
MERGEDLAYER-2
 10
1.996913
 20
47.682506
 30
0.000000
  0
VERTEX
  8
MERGEDLAYER-2
 10
2.000384
 20
47.673464
 30
0.000000
  0
SEQEND
  8
MERGEDLAYER-2
  0
POLYLINE
  8
MERGEDLAYER-2
 66
  1
 70
  0
 62
  7
 10
2.003786
 20
47.672741
 30
0.000000
  0
VERTEX
  8
MERGEDLAYER-2
 10
2.003786
 20
47.672741
 30
0.000000
  0
VERTEX
  8
MERGEDLAYER-2
 10
2.008637
 20
47.677592
 30
0.000000
  0
SEQEND
  8
MERGEDLAYER-2
  0
POLYLINE
  8
MERGEDLAYER-2
 66
  1
 70
  0
 62
  7
 10
2.000384
 20
47.673464
 30
0.000000
  0
VERTEX
  8
MERGEDLAYER-2
 10
2.000384
 20
47.673464
 30
0.000000
  0
VERTEX
  8
MERGEDLAYER-2
 10
2.003785
 20
47.672741
 30
0.000000
  0
SEQEND
  8
MERGEDLAYER-2
  0
POLYLINE
  8
MERGEDLAYER-2
 66
  1
 70
  0
 62
  7
 10
1.969391
 20
47.680047
 30
0.000000
  0
VERTEX
  8
MERGEDLAYER-2
 10
1.969391
 20
47.680047
 30
0.000000
  0
VERTEX
  8
MERGEDLAYER-2
 10
1.977305
 20
47.672132
 30
0.000000
  0
SEQEND
  8
MERGEDLAYER-2
  0
POLYLINE
  8
MERGEDLAYER-2
 66
  1
 70
  0
 62
  7
 10
1.969391
 20
47.680047
 30
0.000000
  0
VERTEX
  8
MERGEDLAYER-2
 10
1.969391
 20
47.680047
 30
0.000000
  0
VERTEX
  8
MERGEDLAYER-2
 10
1.966233
 20
47.702752
 30
0.000000
  0
SEQEND
  8
MERGEDLAYER-2
  0
POLYLINE
  8
MERGEDLAYER-2
 66
  1
 70
  0
 62
  7
 10
1.971096
 20
47.707617
 30
0.000000
  0
VERTEX
  8
MERGEDLAYER-2
 10
1.971096
 20
47.707617
 30
0.000000
  0
VERTEX
  8
MERGEDLAYER-2
 10
1.965556
 20
47.713157
 30
0.000000
  0
SEQEND
  8
MERGEDLAYER-2
  0
POLYLINE
  8
MERGEDLAYER-2
 66
  1
 70
  0
 62
  7
 10
1.971096
 20
47.707617
 30
0.000000
  0
VERTEX
  8
MERGEDLAYER-2
 10
1.971096
 20
47.707617
 30
0.000000
  0
VERTEX
  8
MERGEDLAYER-2
 10
1.966233
 20
47.702752
 30
0.000000
  0
SEQEND
  8
MERGEDLAYER-2
  0
POLYLINE
  8
MERGEDLAYER-2
 66
  1
 70
  0
 62
  7
 10
1.965556
 20
47.713157
 30
0.000000
  0
VERTEX
  8
MERGEDLAYER-2
 10
1.965556
 20
47.713157
 30
0.000000
  0
VERTEX
  8
MERGEDLAYER-2
 10
1.965556
 20
47.732164
 30
0.000000
  0
SEQEND
  8
MERGEDLAYER-2
  0
POLYLINE
  8
MERGEDLAYER-2
 66
  1
 70
  0
 62
  7
 10
1.984434
 20
47.765270
 30
0.000000
  0
VERTEX
  8
MERGEDLAYER-2
 10
1.984434
 20
47.765270
 30
0.000000
  0
VERTEX
  8
MERGEDLAYER-2
 10
1.975710
 20
47.760915
 30
0.000000
  0
VERTEX
  8
MERGEDLAYER-2
 10
1.975405
 20
47.751665
 30
0.000000
  0
VERTEX
  8
MERGEDLAYER-2
 10
1.981728
 20
47.744909
 30
0.000000
  0
VERTEX
  8
MERGEDLAYER-2
 10
1.990977
 20
47.744602
 30
0.000000
  0
VERTEX
  8
MERGEDLAYER-2
 10
1.997732
 20
47.750928
 30
0.000000
  0
VERTEX
  8
MERGEDLAYER-2
 10
1.998037
 20
47.760174
 30
0.000000
  0
VERTEX
  8
MERGEDLAYER-2
 10
1.996913
 20
47.762815
 30
0.000000
  0
SEQEND
  8
MERGEDLAYER-2
  0
POLYLINE
  8
MERGEDLAYER-2
 66
  1
 70
  0
 62
  7
 10
1.982357
 20
47.773189
 30
0.000000
  0
VERTEX
  8
MERGEDLAYER-2
 10
1.982357
 20
47.773189
 30
0.000000
  0
VERTEX
  8
MERGEDLAYER-2
 10
1.977305
 20
47.773189
 30
0.000000
  0
SEQEND
  8
MERGEDLAYER-2
  0
POLYLINE
  8
MERGEDLAYER-2
 66
  1
 70
  0
 62
  7
 10
1.984434
 20
47.765270
 30
0.000000
  0
VERTEX
  8
MERGEDLAYER-2
 10
1.984434
 20
47.765270
 30
0.000000
  0
VERTEX
  8
MERGEDLAYER-2
 10
1.984430
 20
47.771120
 30
0.000000
  0
SEQEND
  8
MERGEDLAYER-2
  0
POLYLINE
  8
MERGEDLAYER-2
 66
  1
 70
  0
 62
  7
 10
1.984430
 20
47.771120
 30
0.000000
  0
VERTEX
  8
MERGEDLAYER-2
 10
1.984430
 20
47.771120
 30
0.000000
  0
VERTEX
  8
MERGEDLAYER-2
 10
1.982357
 20
47.773189
 30
0.000000
  0
SEQEND
  8
MERGEDLAYER-2
  0
POLYLINE
  8
MERGEDLAYER-2
 66
  1
 70
  0
 62
  7
 10
2.006953
 20
47.722661
 30
0.000000
  0
VERTEX
  8
MERGEDLAYER-2
 10
2.006953
 20
47.722661
 30
0.000000
  0
VERTEX
  8
MERGEDLAYER-2
 10
2.010851
 20
47.761523
 30
0.000000
  0
SEQEND
  8
MERGEDLAYER-2
  0
POLYLINE
  8
MERGEDLAYER-2
 66
  1
 70
  0
 62
  7
 10
2.010851
 20
47.761523
 30
0.000000
  0
VERTEX
  8
MERGEDLAYER-2
 10
2.010851
 20
47.761523
 30
0.000000
  0
VERTEX
  8
MERGEDLAYER-2
 10
2.008637
 20
47.767729
 30
0.000000
  0
SEQEND
  8
MERGEDLAYER-2
  0
POLYLINE
  8
MERGEDLAYER-2
 66
  1
 70
  0
 62
  7
 10
1.996913
 20
47.762815
 30
0.000000
  0
VERTEX
  8
MERGEDLAYER-2
 10
1.996913
 20
47.762815
 30
0.000000
  0
VERTEX
  8
MERGEDLAYER-2
 10
2.000384
 20
47.771862
 30
0.000000
  0
SEQEND
  8
MERGEDLAYER-2
  0
POLYLINE
  8
MERGEDLAYER-2
 66
  1
 70
  0
 62
  7
 10
2.003786
 20
47.772581
 30
0.000000
  0
VERTEX
  8
MERGEDLAYER-2
 10
2.003786
 20
47.772581
 30
0.000000
  0
VERTEX
  8
MERGEDLAYER-2
 10
2.008637
 20
47.767729
 30
0.000000
  0
SEQEND
  8
MERGEDLAYER-2
  0
POLYLINE
  8
MERGEDLAYER-2
 66
  1
 70
  0
 62
  7
 10
2.003785
 20
47.772581
 30
0.000000
  0
VERTEX
  8
MERGEDLAYER-2
 10
2.003785
 20
47.772581
 30
0.000000
  0
VERTEX
  8
MERGEDLAYER-2
 10
2.000384
 20
47.771857
 30
0.000000
  0
SEQEND
  8
MERGEDLAYER-2
  0
POLYLINE
  8
MERGEDLAYER-2
 66
  1
 70
  0
 62
  7
 10
1.969391
 20
47.765274
 30
0.000000
  0
VERTEX
  8
MERGEDLAYER-2
 10
1.969391
 20
47.765274
 30
0.000000
  0
VERTEX
  8
MERGEDLAYER-2
 10
1.977305
 20
47.773189
 30
0.000000
  0
SEQEND
  8
MERGEDLAYER-2
  0
POLYLINE
  8
MERGEDLAYER-2
 66
  1
 70
  0
 62
  7
 10
1.969391
 20
47.765274
 30
0.000000
  0
VERTEX
  8
MERGEDLAYER-2
 10
1.969391
 20
47.765274
 30
0.000000
  0
VERTEX
  8
MERGEDLAYER-2
 10
1.966233
 20
47.742569
 30
0.000000
  0
SEQEND
  8
MERGEDLAYER-2
  0
POLYLINE
  8
MERGEDLAYER-2
 66
  1
 70
  0
 62
  7
 10
1.971096
 20
47.737704
 30
0.000000
  0
VERTEX
  8
MERGEDLAYER-2
 10
1.971096
 20
47.737704
 30
0.000000
  0
VERTEX
  8
MERGEDLAYER-2
 10
1.965556
 20
47.732164
 30
0.000000
  0
SEQEND
  8
MERGEDLAYER-2
  0
POLYLINE
  8
MERGEDLAYER-2
 66
  1
 70
  0
 62
  7
 10
1.971096
 20
47.737704
 30
0.000000
  0
VERTEX
  8
MERGEDLAYER-2
 10
1.971096
 20
47.737704
 30
0.000000
  0
VERTEX
  8
MERGEDLAYER-2
 10
1.966233
 20
47.742569
 30
0.000000
  0
SEQEND
  8
MERGEDLAYER-2
  0
CIRCLE
  8
MERGEDLAYER-2
 62
  7
 10
1.986331
 20
48.324032
 30
0.000000
 40
0.011368
  0
POLYLINE
  8
MERGEDLAYER-2
 66
  1
 70
  0
 62
  7
 10
1.996913
 20
48.283833
 30
0.000000
  0
VERTEX
  8
MERGEDLAYER-2
 10
1.996913
 20
48.283833
 30
0.000000
  0
VERTEX
  8
MERGEDLAYER-2
 10
1.998802
 20
48.294216
 30
0.000000
  0
VERTEX
  8
MERGEDLAYER-2
 10
1.995584
 20
48.302890
 30
0.000000
  0
VERTEX
  8
MERGEDLAYER-2
 10
1.987173
 20
48.306747
 30
0.000000
  0
VERTEX
  8
MERGEDLAYER-2
 10
1.978498
 20
48.303529
 30
0.000000
  0
VERTEX
  8
MERGEDLAYER-2
 10
1.974640
 20
48.295117
 30
0.000000
  0
VERTEX
  8
MERGEDLAYER-2
 10
1.977858
 20
48.286444
 30
0.000000
  0
VERTEX
  8
MERGEDLAYER-2
 10
1.984434
 20
48.281383
 30
0.000000
  0
SEQEND
  8
MERGEDLAYER-2
  0
POLYLINE
  8
MERGEDLAYER-2
 66
  1
 70
  0
 62
  7
 10
1.982357
 20
48.273460
 30
0.000000
  0
VERTEX
  8
MERGEDLAYER-2
 10
1.982357
 20
48.273460
 30
0.000000
  0
VERTEX
  8
MERGEDLAYER-2
 10
1.977305
 20
48.273460
 30
0.000000
  0
SEQEND
  8
MERGEDLAYER-2
  0
POLYLINE
  8
MERGEDLAYER-2
 66
  1
 70
  0
 62
  7
 10
1.984434
 20
48.281383
 30
0.000000
  0
VERTEX
  8
MERGEDLAYER-2
 10
1.984434
 20
48.281383
 30
0.000000
  0
VERTEX
  8
MERGEDLAYER-2
 10
1.984430
 20
48.275533
 30
0.000000
  0
SEQEND
  8
MERGEDLAYER-2
  0
POLYLINE
  8
MERGEDLAYER-2
 66
  1
 70
  0
 62
  7
 10
1.982357
 20
48.273460
 30
0.000000
  0
VERTEX
  8
MERGEDLAYER-2
 10
1.982357
 20
48.273460
 30
0.000000
  0
VERTEX
  8
MERGEDLAYER-2
 10
1.984430
 20
48.275533
 30
0.000000
  0
SEQEND
  8
MERGEDLAYER-2
  0
POLYLINE
  8
MERGEDLAYER-2
 66
  1
 70
  0
 62
  7
 10
2.006953
 20
48.323988
 30
0.000000
  0
VERTEX
  8
MERGEDLAYER-2
 10
2.006953
 20
48.323988
 30
0.000000
  0
VERTEX
  8
MERGEDLAYER-2
 10
2.010851
 20
48.285125
 30
0.000000
  0
SEQEND
  8
MERGEDLAYER-2
  0
POLYLINE
  8
MERGEDLAYER-2
 66
  1
 70
  0
 62
  7
 10
2.008637
 20
48.278920
 30
0.000000
  0
VERTEX
  8
MERGEDLAYER-2
 10
2.008637
 20
48.278920
 30
0.000000
  0
VERTEX
  8
MERGEDLAYER-2
 10
2.010851
 20
48.285125
 30
0.000000
  0
SEQEND
  8
MERGEDLAYER-2
  0
POLYLINE
  8
MERGEDLAYER-2
 66
  1
 70
  0
 62
  7
 10
1.996913
 20
48.283838
 30
0.000000
  0
VERTEX
  8
MERGEDLAYER-2
 10
1.996913
 20
48.283838
 30
0.000000
  0
VERTEX
  8
MERGEDLAYER-2
 10
2.000384
 20
48.274791
 30
0.000000
  0
SEQEND
  8
MERGEDLAYER-2
  0
POLYLINE
  8
MERGEDLAYER-2
 66
  1
 70
  0
 62
  7
 10
2.003786
 20
48.274068
 30
0.000000
  0
VERTEX
  8
MERGEDLAYER-2
 10
2.003786
 20
48.274068
 30
0.000000
  0
VERTEX
  8
MERGEDLAYER-2
 10
2.008637
 20
48.278920
 30
0.000000
  0
SEQEND
  8
MERGEDLAYER-2
  0
POLYLINE
  8
MERGEDLAYER-2
 66
  1
 70
  0
 62
  7
 10
2.000384
 20
48.274791
 30
0.000000
  0
VERTEX
  8
MERGEDLAYER-2
 10
2.000384
 20
48.274791
 30
0.000000
  0
VERTEX
  8
MERGEDLAYER-2
 10
2.003785
 20
48.274068
 30
0.000000
  0
SEQEND
  8
MERGEDLAYER-2
  0
POLYLINE
  8
MERGEDLAYER-2
 66
  1
 70
  0
 62
  7
 10
1.969391
 20
48.281374
 30
0.000000
  0
VERTEX
  8
MERGEDLAYER-2
 10
1.969391
 20
48.281374
 30
0.000000
  0
VERTEX
  8
MERGEDLAYER-2
 10
1.977305
 20
48.273460
 30
0.000000
  0
SEQEND
  8
MERGEDLAYER-2
  0
POLYLINE
  8
MERGEDLAYER-2
 66
  1
 70
  0
 62
  7
 10
1.969391
 20
48.281374
 30
0.000000
  0
VERTEX
  8
MERGEDLAYER-2
 10
1.969391
 20
48.281374
 30
0.000000
  0
VERTEX
  8
MERGEDLAYER-2
 10
1.966233
 20
48.304084
 30
0.000000
  0
SEQEND
  8
MERGEDLAYER-2
  0
POLYLINE
  8
MERGEDLAYER-2
 66
  1
 70
  0
 62
  7
 10
1.971096
 20
48.308944
 30
0.000000
  0
VERTEX
  8
MERGEDLAYER-2
 10
1.971096
 20
48.308944
 30
0.000000
  0
VERTEX
  8
MERGEDLAYER-2
 10
1.965556
 20
48.314484
 30
0.000000
  0
SEQEND
  8
MERGEDLAYER-2
  0
POLYLINE
  8
MERGEDLAYER-2
 66
  1
 70
  0
 62
  7
 10
1.971096
 20
48.308944
 30
0.000000
  0
VERTEX
  8
MERGEDLAYER-2
 10
1.971096
 20
48.308944
 30
0.000000
  0
VERTEX
  8
MERGEDLAYER-2
 10
1.966233
 20
48.304084
 30
0.000000
  0
SEQEND
  8
MERGEDLAYER-2
  0
POLYLINE
  8
MERGEDLAYER-2
 66
  1
 70
  0
 62
  7
 10
1.965556
 20
48.314484
 30
0.000000
  0
VERTEX
  8
MERGEDLAYER-2
 10
1.965556
 20
48.314484
 30
0.000000
  0
VERTEX
  8
MERGEDLAYER-2
 10
1.965556
 20
48.333492
 30
0.000000
  0
SEQEND
  8
MERGEDLAYER-2
  0
POLYLINE
  8
MERGEDLAYER-2
 66
  1
 70
  0
 62
  7
 10
1.984434
 20
48.366597
 30
0.000000
  0
VERTEX
  8
MERGEDLAYER-2
 10
1.984434
 20
48.366597
 30
0.000000
  0
VERTEX
  8
MERGEDLAYER-2
 10
1.975710
 20
48.362243
 30
0.000000
  0
VERTEX
  8
MERGEDLAYER-2
 10
1.975405
 20
48.352992
 30
0.000000
  0
VERTEX
  8
MERGEDLAYER-2
 10
1.981728
 20
48.346240
 30
0.000000
  0
VERTEX
  8
MERGEDLAYER-2
 10
1.990977
 20
48.345934
 30
0.000000
  0
VERTEX
  8
MERGEDLAYER-2
 10
1.997732
 20
48.352255
 30
0.000000
  0
VERTEX
  8
MERGEDLAYER-2
 10
1.998037
 20
48.361506
 30
0.000000
  0
VERTEX
  8
MERGEDLAYER-2
 10
1.996913
 20
48.364142
 30
0.000000
  0
SEQEND
  8
MERGEDLAYER-2
  0
POLYLINE
  8
MERGEDLAYER-2
 66
  1
 70
  0
 62
  7
 10
1.982357
 20
48.374516
 30
0.000000
  0
VERTEX
  8
MERGEDLAYER-2
 10
1.982357
 20
48.374516
 30
0.000000
  0
VERTEX
  8
MERGEDLAYER-2
 10
1.977305
 20
48.374516
 30
0.000000
  0
SEQEND
  8
MERGEDLAYER-2
  0
POLYLINE
  8
MERGEDLAYER-2
 66
  1
 70
  0
 62
  7
 10
1.984434
 20
48.366597
 30
0.000000
  0
VERTEX
  8
MERGEDLAYER-2
 10
1.984434
 20
48.366597
 30
0.000000
  0
VERTEX
  8
MERGEDLAYER-2
 10
1.984430
 20
48.372448
 30
0.000000
  0
SEQEND
  8
MERGEDLAYER-2
  0
POLYLINE
  8
MERGEDLAYER-2
 66
  1
 70
  0
 62
  7
 10
1.984430
 20
48.372448
 30
0.000000
  0
VERTEX
  8
MERGEDLAYER-2
 10
1.984430
 20
48.372448
 30
0.000000
  0
VERTEX
  8
MERGEDLAYER-2
 10
1.982357
 20
48.374516
 30
0.000000
  0
SEQEND
  8
MERGEDLAYER-2
  0
POLYLINE
  8
MERGEDLAYER-2
 66
  1
 70
  0
 62
  7
 10
2.006953
 20
48.323988
 30
0.000000
  0
VERTEX
  8
MERGEDLAYER-2
 10
2.006953
 20
48.323988
 30
0.000000
  0
VERTEX
  8
MERGEDLAYER-2
 10
2.010851
 20
48.362855
 30
0.000000
  0
SEQEND
  8
MERGEDLAYER-2
  0
POLYLINE
  8
MERGEDLAYER-2
 66
  1
 70
  0
 62
  7
 10
2.010851
 20
48.362855
 30
0.000000
  0
VERTEX
  8
MERGEDLAYER-2
 10
2.010851
 20
48.362855
 30
0.000000
  0
VERTEX
  8
MERGEDLAYER-2
 10
2.008637
 20
48.369061
 30
0.000000
  0
SEQEND
  8
MERGEDLAYER-2
  0
POLYLINE
  8
MERGEDLAYER-2
 66
  1
 70
  0
 62
  7
 10
1.996913
 20
48.364142
 30
0.000000
  0
VERTEX
  8
MERGEDLAYER-2
 10
1.996913
 20
48.364142
 30
0.000000
  0
VERTEX
  8
MERGEDLAYER-2
 10
2.000384
 20
48.373189
 30
0.000000
  0
SEQEND
  8
MERGEDLAYER-2
  0
POLYLINE
  8
MERGEDLAYER-2
 66
  1
 70
  0
 62
  7
 10
2.003786
 20
48.373912
 30
0.000000
  0
VERTEX
  8
MERGEDLAYER-2
 10
2.003786
 20
48.373912
 30
0.000000
  0
VERTEX
  8
MERGEDLAYER-2
 10
2.008637
 20
48.369061
 30
0.000000
  0
SEQEND
  8
MERGEDLAYER-2
  0
POLYLINE
  8
MERGEDLAYER-2
 66
  1
 70
  0
 62
  7
 10
2.003785
 20
48.373912
 30
0.000000
  0
VERTEX
  8
MERGEDLAYER-2
 10
2.003785
 20
48.373912
 30
0.000000
  0
VERTEX
  8
MERGEDLAYER-2
 10
2.000384
 20
48.373189
 30
0.000000
  0
SEQEND
  8
MERGEDLAYER-2
  0
POLYLINE
  8
MERGEDLAYER-2
 66
  1
 70
  0
 62
  7
 10
1.969391
 20
48.366602
 30
0.000000
  0
VERTEX
  8
MERGEDLAYER-2
 10
1.969391
 20
48.366602
 30
0.000000
  0
VERTEX
  8
MERGEDLAYER-2
 10
1.977305
 20
48.374516
 30
0.000000
  0
SEQEND
  8
MERGEDLAYER-2
  0
POLYLINE
  8
MERGEDLAYER-2
 66
  1
 70
  0
 62
  7
 10
1.969391
 20
48.366602
 30
0.000000
  0
VERTEX
  8
MERGEDLAYER-2
 10
1.969391
 20
48.366602
 30
0.000000
  0
VERTEX
  8
MERGEDLAYER-2
 10
1.966233
 20
48.343896
 30
0.000000
  0
SEQEND
  8
MERGEDLAYER-2
  0
POLYLINE
  8
MERGEDLAYER-2
 66
  1
 70
  0
 62
  7
 10
1.971096
 20
48.339031
 30
0.000000
  0
VERTEX
  8
MERGEDLAYER-2
 10
1.971096
 20
48.339031
 30
0.000000
  0
VERTEX
  8
MERGEDLAYER-2
 10
1.965556
 20
48.333492
 30
0.000000
  0
SEQEND
  8
MERGEDLAYER-2
  0
POLYLINE
  8
MERGEDLAYER-2
 66
  1
 70
  0
 62
  7
 10
1.971096
 20
48.339031
 30
0.000000
  0
VERTEX
  8
MERGEDLAYER-2
 10
1.971096
 20
48.339031
 30
0.000000
  0
VERTEX
  8
MERGEDLAYER-2
 10
1.966233
 20
48.343896
 30
0.000000
  0
SEQEND
  8
MERGEDLAYER-2
  0
POLYLINE
  8
MERGEDLAYER-2
 66
  1
 70
  0
 62
  7
 10
1.984524
 20
48.084908
 30
0.000000
  0
VERTEX
  8
MERGEDLAYER-2
 10
1.984524
 20
48.084908
 30
0.000000
  0
VERTEX
  8
MERGEDLAYER-2
 10
1.984524
 20
48.262340
 30
0.000000
  0
SEQEND
  8
MERGEDLAYER-2
  0
POLYLINE
  8
MERGEDLAYER-2
 66
  1
 70
  0
 62
  7
 10
1.992103
 20
48.084934
 30
0.000000
  0
VERTEX
  8
MERGEDLAYER-2
 10
1.992103
 20
48.084934
 30
0.000000
  0
VERTEX
  8
MERGEDLAYER-2
 10
1.992103
 20
48.262318
 30
0.000000
  0
SEQEND
  8
MERGEDLAYER-2
  0
POLYLINE
  8
MERGEDLAYER-2
 66
  1
 70
  0
 62
  7
 10
1.983577
 20
48.065004
 30
0.000000
  0
VERTEX
  8
MERGEDLAYER-2
 10
1.983577
 20
48.065004
 30
0.000000
  0
VERTEX
  8
MERGEDLAYER-2
 10
1.975687
 20
48.060596
 30
0.000000
  0
VERTEX
  8
MERGEDLAYER-2
 10
1.976008
 20
48.051900
 30
0.000000
  0
VERTEX
  8
MERGEDLAYER-2
 10
1.982385
 20
48.045978
 30
0.000000
  0
VERTEX
  8
MERGEDLAYER-2
 10
1.991081
 20
48.046298
 30
0.000000
  0
VERTEX
  8
MERGEDLAYER-2
 10
1.997003
 20
48.052677
 30
0.000000
  0
VERTEX
  8
MERGEDLAYER-2
 10
1.996682
 20
48.061373
 30
0.000000
  0
VERTEX
  8
MERGEDLAYER-2
 10
1.993050
 20
48.065004
 30
0.000000
  0
SEQEND
  8
MERGEDLAYER-2
  0
POLYLINE
  8
MERGEDLAYER-2
 66
  1
 70
  0
 62
  7
 10
1.983554
 20
48.064995
 30
0.000000
  0
VERTEX
  8
MERGEDLAYER-2
 10
1.983554
 20
48.064995
 30
0.000000
  0
VERTEX
  8
MERGEDLAYER-2
 10
1.975678
 20
48.060569
 30
0.000000
  0
VERTEX
  8
MERGEDLAYER-2
 10
1.976019
 20
48.051873
 30
0.000000
  0
VERTEX
  8
MERGEDLAYER-2
 10
1.982409
 20
48.045969
 30
0.000000
  0
VERTEX
  8
MERGEDLAYER-2
 10
1.991105
 20
48.046307
 30
0.000000
  0
VERTEX
  8
MERGEDLAYER-2
 10
1.997012
 20
48.052699
 30
0.000000
  0
VERTEX
  8
MERGEDLAYER-2
 10
1.996671
 20
48.061395
 30
0.000000
  0
VERTEX
  8
MERGEDLAYER-2
 10
1.993135
 20
48.064964
 30
0.000000
  0
SEQEND
  8
MERGEDLAYER-2
  0
POLYLINE
  8
MERGEDLAYER-2
 66
  1
 70
  0
 62
  7
 10
1.983577
 20
48.083962
 30
0.000000
  0
VERTEX
  8
MERGEDLAYER-2
 10
1.983577
 20
48.083962
 30
0.000000
  0
VERTEX
  8
MERGEDLAYER-2
 10
1.983577
 20
48.064995
 30
0.000000
  0
SEQEND
  8
MERGEDLAYER-2
  0
POLYLINE
  8
MERGEDLAYER-2
 66
  1
 70
  0
 62
  7
 10
1.993050
 20
48.083984
 30
0.000000
  0
VERTEX
  8
MERGEDLAYER-2
 10
1.993050
 20
48.083984
 30
0.000000
  0
VERTEX
  8
MERGEDLAYER-2
 10
1.993050
 20
48.065004
 30
0.000000
  0
SEQEND
  8
MERGEDLAYER-2
  0
POLYLINE
  8
MERGEDLAYER-2
 66
  1
 70
  0
 62
  7
 10
1.993050
 20
48.083984
 30
0.000000
  0
VERTEX
  8
MERGEDLAYER-2
 10
1.993050
 20
48.083984
 30
0.000000
  0
VERTEX
  8
MERGEDLAYER-2
 10
1.992103
 20
48.084934
 30
0.000000
  0
SEQEND
  8
MERGEDLAYER-2
  0
POLYLINE
  8
MERGEDLAYER-2
 66
  1
 70
  0
 62
  7
 10
1.983577
 20
48.083962
 30
0.000000
  0
VERTEX
  8
MERGEDLAYER-2
 10
1.983577
 20
48.083962
 30
0.000000
  0
VERTEX
  8
MERGEDLAYER-2
 10
1.984524
 20
48.084908
 30
0.000000
  0
SEQEND
  8
MERGEDLAYER-2
  0
POLYLINE
  8
MERGEDLAYER-2
 66
  1
 70
  0
 62
  7
 10
1.993050
 20
48.282249
 30
0.000000
  0
VERTEX
  8
MERGEDLAYER-2
 10
1.993050
 20
48.282249
 30
0.000000
  0
VERTEX
  8
MERGEDLAYER-2
 10
1.997003
 20
48.290594
 30
0.000000
  0
VERTEX
  8
MERGEDLAYER-2
 10
1.996682
 20
48.299290
 30
0.000000
  0
VERTEX
  8
MERGEDLAYER-2
 10
1.990305
 20
48.305211
 30
0.000000
  0
VERTEX
  8
MERGEDLAYER-2
 10
1.981608
 20
48.304892
 30
0.000000
  0
VERTEX
  8
MERGEDLAYER-2
 10
1.975687
 20
48.298513
 30
0.000000
  0
VERTEX
  8
MERGEDLAYER-2
 10
1.976008
 20
48.289817
 30
0.000000
  0
VERTEX
  8
MERGEDLAYER-2
 10
1.983577
 20
48.282249
 30
0.000000
  0
SEQEND
  8
MERGEDLAYER-2
  0
POLYLINE
  8
MERGEDLAYER-2
 66
  1
 70
  0
 62
  7
 10
1.993135
 20
48.282289
 30
0.000000
  0
VERTEX
  8
MERGEDLAYER-2
 10
1.993135
 20
48.282289
 30
0.000000
  0
VERTEX
  8
MERGEDLAYER-2
 10
1.997035
 20
48.290683
 30
0.000000
  0
VERTEX
  8
MERGEDLAYER-2
 10
1.996642
 20
48.299374
 30
0.000000
  0
VERTEX
  8
MERGEDLAYER-2
 10
1.990217
 20
48.305242
 30
0.000000
  0
VERTEX
  8
MERGEDLAYER-2
 10
1.981524
 20
48.304852
 30
0.000000
  0
VERTEX
  8
MERGEDLAYER-2
 10
1.975655
 20
48.298424
 30
0.000000
  0
VERTEX
  8
MERGEDLAYER-2
 10
1.976048
 20
48.289733
 30
0.000000
  0
VERTEX
  8
MERGEDLAYER-2
 10
1.983554
 20
48.282258
 30
0.000000
  0
SEQEND
  8
MERGEDLAYER-2
  0
POLYLINE
  8
MERGEDLAYER-2
 66
  1
 70
  0
 62
  7
 10
1.983577
 20
48.263290
 30
0.000000
  0
VERTEX
  8
MERGEDLAYER-2
 10
1.983577
 20
48.263290
 30
0.000000
  0
VERTEX
  8
MERGEDLAYER-2
 10
1.983577
 20
48.282258
 30
0.000000
  0
SEQEND
  8
MERGEDLAYER-2
  0
POLYLINE
  8
MERGEDLAYER-2
 66
  1
 70
  0
 62
  7
 10
1.993050
 20
48.263268
 30
0.000000
  0
VERTEX
  8
MERGEDLAYER-2
 10
1.993050
 20
48.263268
 30
0.000000
  0
VERTEX
  8
MERGEDLAYER-2
 10
1.993050
 20
48.282249
 30
0.000000
  0
SEQEND
  8
MERGEDLAYER-2
  0
POLYLINE
  8
MERGEDLAYER-2
 66
  1
 70
  0
 62
  7
 10
1.993050
 20
48.263268
 30
0.000000
  0
VERTEX
  8
MERGEDLAYER-2
 10
1.993050
 20
48.263268
 30
0.000000
  0
VERTEX
  8
MERGEDLAYER-2
 10
1.992103
 20
48.262318
 30
0.000000
  0
SEQEND
  8
MERGEDLAYER-2
  0
POLYLINE
  8
MERGEDLAYER-2
 66
  1
 70
  0
 62
  7
 10
1.983577
 20
48.263290
 30
0.000000
  0
VERTEX
  8
MERGEDLAYER-2
 10
1.983577
 20
48.263290
 30
0.000000
  0
VERTEX
  8
MERGEDLAYER-2
 10
1.984524
 20
48.262340
 30
0.000000
  0
SEQEND
  8
MERGEDLAYER-2
  0
POLYLINE
  8
MERGEDLAYER-2
 66
  1
 70
  0
 62
  7
 10
1.984524
 20
47.783900
 30
0.000000
  0
VERTEX
  8
MERGEDLAYER-2
 10
1.984524
 20
47.783900
 30
0.000000
  0
VERTEX
  8
MERGEDLAYER-2
 10
1.984524
 20
47.961333
 30
0.000000
  0
SEQEND
  8
MERGEDLAYER-2
  0
POLYLINE
  8
MERGEDLAYER-2
 66
  1
 70
  0
 62
  7
 10
1.992103
 20
47.783922
 30
0.000000
  0
VERTEX
  8
MERGEDLAYER-2
 10
1.992103
 20
47.783922
 30
0.000000
  0
VERTEX
  8
MERGEDLAYER-2
 10
1.992103
 20
47.961310
 30
0.000000
  0
SEQEND
  8
MERGEDLAYER-2
  0
POLYLINE
  8
MERGEDLAYER-2
 66
  1
 70
  0
 62
  7
 10
1.983577
 20
47.763996
 30
0.000000
  0
VERTEX
  8
MERGEDLAYER-2
 10
1.983577
 20
47.763996
 30
0.000000
  0
VERTEX
  8
MERGEDLAYER-2
 10
1.975687
 20
47.759588
 30
0.000000
  0
VERTEX
  8
MERGEDLAYER-2
 10
1.976008
 20
47.750888
 30
0.000000
  0
VERTEX
  8
MERGEDLAYER-2
 10
1.982385
 20
47.744966
 30
0.000000
  0
VERTEX
  8
MERGEDLAYER-2
 10
1.991081
 20
47.745290
 30
0.000000
  0
VERTEX
  8
MERGEDLAYER-2
 10
1.997003
 20
47.751665
 30
0.000000
  0
VERTEX
  8
MERGEDLAYER-2
 10
1.996682
 20
47.760360
 30
0.000000
  0
VERTEX
  8
MERGEDLAYER-2
 10
1.993050
 20
47.763996
 30
0.000000
  0
SEQEND
  8
MERGEDLAYER-2
  0
POLYLINE
  8
MERGEDLAYER-2
 66
  1
 70
  0
 62
  7
 10
1.983554
 20
47.763983
 30
0.000000
  0
VERTEX
  8
MERGEDLAYER-2
 10
1.983554
 20
47.763983
 30
0.000000
  0
VERTEX
  8
MERGEDLAYER-2
 10
1.975678
 20
47.759561
 30
0.000000
  0
VERTEX
  8
MERGEDLAYER-2
 10
1.976019
 20
47.750866
 30
0.000000
  0
VERTEX
  8
MERGEDLAYER-2
 10
1.982409
 20
47.744957
 30
0.000000
  0
VERTEX
  8
MERGEDLAYER-2
 10
1.991105
 20
47.745299
 30
0.000000
  0
VERTEX
  8
MERGEDLAYER-2
 10
1.997012
 20
47.751691
 30
0.000000
  0
VERTEX
  8
MERGEDLAYER-2
 10
1.996671
 20
47.760387
 30
0.000000
  0
VERTEX
  8
MERGEDLAYER-2
 10
1.993135
 20
47.763956
 30
0.000000
  0
SEQEND
  8
MERGEDLAYER-2
  0
POLYLINE
  8
MERGEDLAYER-2
 66
  1
 70
  0
 62
  7
 10
1.983577
 20
47.782955
 30
0.000000
  0
VERTEX
  8
MERGEDLAYER-2
 10
1.983577
 20
47.782955
 30
0.000000
  0
VERTEX
  8
MERGEDLAYER-2
 10
1.983577
 20
47.763983
 30
0.000000
  0
SEQEND
  8
MERGEDLAYER-2
  0
POLYLINE
  8
MERGEDLAYER-2
 66
  1
 70
  0
 62
  7
 10
1.993050
 20
47.782977
 30
0.000000
  0
VERTEX
  8
MERGEDLAYER-2
 10
1.993050
 20
47.782977
 30
0.000000
  0
VERTEX
  8
MERGEDLAYER-2
 10
1.993050
 20
47.763996
 30
0.000000
  0
SEQEND
  8
MERGEDLAYER-2
  0
POLYLINE
  8
MERGEDLAYER-2
 66
  1
 70
  0
 62
  7
 10
1.993050
 20
47.782977
 30
0.000000
  0
VERTEX
  8
MERGEDLAYER-2
 10
1.993050
 20
47.782977
 30
0.000000
  0
VERTEX
  8
MERGEDLAYER-2
 10
1.992103
 20
47.783922
 30
0.000000
  0
SEQEND
  8
MERGEDLAYER-2
  0
POLYLINE
  8
MERGEDLAYER-2
 66
  1
 70
  0
 62
  7
 10
1.983577
 20
47.782955
 30
0.000000
  0
VERTEX
  8
MERGEDLAYER-2
 10
1.983577
 20
47.782955
 30
0.000000
  0
VERTEX
  8
MERGEDLAYER-2
 10
1.984524
 20
47.783900
 30
0.000000
  0
SEQEND
  8
MERGEDLAYER-2
  0
POLYLINE
  8
MERGEDLAYER-2
 66
  1
 70
  0
 62
  7
 10
1.993050
 20
47.981241
 30
0.000000
  0
VERTEX
  8
MERGEDLAYER-2
 10
1.993050
 20
47.981241
 30
0.000000
  0
VERTEX
  8
MERGEDLAYER-2
 10
1.997003
 20
47.989586
 30
0.000000
  0
VERTEX
  8
MERGEDLAYER-2
 10
1.996682
 20
47.998282
 30
0.000000
  0
VERTEX
  8
MERGEDLAYER-2
 10
1.990305
 20
48.004204
 30
0.000000
  0
VERTEX
  8
MERGEDLAYER-2
 10
1.981608
 20
48.003880
 30
0.000000
  0
VERTEX
  8
MERGEDLAYER-2
 10
1.975687
 20
47.997505
 30
0.000000
  0
VERTEX
  8
MERGEDLAYER-2
 10
1.976008
 20
47.988809
 30
0.000000
  0
VERTEX
  8
MERGEDLAYER-2
 10
1.983577
 20
47.981241
 30
0.000000
  0
SEQEND
  8
MERGEDLAYER-2
  0
POLYLINE
  8
MERGEDLAYER-2
 66
  1
 70
  0
 62
  7
 10
1.993135
 20
47.981277
 30
0.000000
  0
VERTEX
  8
MERGEDLAYER-2
 10
1.993135
 20
47.981277
 30
0.000000
  0
VERTEX
  8
MERGEDLAYER-2
 10
1.997035
 20
47.989671
 30
0.000000
  0
VERTEX
  8
MERGEDLAYER-2
 10
1.996642
 20
47.998366
 30
0.000000
  0
VERTEX
  8
MERGEDLAYER-2
 10
1.990217
 20
48.004235
 30
0.000000
  0
VERTEX
  8
MERGEDLAYER-2
 10
1.981524
 20
48.003844
 30
0.000000
  0
VERTEX
  8
MERGEDLAYER-2
 10
1.975655
 20
47.997417
 30
0.000000
  0
VERTEX
  8
MERGEDLAYER-2
 10
1.976048
 20
47.988725
 30
0.000000
  0
VERTEX
  8
MERGEDLAYER-2
 10
1.983554
 20
47.981250
 30
0.000000
  0
SEQEND
  8
MERGEDLAYER-2
  0
POLYLINE
  8
MERGEDLAYER-2
 66
  1
 70
  0
 62
  7
 10
1.983577
 20
47.962282
 30
0.000000
  0
VERTEX
  8
MERGEDLAYER-2
 10
1.983577
 20
47.962282
 30
0.000000
  0
VERTEX
  8
MERGEDLAYER-2
 10
1.983577
 20
47.981250
 30
0.000000
  0
SEQEND
  8
MERGEDLAYER-2
  0
POLYLINE
  8
MERGEDLAYER-2
 66
  1
 70
  0
 62
  7
 10
1.993050
 20
47.962256
 30
0.000000
  0
VERTEX
  8
MERGEDLAYER-2
 10
1.993050
 20
47.962256
 30
0.000000
  0
VERTEX
  8
MERGEDLAYER-2
 10
1.993050
 20
47.981241
 30
0.000000
  0
SEQEND
  8
MERGEDLAYER-2
  0
POLYLINE
  8
MERGEDLAYER-2
 66
  1
 70
  0
 62
  7
 10
1.993050
 20
47.962256
 30
0.000000
  0
VERTEX
  8
MERGEDLAYER-2
 10
1.993050
 20
47.962256
 30
0.000000
  0
VERTEX
  8
MERGEDLAYER-2
 10
1.992103
 20
47.961310
 30
0.000000
  0
SEQEND
  8
MERGEDLAYER-2
  0
POLYLINE
  8
MERGEDLAYER-2
 66
  1
 70
  0
 62
  7
 10
1.983577
 20
47.962282
 30
0.000000
  0
VERTEX
  8
MERGEDLAYER-2
 10
1.983577
 20
47.962282
 30
0.000000
  0
VERTEX
  8
MERGEDLAYER-2
 10
1.984524
 20
47.961333
 30
0.000000
  0
SEQEND
  8
MERGEDLAYER-2
  0
POLYLINE
  8
MERGEDLAYER-2
 66
  1
 70
  0
 62
  7
 10
4.638318
 20
48.236031
 30
0.000000
  0
VERTEX
  8
MERGEDLAYER-2
 10
4.638318
 20
48.236031
 30
0.000000
  0
VERTEX
  8
MERGEDLAYER-2
 10
4.485244
 20
48.147652
 30
0.000000
  0
SEQEND
  8
MERGEDLAYER-2
  0
POLYLINE
  8
MERGEDLAYER-2
 66
  1
 70
  0
 62
  7
 10
4.638318
 20
47.932901
 30
0.000000
  0
VERTEX
  8
MERGEDLAYER-2
 10
4.638318
 20
47.932901
 30
0.000000
  0
VERTEX
  8
MERGEDLAYER-2
 10
4.485244
 20
47.844527
 30
0.000000
  0
SEQEND
  8
MERGEDLAYER-2
  0
POLYLINE
  8
MERGEDLAYER-2
 66
  1
 70
  0
 62
  7
 10
2.974646
 20
48.113716
 30
0.000000
  0
VERTEX
  8
MERGEDLAYER-2
 10
2.974646
 20
48.113716
 30
0.000000
  0
VERTEX
  8
MERGEDLAYER-2
 10
3.136890
 20
48.207386
 30
0.000000
  0
SEQEND
  8
MERGEDLAYER-2
  0
POLYLINE
  8
MERGEDLAYER-2
 66
  1
 70
  0
 62
  7
 10
2.974646
 20
47.810591
 30
0.000000
  0
VERTEX
  8
MERGEDLAYER-2
 10
2.974646
 20
47.810591
 30
0.000000
  0
VERTEX
  8
MERGEDLAYER-2
 10
3.136890
 20
47.904261
 30
0.000000
  0
SEQEND
  8
MERGEDLAYER-2
  0
POLYLINE
  8
MERGEDLAYER-2
 66
  1
 70
  0
 62
  7
 10
2.251248
 20
47.973393
 30
0.000000
  0
VERTEX
  8
MERGEDLAYER-2
 10
2.251248
 20
47.973393
 30
0.000000
  0
VERTEX
  8
MERGEDLAYER-2
 10
2.251248
 20
47.771573
 30
0.000000
  0
SEQEND
  8
MERGEDLAYER-2
  0
LINE
  8
MERGEDLAYER-2
 62
  7
 10
2.270533
 20
47.954110
 30
0.000000
 11
2.231963
 21
47.992680
 31
0.000000
  0
LINE
  8
MERGEDLAYER-2
 62
  7
 10
2.270533
 20
47.752286
 30
0.000000
 11
2.231963
 21
47.790856
 31
0.000000
  0
POLYLINE
  8
MERGEDLAYER-2
 66
  1
 70
  0
 62
  7
 10
2.251248
 20
47.771573
 30
0.000000
  0
VERTEX
  8
MERGEDLAYER-2
 10
2.251248
 20
47.771573
 30
0.000000
  0
VERTEX
  8
MERGEDLAYER-2
 10
2.251248
 20
47.429932
 30
0.000000
  0
SEQEND
  8
MERGEDLAYER-2
  0
POLYLINE
  8
MERGEDLAYER-2
 66
  1
 70
  0
 62
  7
 10
55.616943
 20
0.009095
 30
0.000000
  0
VERTEX
  8
MERGEDLAYER-2
 10
55.616943
 20
0.009095
 30
0.000000
  0
VERTEX
  8
MERGEDLAYER-2
 10
55.616943
 20
51.718186
 30
0.000000
  0
SEQEND
  8
MERGEDLAYER-2
  0
POLYLINE
  8
MERGEDLAYER-2
 66
  1
 70
  1
 62
  7
  0
VERTEX
  8
MERGEDLAYER-2
 10
0.590641
 20
46.425333
 30
0.000000
  0
VERTEX
  8
MERGEDLAYER-2
 10
0.726740
 20
46.425333
 30
0.000000
  0
VERTEX
  8
MERGEDLAYER-2
 10
0.726740
 20
43.559339
 30
0.000000
  0
VERTEX
  8
MERGEDLAYER-2
 10
0.590641
 20
43.559339
 30
0.000000
  0
SEQEND
  8
MERGEDLAYER-2
  0
POLYLINE
  8
MERGEDLAYER-2
 66
  1
 70
  1
 62
  7
  0
VERTEX
  8
MERGEDLAYER-2
 10
6.802168
 20
46.425333
 30
0.000000
  0
VERTEX
  8
MERGEDLAYER-2
 10
6.938342
 20
46.425333
 30
0.000000
  0
VERTEX
  8
MERGEDLAYER-2
 10
6.938342
 20
43.559650
 30
0.000000
  0
VERTEX
  8
MERGEDLAYER-2
 10
6.802168
 20
43.559650
 30
0.000000
  0
SEQEND
  8
MERGEDLAYER-2
  0
POLYLINE
  8
MERGEDLAYER-2
 66
  1
 70
  1
 62
  7
  0
VERTEX
  8
MERGEDLAYER-2
 10
0.754057
 20
43.763339
 30
0.000000
  0
VERTEX
  8
MERGEDLAYER-2
 10
6.775687
 20
43.763339
 30
0.000000
  0
VERTEX
  8
MERGEDLAYER-2
 10
6.775687
 20
43.567689
 30
0.000000
  0
VERTEX
  8
MERGEDLAYER-2
 10
0.754057
 20
43.567689
 30
0.000000
  0
SEQEND
  8
MERGEDLAYER-2
  0
POLYLINE
  8
MERGEDLAYER-2
 66
  1
 70
  1
 62
  7
  0
VERTEX
  8
MERGEDLAYER-2
 10
0.754057
 20
43.567134
 30
0.000000
  0
VERTEX
  8
MERGEDLAYER-2
 10
6.775687
 20
43.567134
 30
0.000000
  0
VERTEX
  8
MERGEDLAYER-2
 10
6.775687
 20
43.558620
 30
0.000000
  0
VERTEX
  8
MERGEDLAYER-2
 10
0.754057
 20
43.558620
 30
0.000000
  0
SEQEND
  8
MERGEDLAYER-2
  0
POLYLINE
  8
MERGEDLAYER-2
 66
  1
 70
  1
 62
  7
 10
6.775613
 20
43.567134
 30
0.000000
  0
VERTEX
  8
MERGEDLAYER-2
 10
6.775613
 20
43.567134
 30
0.000000
  0
VERTEX
  8
MERGEDLAYER-2
 10
6.801875
 20
43.567680
 30
0.000000
  0
VERTEX
  8
MERGEDLAYER-2
 10
6.801875
 20
43.749094
 30
0.000000
  0
VERTEX
  8
MERGEDLAYER-2
 10
6.775613
 20
43.748398
 30
0.000000
  0
SEQEND
  8
MERGEDLAYER-2
  0
POLYLINE
  8
MERGEDLAYER-2
 66
  1
 70
  0
 62
  7
 10
6.779866
 20
43.748398
 30
0.000000
  0
VERTEX
  8
MERGEDLAYER-2
 10
6.779866
 20
43.748398
 30
0.000000
  0
VERTEX
  8
MERGEDLAYER-2
 10
6.779866
 20
43.567134
 30
0.000000
  0
SEQEND
  8
MERGEDLAYER-2
  0
POLYLINE
  8
MERGEDLAYER-2
 66
  1
 70
  1
 62
  7
 10
0.753456
 20
43.565940
 30
0.000000
  0
VERTEX
  8
MERGEDLAYER-2
 10
0.753456
 20
43.565940
 30
0.000000
  0
VERTEX
  8
MERGEDLAYER-2
 10
0.727192
 20
43.566491
 30
0.000000
  0
VERTEX
  8
MERGEDLAYER-2
 10
0.727192
 20
43.749099
 30
0.000000
  0
VERTEX
  8
MERGEDLAYER-2
 10
0.753456
 20
43.748393
 30
0.000000
  0
SEQEND
  8
MERGEDLAYER-2
  0
POLYLINE
  8
MERGEDLAYER-2
 66
  1
 70
  0
 62
  7
 10
0.749197
 20
43.748393
 30
0.000000
  0
VERTEX
  8
MERGEDLAYER-2
 10
0.749197
 20
43.748393
 30
0.000000
  0
VERTEX
  8
MERGEDLAYER-2
 10
0.749197
 20
43.565940
 30
0.000000
  0
SEQEND
  8
MERGEDLAYER-2
  0
POLYLINE
  8
MERGEDLAYER-2
 66
  1
 70
  1
 62
  7
 10
3.318798
 20
43.767929
 30
0.000000
  0
VERTEX
  8
MERGEDLAYER-2
 10
3.318798
 20
43.767929
 30
0.000000
  0
VERTEX
  8
MERGEDLAYER-2
 10
3.591129
 20
43.767929
 30
0.000000
  0
VERTEX
  8
MERGEDLAYER-2
 10
3.591129
 20
43.668861
 30
0.000000
  0
VERTEX
  8
MERGEDLAYER-2
 10
3.318798
 20
43.668861
 30
0.000000
  0
SEQEND
  8
MERGEDLAYER-2
  0
POLYLINE
  8
MERGEDLAYER-2
 66
  1
 70
  0
 62
  7
 10
3.591129
 20
43.716593
 30
0.000000
  0
VERTEX
  8
MERGEDLAYER-2
 10
3.591129
 20
43.716593
 30
0.000000
  0
VERTEX
  8
MERGEDLAYER-2
 10
3.318798
 20
43.716801
 30
0.000000
  0
SEQEND
  8
MERGEDLAYER-2
  0
POLYLINE
  8
MERGEDLAYER-2
 66
  1
 70
  0
 62
  7
 10
3.591129
 20
43.703662
 30
0.000000
  0
VERTEX
  8
MERGEDLAYER-2
 10
3.591129
 20
43.703662
 30
0.000000
  0
VERTEX
  8
MERGEDLAYER-2
 10
3.318798
 20
43.703866
 30
0.000000
  0
SEQEND
  8
MERGEDLAYER-2
  0
CIRCLE
  8
MERGEDLAYER-2
 62
  7
 10
3.369742
 20
43.738361
 30
0.000000
 40
0.004610
  0
CIRCLE
  8
MERGEDLAYER-2
 62
  7
 10
3.369742
 20
43.738361
 30
0.000000
 40
0.009870
  0
CIRCLE
  8
MERGEDLAYER-2
 62
  7
 10
3.539948
 20
43.738361
 30
0.000000
 40
0.004610
  0
CIRCLE
  8
MERGEDLAYER-2
 62
  7
 10
3.539948
 20
43.738361
 30
0.000000
 40
0.009870
  0
POLYLINE
  8
MERGEDLAYER-2
 66
  1
 70
  1
 62
  7
  0
VERTEX
  8
MERGEDLAYER-2
 10
0.726740
 20
43.916300
 30
0.000000
  0
VERTEX
  8
MERGEDLAYER-2
 10
6.802168
 20
43.916300
 30
0.000000
  0
VERTEX
  8
MERGEDLAYER-2
 10
6.802168
 20
43.866553
 30
0.000000
  0
VERTEX
  8
MERGEDLAYER-2
 10
0.726740
 20
43.866553
 30
0.000000
  0
SEQEND
  8
MERGEDLAYER-2
  0
POLYLINE
  8
MERGEDLAYER-2
 66
  1
 70
  0
 62
  9
 10
6.801862
 20
43.898735
 30
0.000000
  0
VERTEX
  8
MERGEDLAYER-2
 10
6.801862
 20
43.898735
 30
0.000000
  0
VERTEX
  8
MERGEDLAYER-2
 10
0.726740
 20
43.898735
 30
0.000000
  0
SEQEND
  8
MERGEDLAYER-2
  0
POLYLINE
  8
MERGEDLAYER-2
 66
  1
 70
  0
 62
  9
 10
6.801862
 20
43.884193
 30
0.000000
  0
VERTEX
  8
MERGEDLAYER-2
 10
6.801862
 20
43.884193
 30
0.000000
  0
VERTEX
  8
MERGEDLAYER-2
 10
0.726740
 20
43.884193
 30
0.000000
  0
SEQEND
  8
MERGEDLAYER-2
  0
POLYLINE
  8
MERGEDLAYER-2
 66
  1
 70
  1
 62
  7
  0
VERTEX
  8
MERGEDLAYER-2
 10
0.726740
 20
44.055691
 30
0.000000
  0
VERTEX
  8
MERGEDLAYER-2
 10
6.802168
 20
44.055691
 30
0.000000
  0
VERTEX
  8
MERGEDLAYER-2
 10
6.802168
 20
44.005944
 30
0.000000
  0
VERTEX
  8
MERGEDLAYER-2
 10
0.726740
 20
44.005944
 30
0.000000
  0
SEQEND
  8
MERGEDLAYER-2
  0
POLYLINE
  8
MERGEDLAYER-2
 66
  1
 70
  0
 62
  9
 10
6.801862
 20
44.038126
 30
0.000000
  0
VERTEX
  8
MERGEDLAYER-2
 10
6.801862
 20
44.038126
 30
0.000000
  0
VERTEX
  8
MERGEDLAYER-2
 10
0.726740
 20
44.038126
 30
0.000000
  0
SEQEND
  8
MERGEDLAYER-2
  0
POLYLINE
  8
MERGEDLAYER-2
 66
  1
 70
  0
 62
  9
 10
6.801862
 20
44.023584
 30
0.000000
  0
VERTEX
  8
MERGEDLAYER-2
 10
6.801862
 20
44.023584
 30
0.000000
  0
VERTEX
  8
MERGEDLAYER-2
 10
0.726740
 20
44.023584
 30
0.000000
  0
SEQEND
  8
MERGEDLAYER-2
  0
POLYLINE
  8
MERGEDLAYER-2
 66
  1
 70
  1
 62
  7
  0
VERTEX
  8
MERGEDLAYER-2
 10
0.726740
 20
44.195082
 30
0.000000
  0
VERTEX
  8
MERGEDLAYER-2
 10
6.802168
 20
44.195082
 30
0.000000
  0
VERTEX
  8
MERGEDLAYER-2
 10
6.802168
 20
44.145335
 30
0.000000
  0
VERTEX
  8
MERGEDLAYER-2
 10
0.726740
 20
44.145335
 30
0.000000
  0
SEQEND
  8
MERGEDLAYER-2
  0
POLYLINE
  8
MERGEDLAYER-2
 66
  1
 70
  0
 62
  9
 10
6.801862
 20
44.177517
 30
0.000000
  0
VERTEX
  8
MERGEDLAYER-2
 10
6.801862
 20
44.177517
 30
0.000000
  0
VERTEX
  8
MERGEDLAYER-2
 10
0.726740
 20
44.177517
 30
0.000000
  0
SEQEND
  8
MERGEDLAYER-2
  0
POLYLINE
  8
MERGEDLAYER-2
 66
  1
 70
  0
 62
  9
 10
6.801862
 20
44.162971
 30
0.000000
  0
VERTEX
  8
MERGEDLAYER-2
 10
6.801862
 20
44.162971
 30
0.000000
  0
VERTEX
  8
MERGEDLAYER-2
 10
0.726740
 20
44.162971
 30
0.000000
  0
SEQEND
  8
MERGEDLAYER-2
  0
POLYLINE
  8
MERGEDLAYER-2
 66
  1
 70
  1
 62
  7
  0
VERTEX
  8
MERGEDLAYER-2
 10
0.726740
 20
44.334473
 30
0.000000
  0
VERTEX
  8
MERGEDLAYER-2
 10
6.802168
 20
44.334473
 30
0.000000
  0
VERTEX
  8
MERGEDLAYER-2
 10
6.802168
 20
44.284726
 30
0.000000
  0
VERTEX
  8
MERGEDLAYER-2
 10
0.726740
 20
44.284726
 30
0.000000
  0
SEQEND
  8
MERGEDLAYER-2
  0
POLYLINE
  8
MERGEDLAYER-2
 66
  1
 70
  0
 62
  9
 10
6.801862
 20
44.316908
 30
0.000000
  0
VERTEX
  8
MERGEDLAYER-2
 10
6.801862
 20
44.316908
 30
0.000000
  0
VERTEX
  8
MERGEDLAYER-2
 10
0.726740
 20
44.316908
 30
0.000000
  0
SEQEND
  8
MERGEDLAYER-2
  0
POLYLINE
  8
MERGEDLAYER-2
 66
  1
 70
  0
 62
  9
 10
6.801862
 20
44.302362
 30
0.000000
  0
VERTEX
  8
MERGEDLAYER-2
 10
6.801862
 20
44.302362
 30
0.000000
  0
VERTEX
  8
MERGEDLAYER-2
 10
0.726740
 20
44.302362
 30
0.000000
  0
SEQEND
  8
MERGEDLAYER-2
  0
POLYLINE
  8
MERGEDLAYER-2
 66
  1
 70
  1
 62
  7
  0
VERTEX
  8
MERGEDLAYER-2
 10
0.726740
 20
44.473864
 30
0.000000
  0
VERTEX
  8
MERGEDLAYER-2
 10
6.802168
 20
44.473864
 30
0.000000
  0
VERTEX
  8
MERGEDLAYER-2
 10
6.802168
 20
44.424117
 30
0.000000
  0
VERTEX
  8
MERGEDLAYER-2
 10
0.726740
 20
44.424117
 30
0.000000
  0
SEQEND
  8
MERGEDLAYER-2
  0
POLYLINE
  8
MERGEDLAYER-2
 66
  1
 70
  0
 62
  9
 10
6.801862
 20
44.456294
 30
0.000000
  0
VERTEX
  8
MERGEDLAYER-2
 10
6.801862
 20
44.456294
 30
0.000000
  0
VERTEX
  8
MERGEDLAYER-2
 10
0.726740
 20
44.456294
 30
0.000000
  0
SEQEND
  8
MERGEDLAYER-2
  0
POLYLINE
  8
MERGEDLAYER-2
 66
  1
 70
  0
 62
  9
 10
6.801862
 20
44.441752
 30
0.000000
  0
VERTEX
  8
MERGEDLAYER-2
 10
6.801862
 20
44.441752
 30
0.000000
  0
VERTEX
  8
MERGEDLAYER-2
 10
0.726740
 20
44.441752
 30
0.000000
  0
SEQEND
  8
MERGEDLAYER-2
  0
POLYLINE
  8
MERGEDLAYER-2
 66
  1
 70
  1
 62
  7
  0
VERTEX
  8
MERGEDLAYER-2
 10
0.726740
 20
44.613255
 30
0.000000
  0
VERTEX
  8
MERGEDLAYER-2
 10
6.802168
 20
44.613255
 30
0.000000
  0
VERTEX
  8
MERGEDLAYER-2
 10
6.802168
 20
44.563508
 30
0.000000
  0
VERTEX
  8
MERGEDLAYER-2
 10
0.726740
 20
44.563508
 30
0.000000
  0
SEQEND
  8
MERGEDLAYER-2
  0
POLYLINE
  8
MERGEDLAYER-2
 66
  1
 70
  0
 62
  9
 10
6.801862
 20
44.595685
 30
0.000000
  0
VERTEX
  8
MERGEDLAYER-2
 10
6.801862
 20
44.595685
 30
0.000000
  0
VERTEX
  8
MERGEDLAYER-2
 10
0.726740
 20
44.595685
 30
0.000000
  0
SEQEND
  8
MERGEDLAYER-2
  0
POLYLINE
  8
MERGEDLAYER-2
 66
  1
 70
  0
 62
  9
 10
6.801862
 20
44.581143
 30
0.000000
  0
VERTEX
  8
MERGEDLAYER-2
 10
6.801862
 20
44.581143
 30
0.000000
  0
VERTEX
  8
MERGEDLAYER-2
 10
0.726740
 20
44.581143
 30
0.000000
  0
SEQEND
  8
MERGEDLAYER-2
  0
POLYLINE
  8
MERGEDLAYER-2
 66
  1
 70
  1
 62
  7
  0
VERTEX
  8
MERGEDLAYER-2
 10
0.726740
 20
44.752646
 30
0.000000
  0
VERTEX
  8
MERGEDLAYER-2
 10
6.802168
 20
44.752646
 30
0.000000
  0
VERTEX
  8
MERGEDLAYER-2
 10
6.802168
 20
44.702899
 30
0.000000
  0
VERTEX
  8
MERGEDLAYER-2
 10
0.726740
 20
44.702899
 30
0.000000
  0
SEQEND
  8
MERGEDLAYER-2
  0
POLYLINE
  8
MERGEDLAYER-2
 66
  1
 70
  0
 62
  9
 10
6.801862
 20
44.735076
 30
0.000000
  0
VERTEX
  8
MERGEDLAYER-2
 10
6.801862
 20
44.735076
 30
0.000000
  0
VERTEX
  8
MERGEDLAYER-2
 10
0.726740
 20
44.735076
 30
0.000000
  0
SEQEND
  8
MERGEDLAYER-2
  0
POLYLINE
  8
MERGEDLAYER-2
 66
  1
 70
  0
 62
  9
 10
6.801862
 20
44.720534
 30
0.000000
  0
VERTEX
  8
MERGEDLAYER-2
 10
6.801862
 20
44.720534
 30
0.000000
  0
VERTEX
  8
MERGEDLAYER-2
 10
0.726740
 20
44.720534
 30
0.000000
  0
SEQEND
  8
MERGEDLAYER-2
  0
POLYLINE
  8
MERGEDLAYER-2
 66
  1
 70
  1
 62
  7
  0
VERTEX
  8
MERGEDLAYER-2
 10
0.726740
 20
44.892037
 30
0.000000
  0
VERTEX
  8
MERGEDLAYER-2
 10
6.802168
 20
44.892037
 30
0.000000
  0
VERTEX
  8
MERGEDLAYER-2
 10
6.802168
 20
44.842290
 30
0.000000
  0
VERTEX
  8
MERGEDLAYER-2
 10
0.726740
 20
44.842290
 30
0.000000
  0
SEQEND
  8
MERGEDLAYER-2
  0
POLYLINE
  8
MERGEDLAYER-2
 66
  1
 70
  0
 62
  9
 10
6.801862
 20
44.874467
 30
0.000000
  0
VERTEX
  8
MERGEDLAYER-2
 10
6.801862
 20
44.874467
 30
0.000000
  0
VERTEX
  8
MERGEDLAYER-2
 10
0.726740
 20
44.874467
 30
0.000000
  0
SEQEND
  8
MERGEDLAYER-2
  0
POLYLINE
  8
MERGEDLAYER-2
 66
  1
 70
  0
 62
  9
 10
6.801862
 20
44.859925
 30
0.000000
  0
VERTEX
  8
MERGEDLAYER-2
 10
6.801862
 20
44.859925
 30
0.000000
  0
VERTEX
  8
MERGEDLAYER-2
 10
0.726740
 20
44.859925
 30
0.000000
  0
SEQEND
  8
MERGEDLAYER-2
  0
POLYLINE
  8
MERGEDLAYER-2
 66
  1
 70
  1
 62
  7
  0
VERTEX
  8
MERGEDLAYER-2
 10
0.726740
 20
45.031428
 30
0.000000
  0
VERTEX
  8
MERGEDLAYER-2
 10
6.802168
 20
45.031428
 30
0.000000
  0
VERTEX
  8
MERGEDLAYER-2
 10
6.802168
 20
44.981681
 30
0.000000
  0
VERTEX
  8
MERGEDLAYER-2
 10
0.726740
 20
44.981681
 30
0.000000
  0
SEQEND
  8
MERGEDLAYER-2
  0
POLYLINE
  8
MERGEDLAYER-2
 66
  1
 70
  0
 62
  9
 10
6.801862
 20
45.013858
 30
0.000000
  0
VERTEX
  8
MERGEDLAYER-2
 10
6.801862
 20
45.013858
 30
0.000000
  0
VERTEX
  8
MERGEDLAYER-2
 10
0.726740
 20
45.013858
 30
0.000000
  0
SEQEND
  8
MERGEDLAYER-2
  0
POLYLINE
  8
MERGEDLAYER-2
 66
  1
 70
  0
 62
  9
 10
6.801862
 20
44.999316
 30
0.000000
  0
VERTEX
  8
MERGEDLAYER-2
 10
6.801862
 20
44.999316
 30
0.000000
  0
VERTEX
  8
MERGEDLAYER-2
 10
0.726740
 20
44.999316
 30
0.000000
  0
SEQEND
  8
MERGEDLAYER-2
  0
POLYLINE
  8
MERGEDLAYER-2
 66
  1
 70
  1
 62
  7
  0
VERTEX
  8
MERGEDLAYER-2
 10
0.726740
 20
45.170814
 30
0.000000
  0
VERTEX
  8
MERGEDLAYER-2
 10
6.802168
 20
45.170814
 30
0.000000
  0
VERTEX
  8
MERGEDLAYER-2
 10
6.802168
 20
45.121072
 30
0.000000
  0
VERTEX
  8
MERGEDLAYER-2
 10
0.726740
 20
45.121072
 30
0.000000
  0
SEQEND
  8
MERGEDLAYER-2
  0
POLYLINE
  8
MERGEDLAYER-2
 66
  1
 70
  0
 62
  9
 10
6.801862
 20
45.153249
 30
0.000000
  0
VERTEX
  8
MERGEDLAYER-2
 10
6.801862
 20
45.153249
 30
0.000000
  0
VERTEX
  8
MERGEDLAYER-2
 10
0.726740
 20
45.153249
 30
0.000000
  0
SEQEND
  8
MERGEDLAYER-2
  0
POLYLINE
  8
MERGEDLAYER-2
 66
  1
 70
  0
 62
  9
 10
6.801862
 20
45.138707
 30
0.000000
  0
VERTEX
  8
MERGEDLAYER-2
 10
6.801862
 20
45.138707
 30
0.000000
  0
VERTEX
  8
MERGEDLAYER-2
 10
0.726740
 20
45.138707
 30
0.000000
  0
SEQEND
  8
MERGEDLAYER-2
  0
POLYLINE
  8
MERGEDLAYER-2
 66
  1
 70
  1
 62
  7
  0
VERTEX
  8
MERGEDLAYER-2
 10
0.726740
 20
45.310205
 30
0.000000
  0
VERTEX
  8
MERGEDLAYER-2
 10
6.802168
 20
45.310205
 30
0.000000
  0
VERTEX
  8
MERGEDLAYER-2
 10
6.802168
 20
45.260463
 30
0.000000
  0
VERTEX
  8
MERGEDLAYER-2
 10
0.726740
 20
45.260463
 30
0.000000
  0
SEQEND
  8
MERGEDLAYER-2
  0
POLYLINE
  8
MERGEDLAYER-2
 66
  1
 70
  0
 62
  9
 10
6.801862
 20
45.292640
 30
0.000000
  0
VERTEX
  8
MERGEDLAYER-2
 10
6.801862
 20
45.292640
 30
0.000000
  0
VERTEX
  8
MERGEDLAYER-2
 10
0.726740
 20
45.292640
 30
0.000000
  0
SEQEND
  8
MERGEDLAYER-2
  0
POLYLINE
  8
MERGEDLAYER-2
 66
  1
 70
  0
 62
  9
 10
6.801862
 20
45.278098
 30
0.000000
  0
VERTEX
  8
MERGEDLAYER-2
 10
6.801862
 20
45.278098
 30
0.000000
  0
VERTEX
  8
MERGEDLAYER-2
 10
0.726740
 20
45.278098
 30
0.000000
  0
SEQEND
  8
MERGEDLAYER-2
  0
POLYLINE
  8
MERGEDLAYER-2
 66
  1
 70
  1
 62
  7
  0
VERTEX
  8
MERGEDLAYER-2
 10
0.726740
 20
45.449596
 30
0.000000
  0
VERTEX
  8
MERGEDLAYER-2
 10
6.802168
 20
45.449596
 30
0.000000
  0
VERTEX
  8
MERGEDLAYER-2
 10
6.802168
 20
45.399854
 30
0.000000
  0
VERTEX
  8
MERGEDLAYER-2
 10
0.726740
 20
45.399854
 30
0.000000
  0
SEQEND
  8
MERGEDLAYER-2
  0
POLYLINE
  8
MERGEDLAYER-2
 66
  1
 70
  0
 62
  9
 10
6.801862
 20
45.432031
 30
0.000000
  0
VERTEX
  8
MERGEDLAYER-2
 10
6.801862
 20
45.432031
 30
0.000000
  0
VERTEX
  8
MERGEDLAYER-2
 10
0.726740
 20
45.432031
 30
0.000000
  0
SEQEND
  8
MERGEDLAYER-2
  0
POLYLINE
  8
MERGEDLAYER-2
 66
  1
 70
  0
 62
  9
 10
6.801862
 20
45.417489
 30
0.000000
  0
VERTEX
  8
MERGEDLAYER-2
 10
6.801862
 20
45.417489
 30
0.000000
  0
VERTEX
  8
MERGEDLAYER-2
 10
0.726740
 20
45.417489
 30
0.000000
  0
SEQEND
  8
MERGEDLAYER-2
  0
POLYLINE
  8
MERGEDLAYER-2
 66
  1
 70
  1
 62
  7
  0
VERTEX
  8
MERGEDLAYER-2
 10
0.726740
 20
45.588987
 30
0.000000
  0
VERTEX
  8
MERGEDLAYER-2
 10
6.802168
 20
45.588987
 30
0.000000
  0
VERTEX
  8
MERGEDLAYER-2
 10
6.802168
 20
45.539244
 30
0.000000
  0
VERTEX
  8
MERGEDLAYER-2
 10
0.726740
 20
45.539244
 30
0.000000
  0
SEQEND
  8
MERGEDLAYER-2
  0
POLYLINE
  8
MERGEDLAYER-2
 66
  1
 70
  0
 62
  9
 10
6.801862
 20
45.571422
 30
0.000000
  0
VERTEX
  8
MERGEDLAYER-2
 10
6.801862
 20
45.571422
 30
0.000000
  0
VERTEX
  8
MERGEDLAYER-2
 10
0.726740
 20
45.571422
 30
0.000000
  0
SEQEND
  8
MERGEDLAYER-2
  0
POLYLINE
  8
MERGEDLAYER-2
 66
  1
 70
  0
 62
  9
 10
6.801862
 20
45.556880
 30
0.000000
  0
VERTEX
  8
MERGEDLAYER-2
 10
6.801862
 20
45.556880
 30
0.000000
  0
VERTEX
  8
MERGEDLAYER-2
 10
0.726740
 20
45.556880
 30
0.000000
  0
SEQEND
  8
MERGEDLAYER-2
  0
POLYLINE
  8
MERGEDLAYER-2
 66
  1
 70
  1
 62
  7
  0
VERTEX
  8
MERGEDLAYER-2
 10
0.726740
 20
45.728378
 30
0.000000
  0
VERTEX
  8
MERGEDLAYER-2
 10
6.802168
 20
45.728378
 30
0.000000
  0
VERTEX
  8
MERGEDLAYER-2
 10
6.802168
 20
45.678631
 30
0.000000
  0
VERTEX
  8
MERGEDLAYER-2
 10
0.726740
 20
45.678631
 30
0.000000
  0
SEQEND
  8
MERGEDLAYER-2
  0
POLYLINE
  8
MERGEDLAYER-2
 66
  1
 70
  0
 62
  9
 10
6.801862
 20
45.710813
 30
0.000000
  0
VERTEX
  8
MERGEDLAYER-2
 10
6.801862
 20
45.710813
 30
0.000000
  0
VERTEX
  8
MERGEDLAYER-2
 10
0.726740
 20
45.710813
 30
0.000000
  0
SEQEND
  8
MERGEDLAYER-2
  0
POLYLINE
  8
MERGEDLAYER-2
 66
  1
 70
  0
 62
  9
 10
6.801862
 20
45.696271
 30
0.000000
  0
VERTEX
  8
MERGEDLAYER-2
 10
6.801862
 20
45.696271
 30
0.000000
  0
VERTEX
  8
MERGEDLAYER-2
 10
0.726740
 20
45.696271
 30
0.000000
  0
SEQEND
  8
MERGEDLAYER-2
  0
POLYLINE
  8
MERGEDLAYER-2
 66
  1
 70
  1
 62
  7
  0
VERTEX
  8
MERGEDLAYER-2
 10
0.726740
 20
45.867769
 30
0.000000
  0
VERTEX
  8
MERGEDLAYER-2
 10
6.802168
 20
45.867769
 30
0.000000
  0
VERTEX
  8
MERGEDLAYER-2
 10
6.802168
 20
45.818022
 30
0.000000
  0
VERTEX
  8
MERGEDLAYER-2
 10
0.726740
 20
45.818022
 30
0.000000
  0
SEQEND
  8
MERGEDLAYER-2
  0
POLYLINE
  8
MERGEDLAYER-2
 66
  1
 70
  0
 62
  9
 10
6.801862
 20
45.850204
 30
0.000000
  0
VERTEX
  8
MERGEDLAYER-2
 10
6.801862
 20
45.850204
 30
0.000000
  0
VERTEX
  8
MERGEDLAYER-2
 10
0.726740
 20
45.850204
 30
0.000000
  0
SEQEND
  8
MERGEDLAYER-2
  0
POLYLINE
  8
MERGEDLAYER-2
 66
  1
 70
  0
 62
  9
 10
6.801862
 20
45.835662
 30
0.000000
  0
VERTEX
  8
MERGEDLAYER-2
 10
6.801862
 20
45.835662
 30
0.000000
  0
VERTEX
  8
MERGEDLAYER-2
 10
0.726740
 20
45.835662
 30
0.000000
  0
SEQEND
  8
MERGEDLAYER-2
  0
POLYLINE
  8
MERGEDLAYER-2
 66
  1
 70
  1
 62
  7
  0
VERTEX
  8
MERGEDLAYER-2
 10
0.726740
 20
46.007160
 30
0.000000
  0
VERTEX
  8
MERGEDLAYER-2
 10
6.802168
 20
46.007160
 30
0.000000
  0
VERTEX
  8
MERGEDLAYER-2
 10
6.802168
 20
45.957413
 30
0.000000
  0
VERTEX
  8
MERGEDLAYER-2
 10
0.726740
 20
45.957413
 30
0.000000
  0
SEQEND
  8
MERGEDLAYER-2
  0
POLYLINE
  8
MERGEDLAYER-2
 66
  1
 70
  0
 62
  9
 10
6.801862
 20
45.989595
 30
0.000000
  0
VERTEX
  8
MERGEDLAYER-2
 10
6.801862
 20
45.989595
 30
0.000000
  0
VERTEX
  8
MERGEDLAYER-2
 10
0.726740
 20
45.989595
 30
0.000000
  0
SEQEND
  8
MERGEDLAYER-2
  0
POLYLINE
  8
MERGEDLAYER-2
 66
  1
 70
  0
 62
  9
 10
6.801862
 20
45.975053
 30
0.000000
  0
VERTEX
  8
MERGEDLAYER-2
 10
6.801862
 20
45.975053
 30
0.000000
  0
VERTEX
  8
MERGEDLAYER-2
 10
0.726740
 20
45.975053
 30
0.000000
  0
SEQEND
  8
MERGEDLAYER-2
  0
POLYLINE
  8
MERGEDLAYER-2
 66
  1
 70
  1
 62
  7
  0
VERTEX
  8
MERGEDLAYER-2
 10
0.726740
 20
46.146551
 30
0.000000
  0
VERTEX
  8
MERGEDLAYER-2
 10
6.802168
 20
46.146551
 30
0.000000
  0
VERTEX
  8
MERGEDLAYER-2
 10
6.802168
 20
46.096804
 30
0.000000
  0
VERTEX
  8
MERGEDLAYER-2
 10
0.726740
 20
46.096804
 30
0.000000
  0
SEQEND
  8
MERGEDLAYER-2
  0
POLYLINE
  8
MERGEDLAYER-2
 66
  1
 70
  0
 62
  9
 10
6.801862
 20
46.128986
 30
0.000000
  0
VERTEX
  8
MERGEDLAYER-2
 10
6.801862
 20
46.128986
 30
0.000000
  0
VERTEX
  8
MERGEDLAYER-2
 10
0.726740
 20
46.128986
 30
0.000000
  0
SEQEND
  8
MERGEDLAYER-2
  0
POLYLINE
  8
MERGEDLAYER-2
 66
  1
 70
  0
 62
  9
 10
6.801862
 20
46.114444
 30
0.000000
  0
VERTEX
  8
MERGEDLAYER-2
 10
6.801862
 20
46.114444
 30
0.000000
  0
VERTEX
  8
MERGEDLAYER-2
 10
0.726740
 20
46.114444
 30
0.000000
  0
SEQEND
  8
MERGEDLAYER-2
  0
POLYLINE
  8
MERGEDLAYER-2
 66
  1
 70
  1
 62
  7
  0
VERTEX
  8
MERGEDLAYER-2
 10
0.726740
 20
46.285942
 30
0.000000
  0
VERTEX
  8
MERGEDLAYER-2
 10
6.802168
 20
46.285942
 30
0.000000
  0
VERTEX
  8
MERGEDLAYER-2
 10
6.802168
 20
46.236195
 30
0.000000
  0
VERTEX
  8
MERGEDLAYER-2
 10
0.726740
 20
46.236195
 30
0.000000
  0
SEQEND
  8
MERGEDLAYER-2
  0
POLYLINE
  8
MERGEDLAYER-2
 66
  1
 70
  0
 62
  9
 10
6.801862
 20
46.268377
 30
0.000000
  0
VERTEX
  8
MERGEDLAYER-2
 10
6.801862
 20
46.268377
 30
0.000000
  0
VERTEX
  8
MERGEDLAYER-2
 10
0.726740
 20
46.268377
 30
0.000000
  0
SEQEND
  8
MERGEDLAYER-2
  0
POLYLINE
  8
MERGEDLAYER-2
 66
  1
 70
  0
 62
  9
 10
6.801862
 20
46.253831
 30
0.000000
  0
VERTEX
  8
MERGEDLAYER-2
 10
6.801862
 20
46.253831
 30
0.000000
  0
VERTEX
  8
MERGEDLAYER-2
 10
0.726740
 20
46.253831
 30
0.000000
  0
SEQEND
  8
MERGEDLAYER-2
  0
POLYLINE
  8
MERGEDLAYER-2
 66
  1
 70
  1
 62
  7
  0
VERTEX
  8
MERGEDLAYER-2
 10
0.726740
 20
46.425333
 30
0.000000
  0
VERTEX
  8
MERGEDLAYER-2
 10
6.802168
 20
46.425333
 30
0.000000
  0
VERTEX
  8
MERGEDLAYER-2
 10
6.802168
 20
46.375586
 30
0.000000
  0
VERTEX
  8
MERGEDLAYER-2
 10
0.726740
 20
46.375586
 30
0.000000
  0
SEQEND
  8
MERGEDLAYER-2
  0
POLYLINE
  8
MERGEDLAYER-2
 66
  1
 70
  0
 62
  9
 10
6.801862
 20
46.407768
 30
0.000000
  0
VERTEX
  8
MERGEDLAYER-2
 10
6.801862
 20
46.407768
 30
0.000000
  0
VERTEX
  8
MERGEDLAYER-2
 10
0.726740
 20
46.407768
 30
0.000000
  0
SEQEND
  8
MERGEDLAYER-2
  0
POLYLINE
  8
MERGEDLAYER-2
 66
  1
 70
  0
 62
  9
 10
6.801862
 20
46.393222
 30
0.000000
  0
VERTEX
  8
MERGEDLAYER-2
 10
6.801862
 20
46.393222
 30
0.000000
  0
VERTEX
  8
MERGEDLAYER-2
 10
0.726740
 20
46.393222
 30
0.000000
  0
SEQEND
  8
MERGEDLAYER-2
  0
POLYLINE
  8
MERGEDLAYER-2
 66
  1
 70
  0
 62
  7
 10
1.067375
 20
43.930993
 30
0.000000
  0
VERTEX
  8
MERGEDLAYER-2
 10
1.067375
 20
43.930993
 30
0.000000
  0
VERTEX
  8
MERGEDLAYER-2
 10
1.119282
 20
43.982897
 30
0.000000
  0
SEQEND
  8
MERGEDLAYER-2
  0
POLYLINE
  8
MERGEDLAYER-2
 66
  1
 70
  0
 62
  7
 10
1.644286
 20
43.937797
 30
0.000000
  0
VERTEX
  8
MERGEDLAYER-2
 10
1.644286
 20
43.937797
 30
0.000000
  0
VERTEX
  8
MERGEDLAYER-2
 10
1.696190
 20
43.989702
 30
0.000000
  0
SEQEND
  8
MERGEDLAYER-2
  0
POLYLINE
  8
MERGEDLAYER-2
 66
  1
 70
  0
 62
  7
 10
1.067375
 20
44.070384
 30
0.000000
  0
VERTEX
  8
MERGEDLAYER-2
 10
1.067375
 20
44.070384
 30
0.000000
  0
VERTEX
  8
MERGEDLAYER-2
 10
1.119282
 20
44.122288
 30
0.000000
  0
SEQEND
  8
MERGEDLAYER-2
  0
POLYLINE
  8
MERGEDLAYER-2
 66
  1
 70
  0
 62
  7
 10
1.644286
 20
44.077188
 30
0.000000
  0
VERTEX
  8
MERGEDLAYER-2
 10
1.644286
 20
44.077188
 30
0.000000
  0
VERTEX
  8
MERGEDLAYER-2
 10
1.696190
 20
44.129093
 30
0.000000
  0
SEQEND
  8
MERGEDLAYER-2
  0
POLYLINE
  8
MERGEDLAYER-2
 66
  1
 70
  0
 62
  7
 10
1.067375
 20
44.209775
 30
0.000000
  0
VERTEX
  8
MERGEDLAYER-2
 10
1.067375
 20
44.209775
 30
0.000000
  0
VERTEX
  8
MERGEDLAYER-2
 10
1.119282
 20
44.261674
 30
0.000000
  0
SEQEND
  8
MERGEDLAYER-2
  0
POLYLINE
  8
MERGEDLAYER-2
 66
  1
 70
  0
 62
  7
 10
1.644286
 20
44.216579
 30
0.000000
  0
VERTEX
  8
MERGEDLAYER-2
 10
1.644286
 20
44.216579
 30
0.000000
  0
VERTEX
  8
MERGEDLAYER-2
 10
1.696190
 20
44.268484
 30
0.000000
  0
SEQEND
  8
MERGEDLAYER-2
  0
POLYLINE
  8
MERGEDLAYER-2
 66
  1
 70
  0
 62
  7
 10
1.067375
 20
44.349165
 30
0.000000
  0
VERTEX
  8
MERGEDLAYER-2
 10
1.067375
 20
44.349165
 30
0.000000
  0
VERTEX
  8
MERGEDLAYER-2
 10
1.119282
 20
44.401065
 30
0.000000
  0
SEQEND
  8
MERGEDLAYER-2
  0
POLYLINE
  8
MERGEDLAYER-2
 66
  1
 70
  0
 62
  7
 10
1.644286
 20
44.355970
 30
0.000000
  0
VERTEX
  8
MERGEDLAYER-2
 10
1.644286
 20
44.355970
 30
0.000000
  0
VERTEX
  8
MERGEDLAYER-2
 10
1.696190
 20
44.407875
 30
0.000000
  0
SEQEND
  8
MERGEDLAYER-2
  0
POLYLINE
  8
MERGEDLAYER-2
 66
  1
 70
  0
 62
  7
 10
1.067375
 20
44.488552
 30
0.000000
  0
VERTEX
  8
MERGEDLAYER-2
 10
1.067375
 20
44.488552
 30
0.000000
  0
VERTEX
  8
MERGEDLAYER-2
 10
1.119282
 20
44.540456
 30
0.000000
  0
SEQEND
  8
MERGEDLAYER-2
  0
POLYLINE
  8
MERGEDLAYER-2
 66
  1
 70
  0
 62
  7
 10
1.644286
 20
44.495361
 30
0.000000
  0
VERTEX
  8
MERGEDLAYER-2
 10
1.644286
 20
44.495361
 30
0.000000
  0
VERTEX
  8
MERGEDLAYER-2
 10
1.696190
 20
44.547266
 30
0.000000
  0
SEQEND
  8
MERGEDLAYER-2
  0
POLYLINE
  8
MERGEDLAYER-2
 66
  1
 70
  0
 62
  7
 10
1.067375
 20
44.627943
 30
0.000000
  0
VERTEX
  8
MERGEDLAYER-2
 10
1.067375
 20
44.627943
 30
0.000000
  0
VERTEX
  8
MERGEDLAYER-2
 10
1.119282
 20
44.679847
 30
0.000000
  0
SEQEND
  8
MERGEDLAYER-2
  0
POLYLINE
  8
MERGEDLAYER-2
 66
  1
 70
  0
 62
  7
 10
1.644286
 20
44.634752
 30
0.000000
  0
VERTEX
  8
MERGEDLAYER-2
 10
1.644286
 20
44.634752
 30
0.000000
  0
VERTEX
  8
MERGEDLAYER-2
 10
1.696190
 20
44.686657
 30
0.000000
  0
SEQEND
  8
MERGEDLAYER-2
  0
POLYLINE
  8
MERGEDLAYER-2
 66
  1
 70
  0
 62
  7
 10
1.067375
 20
44.767334
 30
0.000000
  0
VERTEX
  8
MERGEDLAYER-2
 10
1.067375
 20
44.767334
 30
0.000000
  0
VERTEX
  8
MERGEDLAYER-2
 10
1.119282
 20
44.819238
 30
0.000000
  0
SEQEND
  8
MERGEDLAYER-2
  0
POLYLINE
  8
MERGEDLAYER-2
 66
  1
 70
  0
 62
  7
 10
1.644286
 20
44.774143
 30
0.000000
  0
VERTEX
  8
MERGEDLAYER-2
 10
1.644286
 20
44.774143
 30
0.000000
  0
VERTEX
  8
MERGEDLAYER-2
 10
1.696190
 20
44.826048
 30
0.000000
  0
SEQEND
  8
MERGEDLAYER-2
  0
POLYLINE
  8
MERGEDLAYER-2
 66
  1
 70
  0
 62
  7
 10
1.067375
 20
44.906725
 30
0.000000
  0
VERTEX
  8
MERGEDLAYER-2
 10
1.067375
 20
44.906725
 30
0.000000
  0
VERTEX
  8
MERGEDLAYER-2
 10
1.119282
 20
44.958629
 30
0.000000
  0
SEQEND
  8
MERGEDLAYER-2
  0
POLYLINE
  8
MERGEDLAYER-2
 66
  1
 70
  0
 62
  7
 10
1.644286
 20
44.913534
 30
0.000000
  0
VERTEX
  8
MERGEDLAYER-2
 10
1.644286
 20
44.913534
 30
0.000000
  0
VERTEX
  8
MERGEDLAYER-2
 10
1.696190
 20
44.965439
 30
0.000000
  0
SEQEND
  8
MERGEDLAYER-2
  0
POLYLINE
  8
MERGEDLAYER-2
 66
  1
 70
  0
 62
  7
 10
1.067375
 20
45.046116
 30
0.000000
  0
VERTEX
  8
MERGEDLAYER-2
 10
1.067375
 20
45.046116
 30
0.000000
  0
VERTEX
  8
MERGEDLAYER-2
 10
1.119282
 20
45.098020
 30
0.000000
  0
SEQEND
  8
MERGEDLAYER-2
  0
POLYLINE
  8
MERGEDLAYER-2
 66
  1
 70
  0
 62
  7
 10
1.644286
 20
45.052921
 30
0.000000
  0
VERTEX
  8
MERGEDLAYER-2
 10
1.644286
 20
45.052921
 30
0.000000
  0
VERTEX
  8
MERGEDLAYER-2
 10
1.696190
 20
45.104830
 30
0.000000
  0
SEQEND
  8
MERGEDLAYER-2
  0
POLYLINE
  8
MERGEDLAYER-2
 66
  1
 70
  0
 62
  7
 10
1.067375
 20
45.185507
 30
0.000000
  0
VERTEX
  8
MERGEDLAYER-2
 10
1.067375
 20
45.185507
 30
0.000000
  0
VERTEX
  8
MERGEDLAYER-2
 10
1.119282
 20
45.237411
 30
0.000000
  0
SEQEND
  8
MERGEDLAYER-2
  0
POLYLINE
  8
MERGEDLAYER-2
 66
  1
 70
  0
 62
  7
 10
1.644286
 20
45.192316
 30
0.000000
  0
VERTEX
  8
MERGEDLAYER-2
 10
1.644286
 20
45.192316
 30
0.000000
  0
VERTEX
  8
MERGEDLAYER-2
 10
1.696190
 20
45.244221
 30
0.000000
  0
SEQEND
  8
MERGEDLAYER-2
  0
POLYLINE
  8
MERGEDLAYER-2
 66
  1
 70
  0
 62
  7
 10
1.067375
 20
45.324898
 30
0.000000
  0
VERTEX
  8
MERGEDLAYER-2
 10
1.067375
 20
45.324898
 30
0.000000
  0
VERTEX
  8
MERGEDLAYER-2
 10
1.119282
 20
45.376802
 30
0.000000
  0
SEQEND
  8
MERGEDLAYER-2
  0
POLYLINE
  8
MERGEDLAYER-2
 66
  1
 70
  0
 62
  7
 10
1.644286
 20
45.331703
 30
0.000000
  0
VERTEX
  8
MERGEDLAYER-2
 10
1.644286
 20
45.331703
 30
0.000000
  0
VERTEX
  8
MERGEDLAYER-2
 10
1.696190
 20
45.383612
 30
0.000000
  0
SEQEND
  8
MERGEDLAYER-2
  0
POLYLINE
  8
MERGEDLAYER-2
 66
  1
 70
  0
 62
  7
 10
1.067375
 20
45.464289
 30
0.000000
  0
VERTEX
  8
MERGEDLAYER-2
 10
1.067375
 20
45.464289
 30
0.000000
  0
VERTEX
  8
MERGEDLAYER-2
 10
1.119282
 20
45.516193
 30
0.000000
  0
SEQEND
  8
MERGEDLAYER-2
  0
POLYLINE
  8
MERGEDLAYER-2
 66
  1
 70
  0
 62
  7
 10
1.644286
 20
45.471094
 30
0.000000
  0
VERTEX
  8
MERGEDLAYER-2
 10
1.644286
 20
45.471094
 30
0.000000
  0
VERTEX
  8
MERGEDLAYER-2
 10
1.696190
 20
45.523002
 30
0.000000
  0
SEQEND
  8
MERGEDLAYER-2
  0
POLYLINE
  8
MERGEDLAYER-2
 66
  1
 70
  0
 62
  7
 10
1.067375
 20
45.603680
 30
0.000000
  0
VERTEX
  8
MERGEDLAYER-2
 10
1.067375
 20
45.603680
 30
0.000000
  0
VERTEX
  8
MERGEDLAYER-2
 10
1.119282
 20
45.655584
 30
0.000000
  0
SEQEND
  8
MERGEDLAYER-2
  0
POLYLINE
  8
MERGEDLAYER-2
 66
  1
 70
  0
 62
  7
 10
1.644286
 20
45.610485
 30
0.000000
  0
VERTEX
  8
MERGEDLAYER-2
 10
1.644286
 20
45.610485
 30
0.000000
  0
VERTEX
  8
MERGEDLAYER-2
 10
1.696190
 20
45.662389
 30
0.000000
  0
SEQEND
  8
MERGEDLAYER-2
  0
POLYLINE
  8
MERGEDLAYER-2
 66
  1
 70
  0
 62
  7
 10
1.067375
 20
45.743071
 30
0.000000
  0
VERTEX
  8
MERGEDLAYER-2
 10
1.067375
 20
45.743071
 30
0.000000
  0
VERTEX
  8
MERGEDLAYER-2
 10
1.119282
 20
45.794975
 30
0.000000
  0
SEQEND
  8
MERGEDLAYER-2
  0
POLYLINE
  8
MERGEDLAYER-2
 66
  1
 70
  0
 62
  7
 10
1.644286
 20
45.749876
 30
0.000000
  0
VERTEX
  8
MERGEDLAYER-2
 10
1.644286
 20
45.749876
 30
0.000000
  0
VERTEX
  8
MERGEDLAYER-2
 10
1.696190
 20
45.801780
 30
0.000000
  0
SEQEND
  8
MERGEDLAYER-2
  0
POLYLINE
  8
MERGEDLAYER-2
 66
  1
 70
  0
 62
  7
 10
1.067375
 20
45.882457
 30
0.000000
  0
VERTEX
  8
MERGEDLAYER-2
 10
1.067375
 20
45.882457
 30
0.000000
  0
VERTEX
  8
MERGEDLAYER-2
 10
1.119282
 20
45.934366
 30
0.000000
  0
SEQEND
  8
MERGEDLAYER-2
  0
POLYLINE
  8
MERGEDLAYER-2
 66
  1
 70
  0
 62
  7
 10
1.644286
 20
45.889267
 30
0.000000
  0
VERTEX
  8
MERGEDLAYER-2
 10
1.644286
 20
45.889267
 30
0.000000
  0
VERTEX
  8
MERGEDLAYER-2
 10
1.696190
 20
45.941171
 30
0.000000
  0
SEQEND
  8
MERGEDLAYER-2
  0
POLYLINE
  8
MERGEDLAYER-2
 66
  1
 70
  0
 62
  7
 10
1.067375
 20
46.021853
 30
0.000000
  0
VERTEX
  8
MERGEDLAYER-2
 10
1.067375
 20
46.021853
 30
0.000000
  0
VERTEX
  8
MERGEDLAYER-2
 10
1.119282
 20
46.073757
 30
0.000000
  0
SEQEND
  8
MERGEDLAYER-2
  0
POLYLINE
  8
MERGEDLAYER-2
 66
  1
 70
  0
 62
  7
 10
1.644286
 20
46.028658
 30
0.000000
  0
VERTEX
  8
MERGEDLAYER-2
 10
1.644286
 20
46.028658
 30
0.000000
  0
VERTEX
  8
MERGEDLAYER-2
 10
1.696190
 20
46.080562
 30
0.000000
  0
SEQEND
  8
MERGEDLAYER-2
  0
POLYLINE
  8
MERGEDLAYER-2
 66
  1
 70
  0
 62
  7
 10
1.067375
 20
46.161244
 30
0.000000
  0
VERTEX
  8
MERGEDLAYER-2
 10
1.067375
 20
46.161244
 30
0.000000
  0
VERTEX
  8
MERGEDLAYER-2
 10
1.119282
 20
46.213148
 30
0.000000
  0
SEQEND
  8
MERGEDLAYER-2
  0
POLYLINE
  8
MERGEDLAYER-2
 66
  1
 70
  0
 62
  7
 10
1.644286
 20
46.168049
 30
0.000000
  0
VERTEX
  8
MERGEDLAYER-2
 10
1.644286
 20
46.168049
 30
0.000000
  0
VERTEX
  8
MERGEDLAYER-2
 10
1.696190
 20
46.219953
 30
0.000000
  0
SEQEND
  8
MERGEDLAYER-2
  0
POLYLINE
  8
MERGEDLAYER-2
 66
  1
 70
  0
 62
  7
 10
1.067375
 20
46.300630
 30
0.000000
  0
VERTEX
  8
MERGEDLAYER-2
 10
1.067375
 20
46.300630
 30
0.000000
  0
VERTEX
  8
MERGEDLAYER-2
 10
1.119282
 20
46.352539
 30
0.000000
  0
SEQEND
  8
MERGEDLAYER-2
  0
POLYLINE
  8
MERGEDLAYER-2
 66
  1
 70
  0
 62
  7
 10
1.644286
 20
46.307440
 30
0.000000
  0
VERTEX
  8
MERGEDLAYER-2
 10
1.644286
 20
46.307440
 30
0.000000
  0
VERTEX
  8
MERGEDLAYER-2
 10
1.696190
 20
46.359344
 30
0.000000
  0
SEQEND
  8
MERGEDLAYER-2
  0
POLYLINE
  8
MERGEDLAYER-2
 66
  1
 70
  0
 62
  7
 10
2.258633
 20
43.930993
 30
0.000000
  0
VERTEX
  8
MERGEDLAYER-2
 10
2.258633
 20
43.930993
 30
0.000000
  0
VERTEX
  8
MERGEDLAYER-2
 10
2.310539
 20
43.982897
 30
0.000000
  0
SEQEND
  8
MERGEDLAYER-2
  0
POLYLINE
  8
MERGEDLAYER-2
 66
  1
 70
  0
 62
  7
 10
2.835544
 20
43.937797
 30
0.000000
  0
VERTEX
  8
MERGEDLAYER-2
 10
2.835544
 20
43.937797
 30
0.000000
  0
VERTEX
  8
MERGEDLAYER-2
 10
2.887447
 20
43.989702
 30
0.000000
  0
SEQEND
  8
MERGEDLAYER-2
  0
POLYLINE
  8
MERGEDLAYER-2
 66
  1
 70
  0
 62
  7
 10
2.258633
 20
44.070384
 30
0.000000
  0
VERTEX
  8
MERGEDLAYER-2
 10
2.258633
 20
44.070384
 30
0.000000
  0
VERTEX
  8
MERGEDLAYER-2
 10
2.310539
 20
44.122288
 30
0.000000
  0
SEQEND
  8
MERGEDLAYER-2
  0
POLYLINE
  8
MERGEDLAYER-2
 66
  1
 70
  0
 62
  7
 10
2.835544
 20
44.077188
 30
0.000000
  0
VERTEX
  8
MERGEDLAYER-2
 10
2.835544
 20
44.077188
 30
0.000000
  0
VERTEX
  8
MERGEDLAYER-2
 10
2.887447
 20
44.129093
 30
0.000000
  0
SEQEND
  8
MERGEDLAYER-2
  0
POLYLINE
  8
MERGEDLAYER-2
 66
  1
 70
  0
 62
  7
 10
2.258633
 20
44.209775
 30
0.000000
  0
VERTEX
  8
MERGEDLAYER-2
 10
2.258633
 20
44.209775
 30
0.000000
  0
VERTEX
  8
MERGEDLAYER-2
 10
2.310539
 20
44.261674
 30
0.000000
  0
SEQEND
  8
MERGEDLAYER-2
  0
POLYLINE
  8
MERGEDLAYER-2
 66
  1
 70
  0
 62
  7
 10
2.835544
 20
44.216579
 30
0.000000
  0
VERTEX
  8
MERGEDLAYER-2
 10
2.835544
 20
44.216579
 30
0.000000
  0
VERTEX
  8
MERGEDLAYER-2
 10
2.887447
 20
44.268484
 30
0.000000
  0
SEQEND
  8
MERGEDLAYER-2
  0
POLYLINE
  8
MERGEDLAYER-2
 66
  1
 70
  0
 62
  7
 10
2.258633
 20
44.349165
 30
0.000000
  0
VERTEX
  8
MERGEDLAYER-2
 10
2.258633
 20
44.349165
 30
0.000000
  0
VERTEX
  8
MERGEDLAYER-2
 10
2.310539
 20
44.401065
 30
0.000000
  0
SEQEND
  8
MERGEDLAYER-2
  0
POLYLINE
  8
MERGEDLAYER-2
 66
  1
 70
  0
 62
  7
 10
2.835544
 20
44.355970
 30
0.000000
  0
VERTEX
  8
MERGEDLAYER-2
 10
2.835544
 20
44.355970
 30
0.000000
  0
VERTEX
  8
MERGEDLAYER-2
 10
2.887447
 20
44.407875
 30
0.000000
  0
SEQEND
  8
MERGEDLAYER-2
  0
POLYLINE
  8
MERGEDLAYER-2
 66
  1
 70
  0
 62
  7
 10
2.258633
 20
44.488552
 30
0.000000
  0
VERTEX
  8
MERGEDLAYER-2
 10
2.258633
 20
44.488552
 30
0.000000
  0
VERTEX
  8
MERGEDLAYER-2
 10
2.310539
 20
44.540456
 30
0.000000
  0
SEQEND
  8
MERGEDLAYER-2
  0
POLYLINE
  8
MERGEDLAYER-2
 66
  1
 70
  0
 62
  7
 10
2.835544
 20
44.495361
 30
0.000000
  0
VERTEX
  8
MERGEDLAYER-2
 10
2.835544
 20
44.495361
 30
0.000000
  0
VERTEX
  8
MERGEDLAYER-2
 10
2.887447
 20
44.547266
 30
0.000000
  0
SEQEND
  8
MERGEDLAYER-2
  0
POLYLINE
  8
MERGEDLAYER-2
 66
  1
 70
  0
 62
  7
 10
2.258633
 20
44.627943
 30
0.000000
  0
VERTEX
  8
MERGEDLAYER-2
 10
2.258633
 20
44.627943
 30
0.000000
  0
VERTEX
  8
MERGEDLAYER-2
 10
2.310539
 20
44.679847
 30
0.000000
  0
SEQEND
  8
MERGEDLAYER-2
  0
POLYLINE
  8
MERGEDLAYER-2
 66
  1
 70
  0
 62
  7
 10
2.835544
 20
44.634752
 30
0.000000
  0
VERTEX
  8
MERGEDLAYER-2
 10
2.835544
 20
44.634752
 30
0.000000
  0
VERTEX
  8
MERGEDLAYER-2
 10
2.887447
 20
44.686657
 30
0.000000
  0
SEQEND
  8
MERGEDLAYER-2
  0
POLYLINE
  8
MERGEDLAYER-2
 66
  1
 70
  0
 62
  7
 10
2.258633
 20
44.767334
 30
0.000000
  0
VERTEX
  8
MERGEDLAYER-2
 10
2.258633
 20
44.767334
 30
0.000000
  0
VERTEX
  8
MERGEDLAYER-2
 10
2.310539
 20
44.819238
 30
0.000000
  0
SEQEND
  8
MERGEDLAYER-2
  0
POLYLINE
  8
MERGEDLAYER-2
 66
  1
 70
  0
 62
  7
 10
2.835544
 20
44.774143
 30
0.000000
  0
VERTEX
  8
MERGEDLAYER-2
 10
2.835544
 20
44.774143
 30
0.000000
  0
VERTEX
  8
MERGEDLAYER-2
 10
2.887447
 20
44.826048
 30
0.000000
  0
SEQEND
  8
MERGEDLAYER-2
  0
POLYLINE
  8
MERGEDLAYER-2
 66
  1
 70
  0
 62
  7
 10
2.258633
 20
44.906725
 30
0.000000
  0
VERTEX
  8
MERGEDLAYER-2
 10
2.258633
 20
44.906725
 30
0.000000
  0
VERTEX
  8
MERGEDLAYER-2
 10
2.310539
 20
44.958629
 30
0.000000
  0
SEQEND
  8
MERGEDLAYER-2
  0
POLYLINE
  8
MERGEDLAYER-2
 66
  1
 70
  0
 62
  7
 10
2.835544
 20
44.913534
 30
0.000000
  0
VERTEX
  8
MERGEDLAYER-2
 10
2.835544
 20
44.913534
 30
0.000000
  0
VERTEX
  8
MERGEDLAYER-2
 10
2.887447
 20
44.965439
 30
0.000000
  0
SEQEND
  8
MERGEDLAYER-2
  0
POLYLINE
  8
MERGEDLAYER-2
 66
  1
 70
  0
 62
  7
 10
2.258633
 20
45.046116
 30
0.000000
  0
VERTEX
  8
MERGEDLAYER-2
 10
2.258633
 20
45.046116
 30
0.000000
  0
VERTEX
  8
MERGEDLAYER-2
 10
2.310539
 20
45.098020
 30
0.000000
  0
SEQEND
  8
MERGEDLAYER-2
  0
POLYLINE
  8
MERGEDLAYER-2
 66
  1
 70
  0
 62
  7
 10
2.835544
 20
45.052921
 30
0.000000
  0
VERTEX
  8
MERGEDLAYER-2
 10
2.835544
 20
45.052921
 30
0.000000
  0
VERTEX
  8
MERGEDLAYER-2
 10
2.887447
 20
45.104830
 30
0.000000
  0
SEQEND
  8
MERGEDLAYER-2
  0
POLYLINE
  8
MERGEDLAYER-2
 66
  1
 70
  0
 62
  7
 10
2.258633
 20
45.185507
 30
0.000000
  0
VERTEX
  8
MERGEDLAYER-2
 10
2.258633
 20
45.185507
 30
0.000000
  0
VERTEX
  8
MERGEDLAYER-2
 10
2.310539
 20
45.237411
 30
0.000000
  0
SEQEND
  8
MERGEDLAYER-2
  0
POLYLINE
  8
MERGEDLAYER-2
 66
  1
 70
  0
 62
  7
 10
2.835544
 20
45.192316
 30
0.000000
  0
VERTEX
  8
MERGEDLAYER-2
 10
2.835544
 20
45.192316
 30
0.000000
  0
VERTEX
  8
MERGEDLAYER-2
 10
2.887447
 20
45.244221
 30
0.000000
  0
SEQEND
  8
MERGEDLAYER-2
  0
POLYLINE
  8
MERGEDLAYER-2
 66
  1
 70
  0
 62
  7
 10
2.258633
 20
45.324898
 30
0.000000
  0
VERTEX
  8
MERGEDLAYER-2
 10
2.258633
 20
45.324898
 30
0.000000
  0
VERTEX
  8
MERGEDLAYER-2
 10
2.310539
 20
45.376802
 30
0.000000
  0
SEQEND
  8
MERGEDLAYER-2
  0
POLYLINE
  8
MERGEDLAYER-2
 66
  1
 70
  0
 62
  7
 10
2.835544
 20
45.331703
 30
0.000000
  0
VERTEX
  8
MERGEDLAYER-2
 10
2.835544
 20
45.331703
 30
0.000000
  0
VERTEX
  8
MERGEDLAYER-2
 10
2.887447
 20
45.383612
 30
0.000000
  0
SEQEND
  8
MERGEDLAYER-2
  0
POLYLINE
  8
MERGEDLAYER-2
 66
  1
 70
  0
 62
  7
 10
2.258633
 20
45.464289
 30
0.000000
  0
VERTEX
  8
MERGEDLAYER-2
 10
2.258633
 20
45.464289
 30
0.000000
  0
VERTEX
  8
MERGEDLAYER-2
 10
2.310539
 20
45.516193
 30
0.000000
  0
SEQEND
  8
MERGEDLAYER-2
  0
POLYLINE
  8
MERGEDLAYER-2
 66
  1
 70
  0
 62
  7
 10
2.835544
 20
45.471094
 30
0.000000
  0
VERTEX
  8
MERGEDLAYER-2
 10
2.835544
 20
45.471094
 30
0.000000
  0
VERTEX
  8
MERGEDLAYER-2
 10
2.887447
 20
45.523002
 30
0.000000
  0
SEQEND
  8
MERGEDLAYER-2
  0
POLYLINE
  8
MERGEDLAYER-2
 66
  1
 70
  0
 62
  7
 10
2.258633
 20
45.603680
 30
0.000000
  0
VERTEX
  8
MERGEDLAYER-2
 10
2.258633
 20
45.603680
 30
0.000000
  0
VERTEX
  8
MERGEDLAYER-2
 10
2.310539
 20
45.655584
 30
0.000000
  0
SEQEND
  8
MERGEDLAYER-2
  0
POLYLINE
  8
MERGEDLAYER-2
 66
  1
 70
  0
 62
  7
 10
2.835544
 20
45.610485
 30
0.000000
  0
VERTEX
  8
MERGEDLAYER-2
 10
2.835544
 20
45.610485
 30
0.000000
  0
VERTEX
  8
MERGEDLAYER-2
 10
2.887447
 20
45.662389
 30
0.000000
  0
SEQEND
  8
MERGEDLAYER-2
  0
POLYLINE
  8
MERGEDLAYER-2
 66
  1
 70
  0
 62
  7
 10
2.258633
 20
45.743071
 30
0.000000
  0
VERTEX
  8
MERGEDLAYER-2
 10
2.258633
 20
45.743071
 30
0.000000
  0
VERTEX
  8
MERGEDLAYER-2
 10
2.310539
 20
45.794975
 30
0.000000
  0
SEQEND
  8
MERGEDLAYER-2
  0
POLYLINE
  8
MERGEDLAYER-2
 66
  1
 70
  0
 62
  7
 10
2.835544
 20
45.749876
 30
0.000000
  0
VERTEX
  8
MERGEDLAYER-2
 10
2.835544
 20
45.749876
 30
0.000000
  0
VERTEX
  8
MERGEDLAYER-2
 10
2.887447
 20
45.801780
 30
0.000000
  0
SEQEND
  8
MERGEDLAYER-2
  0
POLYLINE
  8
MERGEDLAYER-2
 66
  1
 70
  0
 62
  7
 10
2.258633
 20
45.882457
 30
0.000000
  0
VERTEX
  8
MERGEDLAYER-2
 10
2.258633
 20
45.882457
 30
0.000000
  0
VERTEX
  8
MERGEDLAYER-2
 10
2.310539
 20
45.934366
 30
0.000000
  0
SEQEND
  8
MERGEDLAYER-2
  0
POLYLINE
  8
MERGEDLAYER-2
 66
  1
 70
  0
 62
  7
 10
2.835544
 20
45.889267
 30
0.000000
  0
VERTEX
  8
MERGEDLAYER-2
 10
2.835544
 20
45.889267
 30
0.000000
  0
VERTEX
  8
MERGEDLAYER-2
 10
2.887447
 20
45.941171
 30
0.000000
  0
SEQEND
  8
MERGEDLAYER-2
  0
POLYLINE
  8
MERGEDLAYER-2
 66
  1
 70
  0
 62
  7
 10
2.258633
 20
46.021853
 30
0.000000
  0
VERTEX
  8
MERGEDLAYER-2
 10
2.258633
 20
46.021853
 30
0.000000
  0
VERTEX
  8
MERGEDLAYER-2
 10
2.310539
 20
46.073757
 30
0.000000
  0
SEQEND
  8
MERGEDLAYER-2
  0
POLYLINE
  8
MERGEDLAYER-2
 66
  1
 70
  0
 62
  7
 10
2.835544
 20
46.028658
 30
0.000000
  0
VERTEX
  8
MERGEDLAYER-2
 10
2.835544
 20
46.028658
 30
0.000000
  0
VERTEX
  8
MERGEDLAYER-2
 10
2.887447
 20
46.080562
 30
0.000000
  0
SEQEND
  8
MERGEDLAYER-2
  0
POLYLINE
  8
MERGEDLAYER-2
 66
  1
 70
  0
 62
  7
 10
2.258633
 20
46.161244
 30
0.000000
  0
VERTEX
  8
MERGEDLAYER-2
 10
2.258633
 20
46.161244
 30
0.000000
  0
VERTEX
  8
MERGEDLAYER-2
 10
2.310539
 20
46.213148
 30
0.000000
  0
SEQEND
  8
MERGEDLAYER-2
  0
POLYLINE
  8
MERGEDLAYER-2
 66
  1
 70
  0
 62
  7
 10
2.835544
 20
46.168049
 30
0.000000
  0
VERTEX
  8
MERGEDLAYER-2
 10
2.835544
 20
46.168049
 30
0.000000
  0
VERTEX
  8
MERGEDLAYER-2
 10
2.887447
 20
46.219953
 30
0.000000
  0
SEQEND
  8
MERGEDLAYER-2
  0
POLYLINE
  8
MERGEDLAYER-2
 66
  1
 70
  0
 62
  7
 10
2.258633
 20
46.300630
 30
0.000000
  0
VERTEX
  8
MERGEDLAYER-2
 10
2.258633
 20
46.300630
 30
0.000000
  0
VERTEX
  8
MERGEDLAYER-2
 10
2.310539
 20
46.352539
 30
0.000000
  0
SEQEND
  8
MERGEDLAYER-2
  0
POLYLINE
  8
MERGEDLAYER-2
 66
  1
 70
  0
 62
  7
 10
2.835544
 20
46.307440
 30
0.000000
  0
VERTEX
  8
MERGEDLAYER-2
 10
2.835544
 20
46.307440
 30
0.000000
  0
VERTEX
  8
MERGEDLAYER-2
 10
2.887447
 20
46.359344
 30
0.000000
  0
SEQEND
  8
MERGEDLAYER-2
  0
POLYLINE
  8
MERGEDLAYER-2
 66
  1
 70
  0
 62
  7
 10
3.449890
 20
43.930993
 30
0.000000
  0
VERTEX
  8
MERGEDLAYER-2
 10
3.449890
 20
43.930993
 30
0.000000
  0
VERTEX
  8
MERGEDLAYER-2
 10
3.501797
 20
43.982897
 30
0.000000
  0
SEQEND
  8
MERGEDLAYER-2
  0
POLYLINE
  8
MERGEDLAYER-2
 66
  1
 70
  0
 62
  7
 10
4.026801
 20
43.937797
 30
0.000000
  0
VERTEX
  8
MERGEDLAYER-2
 10
4.026801
 20
43.937797
 30
0.000000
  0
VERTEX
  8
MERGEDLAYER-2
 10
4.078705
 20
43.989702
 30
0.000000
  0
SEQEND
  8
MERGEDLAYER-2
  0
POLYLINE
  8
MERGEDLAYER-2
 66
  1
 70
  0
 62
  7
 10
3.449890
 20
44.070384
 30
0.000000
  0
VERTEX
  8
MERGEDLAYER-2
 10
3.449890
 20
44.070384
 30
0.000000
  0
VERTEX
  8
MERGEDLAYER-2
 10
3.501797
 20
44.122288
 30
0.000000
  0
SEQEND
  8
MERGEDLAYER-2
  0
POLYLINE
  8
MERGEDLAYER-2
 66
  1
 70
  0
 62
  7
 10
4.026801
 20
44.077188
 30
0.000000
  0
VERTEX
  8
MERGEDLAYER-2
 10
4.026801
 20
44.077188
 30
0.000000
  0
VERTEX
  8
MERGEDLAYER-2
 10
4.078705
 20
44.129093
 30
0.000000
  0
SEQEND
  8
MERGEDLAYER-2
  0
POLYLINE
  8
MERGEDLAYER-2
 66
  1
 70
  0
 62
  7
 10
3.449890
 20
44.209775
 30
0.000000
  0
VERTEX
  8
MERGEDLAYER-2
 10
3.449890
 20
44.209775
 30
0.000000
  0
VERTEX
  8
MERGEDLAYER-2
 10
3.501797
 20
44.261674
 30
0.000000
  0
SEQEND
  8
MERGEDLAYER-2
  0
POLYLINE
  8
MERGEDLAYER-2
 66
  1
 70
  0
 62
  7
 10
4.026801
 20
44.216579
 30
0.000000
  0
VERTEX
  8
MERGEDLAYER-2
 10
4.026801
 20
44.216579
 30
0.000000
  0
VERTEX
  8
MERGEDLAYER-2
 10
4.078705
 20
44.268484
 30
0.000000
  0
SEQEND
  8
MERGEDLAYER-2
  0
POLYLINE
  8
MERGEDLAYER-2
 66
  1
 70
  0
 62
  7
 10
3.449890
 20
44.349165
 30
0.000000
  0
VERTEX
  8
MERGEDLAYER-2
 10
3.449890
 20
44.349165
 30
0.000000
  0
VERTEX
  8
MERGEDLAYER-2
 10
3.501797
 20
44.401065
 30
0.000000
  0
SEQEND
  8
MERGEDLAYER-2
  0
POLYLINE
  8
MERGEDLAYER-2
 66
  1
 70
  0
 62
  7
 10
4.026801
 20
44.355970
 30
0.000000
  0
VERTEX
  8
MERGEDLAYER-2
 10
4.026801
 20
44.355970
 30
0.000000
  0
VERTEX
  8
MERGEDLAYER-2
 10
4.078705
 20
44.407875
 30
0.000000
  0
SEQEND
  8
MERGEDLAYER-2
  0
POLYLINE
  8
MERGEDLAYER-2
 66
  1
 70
  0
 62
  7
 10
3.449890
 20
44.488552
 30
0.000000
  0
VERTEX
  8
MERGEDLAYER-2
 10
3.449890
 20
44.488552
 30
0.000000
  0
VERTEX
  8
MERGEDLAYER-2
 10
3.501797
 20
44.540456
 30
0.000000
  0
SEQEND
  8
MERGEDLAYER-2
  0
POLYLINE
  8
MERGEDLAYER-2
 66
  1
 70
  0
 62
  7
 10
4.026801
 20
44.495361
 30
0.000000
  0
VERTEX
  8
MERGEDLAYER-2
 10
4.026801
 20
44.495361
 30
0.000000
  0
VERTEX
  8
MERGEDLAYER-2
 10
4.078705
 20
44.547266
 30
0.000000
  0
SEQEND
  8
MERGEDLAYER-2
  0
POLYLINE
  8
MERGEDLAYER-2
 66
  1
 70
  0
 62
  7
 10
3.449890
 20
44.627943
 30
0.000000
  0
VERTEX
  8
MERGEDLAYER-2
 10
3.449890
 20
44.627943
 30
0.000000
  0
VERTEX
  8
MERGEDLAYER-2
 10
3.501797
 20
44.679847
 30
0.000000
  0
SEQEND
  8
MERGEDLAYER-2
  0
POLYLINE
  8
MERGEDLAYER-2
 66
  1
 70
  0
 62
  7
 10
4.026801
 20
44.634752
 30
0.000000
  0
VERTEX
  8
MERGEDLAYER-2
 10
4.026801
 20
44.634752
 30
0.000000
  0
VERTEX
  8
MERGEDLAYER-2
 10
4.078705
 20
44.686657
 30
0.000000
  0
SEQEND
  8
MERGEDLAYER-2
  0
POLYLINE
  8
MERGEDLAYER-2
 66
  1
 70
  0
 62
  7
 10
3.449890
 20
44.767334
 30
0.000000
  0
VERTEX
  8
MERGEDLAYER-2
 10
3.449890
 20
44.767334
 30
0.000000
  0
VERTEX
  8
MERGEDLAYER-2
 10
3.501797
 20
44.819238
 30
0.000000
  0
SEQEND
  8
MERGEDLAYER-2
  0
POLYLINE
  8
MERGEDLAYER-2
 66
  1
 70
  0
 62
  7
 10
4.026801
 20
44.774143
 30
0.000000
  0
VERTEX
  8
MERGEDLAYER-2
 10
4.026801
 20
44.774143
 30
0.000000
  0
VERTEX
  8
MERGEDLAYER-2
 10
4.078705
 20
44.826048
 30
0.000000
  0
SEQEND
  8
MERGEDLAYER-2
  0
POLYLINE
  8
MERGEDLAYER-2
 66
  1
 70
  0
 62
  7
 10
3.449890
 20
44.906725
 30
0.000000
  0
VERTEX
  8
MERGEDLAYER-2
 10
3.449890
 20
44.906725
 30
0.000000
  0
VERTEX
  8
MERGEDLAYER-2
 10
3.501797
 20
44.958629
 30
0.000000
  0
SEQEND
  8
MERGEDLAYER-2
  0
POLYLINE
  8
MERGEDLAYER-2
 66
  1
 70
  0
 62
  7
 10
4.026801
 20
44.913534
 30
0.000000
  0
VERTEX
  8
MERGEDLAYER-2
 10
4.026801
 20
44.913534
 30
0.000000
  0
VERTEX
  8
MERGEDLAYER-2
 10
4.078705
 20
44.965439
 30
0.000000
  0
SEQEND
  8
MERGEDLAYER-2
  0
POLYLINE
  8
MERGEDLAYER-2
 66
  1
 70
  0
 62
  7
 10
3.449890
 20
45.046116
 30
0.000000
  0
VERTEX
  8
MERGEDLAYER-2
 10
3.449890
 20
45.046116
 30
0.000000
  0
VERTEX
  8
MERGEDLAYER-2
 10
3.501797
 20
45.098020
 30
0.000000
  0
SEQEND
  8
MERGEDLAYER-2
  0
POLYLINE
  8
MERGEDLAYER-2
 66
  1
 70
  0
 62
  7
 10
4.026801
 20
45.052921
 30
0.000000
  0
VERTEX
  8
MERGEDLAYER-2
 10
4.026801
 20
45.052921
 30
0.000000
  0
VERTEX
  8
MERGEDLAYER-2
 10
4.078705
 20
45.104830
 30
0.000000
  0
SEQEND
  8
MERGEDLAYER-2
  0
POLYLINE
  8
MERGEDLAYER-2
 66
  1
 70
  0
 62
  7
 10
3.449890
 20
45.185507
 30
0.000000
  0
VERTEX
  8
MERGEDLAYER-2
 10
3.449890
 20
45.185507
 30
0.000000
  0
VERTEX
  8
MERGEDLAYER-2
 10
3.501797
 20
45.237411
 30
0.000000
  0
SEQEND
  8
MERGEDLAYER-2
  0
POLYLINE
  8
MERGEDLAYER-2
 66
  1
 70
  0
 62
  7
 10
4.026801
 20
45.192316
 30
0.000000
  0
VERTEX
  8
MERGEDLAYER-2
 10
4.026801
 20
45.192316
 30
0.000000
  0
VERTEX
  8
MERGEDLAYER-2
 10
4.078705
 20
45.244221
 30
0.000000
  0
SEQEND
  8
MERGEDLAYER-2
  0
POLYLINE
  8
MERGEDLAYER-2
 66
  1
 70
  0
 62
  7
 10
3.449890
 20
45.324898
 30
0.000000
  0
VERTEX
  8
MERGEDLAYER-2
 10
3.449890
 20
45.324898
 30
0.000000
  0
VERTEX
  8
MERGEDLAYER-2
 10
3.501797
 20
45.376802
 30
0.000000
  0
SEQEND
  8
MERGEDLAYER-2
  0
POLYLINE
  8
MERGEDLAYER-2
 66
  1
 70
  0
 62
  7
 10
4.026801
 20
45.331703
 30
0.000000
  0
VERTEX
  8
MERGEDLAYER-2
 10
4.026801
 20
45.331703
 30
0.000000
  0
VERTEX
  8
MERGEDLAYER-2
 10
4.078705
 20
45.383612
 30
0.000000
  0
SEQEND
  8
MERGEDLAYER-2
  0
POLYLINE
  8
MERGEDLAYER-2
 66
  1
 70
  0
 62
  7
 10
3.449890
 20
45.464289
 30
0.000000
  0
VERTEX
  8
MERGEDLAYER-2
 10
3.449890
 20
45.464289
 30
0.000000
  0
VERTEX
  8
MERGEDLAYER-2
 10
3.501797
 20
45.516193
 30
0.000000
  0
SEQEND
  8
MERGEDLAYER-2
  0
POLYLINE
  8
MERGEDLAYER-2
 66
  1
 70
  0
 62
  7
 10
4.026801
 20
45.471094
 30
0.000000
  0
VERTEX
  8
MERGEDLAYER-2
 10
4.026801
 20
45.471094
 30
0.000000
  0
VERTEX
  8
MERGEDLAYER-2
 10
4.078705
 20
45.523002
 30
0.000000
  0
SEQEND
  8
MERGEDLAYER-2
  0
POLYLINE
  8
MERGEDLAYER-2
 66
  1
 70
  0
 62
  7
 10
3.449890
 20
45.603680
 30
0.000000
  0
VERTEX
  8
MERGEDLAYER-2
 10
3.449890
 20
45.603680
 30
0.000000
  0
VERTEX
  8
MERGEDLAYER-2
 10
3.501797
 20
45.655584
 30
0.000000
  0
SEQEND
  8
MERGEDLAYER-2
  0
POLYLINE
  8
MERGEDLAYER-2
 66
  1
 70
  0
 62
  7
 10
4.026801
 20
45.610485
 30
0.000000
  0
VERTEX
  8
MERGEDLAYER-2
 10
4.026801
 20
45.610485
 30
0.000000
  0
VERTEX
  8
MERGEDLAYER-2
 10
4.078705
 20
45.662389
 30
0.000000
  0
SEQEND
  8
MERGEDLAYER-2
  0
POLYLINE
  8
MERGEDLAYER-2
 66
  1
 70
  0
 62
  7
 10
3.449890
 20
45.743071
 30
0.000000
  0
VERTEX
  8
MERGEDLAYER-2
 10
3.449890
 20
45.743071
 30
0.000000
  0
VERTEX
  8
MERGEDLAYER-2
 10
3.501797
 20
45.794975
 30
0.000000
  0
SEQEND
  8
MERGEDLAYER-2
  0
POLYLINE
  8
MERGEDLAYER-2
 66
  1
 70
  0
 62
  7
 10
4.026801
 20
45.749876
 30
0.000000
  0
VERTEX
  8
MERGEDLAYER-2
 10
4.026801
 20
45.749876
 30
0.000000
  0
VERTEX
  8
MERGEDLAYER-2
 10
4.078705
 20
45.801780
 30
0.000000
  0
SEQEND
  8
MERGEDLAYER-2
  0
POLYLINE
  8
MERGEDLAYER-2
 66
  1
 70
  0
 62
  7
 10
3.449890
 20
45.882457
 30
0.000000
  0
VERTEX
  8
MERGEDLAYER-2
 10
3.449890
 20
45.882457
 30
0.000000
  0
VERTEX
  8
MERGEDLAYER-2
 10
3.501797
 20
45.934366
 30
0.000000
  0
SEQEND
  8
MERGEDLAYER-2
  0
POLYLINE
  8
MERGEDLAYER-2
 66
  1
 70
  0
 62
  7
 10
4.026801
 20
45.889267
 30
0.000000
  0
VERTEX
  8
MERGEDLAYER-2
 10
4.026801
 20
45.889267
 30
0.000000
  0
VERTEX
  8
MERGEDLAYER-2
 10
4.078705
 20
45.941171
 30
0.000000
  0
SEQEND
  8
MERGEDLAYER-2
  0
POLYLINE
  8
MERGEDLAYER-2
 66
  1
 70
  0
 62
  7
 10
3.449890
 20
46.021853
 30
0.000000
  0
VERTEX
  8
MERGEDLAYER-2
 10
3.449890
 20
46.021853
 30
0.000000
  0
VERTEX
  8
MERGEDLAYER-2
 10
3.501797
 20
46.073757
 30
0.000000
  0
SEQEND
  8
MERGEDLAYER-2
  0
POLYLINE
  8
MERGEDLAYER-2
 66
  1
 70
  0
 62
  7
 10
4.026801
 20
46.028658
 30
0.000000
  0
VERTEX
  8
MERGEDLAYER-2
 10
4.026801
 20
46.028658
 30
0.000000
  0
VERTEX
  8
MERGEDLAYER-2
 10
4.078705
 20
46.080562
 30
0.000000
  0
SEQEND
  8
MERGEDLAYER-2
  0
POLYLINE
  8
MERGEDLAYER-2
 66
  1
 70
  0
 62
  7
 10
3.449890
 20
46.161244
 30
0.000000
  0
VERTEX
  8
MERGEDLAYER-2
 10
3.449890
 20
46.161244
 30
0.000000
  0
VERTEX
  8
MERGEDLAYER-2
 10
3.501797
 20
46.213148
 30
0.000000
  0
SEQEND
  8
MERGEDLAYER-2
  0
POLYLINE
  8
MERGEDLAYER-2
 66
  1
 70
  0
 62
  7
 10
4.026801
 20
46.168049
 30
0.000000
  0
VERTEX
  8
MERGEDLAYER-2
 10
4.026801
 20
46.168049
 30
0.000000
  0
VERTEX
  8
MERGEDLAYER-2
 10
4.078705
 20
46.219953
 30
0.000000
  0
SEQEND
  8
MERGEDLAYER-2
  0
POLYLINE
  8
MERGEDLAYER-2
 66
  1
 70
  0
 62
  7
 10
3.449890
 20
46.300630
 30
0.000000
  0
VERTEX
  8
MERGEDLAYER-2
 10
3.449890
 20
46.300630
 30
0.000000
  0
VERTEX
  8
MERGEDLAYER-2
 10
3.501797
 20
46.352539
 30
0.000000
  0
SEQEND
  8
MERGEDLAYER-2
  0
POLYLINE
  8
MERGEDLAYER-2
 66
  1
 70
  0
 62
  7
 10
4.026801
 20
46.307440
 30
0.000000
  0
VERTEX
  8
MERGEDLAYER-2
 10
4.026801
 20
46.307440
 30
0.000000
  0
VERTEX
  8
MERGEDLAYER-2
 10
4.078705
 20
46.359344
 30
0.000000
  0
SEQEND
  8
MERGEDLAYER-2
  0
POLYLINE
  8
MERGEDLAYER-2
 66
  1
 70
  0
 62
  7
 10
4.641149
 20
43.930993
 30
0.000000
  0
VERTEX
  8
MERGEDLAYER-2
 10
4.641149
 20
43.930993
 30
0.000000
  0
VERTEX
  8
MERGEDLAYER-2
 10
4.693054
 20
43.982897
 30
0.000000
  0
SEQEND
  8
MERGEDLAYER-2
  0
POLYLINE
  8
MERGEDLAYER-2
 66
  1
 70
  0
 62
  7
 10
5.218059
 20
43.937797
 30
0.000000
  0
VERTEX
  8
MERGEDLAYER-2
 10
5.218059
 20
43.937797
 30
0.000000
  0
VERTEX
  8
MERGEDLAYER-2
 10
5.269963
 20
43.989702
 30
0.000000
  0
SEQEND
  8
MERGEDLAYER-2
  0
POLYLINE
  8
MERGEDLAYER-2
 66
  1
 70
  0
 62
  7
 10
4.641149
 20
44.070384
 30
0.000000
  0
VERTEX
  8
MERGEDLAYER-2
 10
4.641149
 20
44.070384
 30
0.000000
  0
VERTEX
  8
MERGEDLAYER-2
 10
4.693054
 20
44.122288
 30
0.000000
  0
SEQEND
  8
MERGEDLAYER-2
  0
POLYLINE
  8
MERGEDLAYER-2
 66
  1
 70
  0
 62
  7
 10
5.218059
 20
44.077188
 30
0.000000
  0
VERTEX
  8
MERGEDLAYER-2
 10
5.218059
 20
44.077188
 30
0.000000
  0
VERTEX
  8
MERGEDLAYER-2
 10
5.269963
 20
44.129093
 30
0.000000
  0
SEQEND
  8
MERGEDLAYER-2
  0
POLYLINE
  8
MERGEDLAYER-2
 66
  1
 70
  0
 62
  7
 10
4.641149
 20
44.209775
 30
0.000000
  0
VERTEX
  8
MERGEDLAYER-2
 10
4.641149
 20
44.209775
 30
0.000000
  0
VERTEX
  8
MERGEDLAYER-2
 10
4.693054
 20
44.261674
 30
0.000000
  0
SEQEND
  8
MERGEDLAYER-2
  0
POLYLINE
  8
MERGEDLAYER-2
 66
  1
 70
  0
 62
  7
 10
5.218059
 20
44.216579
 30
0.000000
  0
VERTEX
  8
MERGEDLAYER-2
 10
5.218059
 20
44.216579
 30
0.000000
  0
VERTEX
  8
MERGEDLAYER-2
 10
5.269963
 20
44.268484
 30
0.000000
  0
SEQEND
  8
MERGEDLAYER-2
  0
POLYLINE
  8
MERGEDLAYER-2
 66
  1
 70
  0
 62
  7
 10
4.641149
 20
44.349165
 30
0.000000
  0
VERTEX
  8
MERGEDLAYER-2
 10
4.641149
 20
44.349165
 30
0.000000
  0
VERTEX
  8
MERGEDLAYER-2
 10
4.693054
 20
44.401065
 30
0.000000
  0
SEQEND
  8
MERGEDLAYER-2
  0
POLYLINE
  8
MERGEDLAYER-2
 66
  1
 70
  0
 62
  7
 10
5.218059
 20
44.355970
 30
0.000000
  0
VERTEX
  8
MERGEDLAYER-2
 10
5.218059
 20
44.355970
 30
0.000000
  0
VERTEX
  8
MERGEDLAYER-2
 10
5.269963
 20
44.407875
 30
0.000000
  0
SEQEND
  8
MERGEDLAYER-2
  0
POLYLINE
  8
MERGEDLAYER-2
 66
  1
 70
  0
 62
  7
 10
4.641149
 20
44.488552
 30
0.000000
  0
VERTEX
  8
MERGEDLAYER-2
 10
4.641149
 20
44.488552
 30
0.000000
  0
VERTEX
  8
MERGEDLAYER-2
 10
4.693054
 20
44.540456
 30
0.000000
  0
SEQEND
  8
MERGEDLAYER-2
  0
POLYLINE
  8
MERGEDLAYER-2
 66
  1
 70
  0
 62
  7
 10
5.218059
 20
44.495361
 30
0.000000
  0
VERTEX
  8
MERGEDLAYER-2
 10
5.218059
 20
44.495361
 30
0.000000
  0
VERTEX
  8
MERGEDLAYER-2
 10
5.269963
 20
44.547266
 30
0.000000
  0
SEQEND
  8
MERGEDLAYER-2
  0
POLYLINE
  8
MERGEDLAYER-2
 66
  1
 70
  0
 62
  7
 10
4.641149
 20
44.627943
 30
0.000000
  0
VERTEX
  8
MERGEDLAYER-2
 10
4.641149
 20
44.627943
 30
0.000000
  0
VERTEX
  8
MERGEDLAYER-2
 10
4.693054
 20
44.679847
 30
0.000000
  0
SEQEND
  8
MERGEDLAYER-2
  0
POLYLINE
  8
MERGEDLAYER-2
 66
  1
 70
  0
 62
  7
 10
5.218059
 20
44.634752
 30
0.000000
  0
VERTEX
  8
MERGEDLAYER-2
 10
5.218059
 20
44.634752
 30
0.000000
  0
VERTEX
  8
MERGEDLAYER-2
 10
5.269963
 20
44.686657
 30
0.000000
  0
SEQEND
  8
MERGEDLAYER-2
  0
POLYLINE
  8
MERGEDLAYER-2
 66
  1
 70
  0
 62
  7
 10
4.641149
 20
44.767334
 30
0.000000
  0
VERTEX
  8
MERGEDLAYER-2
 10
4.641149
 20
44.767334
 30
0.000000
  0
VERTEX
  8
MERGEDLAYER-2
 10
4.693054
 20
44.819238
 30
0.000000
  0
SEQEND
  8
MERGEDLAYER-2
  0
POLYLINE
  8
MERGEDLAYER-2
 66
  1
 70
  0
 62
  7
 10
5.218059
 20
44.774143
 30
0.000000
  0
VERTEX
  8
MERGEDLAYER-2
 10
5.218059
 20
44.774143
 30
0.000000
  0
VERTEX
  8
MERGEDLAYER-2
 10
5.269963
 20
44.826048
 30
0.000000
  0
SEQEND
  8
MERGEDLAYER-2
  0
POLYLINE
  8
MERGEDLAYER-2
 66
  1
 70
  0
 62
  7
 10
4.641149
 20
44.906725
 30
0.000000
  0
VERTEX
  8
MERGEDLAYER-2
 10
4.641149
 20
44.906725
 30
0.000000
  0
VERTEX
  8
MERGEDLAYER-2
 10
4.693054
 20
44.958629
 30
0.000000
  0
SEQEND
  8
MERGEDLAYER-2
  0
POLYLINE
  8
MERGEDLAYER-2
 66
  1
 70
  0
 62
  7
 10
5.218059
 20
44.913534
 30
0.000000
  0
VERTEX
  8
MERGEDLAYER-2
 10
5.218059
 20
44.913534
 30
0.000000
  0
VERTEX
  8
MERGEDLAYER-2
 10
5.269963
 20
44.965439
 30
0.000000
  0
SEQEND
  8
MERGEDLAYER-2
  0
POLYLINE
  8
MERGEDLAYER-2
 66
  1
 70
  0
 62
  7
 10
4.641149
 20
45.046116
 30
0.000000
  0
VERTEX
  8
MERGEDLAYER-2
 10
4.641149
 20
45.046116
 30
0.000000
  0
VERTEX
  8
MERGEDLAYER-2
 10
4.693054
 20
45.098020
 30
0.000000
  0
SEQEND
  8
MERGEDLAYER-2
  0
POLYLINE
  8
MERGEDLAYER-2
 66
  1
 70
  0
 62
  7
 10
5.218059
 20
45.052921
 30
0.000000
  0
VERTEX
  8
MERGEDLAYER-2
 10
5.218059
 20
45.052921
 30
0.000000
  0
VERTEX
  8
MERGEDLAYER-2
 10
5.269963
 20
45.104830
 30
0.000000
  0
SEQEND
  8
MERGEDLAYER-2
  0
POLYLINE
  8
MERGEDLAYER-2
 66
  1
 70
  0
 62
  7
 10
4.641149
 20
45.185507
 30
0.000000
  0
VERTEX
  8
MERGEDLAYER-2
 10
4.641149
 20
45.185507
 30
0.000000
  0
VERTEX
  8
MERGEDLAYER-2
 10
4.693054
 20
45.237411
 30
0.000000
  0
SEQEND
  8
MERGEDLAYER-2
  0
POLYLINE
  8
MERGEDLAYER-2
 66
  1
 70
  0
 62
  7
 10
5.218059
 20
45.192316
 30
0.000000
  0
VERTEX
  8
MERGEDLAYER-2
 10
5.218059
 20
45.192316
 30
0.000000
  0
VERTEX
  8
MERGEDLAYER-2
 10
5.269963
 20
45.244221
 30
0.000000
  0
SEQEND
  8
MERGEDLAYER-2
  0
POLYLINE
  8
MERGEDLAYER-2
 66
  1
 70
  0
 62
  7
 10
4.641149
 20
45.324898
 30
0.000000
  0
VERTEX
  8
MERGEDLAYER-2
 10
4.641149
 20
45.324898
 30
0.000000
  0
VERTEX
  8
MERGEDLAYER-2
 10
4.693054
 20
45.376802
 30
0.000000
  0
SEQEND
  8
MERGEDLAYER-2
  0
POLYLINE
  8
MERGEDLAYER-2
 66
  1
 70
  0
 62
  7
 10
5.218059
 20
45.331703
 30
0.000000
  0
VERTEX
  8
MERGEDLAYER-2
 10
5.218059
 20
45.331703
 30
0.000000
  0
VERTEX
  8
MERGEDLAYER-2
 10
5.269963
 20
45.383612
 30
0.000000
  0
SEQEND
  8
MERGEDLAYER-2
  0
POLYLINE
  8
MERGEDLAYER-2
 66
  1
 70
  0
 62
  7
 10
4.641149
 20
45.464289
 30
0.000000
  0
VERTEX
  8
MERGEDLAYER-2
 10
4.641149
 20
45.464289
 30
0.000000
  0
VERTEX
  8
MERGEDLAYER-2
 10
4.693054
 20
45.516193
 30
0.000000
  0
SEQEND
  8
MERGEDLAYER-2
  0
POLYLINE
  8
MERGEDLAYER-2
 66
  1
 70
  0
 62
  7
 10
5.218059
 20
45.471094
 30
0.000000
  0
VERTEX
  8
MERGEDLAYER-2
 10
5.218059
 20
45.471094
 30
0.000000
  0
VERTEX
  8
MERGEDLAYER-2
 10
5.269963
 20
45.523002
 30
0.000000
  0
SEQEND
  8
MERGEDLAYER-2
  0
POLYLINE
  8
MERGEDLAYER-2
 66
  1
 70
  0
 62
  7
 10
4.641149
 20
45.603680
 30
0.000000
  0
VERTEX
  8
MERGEDLAYER-2
 10
4.641149
 20
45.603680
 30
0.000000
  0
VERTEX
  8
MERGEDLAYER-2
 10
4.693054
 20
45.655584
 30
0.000000
  0
SEQEND
  8
MERGEDLAYER-2
  0
POLYLINE
  8
MERGEDLAYER-2
 66
  1
 70
  0
 62
  7
 10
5.218059
 20
45.610485
 30
0.000000
  0
VERTEX
  8
MERGEDLAYER-2
 10
5.218059
 20
45.610485
 30
0.000000
  0
VERTEX
  8
MERGEDLAYER-2
 10
5.269963
 20
45.662389
 30
0.000000
  0
SEQEND
  8
MERGEDLAYER-2
  0
POLYLINE
  8
MERGEDLAYER-2
 66
  1
 70
  0
 62
  7
 10
4.641149
 20
45.743071
 30
0.000000
  0
VERTEX
  8
MERGEDLAYER-2
 10
4.641149
 20
45.743071
 30
0.000000
  0
VERTEX
  8
MERGEDLAYER-2
 10
4.693054
 20
45.794975
 30
0.000000
  0
SEQEND
  8
MERGEDLAYER-2
  0
POLYLINE
  8
MERGEDLAYER-2
 66
  1
 70
  0
 62
  7
 10
5.218059
 20
45.749876
 30
0.000000
  0
VERTEX
  8
MERGEDLAYER-2
 10
5.218059
 20
45.749876
 30
0.000000
  0
VERTEX
  8
MERGEDLAYER-2
 10
5.269963
 20
45.801780
 30
0.000000
  0
SEQEND
  8
MERGEDLAYER-2
  0
POLYLINE
  8
MERGEDLAYER-2
 66
  1
 70
  0
 62
  7
 10
4.641149
 20
45.882457
 30
0.000000
  0
VERTEX
  8
MERGEDLAYER-2
 10
4.641149
 20
45.882457
 30
0.000000
  0
VERTEX
  8
MERGEDLAYER-2
 10
4.693054
 20
45.934366
 30
0.000000
  0
SEQEND
  8
MERGEDLAYER-2
  0
POLYLINE
  8
MERGEDLAYER-2
 66
  1
 70
  0
 62
  7
 10
5.218059
 20
45.889267
 30
0.000000
  0
VERTEX
  8
MERGEDLAYER-2
 10
5.218059
 20
45.889267
 30
0.000000
  0
VERTEX
  8
MERGEDLAYER-2
 10
5.269963
 20
45.941171
 30
0.000000
  0
SEQEND
  8
MERGEDLAYER-2
  0
POLYLINE
  8
MERGEDLAYER-2
 66
  1
 70
  0
 62
  7
 10
4.641149
 20
46.021853
 30
0.000000
  0
VERTEX
  8
MERGEDLAYER-2
 10
4.641149
 20
46.021853
 30
0.000000
  0
VERTEX
  8
MERGEDLAYER-2
 10
4.693054
 20
46.073757
 30
0.000000
  0
SEQEND
  8
MERGEDLAYER-2
  0
POLYLINE
  8
MERGEDLAYER-2
 66
  1
 70
  0
 62
  7
 10
5.218059
 20
46.028658
 30
0.000000
  0
VERTEX
  8
MERGEDLAYER-2
 10
5.218059
 20
46.028658
 30
0.000000
  0
VERTEX
  8
MERGEDLAYER-2
 10
5.269963
 20
46.080562
 30
0.000000
  0
SEQEND
  8
MERGEDLAYER-2
  0
POLYLINE
  8
MERGEDLAYER-2
 66
  1
 70
  0
 62
  7
 10
4.641149
 20
46.161244
 30
0.000000
  0
VERTEX
  8
MERGEDLAYER-2
 10
4.641149
 20
46.161244
 30
0.000000
  0
VERTEX
  8
MERGEDLAYER-2
 10
4.693054
 20
46.213148
 30
0.000000
  0
SEQEND
  8
MERGEDLAYER-2
  0
POLYLINE
  8
MERGEDLAYER-2
 66
  1
 70
  0
 62
  7
 10
5.218059
 20
46.168049
 30
0.000000
  0
VERTEX
  8
MERGEDLAYER-2
 10
5.218059
 20
46.168049
 30
0.000000
  0
VERTEX
  8
MERGEDLAYER-2
 10
5.269963
 20
46.219953
 30
0.000000
  0
SEQEND
  8
MERGEDLAYER-2
  0
POLYLINE
  8
MERGEDLAYER-2
 66
  1
 70
  0
 62
  7
 10
4.641149
 20
46.300630
 30
0.000000
  0
VERTEX
  8
MERGEDLAYER-2
 10
4.641149
 20
46.300630
 30
0.000000
  0
VERTEX
  8
MERGEDLAYER-2
 10
4.693054
 20
46.352539
 30
0.000000
  0
SEQEND
  8
MERGEDLAYER-2
  0
POLYLINE
  8
MERGEDLAYER-2
 66
  1
 70
  0
 62
  7
 10
5.218059
 20
46.307440
 30
0.000000
  0
VERTEX
  8
MERGEDLAYER-2
 10
5.218059
 20
46.307440
 30
0.000000
  0
VERTEX
  8
MERGEDLAYER-2
 10
5.269963
 20
46.359344
 30
0.000000
  0
SEQEND
  8
MERGEDLAYER-2
  0
POLYLINE
  8
MERGEDLAYER-2
 66
  1
 70
  0
 62
  7
 10
5.832405
 20
43.930993
 30
0.000000
  0
VERTEX
  8
MERGEDLAYER-2
 10
5.832405
 20
43.930993
 30
0.000000
  0
VERTEX
  8
MERGEDLAYER-2
 10
5.884313
 20
43.982897
 30
0.000000
  0
SEQEND
  8
MERGEDLAYER-2
  0
POLYLINE
  8
MERGEDLAYER-2
 66
  1
 70
  0
 62
  7
 10
6.409317
 20
43.937797
 30
0.000000
  0
VERTEX
  8
MERGEDLAYER-2
 10
6.409317
 20
43.937797
 30
0.000000
  0
VERTEX
  8
MERGEDLAYER-2
 10
6.461220
 20
43.989702
 30
0.000000
  0
SEQEND
  8
MERGEDLAYER-2
  0
POLYLINE
  8
MERGEDLAYER-2
 66
  1
 70
  0
 62
  7
 10
5.832405
 20
44.070384
 30
0.000000
  0
VERTEX
  8
MERGEDLAYER-2
 10
5.832405
 20
44.070384
 30
0.000000
  0
VERTEX
  8
MERGEDLAYER-2
 10
5.884313
 20
44.122288
 30
0.000000
  0
SEQEND
  8
MERGEDLAYER-2
  0
POLYLINE
  8
MERGEDLAYER-2
 66
  1
 70
  0
 62
  7
 10
6.409317
 20
44.077188
 30
0.000000
  0
VERTEX
  8
MERGEDLAYER-2
 10
6.409317
 20
44.077188
 30
0.000000
  0
VERTEX
  8
MERGEDLAYER-2
 10
6.461220
 20
44.129093
 30
0.000000
  0
SEQEND
  8
MERGEDLAYER-2
  0
POLYLINE
  8
MERGEDLAYER-2
 66
  1
 70
  0
 62
  7
 10
5.832405
 20
44.209775
 30
0.000000
  0
VERTEX
  8
MERGEDLAYER-2
 10
5.832405
 20
44.209775
 30
0.000000
  0
VERTEX
  8
MERGEDLAYER-2
 10
5.884313
 20
44.261674
 30
0.000000
  0
SEQEND
  8
MERGEDLAYER-2
  0
POLYLINE
  8
MERGEDLAYER-2
 66
  1
 70
  0
 62
  7
 10
6.409317
 20
44.216579
 30
0.000000
  0
VERTEX
  8
MERGEDLAYER-2
 10
6.409317
 20
44.216579
 30
0.000000
  0
VERTEX
  8
MERGEDLAYER-2
 10
6.461220
 20
44.268484
 30
0.000000
  0
SEQEND
  8
MERGEDLAYER-2
  0
POLYLINE
  8
MERGEDLAYER-2
 66
  1
 70
  0
 62
  7
 10
5.832405
 20
44.349165
 30
0.000000
  0
VERTEX
  8
MERGEDLAYER-2
 10
5.832405
 20
44.349165
 30
0.000000
  0
VERTEX
  8
MERGEDLAYER-2
 10
5.884313
 20
44.401065
 30
0.000000
  0
SEQEND
  8
MERGEDLAYER-2
  0
POLYLINE
  8
MERGEDLAYER-2
 66
  1
 70
  0
 62
  7
 10
6.409317
 20
44.355970
 30
0.000000
  0
VERTEX
  8
MERGEDLAYER-2
 10
6.409317
 20
44.355970
 30
0.000000
  0
VERTEX
  8
MERGEDLAYER-2
 10
6.461220
 20
44.407875
 30
0.000000
  0
SEQEND
  8
MERGEDLAYER-2
  0
POLYLINE
  8
MERGEDLAYER-2
 66
  1
 70
  0
 62
  7
 10
5.832405
 20
44.488552
 30
0.000000
  0
VERTEX
  8
MERGEDLAYER-2
 10
5.832405
 20
44.488552
 30
0.000000
  0
VERTEX
  8
MERGEDLAYER-2
 10
5.884313
 20
44.540456
 30
0.000000
  0
SEQEND
  8
MERGEDLAYER-2
  0
POLYLINE
  8
MERGEDLAYER-2
 66
  1
 70
  0
 62
  7
 10
6.409317
 20
44.495361
 30
0.000000
  0
VERTEX
  8
MERGEDLAYER-2
 10
6.409317
 20
44.495361
 30
0.000000
  0
VERTEX
  8
MERGEDLAYER-2
 10
6.461220
 20
44.547266
 30
0.000000
  0
SEQEND
  8
MERGEDLAYER-2
  0
POLYLINE
  8
MERGEDLAYER-2
 66
  1
 70
  0
 62
  7
 10
5.832405
 20
44.627943
 30
0.000000
  0
VERTEX
  8
MERGEDLAYER-2
 10
5.832405
 20
44.627943
 30
0.000000
  0
VERTEX
  8
MERGEDLAYER-2
 10
5.884313
 20
44.679847
 30
0.000000
  0
SEQEND
  8
MERGEDLAYER-2
  0
POLYLINE
  8
MERGEDLAYER-2
 66
  1
 70
  0
 62
  7
 10
6.409317
 20
44.634752
 30
0.000000
  0
VERTEX
  8
MERGEDLAYER-2
 10
6.409317
 20
44.634752
 30
0.000000
  0
VERTEX
  8
MERGEDLAYER-2
 10
6.461220
 20
44.686657
 30
0.000000
  0
SEQEND
  8
MERGEDLAYER-2
  0
POLYLINE
  8
MERGEDLAYER-2
 66
  1
 70
  0
 62
  7
 10
5.832405
 20
44.767334
 30
0.000000
  0
VERTEX
  8
MERGEDLAYER-2
 10
5.832405
 20
44.767334
 30
0.000000
  0
VERTEX
  8
MERGEDLAYER-2
 10
5.884313
 20
44.819238
 30
0.000000
  0
SEQEND
  8
MERGEDLAYER-2
  0
POLYLINE
  8
MERGEDLAYER-2
 66
  1
 70
  0
 62
  7
 10
6.409317
 20
44.774143
 30
0.000000
  0
VERTEX
  8
MERGEDLAYER-2
 10
6.409317
 20
44.774143
 30
0.000000
  0
VERTEX
  8
MERGEDLAYER-2
 10
6.461220
 20
44.826048
 30
0.000000
  0
SEQEND
  8
MERGEDLAYER-2
  0
POLYLINE
  8
MERGEDLAYER-2
 66
  1
 70
  0
 62
  7
 10
5.832405
 20
44.906725
 30
0.000000
  0
VERTEX
  8
MERGEDLAYER-2
 10
5.832405
 20
44.906725
 30
0.000000
  0
VERTEX
  8
MERGEDLAYER-2
 10
5.884313
 20
44.958629
 30
0.000000
  0
SEQEND
  8
MERGEDLAYER-2
  0
POLYLINE
  8
MERGEDLAYER-2
 66
  1
 70
  0
 62
  7
 10
6.409317
 20
44.913534
 30
0.000000
  0
VERTEX
  8
MERGEDLAYER-2
 10
6.409317
 20
44.913534
 30
0.000000
  0
VERTEX
  8
MERGEDLAYER-2
 10
6.461220
 20
44.965439
 30
0.000000
  0
SEQEND
  8
MERGEDLAYER-2
  0
POLYLINE
  8
MERGEDLAYER-2
 66
  1
 70
  0
 62
  7
 10
5.832405
 20
45.046116
 30
0.000000
  0
VERTEX
  8
MERGEDLAYER-2
 10
5.832405
 20
45.046116
 30
0.000000
  0
VERTEX
  8
MERGEDLAYER-2
 10
5.884313
 20
45.098020
 30
0.000000
  0
SEQEND
  8
MERGEDLAYER-2
  0
POLYLINE
  8
MERGEDLAYER-2
 66
  1
 70
  0
 62
  7
 10
6.409317
 20
45.052921
 30
0.000000
  0
VERTEX
  8
MERGEDLAYER-2
 10
6.409317
 20
45.052921
 30
0.000000
  0
VERTEX
  8
MERGEDLAYER-2
 10
6.461220
 20
45.104830
 30
0.000000
  0
SEQEND
  8
MERGEDLAYER-2
  0
POLYLINE
  8
MERGEDLAYER-2
 66
  1
 70
  0
 62
  7
 10
5.832405
 20
45.185507
 30
0.000000
  0
VERTEX
  8
MERGEDLAYER-2
 10
5.832405
 20
45.185507
 30
0.000000
  0
VERTEX
  8
MERGEDLAYER-2
 10
5.884313
 20
45.237411
 30
0.000000
  0
SEQEND
  8
MERGEDLAYER-2
  0
POLYLINE
  8
MERGEDLAYER-2
 66
  1
 70
  0
 62
  7
 10
6.409317
 20
45.192316
 30
0.000000
  0
VERTEX
  8
MERGEDLAYER-2
 10
6.409317
 20
45.192316
 30
0.000000
  0
VERTEX
  8
MERGEDLAYER-2
 10
6.461220
 20
45.244221
 30
0.000000
  0
SEQEND
  8
MERGEDLAYER-2
  0
POLYLINE
  8
MERGEDLAYER-2
 66
  1
 70
  0
 62
  7
 10
5.832405
 20
45.324898
 30
0.000000
  0
VERTEX
  8
MERGEDLAYER-2
 10
5.832405
 20
45.324898
 30
0.000000
  0
VERTEX
  8
MERGEDLAYER-2
 10
5.884313
 20
45.376802
 30
0.000000
  0
SEQEND
  8
MERGEDLAYER-2
  0
POLYLINE
  8
MERGEDLAYER-2
 66
  1
 70
  0
 62
  7
 10
6.409317
 20
45.331703
 30
0.000000
  0
VERTEX
  8
MERGEDLAYER-2
 10
6.409317
 20
45.331703
 30
0.000000
  0
VERTEX
  8
MERGEDLAYER-2
 10
6.461220
 20
45.383612
 30
0.000000
  0
SEQEND
  8
MERGEDLAYER-2
  0
POLYLINE
  8
MERGEDLAYER-2
 66
  1
 70
  0
 62
  7
 10
5.832405
 20
45.464289
 30
0.000000
  0
VERTEX
  8
MERGEDLAYER-2
 10
5.832405
 20
45.464289
 30
0.000000
  0
VERTEX
  8
MERGEDLAYER-2
 10
5.884313
 20
45.516193
 30
0.000000
  0
SEQEND
  8
MERGEDLAYER-2
  0
POLYLINE
  8
MERGEDLAYER-2
 66
  1
 70
  0
 62
  7
 10
6.409317
 20
45.471094
 30
0.000000
  0
VERTEX
  8
MERGEDLAYER-2
 10
6.409317
 20
45.471094
 30
0.000000
  0
VERTEX
  8
MERGEDLAYER-2
 10
6.461220
 20
45.523002
 30
0.000000
  0
SEQEND
  8
MERGEDLAYER-2
  0
POLYLINE
  8
MERGEDLAYER-2
 66
  1
 70
  0
 62
  7
 10
5.832405
 20
45.603680
 30
0.000000
  0
VERTEX
  8
MERGEDLAYER-2
 10
5.832405
 20
45.603680
 30
0.000000
  0
VERTEX
  8
MERGEDLAYER-2
 10
5.884313
 20
45.655584
 30
0.000000
  0
SEQEND
  8
MERGEDLAYER-2
  0
POLYLINE
  8
MERGEDLAYER-2
 66
  1
 70
  0
 62
  7
 10
6.409317
 20
45.610485
 30
0.000000
  0
VERTEX
  8
MERGEDLAYER-2
 10
6.409317
 20
45.610485
 30
0.000000
  0
VERTEX
  8
MERGEDLAYER-2
 10
6.461220
 20
45.662389
 30
0.000000
  0
SEQEND
  8
MERGEDLAYER-2
  0
POLYLINE
  8
MERGEDLAYER-2
 66
  1
 70
  0
 62
  7
 10
5.832405
 20
45.743071
 30
0.000000
  0
VERTEX
  8
MERGEDLAYER-2
 10
5.832405
 20
45.743071
 30
0.000000
  0
VERTEX
  8
MERGEDLAYER-2
 10
5.884313
 20
45.794975
 30
0.000000
  0
SEQEND
  8
MERGEDLAYER-2
  0
POLYLINE
  8
MERGEDLAYER-2
 66
  1
 70
  0
 62
  7
 10
6.409317
 20
45.749876
 30
0.000000
  0
VERTEX
  8
MERGEDLAYER-2
 10
6.409317
 20
45.749876
 30
0.000000
  0
VERTEX
  8
MERGEDLAYER-2
 10
6.461220
 20
45.801780
 30
0.000000
  0
SEQEND
  8
MERGEDLAYER-2
  0
POLYLINE
  8
MERGEDLAYER-2
 66
  1
 70
  0
 62
  7
 10
5.832405
 20
45.882457
 30
0.000000
  0
VERTEX
  8
MERGEDLAYER-2
 10
5.832405
 20
45.882457
 30
0.000000
  0
VERTEX
  8
MERGEDLAYER-2
 10
5.884313
 20
45.934366
 30
0.000000
  0
SEQEND
  8
MERGEDLAYER-2
  0
POLYLINE
  8
MERGEDLAYER-2
 66
  1
 70
  0
 62
  7
 10
6.409317
 20
45.889267
 30
0.000000
  0
VERTEX
  8
MERGEDLAYER-2
 10
6.409317
 20
45.889267
 30
0.000000
  0
VERTEX
  8
MERGEDLAYER-2
 10
6.461220
 20
45.941171
 30
0.000000
  0
SEQEND
  8
MERGEDLAYER-2
  0
POLYLINE
  8
MERGEDLAYER-2
 66
  1
 70
  0
 62
  7
 10
5.832405
 20
46.021853
 30
0.000000
  0
VERTEX
  8
MERGEDLAYER-2
 10
5.832405
 20
46.021853
 30
0.000000
  0
VERTEX
  8
MERGEDLAYER-2
 10
5.884313
 20
46.073757
 30
0.000000
  0
SEQEND
  8
MERGEDLAYER-2
  0
POLYLINE
  8
MERGEDLAYER-2
 66
  1
 70
  0
 62
  7
 10
6.409317
 20
46.028658
 30
0.000000
  0
VERTEX
  8
MERGEDLAYER-2
 10
6.409317
 20
46.028658
 30
0.000000
  0
VERTEX
  8
MERGEDLAYER-2
 10
6.461220
 20
46.080562
 30
0.000000
  0
SEQEND
  8
MERGEDLAYER-2
  0
POLYLINE
  8
MERGEDLAYER-2
 66
  1
 70
  0
 62
  7
 10
5.832405
 20
46.161244
 30
0.000000
  0
VERTEX
  8
MERGEDLAYER-2
 10
5.832405
 20
46.161244
 30
0.000000
  0
VERTEX
  8
MERGEDLAYER-2
 10
5.884313
 20
46.213148
 30
0.000000
  0
SEQEND
  8
MERGEDLAYER-2
  0
POLYLINE
  8
MERGEDLAYER-2
 66
  1
 70
  0
 62
  7
 10
6.409317
 20
46.168049
 30
0.000000
  0
VERTEX
  8
MERGEDLAYER-2
 10
6.409317
 20
46.168049
 30
0.000000
  0
VERTEX
  8
MERGEDLAYER-2
 10
6.461220
 20
46.219953
 30
0.000000
  0
SEQEND
  8
MERGEDLAYER-2
  0
POLYLINE
  8
MERGEDLAYER-2
 66
  1
 70
  0
 62
  7
 10
5.832405
 20
46.300630
 30
0.000000
  0
VERTEX
  8
MERGEDLAYER-2
 10
5.832405
 20
46.300630
 30
0.000000
  0
VERTEX
  8
MERGEDLAYER-2
 10
5.884313
 20
46.352539
 30
0.000000
  0
SEQEND
  8
MERGEDLAYER-2
  0
POLYLINE
  8
MERGEDLAYER-2
 66
  1
 70
  0
 62
  7
 10
6.409317
 20
46.307440
 30
0.000000
  0
VERTEX
  8
MERGEDLAYER-2
 10
6.409317
 20
46.307440
 30
0.000000
  0
VERTEX
  8
MERGEDLAYER-2
 10
6.461220
 20
46.359344
 30
0.000000
  0
SEQEND
  8
MERGEDLAYER-2
  0
POLYLINE
  8
MERGEDLAYER-2
 66
  1
 70
  1
 62
  7
  0
VERTEX
  8
MERGEDLAYER-2
 10
0.726740
 20
43.866553
 30
0.000000
  0
VERTEX
  8
MERGEDLAYER-2
 10
6.802196
 20
43.866553
 30
0.000000
  0
VERTEX
  8
MERGEDLAYER-2
 10
6.802196
 20
43.763210
 30
0.000000
  0
VERTEX
  8
MERGEDLAYER-2
 10
0.726740
 20
43.763210
 30
0.000000
  0
SEQEND
  8
MERGEDLAYER-2
  0
POLYLINE
  8
MERGEDLAYER-2
 66
  1
 70
  0
 62
  7
 10
0.726812
 20
43.777073
 30
0.000000
  0
VERTEX
  8
MERGEDLAYER-2
 10
0.726812
 20
43.777073
 30
0.000000
  0
VERTEX
  8
MERGEDLAYER-2
 10
6.802276
 20
43.777073
 30
0.000000
  0
SEQEND
  8
MERGEDLAYER-2
  0
POLYLINE
  8
MERGEDLAYER-2
 66
  1
 70
  1
 62
  7
  0
VERTEX
  8
MERGEDLAYER-2
 10
3.944072
 20
43.725559
 30
0.000000
  0
VERTEX
  8
MERGEDLAYER-2
 10
4.370346
 20
43.725559
 30
0.000000
  0
VERTEX
  8
MERGEDLAYER-2
 10
4.370346
 20
43.592507
 30
0.000000
  0
VERTEX
  8
MERGEDLAYER-2
 10
3.944072
 20
43.592507
 30
0.000000
  0
SEQEND
  8
MERGEDLAYER-2
  0
POLYLINE
  8
MERGEDLAYER-2
 66
  1
 70
  1
 62
  7
  0
VERTEX
  8
MERGEDLAYER-2
 10
3.957624
 20
43.705726
 30
0.000000
  0
VERTEX
  8
MERGEDLAYER-2
 10
3.974013
 20
43.705726
 30
0.000000
  0
VERTEX
  8
MERGEDLAYER-2
 10
3.974013
 20
43.670122
 30
0.000000
  0
VERTEX
  8
MERGEDLAYER-2
 10
3.957624
 20
43.670122
 30
0.000000
  0
SEQEND
  8
MERGEDLAYER-2
  0
POLYLINE
  8
MERGEDLAYER-2
 66
  1
 70
  1
 62
  7
  0
VERTEX
  8
MERGEDLAYER-2
 10
3.979556
 20
43.705726
 30
0.000000
  0
VERTEX
  8
MERGEDLAYER-2
 10
3.995693
 20
43.705726
 30
0.000000
  0
VERTEX
  8
MERGEDLAYER-2
 10
3.995693
 20
43.670122
 30
0.000000
  0
VERTEX
  8
MERGEDLAYER-2
 10
3.979556
 20
43.670122
 30
0.000000
  0
SEQEND
  8
MERGEDLAYER-2
  0
POLYLINE
  8
MERGEDLAYER-2
 66
  1
 70
  1
 62
  7
  0
VERTEX
  8
MERGEDLAYER-2
 10
4.000375
 20
43.705726
 30
0.000000
  0
VERTEX
  8
MERGEDLAYER-2
 10
4.016516
 20
43.705726
 30
0.000000
  0
VERTEX
  8
MERGEDLAYER-2
 10
4.016516
 20
43.670122
 30
0.000000
  0
VERTEX
  8
MERGEDLAYER-2
 10
4.000375
 20
43.670122
 30
0.000000
  0
SEQEND
  8
MERGEDLAYER-2
  0
POLYLINE
  8
MERGEDLAYER-2
 66
  1
 70
  1
 62
  7
  0
VERTEX
  8
MERGEDLAYER-2
 10
4.021813
 20
43.705726
 30
0.000000
  0
VERTEX
  8
MERGEDLAYER-2
 10
4.037950
 20
43.705726
 30
0.000000
  0
VERTEX
  8
MERGEDLAYER-2
 10
4.037950
 20
43.670122
 30
0.000000
  0
VERTEX
  8
MERGEDLAYER-2
 10
4.021813
 20
43.670122
 30
0.000000
  0
SEQEND
  8
MERGEDLAYER-2
  0
POLYLINE
  8
MERGEDLAYER-2
 66
  1
 70
  1
 62
  7
  0
VERTEX
  8
MERGEDLAYER-2
 10
4.043742
 20
43.695992
 30
0.000000
  0
VERTEX
  8
MERGEDLAYER-2
 10
4.043742
 20
43.705233
 30
0.000000
  0
VERTEX
  8
MERGEDLAYER-2
 10
4.069984
 20
43.705233
 30
0.000000
  0
VERTEX
  8
MERGEDLAYER-2
 10
4.069984
 20
43.695992
 30
0.000000
  0
SEQEND
  8
MERGEDLAYER-2
  0
POLYLINE
  8
MERGEDLAYER-2
 66
  1
 70
  1
 62
  7
  0
VERTEX
  8
MERGEDLAYER-2
 10
4.043742
 20
43.680344
 30
0.000000
  0
VERTEX
  8
MERGEDLAYER-2
 10
4.043742
 20
43.689586
 30
0.000000
  0
VERTEX
  8
MERGEDLAYER-2
 10
4.065179
 20
43.689586
 30
0.000000
  0
VERTEX
  8
MERGEDLAYER-2
 10
4.065179
 20
43.680344
 30
0.000000
  0
SEQEND
  8
MERGEDLAYER-2
  0
POLYLINE
  8
MERGEDLAYER-2
 66
  1
 70
  0
 62
  7
 10
3.957624
 20
43.659029
 30
0.000000
  0
VERTEX
  8
MERGEDLAYER-2
 10
3.957624
 20
43.659029
 30
0.000000
  0
VERTEX
  8
MERGEDLAYER-2
 10
4.364740
 20
43.658904
 30
0.000000
  0
SEQEND
  8
MERGEDLAYER-2
  0
TEXT
  8
MERGEDLAYER-2
 62
  7
 10
4.162399
 20
43.672732
 30
0.000000
 40
0.020455
  1
mobilflex.com
 72
  5
 11
4.416944
 21
43.672732
 31
0.000000
  0
TEXT
  8
MERGEDLAYER-2
 62
  7
 10
3.953308
 20
43.609095
 30
0.000000
 40
0.040909
  1
MobilFlex
 72
  5
 11
4.216944
 21
43.609095
 31
0.000000
  0
POLYLINE
  8
MERGEDLAYER-2
 66
  1
 70
  1
 62
  7
  0
VERTEX
  8
MERGEDLAYER-2
 10
3.747859
 20
43.680526
 30
0.000000
  0
VERTEX
  8
MERGEDLAYER-2
 10
3.795921
 20
43.680526
 30
0.000000
  0
VERTEX
  8
MERGEDLAYER-2
 10
3.795921
 20
43.667711
 30
0.000000
  0
VERTEX
  8
MERGEDLAYER-2
 10
3.747859
 20
43.667711
 30
0.000000
  0
SEQEND
  8
MERGEDLAYER-2
  0
CIRCLE
  8
MERGEDLAYER-2
 62
  7
 10
3.763359
 20
43.675169
 30
0.000000
 40
0.067581
  0
CIRCLE
  8
MERGEDLAYER-2
 62
  7
 10
3.763610
 20
43.675169
 30
0.000000
 40
0.049542
  0
CIRCLE
  8
MERGEDLAYER-2
 62
  7
 10
3.763610
 20
43.675169
 30
0.000000
 40
0.044456
  0
CIRCLE
  8
MERGEDLAYER-2
 62
  7
 10
3.781268
 20
43.675169
 30
0.000000
 40
0.019758
  0
CIRCLE
  8
MERGEDLAYER-2
 62
  7
 10
3.789717
 20
43.675169
 30
0.000000
 40
0.008448
  0
TEXT
  8
MERGEDLAYER-2
 62
  7
 10
3.726035
 20
43.645459
 30
0.000000
 40
0.006818
  1
MobilFlex
 50
90.000000
 72
  5
 11
3.726035
 21
43.745459
 31
0.000000
  0
POLYLINE
  8
MERGEDLAYER-2
 66
  1
 70
  1
 62
  7
 10
3.800452
 20
43.671360
 30
0.000000
  0
VERTEX
  8
MERGEDLAYER-2
 10
3.800452
 20
43.671360
 30
0.000000
  0
VERTEX
  8
MERGEDLAYER-2
 10
3.791304
 20
43.671360
 30
0.000000
  0
VERTEX
  8
MERGEDLAYER-2
 10
3.791304
 20
43.674916
 30
0.000000
  0
VERTEX
  8
MERGEDLAYER-2
 10
3.787748
 20
43.674916
 30
0.000000
  0
VERTEX
  8
MERGEDLAYER-2
 10
3.783934
 20
43.671107
 30
0.000000
  0
VERTEX
  8
MERGEDLAYER-2
 10
3.781397
 20
43.671107
 30
0.000000
  0
VERTEX
  8
MERGEDLAYER-2
 10
3.773775
 20
43.673646
 30
0.000000
  0
VERTEX
  8
MERGEDLAYER-2
 10
3.773775
 20
43.676949
 30
0.000000
  0
VERTEX
  8
MERGEDLAYER-2
 10
3.779363
 20
43.676185
 30
0.000000
  0
VERTEX
  8
MERGEDLAYER-2
 10
3.781397
 20
43.676443
 30
0.000000
  0
VERTEX
  8
MERGEDLAYER-2
 10
3.781397
 20
43.677965
 30
0.000000
  0
VERTEX
  8
MERGEDLAYER-2
 10
3.794351
 20
43.677965
 30
0.000000
  0
VERTEX
  8
MERGEDLAYER-2
 10
3.795623
 20
43.675169
 30
0.000000
  0
VERTEX
  8
MERGEDLAYER-2
 10
3.798165
 20
43.675169
 30
0.000000
  0
VERTEX
  8
MERGEDLAYER-2
 10
3.798672
 20
43.677965
 30
0.000000
  0
VERTEX
  8
MERGEDLAYER-2
 10
3.800452
 20
43.677965
 30
0.000000
  0
SEQEND
  8
MERGEDLAYER-2
  0
POLYLINE
  8
MERGEDLAYER-2
 66
  1
 70
  0
 62
  7
 10
3.936580
 20
43.420144
 30
0.000000
  0
VERTEX
  8
MERGEDLAYER-2
 10
3.936580
 20
43.420144
 30
0.000000
  0
VERTEX
  8
MERGEDLAYER-2
 10
3.806018
 20
43.594478
 30
0.000000
  0
SEQEND
  8
MERGEDLAYER-2
  0
POLYLINE
  8
MERGEDLAYER-2
 66
  1
 70
  1
 62
  7
  0
VERTEX
  8
MERGEDLAYER-2
 10
3.794217
 20
43.610232
 30
0.000000
  0
VERTEX
  8
MERGEDLAYER-2
 10
3.843294
 20
43.590199
 30
0.000000
  0
VERTEX
  8
MERGEDLAYER-2
 10
3.821465
 20
43.573850
 30
0.000000
  0
VERTEX
  8
MERGEDLAYER-2
 10
3.799635
 20
43.557502
 30
0.000000
  0
VERTEX
  8
MERGEDLAYER-2
 10
3.794217
 20
43.610232
 30
0.000000
  0
SEQEND
  8
MERGEDLAYER-2
  0
POLYLINE
  8
MERGEDLAYER-2
 66
  1
 70
  0
 62
  7
 10
3.365905
 20
43.440980
 30
0.000000
  0
VERTEX
  8
MERGEDLAYER-2
 10
3.365905
 20
43.440980
 30
0.000000
  0
VERTEX
  8
MERGEDLAYER-2
 10
3.506046
 20
43.651793
 30
0.000000
  0
SEQEND
  8
MERGEDLAYER-2
  0
POLYLINE
  8
MERGEDLAYER-2
 66
  1
 70
  1
 62
  7
  0
VERTEX
  8
MERGEDLAYER-2
 10
3.516944
 20
43.668186
 30
0.000000
  0
VERTEX
  8
MERGEDLAYER-2
 10
3.514492
 20
43.615234
 30
0.000000
  0
VERTEX
  8
MERGEDLAYER-2
 10
3.491780
 20
43.630331
 30
0.000000
  0
VERTEX
  8
MERGEDLAYER-2
 10
3.469068
 20
43.645432
 30
0.000000
  0
VERTEX
  8
MERGEDLAYER-2
 10
3.516944
 20
43.668186
 30
0.000000
  0
SEQEND
  8
MERGEDLAYER-2
  0
POLYLINE
  8
MERGEDLAYER-2
 66
  1
 70
  1
 62
  7
  0
VERTEX
  8
MERGEDLAYER-2
 10
0.726740
 20
46.375586
 30
0.000000
  0
VERTEX
  8
MERGEDLAYER-2
 10
0.845921
 20
46.375586
 30
0.000000
  0
VERTEX
  8
MERGEDLAYER-2
 10
0.845921
 20
46.285942
 30
0.000000
  0
VERTEX
  8
MERGEDLAYER-2
 10
0.726740
 20
46.285942
 30
0.000000
  0
SEQEND
  8
MERGEDLAYER-2
  0
POLYLINE
  8
MERGEDLAYER-2
 66
  1
 70
  1
 62
  7
  0
VERTEX
  8
MERGEDLAYER-2
 10
0.726740
 20
46.236186
 30
0.000000
  0
VERTEX
  8
MERGEDLAYER-2
 10
0.845921
 20
46.236186
 30
0.000000
  0
VERTEX
  8
MERGEDLAYER-2
 10
0.845921
 20
46.146542
 30
0.000000
  0
VERTEX
  8
MERGEDLAYER-2
 10
0.726740
 20
46.146542
 30
0.000000
  0
SEQEND
  8
MERGEDLAYER-2
  0
POLYLINE
  8
MERGEDLAYER-2
 66
  1
 70
  1
 62
  7
  0
VERTEX
  8
MERGEDLAYER-2
 10
0.726740
 20
46.096786
 30
0.000000
  0
VERTEX
  8
MERGEDLAYER-2
 10
0.845921
 20
46.096786
 30
0.000000
  0
VERTEX
  8
MERGEDLAYER-2
 10
0.845921
 20
46.007142
 30
0.000000
  0
VERTEX
  8
MERGEDLAYER-2
 10
0.726740
 20
46.007142
 30
0.000000
  0
SEQEND
  8
MERGEDLAYER-2
  0
POLYLINE
  8
MERGEDLAYER-2
 66
  1
 70
  1
 62
  7
  0
VERTEX
  8
MERGEDLAYER-2
 10
0.726740
 20
45.957386
 30
0.000000
  0
VERTEX
  8
MERGEDLAYER-2
 10
0.845921
 20
45.957386
 30
0.000000
  0
VERTEX
  8
MERGEDLAYER-2
 10
0.845921
 20
45.867742
 30
0.000000
  0
VERTEX
  8
MERGEDLAYER-2
 10
0.726740
 20
45.867742
 30
0.000000
  0
SEQEND
  8
MERGEDLAYER-2
  0
POLYLINE
  8
MERGEDLAYER-2
 66
  1
 70
  1
 62
  7
  0
VERTEX
  8
MERGEDLAYER-2
 10
0.726740
 20
45.817987
 30
0.000000
  0
VERTEX
  8
MERGEDLAYER-2
 10
0.845921
 20
45.817987
 30
0.000000
  0
VERTEX
  8
MERGEDLAYER-2
 10
0.845921
 20
45.728343
 30
0.000000
  0
VERTEX
  8
MERGEDLAYER-2
 10
0.726740
 20
45.728343
 30
0.000000
  0
SEQEND
  8
MERGEDLAYER-2
  0
POLYLINE
  8
MERGEDLAYER-2
 66
  1
 70
  1
 62
  7
  0
VERTEX
  8
MERGEDLAYER-2
 10
0.726740
 20
45.678587
 30
0.000000
  0
VERTEX
  8
MERGEDLAYER-2
 10
0.845921
 20
45.678587
 30
0.000000
  0
VERTEX
  8
MERGEDLAYER-2
 10
0.845921
 20
45.588943
 30
0.000000
  0
VERTEX
  8
MERGEDLAYER-2
 10
0.726740
 20
45.588943
 30
0.000000
  0
SEQEND
  8
MERGEDLAYER-2
  0
POLYLINE
  8
MERGEDLAYER-2
 66
  1
 70
  1
 62
  7
  0
VERTEX
  8
MERGEDLAYER-2
 10
0.726740
 20
45.539187
 30
0.000000
  0
VERTEX
  8
MERGEDLAYER-2
 10
0.845921
 20
45.539187
 30
0.000000
  0
VERTEX
  8
MERGEDLAYER-2
 10
0.845921
 20
45.449543
 30
0.000000
  0
VERTEX
  8
MERGEDLAYER-2
 10
0.726740
 20
45.449543
 30
0.000000
  0
SEQEND
  8
MERGEDLAYER-2
  0
POLYLINE
  8
MERGEDLAYER-2
 66
  1
 70
  1
 62
  7
  0
VERTEX
  8
MERGEDLAYER-2
 10
0.726740
 20
45.399787
 30
0.000000
  0
VERTEX
  8
MERGEDLAYER-2
 10
0.845921
 20
45.399787
 30
0.000000
  0
VERTEX
  8
MERGEDLAYER-2
 10
0.845921
 20
45.310143
 30
0.000000
  0
VERTEX
  8
MERGEDLAYER-2
 10
0.726740
 20
45.310143
 30
0.000000
  0
SEQEND
  8
MERGEDLAYER-2
  0
POLYLINE
  8
MERGEDLAYER-2
 66
  1
 70
  1
 62
  7
  0
VERTEX
  8
MERGEDLAYER-2
 10
0.726740
 20
45.260387
 30
0.000000
  0
VERTEX
  8
MERGEDLAYER-2
 10
0.845921
 20
45.260387
 30
0.000000
  0
VERTEX
  8
MERGEDLAYER-2
 10
0.845921
 20
45.170743
 30
0.000000
  0
VERTEX
  8
MERGEDLAYER-2
 10
0.726740
 20
45.170743
 30
0.000000
  0
SEQEND
  8
MERGEDLAYER-2
  0
POLYLINE
  8
MERGEDLAYER-2
 66
  1
 70
  1
 62
  7
  0
VERTEX
  8
MERGEDLAYER-2
 10
0.726740
 20
45.120987
 30
0.000000
  0
VERTEX
  8
MERGEDLAYER-2
 10
0.845921
 20
45.120987
 30
0.000000
  0
VERTEX
  8
MERGEDLAYER-2
 10
0.845921
 20
45.031343
 30
0.000000
  0
VERTEX
  8
MERGEDLAYER-2
 10
0.726740
 20
45.031343
 30
0.000000
  0
SEQEND
  8
MERGEDLAYER-2
  0
POLYLINE
  8
MERGEDLAYER-2
 66
  1
 70
  1
 62
  7
  0
VERTEX
  8
MERGEDLAYER-2
 10
0.726740
 20
44.981587
 30
0.000000
  0
VERTEX
  8
MERGEDLAYER-2
 10
0.845921
 20
44.981587
 30
0.000000
  0
VERTEX
  8
MERGEDLAYER-2
 10
0.845921
 20
44.891943
 30
0.000000
  0
VERTEX
  8
MERGEDLAYER-2
 10
0.726740
 20
44.891943
 30
0.000000
  0
SEQEND
  8
MERGEDLAYER-2
  0
POLYLINE
  8
MERGEDLAYER-2
 66
  1
 70
  1
 62
  7
  0
VERTEX
  8
MERGEDLAYER-2
 10
0.726740
 20
44.842188
 30
0.000000
  0
VERTEX
  8
MERGEDLAYER-2
 10
0.845921
 20
44.842188
 30
0.000000
  0
VERTEX
  8
MERGEDLAYER-2
 10
0.845921
 20
44.752544
 30
0.000000
  0
VERTEX
  8
MERGEDLAYER-2
 10
0.726740
 20
44.752544
 30
0.000000
  0
SEQEND
  8
MERGEDLAYER-2
  0
POLYLINE
  8
MERGEDLAYER-2
 66
  1
 70
  1
 62
  7
  0
VERTEX
  8
MERGEDLAYER-2
 10
0.726740
 20
44.702788
 30
0.000000
  0
VERTEX
  8
MERGEDLAYER-2
 10
0.845921
 20
44.702788
 30
0.000000
  0
VERTEX
  8
MERGEDLAYER-2
 10
0.845921
 20
44.613144
 30
0.000000
  0
VERTEX
  8
MERGEDLAYER-2
 10
0.726740
 20
44.613144
 30
0.000000
  0
SEQEND
  8
MERGEDLAYER-2
  0
POLYLINE
  8
MERGEDLAYER-2
 66
  1
 70
  1
 62
  7
  0
VERTEX
  8
MERGEDLAYER-2
 10
0.726740
 20
44.563388
 30
0.000000
  0
VERTEX
  8
MERGEDLAYER-2
 10
0.845921
 20
44.563388
 30
0.000000
  0
VERTEX
  8
MERGEDLAYER-2
 10
0.845921
 20
44.473744
 30
0.000000
  0
VERTEX
  8
MERGEDLAYER-2
 10
0.726740
 20
44.473744
 30
0.000000
  0
SEQEND
  8
MERGEDLAYER-2
  0
POLYLINE
  8
MERGEDLAYER-2
 66
  1
 70
  1
 62
  7
  0
VERTEX
  8
MERGEDLAYER-2
 10
0.726740
 20
44.423988
 30
0.000000
  0
VERTEX
  8
MERGEDLAYER-2
 10
0.845921
 20
44.423988
 30
0.000000
  0
VERTEX
  8
MERGEDLAYER-2
 10
0.845921
 20
44.334339
 30
0.000000
  0
VERTEX
  8
MERGEDLAYER-2
 10
0.726740
 20
44.334339
 30
0.000000
  0
SEQEND
  8
MERGEDLAYER-2
  0
POLYLINE
  8
MERGEDLAYER-2
 66
  1
 70
  1
 62
  7
  0
VERTEX
  8
MERGEDLAYER-2
 10
0.726740
 20
44.284588
 30
0.000000
  0
VERTEX
  8
MERGEDLAYER-2
 10
0.845921
 20
44.284588
 30
0.000000
  0
VERTEX
  8
MERGEDLAYER-2
 10
0.845921
 20
44.194940
 30
0.000000
  0
VERTEX
  8
MERGEDLAYER-2
 10
0.726740
 20
44.194940
 30
0.000000
  0
SEQEND
  8
MERGEDLAYER-2
  0
POLYLINE
  8
MERGEDLAYER-2
 66
  1
 70
  1
 62
  7
  0
VERTEX
  8
MERGEDLAYER-2
 10
0.726740
 20
44.145188
 30
0.000000
  0
VERTEX
  8
MERGEDLAYER-2
 10
0.845921
 20
44.145188
 30
0.000000
  0
VERTEX
  8
MERGEDLAYER-2
 10
0.845921
 20
44.055540
 30
0.000000
  0
VERTEX
  8
MERGEDLAYER-2
 10
0.726740
 20
44.055540
 30
0.000000
  0
SEQEND
  8
MERGEDLAYER-2
  0
POLYLINE
  8
MERGEDLAYER-2
 66
  1
 70
  1
 62
  7
  0
VERTEX
  8
MERGEDLAYER-2
 10
0.726740
 20
44.005788
 30
0.000000
  0
VERTEX
  8
MERGEDLAYER-2
 10
0.845921
 20
44.005788
 30
0.000000
  0
VERTEX
  8
MERGEDLAYER-2
 10
0.845921
 20
43.916140
 30
0.000000
  0
VERTEX
  8
MERGEDLAYER-2
 10
0.726740
 20
43.916140
 30
0.000000
  0
SEQEND
  8
MERGEDLAYER-2
  0
POLYLINE
  8
MERGEDLAYER-2
 66
  1
 70
  1
 62
  7
  0
VERTEX
  8
MERGEDLAYER-2
 10
1.918216
 20
46.375586
 30
0.000000
  0
VERTEX
  8
MERGEDLAYER-2
 10
2.037399
 20
46.375586
 30
0.000000
  0
VERTEX
  8
MERGEDLAYER-2
 10
2.037399
 20
46.285942
 30
0.000000
  0
VERTEX
  8
MERGEDLAYER-2
 10
1.918216
 20
46.285942
 30
0.000000
  0
SEQEND
  8
MERGEDLAYER-2
  0
POLYLINE
  8
MERGEDLAYER-2
 66
  1
 70
  1
 62
  7
  0
VERTEX
  8
MERGEDLAYER-2
 10
1.918216
 20
46.236186
 30
0.000000
  0
VERTEX
  8
MERGEDLAYER-2
 10
2.037399
 20
46.236186
 30
0.000000
  0
VERTEX
  8
MERGEDLAYER-2
 10
2.037399
 20
46.146542
 30
0.000000
  0
VERTEX
  8
MERGEDLAYER-2
 10
1.918216
 20
46.146542
 30
0.000000
  0
SEQEND
  8
MERGEDLAYER-2
  0
POLYLINE
  8
MERGEDLAYER-2
 66
  1
 70
  1
 62
  7
  0
VERTEX
  8
MERGEDLAYER-2
 10
1.918216
 20
46.096786
 30
0.000000
  0
VERTEX
  8
MERGEDLAYER-2
 10
2.037399
 20
46.096786
 30
0.000000
  0
VERTEX
  8
MERGEDLAYER-2
 10
2.037399
 20
46.007142
 30
0.000000
  0
VERTEX
  8
MERGEDLAYER-2
 10
1.918216
 20
46.007142
 30
0.000000
  0
SEQEND
  8
MERGEDLAYER-2
  0
POLYLINE
  8
MERGEDLAYER-2
 66
  1
 70
  1
 62
  7
  0
VERTEX
  8
MERGEDLAYER-2
 10
1.918216
 20
45.957386
 30
0.000000
  0
VERTEX
  8
MERGEDLAYER-2
 10
2.037399
 20
45.957386
 30
0.000000
  0
VERTEX
  8
MERGEDLAYER-2
 10
2.037399
 20
45.867742
 30
0.000000
  0
VERTEX
  8
MERGEDLAYER-2
 10
1.918216
 20
45.867742
 30
0.000000
  0
SEQEND
  8
MERGEDLAYER-2
  0
POLYLINE
  8
MERGEDLAYER-2
 66
  1
 70
  1
 62
  7
  0
VERTEX
  8
MERGEDLAYER-2
 10
1.918216
 20
45.817987
 30
0.000000
  0
VERTEX
  8
MERGEDLAYER-2
 10
2.037399
 20
45.817987
 30
0.000000
  0
VERTEX
  8
MERGEDLAYER-2
 10
2.037399
 20
45.728343
 30
0.000000
  0
VERTEX
  8
MERGEDLAYER-2
 10
1.918216
 20
45.728343
 30
0.000000
  0
SEQEND
  8
MERGEDLAYER-2
  0
POLYLINE
  8
MERGEDLAYER-2
 66
  1
 70
  1
 62
  7
  0
VERTEX
  8
MERGEDLAYER-2
 10
1.918216
 20
45.678587
 30
0.000000
  0
VERTEX
  8
MERGEDLAYER-2
 10
2.037399
 20
45.678587
 30
0.000000
  0
VERTEX
  8
MERGEDLAYER-2
 10
2.037399
 20
45.588943
 30
0.000000
  0
VERTEX
  8
MERGEDLAYER-2
 10
1.918216
 20
45.588943
 30
0.000000
  0
SEQEND
  8
MERGEDLAYER-2
  0
POLYLINE
  8
MERGEDLAYER-2
 66
  1
 70
  1
 62
  7
  0
VERTEX
  8
MERGEDLAYER-2
 10
1.918216
 20
45.539187
 30
0.000000
  0
VERTEX
  8
MERGEDLAYER-2
 10
2.037399
 20
45.539187
 30
0.000000
  0
VERTEX
  8
MERGEDLAYER-2
 10
2.037399
 20
45.449543
 30
0.000000
  0
VERTEX
  8
MERGEDLAYER-2
 10
1.918216
 20
45.449543
 30
0.000000
  0
SEQEND
  8
MERGEDLAYER-2
  0
POLYLINE
  8
MERGEDLAYER-2
 66
  1
 70
  1
 62
  7
  0
VERTEX
  8
MERGEDLAYER-2
 10
1.918216
 20
45.399787
 30
0.000000
  0
VERTEX
  8
MERGEDLAYER-2
 10
2.037399
 20
45.399787
 30
0.000000
  0
VERTEX
  8
MERGEDLAYER-2
 10
2.037399
 20
45.310143
 30
0.000000
  0
VERTEX
  8
MERGEDLAYER-2
 10
1.918216
 20
45.310143
 30
0.000000
  0
SEQEND
  8
MERGEDLAYER-2
  0
POLYLINE
  8
MERGEDLAYER-2
 66
  1
 70
  1
 62
  7
  0
VERTEX
  8
MERGEDLAYER-2
 10
1.918216
 20
45.260387
 30
0.000000
  0
VERTEX
  8
MERGEDLAYER-2
 10
2.037399
 20
45.260387
 30
0.000000
  0
VERTEX
  8
MERGEDLAYER-2
 10
2.037399
 20
45.170743
 30
0.000000
  0
VERTEX
  8
MERGEDLAYER-2
 10
1.918216
 20
45.170743
 30
0.000000
  0
SEQEND
  8
MERGEDLAYER-2
  0
POLYLINE
  8
MERGEDLAYER-2
 66
  1
 70
  1
 62
  7
  0
VERTEX
  8
MERGEDLAYER-2
 10
1.918216
 20
45.120987
 30
0.000000
  0
VERTEX
  8
MERGEDLAYER-2
 10
2.037399
 20
45.120987
 30
0.000000
  0
VERTEX
  8
MERGEDLAYER-2
 10
2.037399
 20
45.031343
 30
0.000000
  0
VERTEX
  8
MERGEDLAYER-2
 10
1.918216
 20
45.031343
 30
0.000000
  0
SEQEND
  8
MERGEDLAYER-2
  0
POLYLINE
  8
MERGEDLAYER-2
 66
  1
 70
  1
 62
  7
  0
VERTEX
  8
MERGEDLAYER-2
 10
1.918216
 20
44.981587
 30
0.000000
  0
VERTEX
  8
MERGEDLAYER-2
 10
2.037399
 20
44.981587
 30
0.000000
  0
VERTEX
  8
MERGEDLAYER-2
 10
2.037399
 20
44.891943
 30
0.000000
  0
VERTEX
  8
MERGEDLAYER-2
 10
1.918216
 20
44.891943
 30
0.000000
  0
SEQEND
  8
MERGEDLAYER-2
  0
POLYLINE
  8
MERGEDLAYER-2
 66
  1
 70
  1
 62
  7
  0
VERTEX
  8
MERGEDLAYER-2
 10
1.918216
 20
44.842188
 30
0.000000
  0
VERTEX
  8
MERGEDLAYER-2
 10
2.037399
 20
44.842188
 30
0.000000
  0
VERTEX
  8
MERGEDLAYER-2
 10
2.037399
 20
44.752544
 30
0.000000
  0
VERTEX
  8
MERGEDLAYER-2
 10
1.918216
 20
44.752544
 30
0.000000
  0
SEQEND
  8
MERGEDLAYER-2
  0
POLYLINE
  8
MERGEDLAYER-2
 66
  1
 70
  1
 62
  7
  0
VERTEX
  8
MERGEDLAYER-2
 10
1.918216
 20
44.702788
 30
0.000000
  0
VERTEX
  8
MERGEDLAYER-2
 10
2.037399
 20
44.702788
 30
0.000000
  0
VERTEX
  8
MERGEDLAYER-2
 10
2.037399
 20
44.613144
 30
0.000000
  0
VERTEX
  8
MERGEDLAYER-2
 10
1.918216
 20
44.613144
 30
0.000000
  0
SEQEND
  8
MERGEDLAYER-2
  0
POLYLINE
  8
MERGEDLAYER-2
 66
  1
 70
  1
 62
  7
  0
VERTEX
  8
MERGEDLAYER-2
 10
1.918216
 20
44.563388
 30
0.000000
  0
VERTEX
  8
MERGEDLAYER-2
 10
2.037399
 20
44.563388
 30
0.000000
  0
VERTEX
  8
MERGEDLAYER-2
 10
2.037399
 20
44.473744
 30
0.000000
  0
VERTEX
  8
MERGEDLAYER-2
 10
1.918216
 20
44.473744
 30
0.000000
  0
SEQEND
  8
MERGEDLAYER-2
  0
POLYLINE
  8
MERGEDLAYER-2
 66
  1
 70
  1
 62
  7
  0
VERTEX
  8
MERGEDLAYER-2
 10
1.918216
 20
44.423988
 30
0.000000
  0
VERTEX
  8
MERGEDLAYER-2
 10
2.037399
 20
44.423988
 30
0.000000
  0
VERTEX
  8
MERGEDLAYER-2
 10
2.037399
 20
44.334339
 30
0.000000
  0
VERTEX
  8
MERGEDLAYER-2
 10
1.918216
 20
44.334339
 30
0.000000
  0
SEQEND
  8
MERGEDLAYER-2
  0
POLYLINE
  8
MERGEDLAYER-2
 66
  1
 70
  1
 62
  7
  0
VERTEX
  8
MERGEDLAYER-2
 10
1.918216
 20
44.284588
 30
0.000000
  0
VERTEX
  8
MERGEDLAYER-2
 10
2.037399
 20
44.284588
 30
0.000000
  0
VERTEX
  8
MERGEDLAYER-2
 10
2.037399
 20
44.194940
 30
0.000000
  0
VERTEX
  8
MERGEDLAYER-2
 10
1.918216
 20
44.194940
 30
0.000000
  0
SEQEND
  8
MERGEDLAYER-2
  0
POLYLINE
  8
MERGEDLAYER-2
 66
  1
 70
  1
 62
  7
  0
VERTEX
  8
MERGEDLAYER-2
 10
1.918216
 20
44.145188
 30
0.000000
  0
VERTEX
  8
MERGEDLAYER-2
 10
2.037399
 20
44.145188
 30
0.000000
  0
VERTEX
  8
MERGEDLAYER-2
 10
2.037399
 20
44.055540
 30
0.000000
  0
VERTEX
  8
MERGEDLAYER-2
 10
1.918216
 20
44.055540
 30
0.000000
  0
SEQEND
  8
MERGEDLAYER-2
  0
POLYLINE
  8
MERGEDLAYER-2
 66
  1
 70
  1
 62
  7
  0
VERTEX
  8
MERGEDLAYER-2
 10
1.918216
 20
44.005788
 30
0.000000
  0
VERTEX
  8
MERGEDLAYER-2
 10
2.037399
 20
44.005788
 30
0.000000
  0
VERTEX
  8
MERGEDLAYER-2
 10
2.037399
 20
43.916140
 30
0.000000
  0
VERTEX
  8
MERGEDLAYER-2
 10
1.918216
 20
43.916140
 30
0.000000
  0
SEQEND
  8
MERGEDLAYER-2
  0
POLYLINE
  8
MERGEDLAYER-2
 66
  1
 70
  1
 62
  7
  0
VERTEX
  8
MERGEDLAYER-2
 10
3.109126
 20
46.375586
 30
0.000000
  0
VERTEX
  8
MERGEDLAYER-2
 10
3.228308
 20
46.375586
 30
0.000000
  0
VERTEX
  8
MERGEDLAYER-2
 10
3.228308
 20
46.285942
 30
0.000000
  0
VERTEX
  8
MERGEDLAYER-2
 10
3.109126
 20
46.285942
 30
0.000000
  0
SEQEND
  8
MERGEDLAYER-2
  0
POLYLINE
  8
MERGEDLAYER-2
 66
  1
 70
  1
 62
  7
  0
VERTEX
  8
MERGEDLAYER-2
 10
3.109126
 20
46.236186
 30
0.000000
  0
VERTEX
  8
MERGEDLAYER-2
 10
3.228308
 20
46.236186
 30
0.000000
  0
VERTEX
  8
MERGEDLAYER-2
 10
3.228308
 20
46.146542
 30
0.000000
  0
VERTEX
  8
MERGEDLAYER-2
 10
3.109126
 20
46.146542
 30
0.000000
  0
SEQEND
  8
MERGEDLAYER-2
  0
POLYLINE
  8
MERGEDLAYER-2
 66
  1
 70
  1
 62
  7
  0
VERTEX
  8
MERGEDLAYER-2
 10
3.109126
 20
46.096786
 30
0.000000
  0
VERTEX
  8
MERGEDLAYER-2
 10
3.228308
 20
46.096786
 30
0.000000
  0
VERTEX
  8
MERGEDLAYER-2
 10
3.228308
 20
46.007142
 30
0.000000
  0
VERTEX
  8
MERGEDLAYER-2
 10
3.109126
 20
46.007142
 30
0.000000
  0
SEQEND
  8
MERGEDLAYER-2
  0
POLYLINE
  8
MERGEDLAYER-2
 66
  1
 70
  1
 62
  7
  0
VERTEX
  8
MERGEDLAYER-2
 10
3.109126
 20
45.957386
 30
0.000000
  0
VERTEX
  8
MERGEDLAYER-2
 10
3.228308
 20
45.957386
 30
0.000000
  0
VERTEX
  8
MERGEDLAYER-2
 10
3.228308
 20
45.867742
 30
0.000000
  0
VERTEX
  8
MERGEDLAYER-2
 10
3.109126
 20
45.867742
 30
0.000000
  0
SEQEND
  8
MERGEDLAYER-2
  0
POLYLINE
  8
MERGEDLAYER-2
 66
  1
 70
  1
 62
  7
  0
VERTEX
  8
MERGEDLAYER-2
 10
3.109126
 20
45.817987
 30
0.000000
  0
VERTEX
  8
MERGEDLAYER-2
 10
3.228308
 20
45.817987
 30
0.000000
  0
VERTEX
  8
MERGEDLAYER-2
 10
3.228308
 20
45.728343
 30
0.000000
  0
VERTEX
  8
MERGEDLAYER-2
 10
3.109126
 20
45.728343
 30
0.000000
  0
SEQEND
  8
MERGEDLAYER-2
  0
POLYLINE
  8
MERGEDLAYER-2
 66
  1
 70
  1
 62
  7
  0
VERTEX
  8
MERGEDLAYER-2
 10
3.109126
 20
45.678587
 30
0.000000
  0
VERTEX
  8
MERGEDLAYER-2
 10
3.228308
 20
45.678587
 30
0.000000
  0
VERTEX
  8
MERGEDLAYER-2
 10
3.228308
 20
45.588943
 30
0.000000
  0
VERTEX
  8
MERGEDLAYER-2
 10
3.109126
 20
45.588943
 30
0.000000
  0
SEQEND
  8
MERGEDLAYER-2
  0
POLYLINE
  8
MERGEDLAYER-2
 66
  1
 70
  1
 62
  7
  0
VERTEX
  8
MERGEDLAYER-2
 10
3.109126
 20
45.539187
 30
0.000000
  0
VERTEX
  8
MERGEDLAYER-2
 10
3.228308
 20
45.539187
 30
0.000000
  0
VERTEX
  8
MERGEDLAYER-2
 10
3.228308
 20
45.449543
 30
0.000000
  0
VERTEX
  8
MERGEDLAYER-2
 10
3.109126
 20
45.449543
 30
0.000000
  0
SEQEND
  8
MERGEDLAYER-2
  0
POLYLINE
  8
MERGEDLAYER-2
 66
  1
 70
  1
 62
  7
  0
VERTEX
  8
MERGEDLAYER-2
 10
3.109126
 20
45.399787
 30
0.000000
  0
VERTEX
  8
MERGEDLAYER-2
 10
3.228308
 20
45.399787
 30
0.000000
  0
VERTEX
  8
MERGEDLAYER-2
 10
3.228308
 20
45.310143
 30
0.000000
  0
VERTEX
  8
MERGEDLAYER-2
 10
3.109126
 20
45.310143
 30
0.000000
  0
SEQEND
  8
MERGEDLAYER-2
  0
POLYLINE
  8
MERGEDLAYER-2
 66
  1
 70
  1
 62
  7
  0
VERTEX
  8
MERGEDLAYER-2
 10
3.109126
 20
45.260387
 30
0.000000
  0
VERTEX
  8
MERGEDLAYER-2
 10
3.228308
 20
45.260387
 30
0.000000
  0
VERTEX
  8
MERGEDLAYER-2
 10
3.228308
 20
45.170743
 30
0.000000
  0
VERTEX
  8
MERGEDLAYER-2
 10
3.109126
 20
45.170743
 30
0.000000
  0
SEQEND
  8
MERGEDLAYER-2
  0
POLYLINE
  8
MERGEDLAYER-2
 66
  1
 70
  1
 62
  7
  0
VERTEX
  8
MERGEDLAYER-2
 10
3.109126
 20
45.120987
 30
0.000000
  0
VERTEX
  8
MERGEDLAYER-2
 10
3.228308
 20
45.120987
 30
0.000000
  0
VERTEX
  8
MERGEDLAYER-2
 10
3.228308
 20
45.031343
 30
0.000000
  0
VERTEX
  8
MERGEDLAYER-2
 10
3.109126
 20
45.031343
 30
0.000000
  0
SEQEND
  8
MERGEDLAYER-2
  0
POLYLINE
  8
MERGEDLAYER-2
 66
  1
 70
  1
 62
  7
  0
VERTEX
  8
MERGEDLAYER-2
 10
3.109126
 20
44.981587
 30
0.000000
  0
VERTEX
  8
MERGEDLAYER-2
 10
3.228308
 20
44.981587
 30
0.000000
  0
VERTEX
  8
MERGEDLAYER-2
 10
3.228308
 20
44.891943
 30
0.000000
  0
VERTEX
  8
MERGEDLAYER-2
 10
3.109126
 20
44.891943
 30
0.000000
  0
SEQEND
  8
MERGEDLAYER-2
  0
POLYLINE
  8
MERGEDLAYER-2
 66
  1
 70
  1
 62
  7
  0
VERTEX
  8
MERGEDLAYER-2
 10
3.109126
 20
44.842188
 30
0.000000
  0
VERTEX
  8
MERGEDLAYER-2
 10
3.228308
 20
44.842188
 30
0.000000
  0
VERTEX
  8
MERGEDLAYER-2
 10
3.228308
 20
44.752544
 30
0.000000
  0
VERTEX
  8
MERGEDLAYER-2
 10
3.109126
 20
44.752544
 30
0.000000
  0
SEQEND
  8
MERGEDLAYER-2
  0
POLYLINE
  8
MERGEDLAYER-2
 66
  1
 70
  1
 62
  7
  0
VERTEX
  8
MERGEDLAYER-2
 10
3.109126
 20
44.702788
 30
0.000000
  0
VERTEX
  8
MERGEDLAYER-2
 10
3.228308
 20
44.702788
 30
0.000000
  0
VERTEX
  8
MERGEDLAYER-2
 10
3.228308
 20
44.613144
 30
0.000000
  0
VERTEX
  8
MERGEDLAYER-2
 10
3.109126
 20
44.613144
 30
0.000000
  0
SEQEND
  8
MERGEDLAYER-2
  0
POLYLINE
  8
MERGEDLAYER-2
 66
  1
 70
  1
 62
  7
  0
VERTEX
  8
MERGEDLAYER-2
 10
3.109126
 20
44.563388
 30
0.000000
  0
VERTEX
  8
MERGEDLAYER-2
 10
3.228308
 20
44.563388
 30
0.000000
  0
VERTEX
  8
MERGEDLAYER-2
 10
3.228308
 20
44.473744
 30
0.000000
  0
VERTEX
  8
MERGEDLAYER-2
 10
3.109126
 20
44.473744
 30
0.000000
  0
SEQEND
  8
MERGEDLAYER-2
  0
POLYLINE
  8
MERGEDLAYER-2
 66
  1
 70
  1
 62
  7
  0
VERTEX
  8
MERGEDLAYER-2
 10
3.109126
 20
44.423988
 30
0.000000
  0
VERTEX
  8
MERGEDLAYER-2
 10
3.228308
 20
44.423988
 30
0.000000
  0
VERTEX
  8
MERGEDLAYER-2
 10
3.228308
 20
44.334339
 30
0.000000
  0
VERTEX
  8
MERGEDLAYER-2
 10
3.109126
 20
44.334339
 30
0.000000
  0
SEQEND
  8
MERGEDLAYER-2
  0
POLYLINE
  8
MERGEDLAYER-2
 66
  1
 70
  1
 62
  7
  0
VERTEX
  8
MERGEDLAYER-2
 10
3.109126
 20
44.284588
 30
0.000000
  0
VERTEX
  8
MERGEDLAYER-2
 10
3.228308
 20
44.284588
 30
0.000000
  0
VERTEX
  8
MERGEDLAYER-2
 10
3.228308
 20
44.194940
 30
0.000000
  0
VERTEX
  8
MERGEDLAYER-2
 10
3.109126
 20
44.194940
 30
0.000000
  0
SEQEND
  8
MERGEDLAYER-2
  0
POLYLINE
  8
MERGEDLAYER-2
 66
  1
 70
  1
 62
  7
  0
VERTEX
  8
MERGEDLAYER-2
 10
3.109126
 20
44.145188
 30
0.000000
  0
VERTEX
  8
MERGEDLAYER-2
 10
3.228308
 20
44.145188
 30
0.000000
  0
VERTEX
  8
MERGEDLAYER-2
 10
3.228308
 20
44.055540
 30
0.000000
  0
VERTEX
  8
MERGEDLAYER-2
 10
3.109126
 20
44.055540
 30
0.000000
  0
SEQEND
  8
MERGEDLAYER-2
  0
POLYLINE
  8
MERGEDLAYER-2
 66
  1
 70
  1
 62
  7
  0
VERTEX
  8
MERGEDLAYER-2
 10
3.109126
 20
44.005788
 30
0.000000
  0
VERTEX
  8
MERGEDLAYER-2
 10
3.228308
 20
44.005788
 30
0.000000
  0
VERTEX
  8
MERGEDLAYER-2
 10
3.228308
 20
43.916140
 30
0.000000
  0
VERTEX
  8
MERGEDLAYER-2
 10
3.109126
 20
43.916140
 30
0.000000
  0
SEQEND
  8
MERGEDLAYER-2
  0
POLYLINE
  8
MERGEDLAYER-2
 66
  1
 70
  1
 62
  7
  0
VERTEX
  8
MERGEDLAYER-2
 10
4.300602
 20
46.375586
 30
0.000000
  0
VERTEX
  8
MERGEDLAYER-2
 10
4.419785
 20
46.375586
 30
0.000000
  0
VERTEX
  8
MERGEDLAYER-2
 10
4.419785
 20
46.285942
 30
0.000000
  0
VERTEX
  8
MERGEDLAYER-2
 10
4.300602
 20
46.285942
 30
0.000000
  0
SEQEND
  8
MERGEDLAYER-2
  0
POLYLINE
  8
MERGEDLAYER-2
 66
  1
 70
  1
 62
  7
  0
VERTEX
  8
MERGEDLAYER-2
 10
4.300602
 20
46.236186
 30
0.000000
  0
VERTEX
  8
MERGEDLAYER-2
 10
4.419785
 20
46.236186
 30
0.000000
  0
VERTEX
  8
MERGEDLAYER-2
 10
4.419785
 20
46.146542
 30
0.000000
  0
VERTEX
  8
MERGEDLAYER-2
 10
4.300602
 20
46.146542
 30
0.000000
  0
SEQEND
  8
MERGEDLAYER-2
  0
POLYLINE
  8
MERGEDLAYER-2
 66
  1
 70
  1
 62
  7
  0
VERTEX
  8
MERGEDLAYER-2
 10
4.300602
 20
46.096786
 30
0.000000
  0
VERTEX
  8
MERGEDLAYER-2
 10
4.419785
 20
46.096786
 30
0.000000
  0
VERTEX
  8
MERGEDLAYER-2
 10
4.419785
 20
46.007142
 30
0.000000
  0
VERTEX
  8
MERGEDLAYER-2
 10
4.300602
 20
46.007142
 30
0.000000
  0
SEQEND
  8
MERGEDLAYER-2
  0
POLYLINE
  8
MERGEDLAYER-2
 66
  1
 70
  1
 62
  7
  0
VERTEX
  8
MERGEDLAYER-2
 10
4.300602
 20
45.957386
 30
0.000000
  0
VERTEX
  8
MERGEDLAYER-2
 10
4.419785
 20
45.957386
 30
0.000000
  0
VERTEX
  8
MERGEDLAYER-2
 10
4.419785
 20
45.867742
 30
0.000000
  0
VERTEX
  8
MERGEDLAYER-2
 10
4.300602
 20
45.867742
 30
0.000000
  0
SEQEND
  8
MERGEDLAYER-2
  0
POLYLINE
  8
MERGEDLAYER-2
 66
  1
 70
  1
 62
  7
  0
VERTEX
  8
MERGEDLAYER-2
 10
4.300602
 20
45.817987
 30
0.000000
  0
VERTEX
  8
MERGEDLAYER-2
 10
4.419785
 20
45.817987
 30
0.000000
  0
VERTEX
  8
MERGEDLAYER-2
 10
4.419785
 20
45.728343
 30
0.000000
  0
VERTEX
  8
MERGEDLAYER-2
 10
4.300602
 20
45.728343
 30
0.000000
  0
SEQEND
  8
MERGEDLAYER-2
  0
POLYLINE
  8
MERGEDLAYER-2
 66
  1
 70
  1
 62
  7
  0
VERTEX
  8
MERGEDLAYER-2
 10
4.300602
 20
45.678587
 30
0.000000
  0
VERTEX
  8
MERGEDLAYER-2
 10
4.419785
 20
45.678587
 30
0.000000
  0
VERTEX
  8
MERGEDLAYER-2
 10
4.419785
 20
45.588943
 30
0.000000
  0
VERTEX
  8
MERGEDLAYER-2
 10
4.300602
 20
45.588943
 30
0.000000
  0
SEQEND
  8
MERGEDLAYER-2
  0
POLYLINE
  8
MERGEDLAYER-2
 66
  1
 70
  1
 62
  7
  0
VERTEX
  8
MERGEDLAYER-2
 10
4.300602
 20
45.539187
 30
0.000000
  0
VERTEX
  8
MERGEDLAYER-2
 10
4.419785
 20
45.539187
 30
0.000000
  0
VERTEX
  8
MERGEDLAYER-2
 10
4.419785
 20
45.449543
 30
0.000000
  0
VERTEX
  8
MERGEDLAYER-2
 10
4.300602
 20
45.449543
 30
0.000000
  0
SEQEND
  8
MERGEDLAYER-2
  0
POLYLINE
  8
MERGEDLAYER-2
 66
  1
 70
  1
 62
  7
  0
VERTEX
  8
MERGEDLAYER-2
 10
4.300602
 20
45.399787
 30
0.000000
  0
VERTEX
  8
MERGEDLAYER-2
 10
4.419785
 20
45.399787
 30
0.000000
  0
VERTEX
  8
MERGEDLAYER-2
 10
4.419785
 20
45.310143
 30
0.000000
  0
VERTEX
  8
MERGEDLAYER-2
 10
4.300602
 20
45.310143
 30
0.000000
  0
SEQEND
  8
MERGEDLAYER-2
  0
POLYLINE
  8
MERGEDLAYER-2
 66
  1
 70
  1
 62
  7
  0
VERTEX
  8
MERGEDLAYER-2
 10
4.300602
 20
45.260387
 30
0.000000
  0
VERTEX
  8
MERGEDLAYER-2
 10
4.419785
 20
45.260387
 30
0.000000
  0
VERTEX
  8
MERGEDLAYER-2
 10
4.419785
 20
45.170743
 30
0.000000
  0
VERTEX
  8
MERGEDLAYER-2
 10
4.300602
 20
45.170743
 30
0.000000
  0
SEQEND
  8
MERGEDLAYER-2
  0
POLYLINE
  8
MERGEDLAYER-2
 66
  1
 70
  1
 62
  7
  0
VERTEX
  8
MERGEDLAYER-2
 10
4.300602
 20
45.120987
 30
0.000000
  0
VERTEX
  8
MERGEDLAYER-2
 10
4.419785
 20
45.120987
 30
0.000000
  0
VERTEX
  8
MERGEDLAYER-2
 10
4.419785
 20
45.031343
 30
0.000000
  0
VERTEX
  8
MERGEDLAYER-2
 10
4.300602
 20
45.031343
 30
0.000000
  0
SEQEND
  8
MERGEDLAYER-2
  0
POLYLINE
  8
MERGEDLAYER-2
 66
  1
 70
  1
 62
  7
  0
VERTEX
  8
MERGEDLAYER-2
 10
4.300602
 20
44.981587
 30
0.000000
  0
VERTEX
  8
MERGEDLAYER-2
 10
4.419785
 20
44.981587
 30
0.000000
  0
VERTEX
  8
MERGEDLAYER-2
 10
4.419785
 20
44.891943
 30
0.000000
  0
VERTEX
  8
MERGEDLAYER-2
 10
4.300602
 20
44.891943
 30
0.000000
  0
SEQEND
  8
MERGEDLAYER-2
  0
POLYLINE
  8
MERGEDLAYER-2
 66
  1
 70
  1
 62
  7
  0
VERTEX
  8
MERGEDLAYER-2
 10
4.300602
 20
44.842188
 30
0.000000
  0
VERTEX
  8
MERGEDLAYER-2
 10
4.419785
 20
44.842188
 30
0.000000
  0
VERTEX
  8
MERGEDLAYER-2
 10
4.419785
 20
44.752544
 30
0.000000
  0
VERTEX
  8
MERGEDLAYER-2
 10
4.300602
 20
44.752544
 30
0.000000
  0
SEQEND
  8
MERGEDLAYER-2
  0
POLYLINE
  8
MERGEDLAYER-2
 66
  1
 70
  1
 62
  7
  0
VERTEX
  8
MERGEDLAYER-2
 10
4.300602
 20
44.702788
 30
0.000000
  0
VERTEX
  8
MERGEDLAYER-2
 10
4.419785
 20
44.702788
 30
0.000000
  0
VERTEX
  8
MERGEDLAYER-2
 10
4.419785
 20
44.613144
 30
0.000000
  0
VERTEX
  8
MERGEDLAYER-2
 10
4.300602
 20
44.613144
 30
0.000000
  0
SEQEND
  8
MERGEDLAYER-2
  0
POLYLINE
  8
MERGEDLAYER-2
 66
  1
 70
  1
 62
  7
  0
VERTEX
  8
MERGEDLAYER-2
 10
4.300602
 20
44.563388
 30
0.000000
  0
VERTEX
  8
MERGEDLAYER-2
 10
4.419785
 20
44.563388
 30
0.000000
  0
VERTEX
  8
MERGEDLAYER-2
 10
4.419785
 20
44.473744
 30
0.000000
  0
VERTEX
  8
MERGEDLAYER-2
 10
4.300602
 20
44.473744
 30
0.000000
  0
SEQEND
  8
MERGEDLAYER-2
  0
POLYLINE
  8
MERGEDLAYER-2
 66
  1
 70
  1
 62
  7
  0
VERTEX
  8
MERGEDLAYER-2
 10
4.300602
 20
44.423988
 30
0.000000
  0
VERTEX
  8
MERGEDLAYER-2
 10
4.419785
 20
44.423988
 30
0.000000
  0
VERTEX
  8
MERGEDLAYER-2
 10
4.419785
 20
44.334339
 30
0.000000
  0
VERTEX
  8
MERGEDLAYER-2
 10
4.300602
 20
44.334339
 30
0.000000
  0
SEQEND
  8
MERGEDLAYER-2
  0
POLYLINE
  8
MERGEDLAYER-2
 66
  1
 70
  1
 62
  7
  0
VERTEX
  8
MERGEDLAYER-2
 10
4.300602
 20
44.284588
 30
0.000000
  0
VERTEX
  8
MERGEDLAYER-2
 10
4.419785
 20
44.284588
 30
0.000000
  0
VERTEX
  8
MERGEDLAYER-2
 10
4.419785
 20
44.194940
 30
0.000000
  0
VERTEX
  8
MERGEDLAYER-2
 10
4.300602
 20
44.194940
 30
0.000000
  0
SEQEND
  8
MERGEDLAYER-2
  0
POLYLINE
  8
MERGEDLAYER-2
 66
  1
 70
  1
 62
  7
  0
VERTEX
  8
MERGEDLAYER-2
 10
4.300602
 20
44.145188
 30
0.000000
  0
VERTEX
  8
MERGEDLAYER-2
 10
4.419785
 20
44.145188
 30
0.000000
  0
VERTEX
  8
MERGEDLAYER-2
 10
4.419785
 20
44.055540
 30
0.000000
  0
VERTEX
  8
MERGEDLAYER-2
 10
4.300602
 20
44.055540
 30
0.000000
  0
SEQEND
  8
MERGEDLAYER-2
  0
POLYLINE
  8
MERGEDLAYER-2
 66
  1
 70
  1
 62
  7
  0
VERTEX
  8
MERGEDLAYER-2
 10
4.300602
 20
44.005788
 30
0.000000
  0
VERTEX
  8
MERGEDLAYER-2
 10
4.419785
 20
44.005788
 30
0.000000
  0
VERTEX
  8
MERGEDLAYER-2
 10
4.419785
 20
43.916140
 30
0.000000
  0
VERTEX
  8
MERGEDLAYER-2
 10
4.300602
 20
43.916140
 30
0.000000
  0
SEQEND
  8
MERGEDLAYER-2
  0
POLYLINE
  8
MERGEDLAYER-2
 66
  1
 70
  1
 62
  7
  0
VERTEX
  8
MERGEDLAYER-2
 10
5.492080
 20
46.375586
 30
0.000000
  0
VERTEX
  8
MERGEDLAYER-2
 10
5.611263
 20
46.375586
 30
0.000000
  0
VERTEX
  8
MERGEDLAYER-2
 10
5.611263
 20
46.285942
 30
0.000000
  0
VERTEX
  8
MERGEDLAYER-2
 10
5.492080
 20
46.285942
 30
0.000000
  0
SEQEND
  8
MERGEDLAYER-2
  0
POLYLINE
  8
MERGEDLAYER-2
 66
  1
 70
  1
 62
  7
  0
VERTEX
  8
MERGEDLAYER-2
 10
5.492080
 20
46.236186
 30
0.000000
  0
VERTEX
  8
MERGEDLAYER-2
 10
5.611263
 20
46.236186
 30
0.000000
  0
VERTEX
  8
MERGEDLAYER-2
 10
5.611263
 20
46.146542
 30
0.000000
  0
VERTEX
  8
MERGEDLAYER-2
 10
5.492080
 20
46.146542
 30
0.000000
  0
SEQEND
  8
MERGEDLAYER-2
  0
POLYLINE
  8
MERGEDLAYER-2
 66
  1
 70
  1
 62
  7
  0
VERTEX
  8
MERGEDLAYER-2
 10
5.492080
 20
46.096786
 30
0.000000
  0
VERTEX
  8
MERGEDLAYER-2
 10
5.611263
 20
46.096786
 30
0.000000
  0
VERTEX
  8
MERGEDLAYER-2
 10
5.611263
 20
46.007142
 30
0.000000
  0
VERTEX
  8
MERGEDLAYER-2
 10
5.492080
 20
46.007142
 30
0.000000
  0
SEQEND
  8
MERGEDLAYER-2
  0
POLYLINE
  8
MERGEDLAYER-2
 66
  1
 70
  1
 62
  7
  0
VERTEX
  8
MERGEDLAYER-2
 10
5.492080
 20
45.957386
 30
0.000000
  0
VERTEX
  8
MERGEDLAYER-2
 10
5.611263
 20
45.957386
 30
0.000000
  0
VERTEX
  8
MERGEDLAYER-2
 10
5.611263
 20
45.867742
 30
0.000000
  0
VERTEX
  8
MERGEDLAYER-2
 10
5.492080
 20
45.867742
 30
0.000000
  0
SEQEND
  8
MERGEDLAYER-2
  0
POLYLINE
  8
MERGEDLAYER-2
 66
  1
 70
  1
 62
  7
  0
VERTEX
  8
MERGEDLAYER-2
 10
5.492080
 20
45.817987
 30
0.000000
  0
VERTEX
  8
MERGEDLAYER-2
 10
5.611263
 20
45.817987
 30
0.000000
  0
VERTEX
  8
MERGEDLAYER-2
 10
5.611263
 20
45.728343
 30
0.000000
  0
VERTEX
  8
MERGEDLAYER-2
 10
5.492080
 20
45.728343
 30
0.000000
  0
SEQEND
  8
MERGEDLAYER-2
  0
POLYLINE
  8
MERGEDLAYER-2
 66
  1
 70
  1
 62
  7
  0
VERTEX
  8
MERGEDLAYER-2
 10
5.492080
 20
45.678587
 30
0.000000
  0
VERTEX
  8
MERGEDLAYER-2
 10
5.611263
 20
45.678587
 30
0.000000
  0
VERTEX
  8
MERGEDLAYER-2
 10
5.611263
 20
45.588943
 30
0.000000
  0
VERTEX
  8
MERGEDLAYER-2
 10
5.492080
 20
45.588943
 30
0.000000
  0
SEQEND
  8
MERGEDLAYER-2
  0
POLYLINE
  8
MERGEDLAYER-2
 66
  1
 70
  1
 62
  7
  0
VERTEX
  8
MERGEDLAYER-2
 10
5.492080
 20
45.539187
 30
0.000000
  0
VERTEX
  8
MERGEDLAYER-2
 10
5.611263
 20
45.539187
 30
0.000000
  0
VERTEX
  8
MERGEDLAYER-2
 10
5.611263
 20
45.449543
 30
0.000000
  0
VERTEX
  8
MERGEDLAYER-2
 10
5.492080
 20
45.449543
 30
0.000000
  0
SEQEND
  8
MERGEDLAYER-2
  0
POLYLINE
  8
MERGEDLAYER-2
 66
  1
 70
  1
 62
  7
  0
VERTEX
  8
MERGEDLAYER-2
 10
5.492080
 20
45.399787
 30
0.000000
  0
VERTEX
  8
MERGEDLAYER-2
 10
5.611263
 20
45.399787
 30
0.000000
  0
VERTEX
  8
MERGEDLAYER-2
 10
5.611263
 20
45.310143
 30
0.000000
  0
VERTEX
  8
MERGEDLAYER-2
 10
5.492080
 20
45.310143
 30
0.000000
  0
SEQEND
  8
MERGEDLAYER-2
  0
POLYLINE
  8
MERGEDLAYER-2
 66
  1
 70
  1
 62
  7
  0
VERTEX
  8
MERGEDLAYER-2
 10
5.492080
 20
45.260387
 30
0.000000
  0
VERTEX
  8
MERGEDLAYER-2
 10
5.611263
 20
45.260387
 30
0.000000
  0
VERTEX
  8
MERGEDLAYER-2
 10
5.611263
 20
45.170743
 30
0.000000
  0
VERTEX
  8
MERGEDLAYER-2
 10
5.492080
 20
45.170743
 30
0.000000
  0
SEQEND
  8
MERGEDLAYER-2
  0
POLYLINE
  8
MERGEDLAYER-2
 66
  1
 70
  1
 62
  7
  0
VERTEX
  8
MERGEDLAYER-2
 10
5.492080
 20
45.120987
 30
0.000000
  0
VERTEX
  8
MERGEDLAYER-2
 10
5.611263
 20
45.120987
 30
0.000000
  0
VERTEX
  8
MERGEDLAYER-2
 10
5.611263
 20
45.031343
 30
0.000000
  0
VERTEX
  8
MERGEDLAYER-2
 10
5.492080
 20
45.031343
 30
0.000000
  0
SEQEND
  8
MERGEDLAYER-2
  0
POLYLINE
  8
MERGEDLAYER-2
 66
  1
 70
  1
 62
  7
  0
VERTEX
  8
MERGEDLAYER-2
 10
5.492080
 20
44.981587
 30
0.000000
  0
VERTEX
  8
MERGEDLAYER-2
 10
5.611263
 20
44.981587
 30
0.000000
  0
VERTEX
  8
MERGEDLAYER-2
 10
5.611263
 20
44.891943
 30
0.000000
  0
VERTEX
  8
MERGEDLAYER-2
 10
5.492080
 20
44.891943
 30
0.000000
  0
SEQEND
  8
MERGEDLAYER-2
  0
POLYLINE
  8
MERGEDLAYER-2
 66
  1
 70
  1
 62
  7
  0
VERTEX
  8
MERGEDLAYER-2
 10
5.492080
 20
44.842188
 30
0.000000
  0
VERTEX
  8
MERGEDLAYER-2
 10
5.611263
 20
44.842188
 30
0.000000
  0
VERTEX
  8
MERGEDLAYER-2
 10
5.611263
 20
44.752544
 30
0.000000
  0
VERTEX
  8
MERGEDLAYER-2
 10
5.492080
 20
44.752544
 30
0.000000
  0
SEQEND
  8
MERGEDLAYER-2
  0
POLYLINE
  8
MERGEDLAYER-2
 66
  1
 70
  1
 62
  7
  0
VERTEX
  8
MERGEDLAYER-2
 10
5.492080
 20
44.702788
 30
0.000000
  0
VERTEX
  8
MERGEDLAYER-2
 10
5.611263
 20
44.702788
 30
0.000000
  0
VERTEX
  8
MERGEDLAYER-2
 10
5.611263
 20
44.613144
 30
0.000000
  0
VERTEX
  8
MERGEDLAYER-2
 10
5.492080
 20
44.613144
 30
0.000000
  0
SEQEND
  8
MERGEDLAYER-2
  0
POLYLINE
  8
MERGEDLAYER-2
 66
  1
 70
  1
 62
  7
  0
VERTEX
  8
MERGEDLAYER-2
 10
5.492080
 20
44.563388
 30
0.000000
  0
VERTEX
  8
MERGEDLAYER-2
 10
5.611263
 20
44.563388
 30
0.000000
  0
VERTEX
  8
MERGEDLAYER-2
 10
5.611263
 20
44.473744
 30
0.000000
  0
VERTEX
  8
MERGEDLAYER-2
 10
5.492080
 20
44.473744
 30
0.000000
  0
SEQEND
  8
MERGEDLAYER-2
  0
POLYLINE
  8
MERGEDLAYER-2
 66
  1
 70
  1
 62
  7
  0
VERTEX
  8
MERGEDLAYER-2
 10
5.492080
 20
44.423988
 30
0.000000
  0
VERTEX
  8
MERGEDLAYER-2
 10
5.611263
 20
44.423988
 30
0.000000
  0
VERTEX
  8
MERGEDLAYER-2
 10
5.611263
 20
44.334339
 30
0.000000
  0
VERTEX
  8
MERGEDLAYER-2
 10
5.492080
 20
44.334339
 30
0.000000
  0
SEQEND
  8
MERGEDLAYER-2
  0
POLYLINE
  8
MERGEDLAYER-2
 66
  1
 70
  1
 62
  7
  0
VERTEX
  8
MERGEDLAYER-2
 10
5.492080
 20
44.284588
 30
0.000000
  0
VERTEX
  8
MERGEDLAYER-2
 10
5.611263
 20
44.284588
 30
0.000000
  0
VERTEX
  8
MERGEDLAYER-2
 10
5.611263
 20
44.194940
 30
0.000000
  0
VERTEX
  8
MERGEDLAYER-2
 10
5.492080
 20
44.194940
 30
0.000000
  0
SEQEND
  8
MERGEDLAYER-2
  0
POLYLINE
  8
MERGEDLAYER-2
 66
  1
 70
  1
 62
  7
  0
VERTEX
  8
MERGEDLAYER-2
 10
5.492080
 20
44.145188
 30
0.000000
  0
VERTEX
  8
MERGEDLAYER-2
 10
5.611263
 20
44.145188
 30
0.000000
  0
VERTEX
  8
MERGEDLAYER-2
 10
5.611263
 20
44.055540
 30
0.000000
  0
VERTEX
  8
MERGEDLAYER-2
 10
5.492080
 20
44.055540
 30
0.000000
  0
SEQEND
  8
MERGEDLAYER-2
  0
POLYLINE
  8
MERGEDLAYER-2
 66
  1
 70
  1
 62
  7
  0
VERTEX
  8
MERGEDLAYER-2
 10
5.492080
 20
44.005788
 30
0.000000
  0
VERTEX
  8
MERGEDLAYER-2
 10
5.611263
 20
44.005788
 30
0.000000
  0
VERTEX
  8
MERGEDLAYER-2
 10
5.611263
 20
43.916140
 30
0.000000
  0
VERTEX
  8
MERGEDLAYER-2
 10
5.492080
 20
43.916140
 30
0.000000
  0
SEQEND
  8
MERGEDLAYER-2
  0
POLYLINE
  8
MERGEDLAYER-2
 66
  1
 70
  1
 62
  7
  0
VERTEX
  8
MERGEDLAYER-2
 10
6.682989
 20
46.375586
 30
0.000000
  0
VERTEX
  8
MERGEDLAYER-2
 10
6.802172
 20
46.375586
 30
0.000000
  0
VERTEX
  8
MERGEDLAYER-2
 10
6.802172
 20
46.285942
 30
0.000000
  0
VERTEX
  8
MERGEDLAYER-2
 10
6.682989
 20
46.285942
 30
0.000000
  0
SEQEND
  8
MERGEDLAYER-2
  0
POLYLINE
  8
MERGEDLAYER-2
 66
  1
 70
  1
 62
  7
  0
VERTEX
  8
MERGEDLAYER-2
 10
6.682989
 20
46.236186
 30
0.000000
  0
VERTEX
  8
MERGEDLAYER-2
 10
6.802172
 20
46.236186
 30
0.000000
  0
VERTEX
  8
MERGEDLAYER-2
 10
6.802172
 20
46.146542
 30
0.000000
  0
VERTEX
  8
MERGEDLAYER-2
 10
6.682989
 20
46.146542
 30
0.000000
  0
SEQEND
  8
MERGEDLAYER-2
  0
POLYLINE
  8
MERGEDLAYER-2
 66
  1
 70
  1
 62
  7
  0
VERTEX
  8
MERGEDLAYER-2
 10
6.682989
 20
46.096786
 30
0.000000
  0
VERTEX
  8
MERGEDLAYER-2
 10
6.802172
 20
46.096786
 30
0.000000
  0
VERTEX
  8
MERGEDLAYER-2
 10
6.802172
 20
46.007142
 30
0.000000
  0
VERTEX
  8
MERGEDLAYER-2
 10
6.682989
 20
46.007142
 30
0.000000
  0
SEQEND
  8
MERGEDLAYER-2
  0
POLYLINE
  8
MERGEDLAYER-2
 66
  1
 70
  1
 62
  7
  0
VERTEX
  8
MERGEDLAYER-2
 10
6.682989
 20
45.957386
 30
0.000000
  0
VERTEX
  8
MERGEDLAYER-2
 10
6.802172
 20
45.957386
 30
0.000000
  0
VERTEX
  8
MERGEDLAYER-2
 10
6.802172
 20
45.867742
 30
0.000000
  0
VERTEX
  8
MERGEDLAYER-2
 10
6.682989
 20
45.867742
 30
0.000000
  0
SEQEND
  8
MERGEDLAYER-2
  0
POLYLINE
  8
MERGEDLAYER-2
 66
  1
 70
  1
 62
  7
  0
VERTEX
  8
MERGEDLAYER-2
 10
6.682989
 20
45.817987
 30
0.000000
  0
VERTEX
  8
MERGEDLAYER-2
 10
6.802172
 20
45.817987
 30
0.000000
  0
VERTEX
  8
MERGEDLAYER-2
 10
6.802172
 20
45.728343
 30
0.000000
  0
VERTEX
  8
MERGEDLAYER-2
 10
6.682989
 20
45.728343
 30
0.000000
  0
SEQEND
  8
MERGEDLAYER-2
  0
POLYLINE
  8
MERGEDLAYER-2
 66
  1
 70
  1
 62
  7
  0
VERTEX
  8
MERGEDLAYER-2
 10
6.682989
 20
45.678587
 30
0.000000
  0
VERTEX
  8
MERGEDLAYER-2
 10
6.802172
 20
45.678587
 30
0.000000
  0
VERTEX
  8
MERGEDLAYER-2
 10
6.802172
 20
45.588943
 30
0.000000
  0
VERTEX
  8
MERGEDLAYER-2
 10
6.682989
 20
45.588943
 30
0.000000
  0
SEQEND
  8
MERGEDLAYER-2
  0
POLYLINE
  8
MERGEDLAYER-2
 66
  1
 70
  1
 62
  7
  0
VERTEX
  8
MERGEDLAYER-2
 10
6.682989
 20
45.539187
 30
0.000000
  0
VERTEX
  8
MERGEDLAYER-2
 10
6.802172
 20
45.539187
 30
0.000000
  0
VERTEX
  8
MERGEDLAYER-2
 10
6.802172
 20
45.449543
 30
0.000000
  0
VERTEX
  8
MERGEDLAYER-2
 10
6.682989
 20
45.449543
 30
0.000000
  0
SEQEND
  8
MERGEDLAYER-2
  0
POLYLINE
  8
MERGEDLAYER-2
 66
  1
 70
  1
 62
  7
  0
VERTEX
  8
MERGEDLAYER-2
 10
6.682989
 20
45.399787
 30
0.000000
  0
VERTEX
  8
MERGEDLAYER-2
 10
6.802172
 20
45.399787
 30
0.000000
  0
VERTEX
  8
MERGEDLAYER-2
 10
6.802172
 20
45.310143
 30
0.000000
  0
VERTEX
  8
MERGEDLAYER-2
 10
6.682989
 20
45.310143
 30
0.000000
  0
SEQEND
  8
MERGEDLAYER-2
  0
POLYLINE
  8
MERGEDLAYER-2
 66
  1
 70
  1
 62
  7
  0
VERTEX
  8
MERGEDLAYER-2
 10
6.682989
 20
45.260387
 30
0.000000
  0
VERTEX
  8
MERGEDLAYER-2
 10
6.802172
 20
45.260387
 30
0.000000
  0
VERTEX
  8
MERGEDLAYER-2
 10
6.802172
 20
45.170743
 30
0.000000
  0
VERTEX
  8
MERGEDLAYER-2
 10
6.682989
 20
45.170743
 30
0.000000
  0
SEQEND
  8
MERGEDLAYER-2
  0
POLYLINE
  8
MERGEDLAYER-2
 66
  1
 70
  1
 62
  7
  0
VERTEX
  8
MERGEDLAYER-2
 10
6.682989
 20
45.120987
 30
0.000000
  0
VERTEX
  8
MERGEDLAYER-2
 10
6.802172
 20
45.120987
 30
0.000000
  0
VERTEX
  8
MERGEDLAYER-2
 10
6.802172
 20
45.031343
 30
0.000000
  0
VERTEX
  8
MERGEDLAYER-2
 10
6.682989
 20
45.031343
 30
0.000000
  0
SEQEND
  8
MERGEDLAYER-2
  0
POLYLINE
  8
MERGEDLAYER-2
 66
  1
 70
  1
 62
  7
  0
VERTEX
  8
MERGEDLAYER-2
 10
6.682989
 20
44.981587
 30
0.000000
  0
VERTEX
  8
MERGEDLAYER-2
 10
6.802172
 20
44.981587
 30
0.000000
  0
VERTEX
  8
MERGEDLAYER-2
 10
6.802172
 20
44.891943
 30
0.000000
  0
VERTEX
  8
MERGEDLAYER-2
 10
6.682989
 20
44.891943
 30
0.000000
  0
SEQEND
  8
MERGEDLAYER-2
  0
POLYLINE
  8
MERGEDLAYER-2
 66
  1
 70
  1
 62
  7
  0
VERTEX
  8
MERGEDLAYER-2
 10
6.682989
 20
44.842188
 30
0.000000
  0
VERTEX
  8
MERGEDLAYER-2
 10
6.802172
 20
44.842188
 30
0.000000
  0
VERTEX
  8
MERGEDLAYER-2
 10
6.802172
 20
44.752544
 30
0.000000
  0
VERTEX
  8
MERGEDLAYER-2
 10
6.682989
 20
44.752544
 30
0.000000
  0
SEQEND
  8
MERGEDLAYER-2
  0
POLYLINE
  8
MERGEDLAYER-2
 66
  1
 70
  1
 62
  7
  0
VERTEX
  8
MERGEDLAYER-2
 10
6.682989
 20
44.702788
 30
0.000000
  0
VERTEX
  8
MERGEDLAYER-2
 10
6.802172
 20
44.702788
 30
0.000000
  0
VERTEX
  8
MERGEDLAYER-2
 10
6.802172
 20
44.613144
 30
0.000000
  0
VERTEX
  8
MERGEDLAYER-2
 10
6.682989
 20
44.613144
 30
0.000000
  0
SEQEND
  8
MERGEDLAYER-2
  0
POLYLINE
  8
MERGEDLAYER-2
 66
  1
 70
  1
 62
  7
  0
VERTEX
  8
MERGEDLAYER-2
 10
6.682989
 20
44.563388
 30
0.000000
  0
VERTEX
  8
MERGEDLAYER-2
 10
6.802172
 20
44.563388
 30
0.000000
  0
VERTEX
  8
MERGEDLAYER-2
 10
6.802172
 20
44.473744
 30
0.000000
  0
VERTEX
  8
MERGEDLAYER-2
 10
6.682989
 20
44.473744
 30
0.000000
  0
SEQEND
  8
MERGEDLAYER-2
  0
POLYLINE
  8
MERGEDLAYER-2
 66
  1
 70
  1
 62
  7
  0
VERTEX
  8
MERGEDLAYER-2
 10
6.682989
 20
44.423988
 30
0.000000
  0
VERTEX
  8
MERGEDLAYER-2
 10
6.802172
 20
44.423988
 30
0.000000
  0
VERTEX
  8
MERGEDLAYER-2
 10
6.802172
 20
44.334339
 30
0.000000
  0
VERTEX
  8
MERGEDLAYER-2
 10
6.682989
 20
44.334339
 30
0.000000
  0
SEQEND
  8
MERGEDLAYER-2
  0
POLYLINE
  8
MERGEDLAYER-2
 66
  1
 70
  1
 62
  7
  0
VERTEX
  8
MERGEDLAYER-2
 10
6.682989
 20
44.284588
 30
0.000000
  0
VERTEX
  8
MERGEDLAYER-2
 10
6.802172
 20
44.284588
 30
0.000000
  0
VERTEX
  8
MERGEDLAYER-2
 10
6.802172
 20
44.194940
 30
0.000000
  0
VERTEX
  8
MERGEDLAYER-2
 10
6.682989
 20
44.194940
 30
0.000000
  0
SEQEND
  8
MERGEDLAYER-2
  0
POLYLINE
  8
MERGEDLAYER-2
 66
  1
 70
  1
 62
  7
  0
VERTEX
  8
MERGEDLAYER-2
 10
6.682989
 20
44.145188
 30
0.000000
  0
VERTEX
  8
MERGEDLAYER-2
 10
6.802172
 20
44.145188
 30
0.000000
  0
VERTEX
  8
MERGEDLAYER-2
 10
6.802172
 20
44.055540
 30
0.000000
  0
VERTEX
  8
MERGEDLAYER-2
 10
6.682989
 20
44.055540
 30
0.000000
  0
SEQEND
  8
MERGEDLAYER-2
  0
POLYLINE
  8
MERGEDLAYER-2
 66
  1
 70
  1
 62
  7
  0
VERTEX
  8
MERGEDLAYER-2
 10
6.682989
 20
44.005788
 30
0.000000
  0
VERTEX
  8
MERGEDLAYER-2
 10
6.802172
 20
44.005788
 30
0.000000
  0
VERTEX
  8
MERGEDLAYER-2
 10
6.802172
 20
43.916140
 30
0.000000
  0
VERTEX
  8
MERGEDLAYER-2
 10
6.682989
 20
43.916140
 30
0.000000
  0
SEQEND
  8
MERGEDLAYER-2
  0
ENDSEC
  0
EOF
