  0
SECTION
  2
HEADER
999
MacDraft 5.0\0
  9
$ACADVER
  1
AC1006
  9
$CLAYER
  8
MERGEDLAYER-2
  9
$EXTMIN
 10
0.000000
 20
0.000000
  9
$EXTMAX
 10
7.536360
 20
10.047367
  9
$FASTZOOM
 70
0
  9
$FILLMODE
 70
1
  0
ENDSEC
  0
SECTION
  2
TABLES
  0
TABLE
  2
LTYPE
 70
16
  0
LTYPE
  2
CONTINUOUS
 70
64
  3
Solid Line
 72
65
 73
0
 40
0.000000
  0
LTYPE
  2
LTYPE01
 70
64
  3
CUSTOM
 72
65
 73
2
 40
0.072727
 49
0.054545
 49
-0.018182
  0
LTYPE
  2
LTYPE02
 70
64
  3
CUSTOM
 72
65
 73
2
 40
0.127273
 49
0.109091
 49
-0.018182
  0
LTYPE
  2
LTYPE03
 70
64
  3
CUSTOM
 72
65
 73
2
 40
0.245455
 49
0.218182
 49
-0.027273
  0
LTYPE
  2
LTYPE04
 70
64
  3
CUSTOM
 72
65
 73
2
 40
0.472727
 49
0.436364
 49
-0.036364
  0
LTYPE
  2
LTYPE05
 70
64
  3
CUSTOM
 72
65
 73
4
 40
0.100000
 49
0.054545
 49
-0.018182
 49
0.009091
 49
-0.018182
  0
LTYPE
  2
LTYPE06
 70
64
  3
CUSTOM
 72
65
 73
4
 40
0.154545
 49
0.109091
 49
-0.018182
 49
0.009091
 49
-0.018182
  0
LTYPE
  2
LTYPE07
 70
64
  3
CUSTOM
 72
65
 73
4
 40
0.290909
 49
0.218182
 49
-0.027273
 49
0.018182
 49
-0.027273
  0
LTYPE
  2
LTYPE08
 70
64
  3
CUSTOM
 72
65
 73
4
 40
0.527273
 49
0.436364
 49
-0.036364
 49
0.018182
 49
-0.036364
  0
LTYPE
  2
LTYPE09
 70
64
  3
CUSTOM
 72
65
 73
6
 40
0.127273
 49
0.054545
 49
-0.018182
 49
0.009091
 49
-0.018182
 49
0.009091
 49
-0.018182
  0
LTYPE
  2
LTYPE10
 70
64
  3
CUSTOM
 72
65
 73
6
 40
0.181818
 49
0.109091
 49
-0.018182
 49
0.009091
 49
-0.018182
 49
0.009091
 49
-0.018182
  0
LTYPE
  2
LTYPE11
 70
64
  3
CUSTOM
 72
65
 73
6
 40
0.327273
 49
0.218182
 49
-0.027273
 49
0.018182
 49
-0.018182
 49
0.018182
 49
-0.027273
  0
LTYPE
  2
LTYPE12
 70
64
  3
CUSTOM
 72
65
 73
6
 40
0.563636
 49
0.436364
 49
-0.036364
 49
0.018182
 49
-0.018182
 49
0.018182
 49
-0.036364
  0
LTYPE
  2
LTYPE13
 70
64
  3
CUSTOM
 72
65
 73
8
 40
0.209091
 49
0.109091
 49
-0.018182
 49
0.009091
 49
-0.018182
 49
0.009091
 49
-0.018182
 49
0.009091
 49
-0.018182
  0
LTYPE
  2
LTYPE14
 70
64
  3
CUSTOM
 72
65
 73
8
 40
0.363636
 49
0.218182
 49
-0.027273
 49
0.018182
 49
-0.018182
 49
0.018182
 49
-0.018182
 49
0.018182
 49
-0.027273
  0
LTYPE
  2
LTYPE15
 70
64
  3
CUSTOM
 72
65
 73
8
 40
0.618182
 49
0.436364
 49
-0.036364
 49
0.018182
 49
-0.027273
 49
0.018182
 49
-0.027273
 49
0.018182
 49
-0.036364
  0
ENDTAB
  0
TABLE
  2
LAYER
 70
1
  0
LAYER
  2
MERGEDLAYER-2
 70
0
 62
7
  6
CONTINUOUS
  0
ENDTAB
  0
ENDSEC
  0
SECTION
  2
BLOCKS
  0
ENDSEC
  0
SECTION
  2
ENTITIES
  0
POLYLINE
  8
MERGEDLAYER-2
 66
  1
 70
  1
 62
  7
  0
VERTEX
  8
MERGEDLAYER-2
 10
0.592512
 20
5.218095
 30
0.000000
  0
VERTEX
  8
MERGEDLAYER-2
 10
0.728611
 20
5.218095
 30
0.000000
  0
VERTEX
  8
MERGEDLAYER-2
 10
0.728611
 20
2.352104
 30
0.000000
  0
VERTEX
  8
MERGEDLAYER-2
 10
0.592512
 20
2.352104
 30
0.000000
  0
SEQEND
  8
MERGEDLAYER-2
  0
POLYLINE
  8
MERGEDLAYER-2
 66
  1
 70
  1
 62
  7
  0
VERTEX
  8
MERGEDLAYER-2
 10
6.804039
 20
5.218095
 30
0.000000
  0
VERTEX
  8
MERGEDLAYER-2
 10
6.940214
 20
5.218095
 30
0.000000
  0
VERTEX
  8
MERGEDLAYER-2
 10
6.940214
 20
2.352418
 30
0.000000
  0
VERTEX
  8
MERGEDLAYER-2
 10
6.804039
 20
2.352418
 30
0.000000
  0
SEQEND
  8
MERGEDLAYER-2
  0
POLYLINE
  8
MERGEDLAYER-2
 66
  1
 70
  1
 62
  7
  0
VERTEX
  8
MERGEDLAYER-2
 10
0.755929
 20
2.556100
 30
0.000000
  0
VERTEX
  8
MERGEDLAYER-2
 10
6.777559
 20
2.556100
 30
0.000000
  0
VERTEX
  8
MERGEDLAYER-2
 10
6.777559
 20
2.360453
 30
0.000000
  0
VERTEX
  8
MERGEDLAYER-2
 10
0.755929
 20
2.360453
 30
0.000000
  0
SEQEND
  8
MERGEDLAYER-2
  0
POLYLINE
  8
MERGEDLAYER-2
 66
  1
 70
  1
 62
  7
  0
VERTEX
  8
MERGEDLAYER-2
 10
0.755929
 20
2.359898
 30
0.000000
  0
VERTEX
  8
MERGEDLAYER-2
 10
6.777559
 20
2.359898
 30
0.000000
  0
VERTEX
  8
MERGEDLAYER-2
 10
6.777559
 20
2.351385
 30
0.000000
  0
VERTEX
  8
MERGEDLAYER-2
 10
0.755929
 20
2.351385
 30
0.000000
  0
SEQEND
  8
MERGEDLAYER-2
  0
POLYLINE
  8
MERGEDLAYER-2
 66
  1
 70
  1
 62
  7
 10
6.777484
 20
2.359898
 30
0.000000
  0
VERTEX
  8
MERGEDLAYER-2
 10
6.777484
 20
2.359898
 30
0.000000
  0
VERTEX
  8
MERGEDLAYER-2
 10
6.803748
 20
2.360447
 30
0.000000
  0
VERTEX
  8
MERGEDLAYER-2
 10
6.803748
 20
2.541858
 30
0.000000
  0
VERTEX
  8
MERGEDLAYER-2
 10
6.777484
 20
2.541160
 30
0.000000
  0
SEQEND
  8
MERGEDLAYER-2
  0
POLYLINE
  8
MERGEDLAYER-2
 66
  1
 70
  0
 62
  7
 10
6.781738
 20
2.541160
 30
0.000000
  0
VERTEX
  8
MERGEDLAYER-2
 10
6.781738
 20
2.541160
 30
0.000000
  0
VERTEX
  8
MERGEDLAYER-2
 10
6.781738
 20
2.359898
 30
0.000000
  0
SEQEND
  8
MERGEDLAYER-2
  0
POLYLINE
  8
MERGEDLAYER-2
 66
  1
 70
  1
 62
  7
 10
0.755327
 20
2.358706
 30
0.000000
  0
VERTEX
  8
MERGEDLAYER-2
 10
0.755327
 20
2.358706
 30
0.000000
  0
VERTEX
  8
MERGEDLAYER-2
 10
0.729064
 20
2.359255
 30
0.000000
  0
VERTEX
  8
MERGEDLAYER-2
 10
0.729064
 20
2.541861
 30
0.000000
  0
VERTEX
  8
MERGEDLAYER-2
 10
0.755327
 20
2.541156
 30
0.000000
  0
SEQEND
  8
MERGEDLAYER-2
  0
POLYLINE
  8
MERGEDLAYER-2
 66
  1
 70
  0
 62
  7
 10
0.751068
 20
2.541156
 30
0.000000
  0
VERTEX
  8
MERGEDLAYER-2
 10
0.751068
 20
2.541156
 30
0.000000
  0
VERTEX
  8
MERGEDLAYER-2
 10
0.751068
 20
2.358706
 30
0.000000
  0
SEQEND
  8
MERGEDLAYER-2
  0
POLYLINE
  8
MERGEDLAYER-2
 66
  1
 70
  1
 62
  7
 10
3.320670
 20
2.560690
 30
0.000000
  0
VERTEX
  8
MERGEDLAYER-2
 10
3.320670
 20
2.560690
 30
0.000000
  0
VERTEX
  8
MERGEDLAYER-2
 10
3.593002
 20
2.560690
 30
0.000000
  0
VERTEX
  8
MERGEDLAYER-2
 10
3.593002
 20
2.461624
 30
0.000000
  0
VERTEX
  8
MERGEDLAYER-2
 10
3.320670
 20
2.461624
 30
0.000000
  0
SEQEND
  8
MERGEDLAYER-2
  0
POLYLINE
  8
MERGEDLAYER-2
 66
  1
 70
  0
 62
  7
 10
3.593002
 20
2.509356
 30
0.000000
  0
VERTEX
  8
MERGEDLAYER-2
 10
3.593002
 20
2.509356
 30
0.000000
  0
VERTEX
  8
MERGEDLAYER-2
 10
3.320670
 20
2.509562
 30
0.000000
  0
SEQEND
  8
MERGEDLAYER-2
  0
POLYLINE
  8
MERGEDLAYER-2
 66
  1
 70
  0
 62
  7
 10
3.593002
 20
2.496423
 30
0.000000
  0
VERTEX
  8
MERGEDLAYER-2
 10
3.593002
 20
2.496423
 30
0.000000
  0
VERTEX
  8
MERGEDLAYER-2
 10
3.320670
 20
2.496626
 30
0.000000
  0
SEQEND
  8
MERGEDLAYER-2
  0
CIRCLE
  8
MERGEDLAYER-2
 62
  7
 10
3.371614
 20
2.531125
 30
0.000000
 40
0.004610
  0
CIRCLE
  8
MERGEDLAYER-2
 62
  7
 10
3.371614
 20
2.531125
 30
0.000000
 40
0.009870
  0
CIRCLE
  8
MERGEDLAYER-2
 62
  7
 10
3.541820
 20
2.531125
 30
0.000000
 40
0.004610
  0
CIRCLE
  8
MERGEDLAYER-2
 62
  7
 10
3.541820
 20
2.531125
 30
0.000000
 40
0.009870
  0
POLYLINE
  8
MERGEDLAYER-2
 66
  1
 70
  1
 62
  7
  0
VERTEX
  8
MERGEDLAYER-2
 10
0.728611
 20
2.709062
 30
0.000000
  0
VERTEX
  8
MERGEDLAYER-2
 10
6.804039
 20
2.709062
 30
0.000000
  0
VERTEX
  8
MERGEDLAYER-2
 10
6.804039
 20
2.659315
 30
0.000000
  0
VERTEX
  8
MERGEDLAYER-2
 10
0.728611
 20
2.659315
 30
0.000000
  0
SEQEND
  8
MERGEDLAYER-2
  0
POLYLINE
  8
MERGEDLAYER-2
 66
  1
 70
  0
 62
  9
 10
6.803733
 20
2.691494
 30
0.000000
  0
VERTEX
  8
MERGEDLAYER-2
 10
6.803733
 20
2.691494
 30
0.000000
  0
VERTEX
  8
MERGEDLAYER-2
 10
0.728611
 20
2.691494
 30
0.000000
  0
SEQEND
  8
MERGEDLAYER-2
  0
POLYLINE
  8
MERGEDLAYER-2
 66
  1
 70
  0
 62
  9
 10
6.803733
 20
2.676953
 30
0.000000
  0
VERTEX
  8
MERGEDLAYER-2
 10
6.803733
 20
2.676953
 30
0.000000
  0
VERTEX
  8
MERGEDLAYER-2
 10
0.728611
 20
2.676953
 30
0.000000
  0
SEQEND
  8
MERGEDLAYER-2
  0
POLYLINE
  8
MERGEDLAYER-2
 66
  1
 70
  1
 62
  7
  0
VERTEX
  8
MERGEDLAYER-2
 10
0.728611
 20
2.848453
 30
0.000000
  0
VERTEX
  8
MERGEDLAYER-2
 10
6.804039
 20
2.848453
 30
0.000000
  0
VERTEX
  8
MERGEDLAYER-2
 10
6.804039
 20
2.798707
 30
0.000000
  0
VERTEX
  8
MERGEDLAYER-2
 10
0.728611
 20
2.798707
 30
0.000000
  0
SEQEND
  8
MERGEDLAYER-2
  0
POLYLINE
  8
MERGEDLAYER-2
 66
  1
 70
  0
 62
  9
 10
6.803733
 20
2.830887
 30
0.000000
  0
VERTEX
  8
MERGEDLAYER-2
 10
6.803733
 20
2.830887
 30
0.000000
  0
VERTEX
  8
MERGEDLAYER-2
 10
0.728611
 20
2.830887
 30
0.000000
  0
SEQEND
  8
MERGEDLAYER-2
  0
POLYLINE
  8
MERGEDLAYER-2
 66
  1
 70
  0
 62
  9
 10
6.803733
 20
2.816344
 30
0.000000
  0
VERTEX
  8
MERGEDLAYER-2
 10
6.803733
 20
2.816344
 30
0.000000
  0
VERTEX
  8
MERGEDLAYER-2
 10
0.728611
 20
2.816344
 30
0.000000
  0
SEQEND
  8
MERGEDLAYER-2
  0
POLYLINE
  8
MERGEDLAYER-2
 66
  1
 70
  1
 62
  7
  0
VERTEX
  8
MERGEDLAYER-2
 10
0.728611
 20
2.987842
 30
0.000000
  0
VERTEX
  8
MERGEDLAYER-2
 10
6.804039
 20
2.987842
 30
0.000000
  0
VERTEX
  8
MERGEDLAYER-2
 10
6.804039
 20
2.938098
 30
0.000000
  0
VERTEX
  8
MERGEDLAYER-2
 10
0.728611
 20
2.938098
 30
0.000000
  0
SEQEND
  8
MERGEDLAYER-2
  0
POLYLINE
  8
MERGEDLAYER-2
 66
  1
 70
  0
 62
  9
 10
6.803733
 20
2.970278
 30
0.000000
  0
VERTEX
  8
MERGEDLAYER-2
 10
6.803733
 20
2.970278
 30
0.000000
  0
VERTEX
  8
MERGEDLAYER-2
 10
0.728611
 20
2.970278
 30
0.000000
  0
SEQEND
  8
MERGEDLAYER-2
  0
POLYLINE
  8
MERGEDLAYER-2
 66
  1
 70
  0
 62
  9
 10
6.803733
 20
2.955735
 30
0.000000
  0
VERTEX
  8
MERGEDLAYER-2
 10
6.803733
 20
2.955735
 30
0.000000
  0
VERTEX
  8
MERGEDLAYER-2
 10
0.728611
 20
2.955735
 30
0.000000
  0
SEQEND
  8
MERGEDLAYER-2
  0
POLYLINE
  8
MERGEDLAYER-2
 66
  1
 70
  1
 62
  7
  0
VERTEX
  8
MERGEDLAYER-2
 10
0.728611
 20
3.127234
 30
0.000000
  0
VERTEX
  8
MERGEDLAYER-2
 10
6.804039
 20
3.127234
 30
0.000000
  0
VERTEX
  8
MERGEDLAYER-2
 10
6.804039
 20
3.077489
 30
0.000000
  0
VERTEX
  8
MERGEDLAYER-2
 10
0.728611
 20
3.077489
 30
0.000000
  0
SEQEND
  8
MERGEDLAYER-2
  0
POLYLINE
  8
MERGEDLAYER-2
 66
  1
 70
  0
 62
  9
 10
6.803733
 20
3.109668
 30
0.000000
  0
VERTEX
  8
MERGEDLAYER-2
 10
6.803733
 20
3.109668
 30
0.000000
  0
VERTEX
  8
MERGEDLAYER-2
 10
0.728611
 20
3.109668
 30
0.000000
  0
SEQEND
  8
MERGEDLAYER-2
  0
POLYLINE
  8
MERGEDLAYER-2
 66
  1
 70
  0
 62
  9
 10
6.803733
 20
3.095124
 30
0.000000
  0
VERTEX
  8
MERGEDLAYER-2
 10
6.803733
 20
3.095124
 30
0.000000
  0
VERTEX
  8
MERGEDLAYER-2
 10
0.728611
 20
3.095124
 30
0.000000
  0
SEQEND
  8
MERGEDLAYER-2
  0
POLYLINE
  8
MERGEDLAYER-2
 66
  1
 70
  1
 62
  7
  0
VERTEX
  8
MERGEDLAYER-2
 10
0.728611
 20
3.266625
 30
0.000000
  0
VERTEX
  8
MERGEDLAYER-2
 10
6.804039
 20
3.266625
 30
0.000000
  0
VERTEX
  8
MERGEDLAYER-2
 10
6.804039
 20
3.216878
 30
0.000000
  0
VERTEX
  8
MERGEDLAYER-2
 10
0.728611
 20
3.216878
 30
0.000000
  0
SEQEND
  8
MERGEDLAYER-2
  0
POLYLINE
  8
MERGEDLAYER-2
 66
  1
 70
  0
 62
  9
 10
6.803733
 20
3.249058
 30
0.000000
  0
VERTEX
  8
MERGEDLAYER-2
 10
6.803733
 20
3.249058
 30
0.000000
  0
VERTEX
  8
MERGEDLAYER-2
 10
0.728611
 20
3.249058
 30
0.000000
  0
SEQEND
  8
MERGEDLAYER-2
  0
POLYLINE
  8
MERGEDLAYER-2
 66
  1
 70
  0
 62
  9
 10
6.803733
 20
3.234515
 30
0.000000
  0
VERTEX
  8
MERGEDLAYER-2
 10
6.803733
 20
3.234515
 30
0.000000
  0
VERTEX
  8
MERGEDLAYER-2
 10
0.728611
 20
3.234515
 30
0.000000
  0
SEQEND
  8
MERGEDLAYER-2
  0
POLYLINE
  8
MERGEDLAYER-2
 66
  1
 70
  1
 62
  7
  0
VERTEX
  8
MERGEDLAYER-2
 10
0.728611
 20
3.406015
 30
0.000000
  0
VERTEX
  8
MERGEDLAYER-2
 10
6.804039
 20
3.406015
 30
0.000000
  0
VERTEX
  8
MERGEDLAYER-2
 10
6.804039
 20
3.356269
 30
0.000000
  0
VERTEX
  8
MERGEDLAYER-2
 10
0.728611
 20
3.356269
 30
0.000000
  0
SEQEND
  8
MERGEDLAYER-2
  0
POLYLINE
  8
MERGEDLAYER-2
 66
  1
 70
  0
 62
  9
 10
6.803733
 20
3.388449
 30
0.000000
  0
VERTEX
  8
MERGEDLAYER-2
 10
6.803733
 20
3.388449
 30
0.000000
  0
VERTEX
  8
MERGEDLAYER-2
 10
0.728611
 20
3.388449
 30
0.000000
  0
SEQEND
  8
MERGEDLAYER-2
  0
POLYLINE
  8
MERGEDLAYER-2
 66
  1
 70
  0
 62
  9
 10
6.803733
 20
3.373907
 30
0.000000
  0
VERTEX
  8
MERGEDLAYER-2
 10
6.803733
 20
3.373907
 30
0.000000
  0
VERTEX
  8
MERGEDLAYER-2
 10
0.728611
 20
3.373907
 30
0.000000
  0
SEQEND
  8
MERGEDLAYER-2
  0
POLYLINE
  8
MERGEDLAYER-2
 66
  1
 70
  1
 62
  7
  0
VERTEX
  8
MERGEDLAYER-2
 10
0.728611
 20
3.545405
 30
0.000000
  0
VERTEX
  8
MERGEDLAYER-2
 10
6.804039
 20
3.545405
 30
0.000000
  0
VERTEX
  8
MERGEDLAYER-2
 10
6.804039
 20
3.495660
 30
0.000000
  0
VERTEX
  8
MERGEDLAYER-2
 10
0.728611
 20
3.495660
 30
0.000000
  0
SEQEND
  8
MERGEDLAYER-2
  0
POLYLINE
  8
MERGEDLAYER-2
 66
  1
 70
  0
 62
  9
 10
6.803733
 20
3.527841
 30
0.000000
  0
VERTEX
  8
MERGEDLAYER-2
 10
6.803733
 20
3.527841
 30
0.000000
  0
VERTEX
  8
MERGEDLAYER-2
 10
0.728611
 20
3.527841
 30
0.000000
  0
SEQEND
  8
MERGEDLAYER-2
  0
POLYLINE
  8
MERGEDLAYER-2
 66
  1
 70
  0
 62
  9
 10
6.803733
 20
3.513298
 30
0.000000
  0
VERTEX
  8
MERGEDLAYER-2
 10
6.803733
 20
3.513298
 30
0.000000
  0
VERTEX
  8
MERGEDLAYER-2
 10
0.728611
 20
3.513298
 30
0.000000
  0
SEQEND
  8
MERGEDLAYER-2
  0
POLYLINE
  8
MERGEDLAYER-2
 66
  1
 70
  1
 62
  7
  0
VERTEX
  8
MERGEDLAYER-2
 10
0.728611
 20
3.684796
 30
0.000000
  0
VERTEX
  8
MERGEDLAYER-2
 10
6.804039
 20
3.684796
 30
0.000000
  0
VERTEX
  8
MERGEDLAYER-2
 10
6.804039
 20
3.635050
 30
0.000000
  0
VERTEX
  8
MERGEDLAYER-2
 10
0.728611
 20
3.635050
 30
0.000000
  0
SEQEND
  8
MERGEDLAYER-2
  0
POLYLINE
  8
MERGEDLAYER-2
 66
  1
 70
  0
 62
  9
 10
6.803733
 20
3.667231
 30
0.000000
  0
VERTEX
  8
MERGEDLAYER-2
 10
6.803733
 20
3.667231
 30
0.000000
  0
VERTEX
  8
MERGEDLAYER-2
 10
0.728611
 20
3.667231
 30
0.000000
  0
SEQEND
  8
MERGEDLAYER-2
  0
POLYLINE
  8
MERGEDLAYER-2
 66
  1
 70
  0
 62
  9
 10
6.803733
 20
3.652688
 30
0.000000
  0
VERTEX
  8
MERGEDLAYER-2
 10
6.803733
 20
3.652688
 30
0.000000
  0
VERTEX
  8
MERGEDLAYER-2
 10
0.728611
 20
3.652688
 30
0.000000
  0
SEQEND
  8
MERGEDLAYER-2
  0
POLYLINE
  8
MERGEDLAYER-2
 66
  1
 70
  1
 62
  7
  0
VERTEX
  8
MERGEDLAYER-2
 10
0.728611
 20
3.824188
 30
0.000000
  0
VERTEX
  8
MERGEDLAYER-2
 10
6.804039
 20
3.824188
 30
0.000000
  0
VERTEX
  8
MERGEDLAYER-2
 10
6.804039
 20
3.774442
 30
0.000000
  0
VERTEX
  8
MERGEDLAYER-2
 10
0.728611
 20
3.774442
 30
0.000000
  0
SEQEND
  8
MERGEDLAYER-2
  0
POLYLINE
  8
MERGEDLAYER-2
 66
  1
 70
  0
 62
  9
 10
6.803733
 20
3.806621
 30
0.000000
  0
VERTEX
  8
MERGEDLAYER-2
 10
6.803733
 20
3.806621
 30
0.000000
  0
VERTEX
  8
MERGEDLAYER-2
 10
0.728611
 20
3.806621
 30
0.000000
  0
SEQEND
  8
MERGEDLAYER-2
  0
POLYLINE
  8
MERGEDLAYER-2
 66
  1
 70
  0
 62
  9
 10
6.803733
 20
3.792079
 30
0.000000
  0
VERTEX
  8
MERGEDLAYER-2
 10
6.803733
 20
3.792079
 30
0.000000
  0
VERTEX
  8
MERGEDLAYER-2
 10
0.728611
 20
3.792079
 30
0.000000
  0
SEQEND
  8
MERGEDLAYER-2
  0
POLYLINE
  8
MERGEDLAYER-2
 66
  1
 70
  1
 62
  7
  0
VERTEX
  8
MERGEDLAYER-2
 10
0.728611
 20
3.963577
 30
0.000000
  0
VERTEX
  8
MERGEDLAYER-2
 10
6.804039
 20
3.963577
 30
0.000000
  0
VERTEX
  8
MERGEDLAYER-2
 10
6.804039
 20
3.913833
 30
0.000000
  0
VERTEX
  8
MERGEDLAYER-2
 10
0.728611
 20
3.913833
 30
0.000000
  0
SEQEND
  8
MERGEDLAYER-2
  0
POLYLINE
  8
MERGEDLAYER-2
 66
  1
 70
  0
 62
  9
 10
6.803733
 20
3.946012
 30
0.000000
  0
VERTEX
  8
MERGEDLAYER-2
 10
6.803733
 20
3.946012
 30
0.000000
  0
VERTEX
  8
MERGEDLAYER-2
 10
0.728611
 20
3.946012
 30
0.000000
  0
SEQEND
  8
MERGEDLAYER-2
  0
POLYLINE
  8
MERGEDLAYER-2
 66
  1
 70
  0
 62
  9
 10
6.803733
 20
3.931470
 30
0.000000
  0
VERTEX
  8
MERGEDLAYER-2
 10
6.803733
 20
3.931470
 30
0.000000
  0
VERTEX
  8
MERGEDLAYER-2
 10
0.728611
 20
3.931470
 30
0.000000
  0
SEQEND
  8
MERGEDLAYER-2
  0
POLYLINE
  8
MERGEDLAYER-2
 66
  1
 70
  1
 62
  7
  0
VERTEX
  8
MERGEDLAYER-2
 10
0.728611
 20
4.102969
 30
0.000000
  0
VERTEX
  8
MERGEDLAYER-2
 10
6.804039
 20
4.102969
 30
0.000000
  0
VERTEX
  8
MERGEDLAYER-2
 10
6.804039
 20
4.053224
 30
0.000000
  0
VERTEX
  8
MERGEDLAYER-2
 10
0.728611
 20
4.053224
 30
0.000000
  0
SEQEND
  8
MERGEDLAYER-2
  0
POLYLINE
  8
MERGEDLAYER-2
 66
  1
 70
  0
 62
  9
 10
6.803733
 20
4.085403
 30
0.000000
  0
VERTEX
  8
MERGEDLAYER-2
 10
6.803733
 20
4.085403
 30
0.000000
  0
VERTEX
  8
MERGEDLAYER-2
 10
0.728611
 20
4.085403
 30
0.000000
  0
SEQEND
  8
MERGEDLAYER-2
  0
POLYLINE
  8
MERGEDLAYER-2
 66
  1
 70
  0
 62
  9
 10
6.803733
 20
4.070860
 30
0.000000
  0
VERTEX
  8
MERGEDLAYER-2
 10
6.803733
 20
4.070860
 30
0.000000
  0
VERTEX
  8
MERGEDLAYER-2
 10
0.728611
 20
4.070860
 30
0.000000
  0
SEQEND
  8
MERGEDLAYER-2
  0
POLYLINE
  8
MERGEDLAYER-2
 66
  1
 70
  1
 62
  7
  0
VERTEX
  8
MERGEDLAYER-2
 10
0.728611
 20
4.242360
 30
0.000000
  0
VERTEX
  8
MERGEDLAYER-2
 10
6.804039
 20
4.242360
 30
0.000000
  0
VERTEX
  8
MERGEDLAYER-2
 10
6.804039
 20
4.192614
 30
0.000000
  0
VERTEX
  8
MERGEDLAYER-2
 10
0.728611
 20
4.192614
 30
0.000000
  0
SEQEND
  8
MERGEDLAYER-2
  0
POLYLINE
  8
MERGEDLAYER-2
 66
  1
 70
  0
 62
  9
 10
6.803733
 20
4.224793
 30
0.000000
  0
VERTEX
  8
MERGEDLAYER-2
 10
6.803733
 20
4.224793
 30
0.000000
  0
VERTEX
  8
MERGEDLAYER-2
 10
0.728611
 20
4.224793
 30
0.000000
  0
SEQEND
  8
MERGEDLAYER-2
  0
POLYLINE
  8
MERGEDLAYER-2
 66
  1
 70
  0
 62
  9
 10
6.803733
 20
4.210251
 30
0.000000
  0
VERTEX
  8
MERGEDLAYER-2
 10
6.803733
 20
4.210251
 30
0.000000
  0
VERTEX
  8
MERGEDLAYER-2
 10
0.728611
 20
4.210251
 30
0.000000
  0
SEQEND
  8
MERGEDLAYER-2
  0
POLYLINE
  8
MERGEDLAYER-2
 66
  1
 70
  1
 62
  7
  0
VERTEX
  8
MERGEDLAYER-2
 10
0.728611
 20
4.381750
 30
0.000000
  0
VERTEX
  8
MERGEDLAYER-2
 10
6.804039
 20
4.381750
 30
0.000000
  0
VERTEX
  8
MERGEDLAYER-2
 10
6.804039
 20
4.332005
 30
0.000000
  0
VERTEX
  8
MERGEDLAYER-2
 10
0.728611
 20
4.332005
 30
0.000000
  0
SEQEND
  8
MERGEDLAYER-2
  0
POLYLINE
  8
MERGEDLAYER-2
 66
  1
 70
  0
 62
  9
 10
6.803733
 20
4.364184
 30
0.000000
  0
VERTEX
  8
MERGEDLAYER-2
 10
6.803733
 20
4.364184
 30
0.000000
  0
VERTEX
  8
MERGEDLAYER-2
 10
0.728611
 20
4.364184
 30
0.000000
  0
SEQEND
  8
MERGEDLAYER-2
  0
POLYLINE
  8
MERGEDLAYER-2
 66
  1
 70
  0
 62
  9
 10
6.803733
 20
4.349642
 30
0.000000
  0
VERTEX
  8
MERGEDLAYER-2
 10
6.803733
 20
4.349642
 30
0.000000
  0
VERTEX
  8
MERGEDLAYER-2
 10
0.728611
 20
4.349642
 30
0.000000
  0
SEQEND
  8
MERGEDLAYER-2
  0
POLYLINE
  8
MERGEDLAYER-2
 66
  1
 70
  1
 62
  7
  0
VERTEX
  8
MERGEDLAYER-2
 10
0.728611
 20
4.521140
 30
0.000000
  0
VERTEX
  8
MERGEDLAYER-2
 10
6.804039
 20
4.521140
 30
0.000000
  0
VERTEX
  8
MERGEDLAYER-2
 10
6.804039
 20
4.471395
 30
0.000000
  0
VERTEX
  8
MERGEDLAYER-2
 10
0.728611
 20
4.471395
 30
0.000000
  0
SEQEND
  8
MERGEDLAYER-2
  0
POLYLINE
  8
MERGEDLAYER-2
 66
  1
 70
  0
 62
  9
 10
6.803733
 20
4.503576
 30
0.000000
  0
VERTEX
  8
MERGEDLAYER-2
 10
6.803733
 20
4.503576
 30
0.000000
  0
VERTEX
  8
MERGEDLAYER-2
 10
0.728611
 20
4.503576
 30
0.000000
  0
SEQEND
  8
MERGEDLAYER-2
  0
POLYLINE
  8
MERGEDLAYER-2
 66
  1
 70
  0
 62
  9
 10
6.803733
 20
4.489032
 30
0.000000
  0
VERTEX
  8
MERGEDLAYER-2
 10
6.803733
 20
4.489032
 30
0.000000
  0
VERTEX
  8
MERGEDLAYER-2
 10
0.728611
 20
4.489032
 30
0.000000
  0
SEQEND
  8
MERGEDLAYER-2
  0
POLYLINE
  8
MERGEDLAYER-2
 66
  1
 70
  1
 62
  7
  0
VERTEX
  8
MERGEDLAYER-2
 10
0.728611
 20
4.660531
 30
0.000000
  0
VERTEX
  8
MERGEDLAYER-2
 10
6.804039
 20
4.660531
 30
0.000000
  0
VERTEX
  8
MERGEDLAYER-2
 10
6.804039
 20
4.610785
 30
0.000000
  0
VERTEX
  8
MERGEDLAYER-2
 10
0.728611
 20
4.610785
 30
0.000000
  0
SEQEND
  8
MERGEDLAYER-2
  0
POLYLINE
  8
MERGEDLAYER-2
 66
  1
 70
  0
 62
  9
 10
6.803733
 20
4.642964
 30
0.000000
  0
VERTEX
  8
MERGEDLAYER-2
 10
6.803733
 20
4.642964
 30
0.000000
  0
VERTEX
  8
MERGEDLAYER-2
 10
0.728611
 20
4.642964
 30
0.000000
  0
SEQEND
  8
MERGEDLAYER-2
  0
POLYLINE
  8
MERGEDLAYER-2
 66
  1
 70
  0
 62
  9
 10
6.803733
 20
4.628423
 30
0.000000
  0
VERTEX
  8
MERGEDLAYER-2
 10
6.803733
 20
4.628423
 30
0.000000
  0
VERTEX
  8
MERGEDLAYER-2
 10
0.728611
 20
4.628423
 30
0.000000
  0
SEQEND
  8
MERGEDLAYER-2
  0
POLYLINE
  8
MERGEDLAYER-2
 66
  1
 70
  1
 62
  7
  0
VERTEX
  8
MERGEDLAYER-2
 10
0.728611
 20
4.799923
 30
0.000000
  0
VERTEX
  8
MERGEDLAYER-2
 10
6.804039
 20
4.799923
 30
0.000000
  0
VERTEX
  8
MERGEDLAYER-2
 10
6.804039
 20
4.750177
 30
0.000000
  0
VERTEX
  8
MERGEDLAYER-2
 10
0.728611
 20
4.750177
 30
0.000000
  0
SEQEND
  8
MERGEDLAYER-2
  0
POLYLINE
  8
MERGEDLAYER-2
 66
  1
 70
  0
 62
  9
 10
6.803733
 20
4.782356
 30
0.000000
  0
VERTEX
  8
MERGEDLAYER-2
 10
6.803733
 20
4.782356
 30
0.000000
  0
VERTEX
  8
MERGEDLAYER-2
 10
0.728611
 20
4.782356
 30
0.000000
  0
SEQEND
  8
MERGEDLAYER-2
  0
POLYLINE
  8
MERGEDLAYER-2
 66
  1
 70
  0
 62
  9
 10
6.803733
 20
4.767814
 30
0.000000
  0
VERTEX
  8
MERGEDLAYER-2
 10
6.803733
 20
4.767814
 30
0.000000
  0
VERTEX
  8
MERGEDLAYER-2
 10
0.728611
 20
4.767814
 30
0.000000
  0
SEQEND
  8
MERGEDLAYER-2
  0
POLYLINE
  8
MERGEDLAYER-2
 66
  1
 70
  1
 62
  7
  0
VERTEX
  8
MERGEDLAYER-2
 10
0.728611
 20
4.939312
 30
0.000000
  0
VERTEX
  8
MERGEDLAYER-2
 10
6.804039
 20
4.939312
 30
0.000000
  0
VERTEX
  8
MERGEDLAYER-2
 10
6.804039
 20
4.889568
 30
0.000000
  0
VERTEX
  8
MERGEDLAYER-2
 10
0.728611
 20
4.889568
 30
0.000000
  0
SEQEND
  8
MERGEDLAYER-2
  0
POLYLINE
  8
MERGEDLAYER-2
 66
  1
 70
  0
 62
  9
 10
6.803733
 20
4.921747
 30
0.000000
  0
VERTEX
  8
MERGEDLAYER-2
 10
6.803733
 20
4.921747
 30
0.000000
  0
VERTEX
  8
MERGEDLAYER-2
 10
0.728611
 20
4.921747
 30
0.000000
  0
SEQEND
  8
MERGEDLAYER-2
  0
POLYLINE
  8
MERGEDLAYER-2
 66
  1
 70
  0
 62
  9
 10
6.803733
 20
4.907205
 30
0.000000
  0
VERTEX
  8
MERGEDLAYER-2
 10
6.803733
 20
4.907205
 30
0.000000
  0
VERTEX
  8
MERGEDLAYER-2
 10
0.728611
 20
4.907205
 30
0.000000
  0
SEQEND
  8
MERGEDLAYER-2
  0
POLYLINE
  8
MERGEDLAYER-2
 66
  1
 70
  1
 62
  7
  0
VERTEX
  8
MERGEDLAYER-2
 10
0.728611
 20
5.078704
 30
0.000000
  0
VERTEX
  8
MERGEDLAYER-2
 10
6.804039
 20
5.078704
 30
0.000000
  0
VERTEX
  8
MERGEDLAYER-2
 10
6.804039
 20
5.028959
 30
0.000000
  0
VERTEX
  8
MERGEDLAYER-2
 10
0.728611
 20
5.028959
 30
0.000000
  0
SEQEND
  8
MERGEDLAYER-2
  0
POLYLINE
  8
MERGEDLAYER-2
 66
  1
 70
  0
 62
  9
 10
6.803733
 20
5.061138
 30
0.000000
  0
VERTEX
  8
MERGEDLAYER-2
 10
6.803733
 20
5.061138
 30
0.000000
  0
VERTEX
  8
MERGEDLAYER-2
 10
0.728611
 20
5.061138
 30
0.000000
  0
SEQEND
  8
MERGEDLAYER-2
  0
POLYLINE
  8
MERGEDLAYER-2
 66
  1
 70
  0
 62
  9
 10
6.803733
 20
5.046595
 30
0.000000
  0
VERTEX
  8
MERGEDLAYER-2
 10
6.803733
 20
5.046595
 30
0.000000
  0
VERTEX
  8
MERGEDLAYER-2
 10
0.728611
 20
5.046595
 30
0.000000
  0
SEQEND
  8
MERGEDLAYER-2
  0
POLYLINE
  8
MERGEDLAYER-2
 66
  1
 70
  1
 62
  7
  0
VERTEX
  8
MERGEDLAYER-2
 10
0.728611
 20
5.218095
 30
0.000000
  0
VERTEX
  8
MERGEDLAYER-2
 10
6.804039
 20
5.218095
 30
0.000000
  0
VERTEX
  8
MERGEDLAYER-2
 10
6.804039
 20
5.168348
 30
0.000000
  0
VERTEX
  8
MERGEDLAYER-2
 10
0.728611
 20
5.168348
 30
0.000000
  0
SEQEND
  8
MERGEDLAYER-2
  0
POLYLINE
  8
MERGEDLAYER-2
 66
  1
 70
  0
 62
  9
 10
6.803733
 20
5.200528
 30
0.000000
  0
VERTEX
  8
MERGEDLAYER-2
 10
6.803733
 20
5.200528
 30
0.000000
  0
VERTEX
  8
MERGEDLAYER-2
 10
0.728611
 20
5.200528
 30
0.000000
  0
SEQEND
  8
MERGEDLAYER-2
  0
POLYLINE
  8
MERGEDLAYER-2
 66
  1
 70
  0
 62
  9
 10
6.803733
 20
5.185986
 30
0.000000
  0
VERTEX
  8
MERGEDLAYER-2
 10
6.803733
 20
5.185986
 30
0.000000
  0
VERTEX
  8
MERGEDLAYER-2
 10
0.728611
 20
5.185986
 30
0.000000
  0
SEQEND
  8
MERGEDLAYER-2
  0
POLYLINE
  8
MERGEDLAYER-2
 66
  1
 70
  1
 62
  7
  0
VERTEX
  8
MERGEDLAYER-2
 10
0.728611
 20
2.659315
 30
0.000000
  0
VERTEX
  8
MERGEDLAYER-2
 10
6.804068
 20
2.659315
 30
0.000000
  0
VERTEX
  8
MERGEDLAYER-2
 10
6.804068
 20
2.555970
 30
0.000000
  0
VERTEX
  8
MERGEDLAYER-2
 10
0.728611
 20
2.555970
 30
0.000000
  0
SEQEND
  8
MERGEDLAYER-2
  0
POLYLINE
  8
MERGEDLAYER-2
 66
  1
 70
  0
 62
  7
 10
0.728684
 20
2.569833
 30
0.000000
  0
VERTEX
  8
MERGEDLAYER-2
 10
0.728684
 20
2.569833
 30
0.000000
  0
VERTEX
  8
MERGEDLAYER-2
 10
6.804147
 20
2.569833
 30
0.000000
  0
SEQEND
  8
MERGEDLAYER-2
  0
POLYLINE
  8
MERGEDLAYER-2
 66
  1
 70
  1
 62
  7
  0
VERTEX
  8
MERGEDLAYER-2
 10
3.945945
 20
2.518323
 30
0.000000
  0
VERTEX
  8
MERGEDLAYER-2
 10
4.372218
 20
2.518323
 30
0.000000
  0
VERTEX
  8
MERGEDLAYER-2
 10
4.372218
 20
2.385271
 30
0.000000
  0
VERTEX
  8
MERGEDLAYER-2
 10
3.945945
 20
2.385271
 30
0.000000
  0
SEQEND
  8
MERGEDLAYER-2
  0
POLYLINE
  8
MERGEDLAYER-2
 66
  1
 70
  1
 62
  7
  0
VERTEX
  8
MERGEDLAYER-2
 10
3.959496
 20
2.498487
 30
0.000000
  0
VERTEX
  8
MERGEDLAYER-2
 10
3.975886
 20
2.498487
 30
0.000000
  0
VERTEX
  8
MERGEDLAYER-2
 10
3.975886
 20
2.462883
 30
0.000000
  0
VERTEX
  8
MERGEDLAYER-2
 10
3.959496
 20
2.462883
 30
0.000000
  0
SEQEND
  8
MERGEDLAYER-2
  0
POLYLINE
  8
MERGEDLAYER-2
 66
  1
 70
  1
 62
  7
  0
VERTEX
  8
MERGEDLAYER-2
 10
3.981428
 20
2.498487
 30
0.000000
  0
VERTEX
  8
MERGEDLAYER-2
 10
3.997566
 20
2.498487
 30
0.000000
  0
VERTEX
  8
MERGEDLAYER-2
 10
3.997566
 20
2.462883
 30
0.000000
  0
VERTEX
  8
MERGEDLAYER-2
 10
3.981428
 20
2.462883
 30
0.000000
  0
SEQEND
  8
MERGEDLAYER-2
  0
POLYLINE
  8
MERGEDLAYER-2
 66
  1
 70
  1
 62
  7
  0
VERTEX
  8
MERGEDLAYER-2
 10
4.002247
 20
2.498487
 30
0.000000
  0
VERTEX
  8
MERGEDLAYER-2
 10
4.018388
 20
2.498487
 30
0.000000
  0
VERTEX
  8
MERGEDLAYER-2
 10
4.018388
 20
2.462883
 30
0.000000
  0
VERTEX
  8
MERGEDLAYER-2
 10
4.002247
 20
2.462883
 30
0.000000
  0
SEQEND
  8
MERGEDLAYER-2
  0
POLYLINE
  8
MERGEDLAYER-2
 66
  1
 70
  1
 62
  7
  0
VERTEX
  8
MERGEDLAYER-2
 10
4.023686
 20
2.498487
 30
0.000000
  0
VERTEX
  8
MERGEDLAYER-2
 10
4.039822
 20
2.498487
 30
0.000000
  0
VERTEX
  8
MERGEDLAYER-2
 10
4.039822
 20
2.462883
 30
0.000000
  0
VERTEX
  8
MERGEDLAYER-2
 10
4.023686
 20
2.462883
 30
0.000000
  0
SEQEND
  8
MERGEDLAYER-2
  0
POLYLINE
  8
MERGEDLAYER-2
 66
  1
 70
  1
 62
  7
  0
VERTEX
  8
MERGEDLAYER-2
 10
4.045614
 20
2.488753
 30
0.000000
  0
VERTEX
  8
MERGEDLAYER-2
 10
4.045614
 20
2.497994
 30
0.000000
  0
VERTEX
  8
MERGEDLAYER-2
 10
4.071856
 20
2.497994
 30
0.000000
  0
VERTEX
  8
MERGEDLAYER-2
 10
4.071856
 20
2.488753
 30
0.000000
  0
SEQEND
  8
MERGEDLAYER-2
  0
POLYLINE
  8
MERGEDLAYER-2
 66
  1
 70
  1
 62
  7
  0
VERTEX
  8
MERGEDLAYER-2
 10
4.045614
 20
2.473108
 30
0.000000
  0
VERTEX
  8
MERGEDLAYER-2
 10
4.045614
 20
2.482347
 30
0.000000
  0
VERTEX
  8
MERGEDLAYER-2
 10
4.067052
 20
2.482347
 30
0.000000
  0
VERTEX
  8
MERGEDLAYER-2
 10
4.067052
 20
2.473108
 30
0.000000
  0
SEQEND
  8
MERGEDLAYER-2
  0
POLYLINE
  8
MERGEDLAYER-2
 66
  1
 70
  0
 62
  7
 10
3.959496
 20
2.451791
 30
0.000000
  0
VERTEX
  8
MERGEDLAYER-2
 10
3.959496
 20
2.451791
 30
0.000000
  0
VERTEX
  8
MERGEDLAYER-2
 10
4.366612
 20
2.451668
 30
0.000000
  0
SEQEND
  8
MERGEDLAYER-2
  0
TEXT
  8
MERGEDLAYER-2
 62
  7
 10
4.162399
 20
2.466958
 30
0.000000
 40
0.020455
  1
mobilflex.com
 72
  5
 11
4.416944
 21
2.466958
 31
0.000000
  0
TEXT
  8
MERGEDLAYER-2
 62
  7
 10
3.962399
 20
2.403321
 30
0.000000
 40
0.040909
  1
MobilFlex
 72
  5
 11
4.226035
 21
2.403321
 31
0.000000
  0
POLYLINE
  8
MERGEDLAYER-2
 66
  1
 70
  1
 62
  7
  0
VERTEX
  8
MERGEDLAYER-2
 10
3.749731
 20
2.473289
 30
0.000000
  0
VERTEX
  8
MERGEDLAYER-2
 10
3.797794
 20
2.473289
 30
0.000000
  0
VERTEX
  8
MERGEDLAYER-2
 10
3.797794
 20
2.460473
 30
0.000000
  0
VERTEX
  8
MERGEDLAYER-2
 10
3.749731
 20
2.460473
 30
0.000000
  0
SEQEND
  8
MERGEDLAYER-2
  0
CIRCLE
  8
MERGEDLAYER-2
 62
  7
 10
3.765231
 20
2.467931
 30
0.000000
 40
0.067581
  0
CIRCLE
  8
MERGEDLAYER-2
 62
  7
 10
3.765483
 20
2.467931
 30
0.000000
 40
0.049542
  0
CIRCLE
  8
MERGEDLAYER-2
 62
  7
 10
3.765483
 20
2.467931
 30
0.000000
 40
0.044456
  0
CIRCLE
  8
MERGEDLAYER-2
 62
  7
 10
3.783140
 20
2.467931
 30
0.000000
 40
0.019758
  0
CIRCLE
  8
MERGEDLAYER-2
 62
  7
 10
3.791589
 20
2.467931
 30
0.000000
 40
0.008448
  0
TEXT
  8
MERGEDLAYER-2
 62
  7
 10
3.726035
 20
2.439685
 30
0.000000
 40
0.006818
  1
MobilFlex
 50
90.000000
 72
  5
 11
3.726035
 21
2.539685
 31
0.000000
  0
POLYLINE
  8
MERGEDLAYER-2
 66
  1
 70
  1
 62
  7
 10
3.802325
 20
2.464121
 30
0.000000
  0
VERTEX
  8
MERGEDLAYER-2
 10
3.802325
 20
2.464121
 30
0.000000
  0
VERTEX
  8
MERGEDLAYER-2
 10
3.793177
 20
2.464121
 30
0.000000
  0
VERTEX
  8
MERGEDLAYER-2
 10
3.793177
 20
2.467677
 30
0.000000
  0
VERTEX
  8
MERGEDLAYER-2
 10
3.789620
 20
2.467677
 30
0.000000
  0
VERTEX
  8
MERGEDLAYER-2
 10
3.785806
 20
2.463867
 30
0.000000
  0
VERTEX
  8
MERGEDLAYER-2
 10
3.783269
 20
2.463867
 30
0.000000
  0
VERTEX
  8
MERGEDLAYER-2
 10
3.775646
 20
2.466408
 30
0.000000
  0
VERTEX
  8
MERGEDLAYER-2
 10
3.775646
 20
2.469710
 30
0.000000
  0
VERTEX
  8
MERGEDLAYER-2
 10
3.781235
 20
2.468948
 30
0.000000
  0
VERTEX
  8
MERGEDLAYER-2
 10
3.783269
 20
2.469204
 30
0.000000
  0
VERTEX
  8
MERGEDLAYER-2
 10
3.783269
 20
2.470727
 30
0.000000
  0
VERTEX
  8
MERGEDLAYER-2
 10
3.796223
 20
2.470727
 30
0.000000
  0
VERTEX
  8
MERGEDLAYER-2
 10
3.797496
 20
2.467931
 30
0.000000
  0
VERTEX
  8
MERGEDLAYER-2
 10
3.800037
 20
2.467931
 30
0.000000
  0
VERTEX
  8
MERGEDLAYER-2
 10
3.800545
 20
2.470727
 30
0.000000
  0
VERTEX
  8
MERGEDLAYER-2
 10
3.802325
 20
2.470727
 30
0.000000
  0
SEQEND
  8
MERGEDLAYER-2
  0
POLYLINE
  8
MERGEDLAYER-2
 66
  1
 70
  1
 62
  7
  0
VERTEX
  8
MERGEDLAYER-2
 10
0.728611
 20
5.168348
 30
0.000000
  0
VERTEX
  8
MERGEDLAYER-2
 10
0.847793
 20
5.168348
 30
0.000000
  0
VERTEX
  8
MERGEDLAYER-2
 10
0.847793
 20
5.078704
 30
0.000000
  0
VERTEX
  8
MERGEDLAYER-2
 10
0.728611
 20
5.078704
 30
0.000000
  0
SEQEND
  8
MERGEDLAYER-2
  0
POLYLINE
  8
MERGEDLAYER-2
 66
  1
 70
  1
 62
  7
  0
VERTEX
  8
MERGEDLAYER-2
 10
0.728611
 20
4.889549
 30
0.000000
  0
VERTEX
  8
MERGEDLAYER-2
 10
0.847793
 20
4.889549
 30
0.000000
  0
VERTEX
  8
MERGEDLAYER-2
 10
0.847793
 20
4.799904
 30
0.000000
  0
VERTEX
  8
MERGEDLAYER-2
 10
0.728611
 20
4.799904
 30
0.000000
  0
SEQEND
  8
MERGEDLAYER-2
  0
POLYLINE
  8
MERGEDLAYER-2
 66
  1
 70
  1
 62
  7
  0
VERTEX
  8
MERGEDLAYER-2
 10
0.728611
 20
4.610749
 30
0.000000
  0
VERTEX
  8
MERGEDLAYER-2
 10
0.847793
 20
4.610749
 30
0.000000
  0
VERTEX
  8
MERGEDLAYER-2
 10
0.847793
 20
4.521104
 30
0.000000
  0
VERTEX
  8
MERGEDLAYER-2
 10
0.728611
 20
4.521104
 30
0.000000
  0
SEQEND
  8
MERGEDLAYER-2
  0
POLYLINE
  8
MERGEDLAYER-2
 66
  1
 70
  1
 62
  7
  0
VERTEX
  8
MERGEDLAYER-2
 10
0.728611
 20
4.331949
 30
0.000000
  0
VERTEX
  8
MERGEDLAYER-2
 10
0.847793
 20
4.331949
 30
0.000000
  0
VERTEX
  8
MERGEDLAYER-2
 10
0.847793
 20
4.242304
 30
0.000000
  0
VERTEX
  8
MERGEDLAYER-2
 10
0.728611
 20
4.242304
 30
0.000000
  0
SEQEND
  8
MERGEDLAYER-2
  0
POLYLINE
  8
MERGEDLAYER-2
 66
  1
 70
  1
 62
  7
  0
VERTEX
  8
MERGEDLAYER-2
 10
0.728611
 20
4.053149
 30
0.000000
  0
VERTEX
  8
MERGEDLAYER-2
 10
0.847793
 20
4.053149
 30
0.000000
  0
VERTEX
  8
MERGEDLAYER-2
 10
0.847793
 20
3.963504
 30
0.000000
  0
VERTEX
  8
MERGEDLAYER-2
 10
0.728611
 20
3.963504
 30
0.000000
  0
SEQEND
  8
MERGEDLAYER-2
  0
POLYLINE
  8
MERGEDLAYER-2
 66
  1
 70
  1
 62
  7
  0
VERTEX
  8
MERGEDLAYER-2
 10
0.728611
 20
3.774349
 30
0.000000
  0
VERTEX
  8
MERGEDLAYER-2
 10
0.847793
 20
3.774349
 30
0.000000
  0
VERTEX
  8
MERGEDLAYER-2
 10
0.847793
 20
3.684704
 30
0.000000
  0
VERTEX
  8
MERGEDLAYER-2
 10
0.728611
 20
3.684704
 30
0.000000
  0
SEQEND
  8
MERGEDLAYER-2
  0
POLYLINE
  8
MERGEDLAYER-2
 66
  1
 70
  1
 62
  7
  0
VERTEX
  8
MERGEDLAYER-2
 10
0.728611
 20
3.495549
 30
0.000000
  0
VERTEX
  8
MERGEDLAYER-2
 10
0.847793
 20
3.495549
 30
0.000000
  0
VERTEX
  8
MERGEDLAYER-2
 10
0.847793
 20
3.405904
 30
0.000000
  0
VERTEX
  8
MERGEDLAYER-2
 10
0.728611
 20
3.405904
 30
0.000000
  0
SEQEND
  8
MERGEDLAYER-2
  0
POLYLINE
  8
MERGEDLAYER-2
 66
  1
 70
  1
 62
  7
  0
VERTEX
  8
MERGEDLAYER-2
 10
0.728611
 20
3.216749
 30
0.000000
  0
VERTEX
  8
MERGEDLAYER-2
 10
0.847793
 20
3.216749
 30
0.000000
  0
VERTEX
  8
MERGEDLAYER-2
 10
0.847793
 20
3.127104
 30
0.000000
  0
VERTEX
  8
MERGEDLAYER-2
 10
0.728611
 20
3.127104
 30
0.000000
  0
SEQEND
  8
MERGEDLAYER-2
  0
POLYLINE
  8
MERGEDLAYER-2
 66
  1
 70
  1
 62
  7
  0
VERTEX
  8
MERGEDLAYER-2
 10
0.728611
 20
2.937949
 30
0.000000
  0
VERTEX
  8
MERGEDLAYER-2
 10
0.847793
 20
2.937949
 30
0.000000
  0
VERTEX
  8
MERGEDLAYER-2
 10
0.847793
 20
2.848304
 30
0.000000
  0
VERTEX
  8
MERGEDLAYER-2
 10
0.728611
 20
2.848304
 30
0.000000
  0
SEQEND
  8
MERGEDLAYER-2
  0
POLYLINE
  8
MERGEDLAYER-2
 66
  1
 70
  1
 62
  7
  0
VERTEX
  8
MERGEDLAYER-2
 10
1.920089
 20
5.168348
 30
0.000000
  0
VERTEX
  8
MERGEDLAYER-2
 10
2.039271
 20
5.168348
 30
0.000000
  0
VERTEX
  8
MERGEDLAYER-2
 10
2.039271
 20
5.078704
 30
0.000000
  0
VERTEX
  8
MERGEDLAYER-2
 10
1.920089
 20
5.078704
 30
0.000000
  0
SEQEND
  8
MERGEDLAYER-2
  0
POLYLINE
  8
MERGEDLAYER-2
 66
  1
 70
  1
 62
  7
  0
VERTEX
  8
MERGEDLAYER-2
 10
1.920089
 20
4.889549
 30
0.000000
  0
VERTEX
  8
MERGEDLAYER-2
 10
2.039271
 20
4.889549
 30
0.000000
  0
VERTEX
  8
MERGEDLAYER-2
 10
2.039271
 20
4.799904
 30
0.000000
  0
VERTEX
  8
MERGEDLAYER-2
 10
1.920089
 20
4.799904
 30
0.000000
  0
SEQEND
  8
MERGEDLAYER-2
  0
POLYLINE
  8
MERGEDLAYER-2
 66
  1
 70
  1
 62
  7
  0
VERTEX
  8
MERGEDLAYER-2
 10
1.920089
 20
4.610749
 30
0.000000
  0
VERTEX
  8
MERGEDLAYER-2
 10
2.039271
 20
4.610749
 30
0.000000
  0
VERTEX
  8
MERGEDLAYER-2
 10
2.039271
 20
4.521104
 30
0.000000
  0
VERTEX
  8
MERGEDLAYER-2
 10
1.920089
 20
4.521104
 30
0.000000
  0
SEQEND
  8
MERGEDLAYER-2
  0
POLYLINE
  8
MERGEDLAYER-2
 66
  1
 70
  1
 62
  7
  0
VERTEX
  8
MERGEDLAYER-2
 10
1.920089
 20
4.331949
 30
0.000000
  0
VERTEX
  8
MERGEDLAYER-2
 10
2.039271
 20
4.331949
 30
0.000000
  0
VERTEX
  8
MERGEDLAYER-2
 10
2.039271
 20
4.242304
 30
0.000000
  0
VERTEX
  8
MERGEDLAYER-2
 10
1.920089
 20
4.242304
 30
0.000000
  0
SEQEND
  8
MERGEDLAYER-2
  0
POLYLINE
  8
MERGEDLAYER-2
 66
  1
 70
  1
 62
  7
  0
VERTEX
  8
MERGEDLAYER-2
 10
1.920089
 20
4.053149
 30
0.000000
  0
VERTEX
  8
MERGEDLAYER-2
 10
2.039271
 20
4.053149
 30
0.000000
  0
VERTEX
  8
MERGEDLAYER-2
 10
2.039271
 20
3.963504
 30
0.000000
  0
VERTEX
  8
MERGEDLAYER-2
 10
1.920089
 20
3.963504
 30
0.000000
  0
SEQEND
  8
MERGEDLAYER-2
  0
POLYLINE
  8
MERGEDLAYER-2
 66
  1
 70
  1
 62
  7
  0
VERTEX
  8
MERGEDLAYER-2
 10
1.920089
 20
3.774349
 30
0.000000
  0
VERTEX
  8
MERGEDLAYER-2
 10
2.039271
 20
3.774349
 30
0.000000
  0
VERTEX
  8
MERGEDLAYER-2
 10
2.039271
 20
3.684704
 30
0.000000
  0
VERTEX
  8
MERGEDLAYER-2
 10
1.920089
 20
3.684704
 30
0.000000
  0
SEQEND
  8
MERGEDLAYER-2
  0
POLYLINE
  8
MERGEDLAYER-2
 66
  1
 70
  1
 62
  7
  0
VERTEX
  8
MERGEDLAYER-2
 10
1.920089
 20
3.495549
 30
0.000000
  0
VERTEX
  8
MERGEDLAYER-2
 10
2.039271
 20
3.495549
 30
0.000000
  0
VERTEX
  8
MERGEDLAYER-2
 10
2.039271
 20
3.405904
 30
0.000000
  0
VERTEX
  8
MERGEDLAYER-2
 10
1.920089
 20
3.405904
 30
0.000000
  0
SEQEND
  8
MERGEDLAYER-2
  0
POLYLINE
  8
MERGEDLAYER-2
 66
  1
 70
  1
 62
  7
  0
VERTEX
  8
MERGEDLAYER-2
 10
1.920089
 20
3.216749
 30
0.000000
  0
VERTEX
  8
MERGEDLAYER-2
 10
2.039271
 20
3.216749
 30
0.000000
  0
VERTEX
  8
MERGEDLAYER-2
 10
2.039271
 20
3.127104
 30
0.000000
  0
VERTEX
  8
MERGEDLAYER-2
 10
1.920089
 20
3.127104
 30
0.000000
  0
SEQEND
  8
MERGEDLAYER-2
  0
POLYLINE
  8
MERGEDLAYER-2
 66
  1
 70
  1
 62
  7
  0
VERTEX
  8
MERGEDLAYER-2
 10
1.920089
 20
2.937949
 30
0.000000
  0
VERTEX
  8
MERGEDLAYER-2
 10
2.039271
 20
2.937949
 30
0.000000
  0
VERTEX
  8
MERGEDLAYER-2
 10
2.039271
 20
2.848304
 30
0.000000
  0
VERTEX
  8
MERGEDLAYER-2
 10
1.920089
 20
2.848304
 30
0.000000
  0
SEQEND
  8
MERGEDLAYER-2
  0
POLYLINE
  8
MERGEDLAYER-2
 66
  1
 70
  1
 62
  7
  0
VERTEX
  8
MERGEDLAYER-2
 10
3.110998
 20
5.168348
 30
0.000000
  0
VERTEX
  8
MERGEDLAYER-2
 10
3.230181
 20
5.168348
 30
0.000000
  0
VERTEX
  8
MERGEDLAYER-2
 10
3.230181
 20
5.078704
 30
0.000000
  0
VERTEX
  8
MERGEDLAYER-2
 10
3.110998
 20
5.078704
 30
0.000000
  0
SEQEND
  8
MERGEDLAYER-2
  0
POLYLINE
  8
MERGEDLAYER-2
 66
  1
 70
  1
 62
  7
  0
VERTEX
  8
MERGEDLAYER-2
 10
3.706698
 20
5.028948
 30
0.000000
  0
VERTEX
  8
MERGEDLAYER-2
 10
3.825881
 20
5.028948
 30
0.000000
  0
VERTEX
  8
MERGEDLAYER-2
 10
3.825881
 20
4.939304
 30
0.000000
  0
VERTEX
  8
MERGEDLAYER-2
 10
3.706698
 20
4.939304
 30
0.000000
  0
SEQEND
  8
MERGEDLAYER-2
  0
POLYLINE
  8
MERGEDLAYER-2
 66
  1
 70
  1
 62
  7
  0
VERTEX
  8
MERGEDLAYER-2
 10
3.110998
 20
4.889549
 30
0.000000
  0
VERTEX
  8
MERGEDLAYER-2
 10
3.230181
 20
4.889549
 30
0.000000
  0
VERTEX
  8
MERGEDLAYER-2
 10
3.230181
 20
4.799904
 30
0.000000
  0
VERTEX
  8
MERGEDLAYER-2
 10
3.110998
 20
4.799904
 30
0.000000
  0
SEQEND
  8
MERGEDLAYER-2
  0
POLYLINE
  8
MERGEDLAYER-2
 66
  1
 70
  1
 62
  7
  0
VERTEX
  8
MERGEDLAYER-2
 10
3.706698
 20
4.750148
 30
0.000000
  0
VERTEX
  8
MERGEDLAYER-2
 10
3.825881
 20
4.750148
 30
0.000000
  0
VERTEX
  8
MERGEDLAYER-2
 10
3.825881
 20
4.660503
 30
0.000000
  0
VERTEX
  8
MERGEDLAYER-2
 10
3.706698
 20
4.660503
 30
0.000000
  0
SEQEND
  8
MERGEDLAYER-2
  0
POLYLINE
  8
MERGEDLAYER-2
 66
  1
 70
  1
 62
  7
  0
VERTEX
  8
MERGEDLAYER-2
 10
3.110998
 20
4.610749
 30
0.000000
  0
VERTEX
  8
MERGEDLAYER-2
 10
3.230181
 20
4.610749
 30
0.000000
  0
VERTEX
  8
MERGEDLAYER-2
 10
3.230181
 20
4.521104
 30
0.000000
  0
VERTEX
  8
MERGEDLAYER-2
 10
3.110998
 20
4.521104
 30
0.000000
  0
SEQEND
  8
MERGEDLAYER-2
  0
POLYLINE
  8
MERGEDLAYER-2
 66
  1
 70
  1
 62
  7
  0
VERTEX
  8
MERGEDLAYER-2
 10
3.706698
 20
4.471348
 30
0.000000
  0
VERTEX
  8
MERGEDLAYER-2
 10
3.825881
 20
4.471348
 30
0.000000
  0
VERTEX
  8
MERGEDLAYER-2
 10
3.825881
 20
4.381703
 30
0.000000
  0
VERTEX
  8
MERGEDLAYER-2
 10
3.706698
 20
4.381703
 30
0.000000
  0
SEQEND
  8
MERGEDLAYER-2
  0
POLYLINE
  8
MERGEDLAYER-2
 66
  1
 70
  1
 62
  7
  0
VERTEX
  8
MERGEDLAYER-2
 10
3.110998
 20
4.331949
 30
0.000000
  0
VERTEX
  8
MERGEDLAYER-2
 10
3.230181
 20
4.331949
 30
0.000000
  0
VERTEX
  8
MERGEDLAYER-2
 10
3.230181
 20
4.242304
 30
0.000000
  0
VERTEX
  8
MERGEDLAYER-2
 10
3.110998
 20
4.242304
 30
0.000000
  0
SEQEND
  8
MERGEDLAYER-2
  0
POLYLINE
  8
MERGEDLAYER-2
 66
  1
 70
  1
 62
  7
  0
VERTEX
  8
MERGEDLAYER-2
 10
3.706698
 20
4.192548
 30
0.000000
  0
VERTEX
  8
MERGEDLAYER-2
 10
3.825881
 20
4.192548
 30
0.000000
  0
VERTEX
  8
MERGEDLAYER-2
 10
3.825881
 20
4.102904
 30
0.000000
  0
VERTEX
  8
MERGEDLAYER-2
 10
3.706698
 20
4.102904
 30
0.000000
  0
SEQEND
  8
MERGEDLAYER-2
  0
POLYLINE
  8
MERGEDLAYER-2
 66
  1
 70
  1
 62
  7
  0
VERTEX
  8
MERGEDLAYER-2
 10
3.110998
 20
4.053149
 30
0.000000
  0
VERTEX
  8
MERGEDLAYER-2
 10
3.230181
 20
4.053149
 30
0.000000
  0
VERTEX
  8
MERGEDLAYER-2
 10
3.230181
 20
3.963504
 30
0.000000
  0
VERTEX
  8
MERGEDLAYER-2
 10
3.110998
 20
3.963504
 30
0.000000
  0
SEQEND
  8
MERGEDLAYER-2
  0
POLYLINE
  8
MERGEDLAYER-2
 66
  1
 70
  1
 62
  7
  0
VERTEX
  8
MERGEDLAYER-2
 10
3.706698
 20
3.913748
 30
0.000000
  0
VERTEX
  8
MERGEDLAYER-2
 10
3.825881
 20
3.913748
 30
0.000000
  0
VERTEX
  8
MERGEDLAYER-2
 10
3.825881
 20
3.824103
 30
0.000000
  0
VERTEX
  8
MERGEDLAYER-2
 10
3.706698
 20
3.824103
 30
0.000000
  0
SEQEND
  8
MERGEDLAYER-2
  0
POLYLINE
  8
MERGEDLAYER-2
 66
  1
 70
  1
 62
  7
  0
VERTEX
  8
MERGEDLAYER-2
 10
3.110998
 20
3.774349
 30
0.000000
  0
VERTEX
  8
MERGEDLAYER-2
 10
3.230181
 20
3.774349
 30
0.000000
  0
VERTEX
  8
MERGEDLAYER-2
 10
3.230181
 20
3.684704
 30
0.000000
  0
VERTEX
  8
MERGEDLAYER-2
 10
3.110998
 20
3.684704
 30
0.000000
  0
SEQEND
  8
MERGEDLAYER-2
  0
POLYLINE
  8
MERGEDLAYER-2
 66
  1
 70
  1
 62
  7
  0
VERTEX
  8
MERGEDLAYER-2
 10
3.706698
 20
3.634948
 30
0.000000
  0
VERTEX
  8
MERGEDLAYER-2
 10
3.825881
 20
3.634948
 30
0.000000
  0
VERTEX
  8
MERGEDLAYER-2
 10
3.825881
 20
3.545304
 30
0.000000
  0
VERTEX
  8
MERGEDLAYER-2
 10
3.706698
 20
3.545304
 30
0.000000
  0
SEQEND
  8
MERGEDLAYER-2
  0
POLYLINE
  8
MERGEDLAYER-2
 66
  1
 70
  1
 62
  7
  0
VERTEX
  8
MERGEDLAYER-2
 10
3.110998
 20
3.495549
 30
0.000000
  0
VERTEX
  8
MERGEDLAYER-2
 10
3.230181
 20
3.495549
 30
0.000000
  0
VERTEX
  8
MERGEDLAYER-2
 10
3.230181
 20
3.405904
 30
0.000000
  0
VERTEX
  8
MERGEDLAYER-2
 10
3.110998
 20
3.405904
 30
0.000000
  0
SEQEND
  8
MERGEDLAYER-2
  0
POLYLINE
  8
MERGEDLAYER-2
 66
  1
 70
  1
 62
  7
  0
VERTEX
  8
MERGEDLAYER-2
 10
3.706698
 20
3.356148
 30
0.000000
  0
VERTEX
  8
MERGEDLAYER-2
 10
3.825881
 20
3.356148
 30
0.000000
  0
VERTEX
  8
MERGEDLAYER-2
 10
3.825881
 20
3.266503
 30
0.000000
  0
VERTEX
  8
MERGEDLAYER-2
 10
3.706698
 20
3.266503
 30
0.000000
  0
SEQEND
  8
MERGEDLAYER-2
  0
POLYLINE
  8
MERGEDLAYER-2
 66
  1
 70
  1
 62
  7
  0
VERTEX
  8
MERGEDLAYER-2
 10
3.110998
 20
3.216749
 30
0.000000
  0
VERTEX
  8
MERGEDLAYER-2
 10
3.230181
 20
3.216749
 30
0.000000
  0
VERTEX
  8
MERGEDLAYER-2
 10
3.230181
 20
3.127104
 30
0.000000
  0
VERTEX
  8
MERGEDLAYER-2
 10
3.110998
 20
3.127104
 30
0.000000
  0
SEQEND
  8
MERGEDLAYER-2
  0
POLYLINE
  8
MERGEDLAYER-2
 66
  1
 70
  1
 62
  7
  0
VERTEX
  8
MERGEDLAYER-2
 10
3.706698
 20
3.077348
 30
0.000000
  0
VERTEX
  8
MERGEDLAYER-2
 10
3.825881
 20
3.077348
 30
0.000000
  0
VERTEX
  8
MERGEDLAYER-2
 10
3.825881
 20
2.987704
 30
0.000000
  0
VERTEX
  8
MERGEDLAYER-2
 10
3.706698
 20
2.987704
 30
0.000000
  0
SEQEND
  8
MERGEDLAYER-2
  0
POLYLINE
  8
MERGEDLAYER-2
 66
  1
 70
  1
 62
  7
  0
VERTEX
  8
MERGEDLAYER-2
 10
3.110998
 20
2.937949
 30
0.000000
  0
VERTEX
  8
MERGEDLAYER-2
 10
3.230181
 20
2.937949
 30
0.000000
  0
VERTEX
  8
MERGEDLAYER-2
 10
3.230181
 20
2.848304
 30
0.000000
  0
VERTEX
  8
MERGEDLAYER-2
 10
3.110998
 20
2.848304
 30
0.000000
  0
SEQEND
  8
MERGEDLAYER-2
  0
POLYLINE
  8
MERGEDLAYER-2
 66
  1
 70
  1
 62
  7
  0
VERTEX
  8
MERGEDLAYER-2
 10
3.706698
 20
2.798548
 30
0.000000
  0
VERTEX
  8
MERGEDLAYER-2
 10
3.825881
 20
2.798548
 30
0.000000
  0
VERTEX
  8
MERGEDLAYER-2
 10
3.825881
 20
2.708904
 30
0.000000
  0
VERTEX
  8
MERGEDLAYER-2
 10
3.706698
 20
2.708904
 30
0.000000
  0
SEQEND
  8
MERGEDLAYER-2
  0
POLYLINE
  8
MERGEDLAYER-2
 66
  1
 70
  1
 62
  7
  0
VERTEX
  8
MERGEDLAYER-2
 10
4.302474
 20
5.168348
 30
0.000000
  0
VERTEX
  8
MERGEDLAYER-2
 10
4.421657
 20
5.168348
 30
0.000000
  0
VERTEX
  8
MERGEDLAYER-2
 10
4.421657
 20
5.078704
 30
0.000000
  0
VERTEX
  8
MERGEDLAYER-2
 10
4.302474
 20
5.078704
 30
0.000000
  0
SEQEND
  8
MERGEDLAYER-2
  0
POLYLINE
  8
MERGEDLAYER-2
 66
  1
 70
  1
 62
  7
  0
VERTEX
  8
MERGEDLAYER-2
 10
4.898174
 20
5.028948
 30
0.000000
  0
VERTEX
  8
MERGEDLAYER-2
 10
5.017357
 20
5.028948
 30
0.000000
  0
VERTEX
  8
MERGEDLAYER-2
 10
5.017357
 20
4.939304
 30
0.000000
  0
VERTEX
  8
MERGEDLAYER-2
 10
4.898174
 20
4.939304
 30
0.000000
  0
SEQEND
  8
MERGEDLAYER-2
  0
POLYLINE
  8
MERGEDLAYER-2
 66
  1
 70
  1
 62
  7
  0
VERTEX
  8
MERGEDLAYER-2
 10
4.302474
 20
4.889549
 30
0.000000
  0
VERTEX
  8
MERGEDLAYER-2
 10
4.421657
 20
4.889549
 30
0.000000
  0
VERTEX
  8
MERGEDLAYER-2
 10
4.421657
 20
4.799904
 30
0.000000
  0
VERTEX
  8
MERGEDLAYER-2
 10
4.302474
 20
4.799904
 30
0.000000
  0
SEQEND
  8
MERGEDLAYER-2
  0
POLYLINE
  8
MERGEDLAYER-2
 66
  1
 70
  1
 62
  7
  0
VERTEX
  8
MERGEDLAYER-2
 10
4.898174
 20
4.750148
 30
0.000000
  0
VERTEX
  8
MERGEDLAYER-2
 10
5.017357
 20
4.750148
 30
0.000000
  0
VERTEX
  8
MERGEDLAYER-2
 10
5.017357
 20
4.660503
 30
0.000000
  0
VERTEX
  8
MERGEDLAYER-2
 10
4.898174
 20
4.660503
 30
0.000000
  0
SEQEND
  8
MERGEDLAYER-2
  0
POLYLINE
  8
MERGEDLAYER-2
 66
  1
 70
  1
 62
  7
  0
VERTEX
  8
MERGEDLAYER-2
 10
4.302474
 20
4.610749
 30
0.000000
  0
VERTEX
  8
MERGEDLAYER-2
 10
4.421657
 20
4.610749
 30
0.000000
  0
VERTEX
  8
MERGEDLAYER-2
 10
4.421657
 20
4.521104
 30
0.000000
  0
VERTEX
  8
MERGEDLAYER-2
 10
4.302474
 20
4.521104
 30
0.000000
  0
SEQEND
  8
MERGEDLAYER-2
  0
POLYLINE
  8
MERGEDLAYER-2
 66
  1
 70
  1
 62
  7
  0
VERTEX
  8
MERGEDLAYER-2
 10
4.898174
 20
4.471348
 30
0.000000
  0
VERTEX
  8
MERGEDLAYER-2
 10
5.017357
 20
4.471348
 30
0.000000
  0
VERTEX
  8
MERGEDLAYER-2
 10
5.017357
 20
4.381703
 30
0.000000
  0
VERTEX
  8
MERGEDLAYER-2
 10
4.898174
 20
4.381703
 30
0.000000
  0
SEQEND
  8
MERGEDLAYER-2
  0
POLYLINE
  8
MERGEDLAYER-2
 66
  1
 70
  1
 62
  7
  0
VERTEX
  8
MERGEDLAYER-2
 10
4.302474
 20
4.331949
 30
0.000000
  0
VERTEX
  8
MERGEDLAYER-2
 10
4.421657
 20
4.331949
 30
0.000000
  0
VERTEX
  8
MERGEDLAYER-2
 10
4.421657
 20
4.242304
 30
0.000000
  0
VERTEX
  8
MERGEDLAYER-2
 10
4.302474
 20
4.242304
 30
0.000000
  0
SEQEND
  8
MERGEDLAYER-2
  0
POLYLINE
  8
MERGEDLAYER-2
 66
  1
 70
  1
 62
  7
  0
VERTEX
  8
MERGEDLAYER-2
 10
4.898174
 20
4.192548
 30
0.000000
  0
VERTEX
  8
MERGEDLAYER-2
 10
5.017357
 20
4.192548
 30
0.000000
  0
VERTEX
  8
MERGEDLAYER-2
 10
5.017357
 20
4.102904
 30
0.000000
  0
VERTEX
  8
MERGEDLAYER-2
 10
4.898174
 20
4.102904
 30
0.000000
  0
SEQEND
  8
MERGEDLAYER-2
  0
POLYLINE
  8
MERGEDLAYER-2
 66
  1
 70
  1
 62
  7
  0
VERTEX
  8
MERGEDLAYER-2
 10
4.302474
 20
4.053149
 30
0.000000
  0
VERTEX
  8
MERGEDLAYER-2
 10
4.421657
 20
4.053149
 30
0.000000
  0
VERTEX
  8
MERGEDLAYER-2
 10
4.421657
 20
3.963504
 30
0.000000
  0
VERTEX
  8
MERGEDLAYER-2
 10
4.302474
 20
3.963504
 30
0.000000
  0
SEQEND
  8
MERGEDLAYER-2
  0
POLYLINE
  8
MERGEDLAYER-2
 66
  1
 70
  1
 62
  7
  0
VERTEX
  8
MERGEDLAYER-2
 10
4.898174
 20
3.913748
 30
0.000000
  0
VERTEX
  8
MERGEDLAYER-2
 10
5.017357
 20
3.913748
 30
0.000000
  0
VERTEX
  8
MERGEDLAYER-2
 10
5.017357
 20
3.824103
 30
0.000000
  0
VERTEX
  8
MERGEDLAYER-2
 10
4.898174
 20
3.824103
 30
0.000000
  0
SEQEND
  8
MERGEDLAYER-2
  0
POLYLINE
  8
MERGEDLAYER-2
 66
  1
 70
  1
 62
  7
  0
VERTEX
  8
MERGEDLAYER-2
 10
4.302474
 20
3.774349
 30
0.000000
  0
VERTEX
  8
MERGEDLAYER-2
 10
4.421657
 20
3.774349
 30
0.000000
  0
VERTEX
  8
MERGEDLAYER-2
 10
4.421657
 20
3.684704
 30
0.000000
  0
VERTEX
  8
MERGEDLAYER-2
 10
4.302474
 20
3.684704
 30
0.000000
  0
SEQEND
  8
MERGEDLAYER-2
  0
POLYLINE
  8
MERGEDLAYER-2
 66
  1
 70
  1
 62
  7
  0
VERTEX
  8
MERGEDLAYER-2
 10
4.898174
 20
3.634948
 30
0.000000
  0
VERTEX
  8
MERGEDLAYER-2
 10
5.017357
 20
3.634948
 30
0.000000
  0
VERTEX
  8
MERGEDLAYER-2
 10
5.017357
 20
3.545304
 30
0.000000
  0
VERTEX
  8
MERGEDLAYER-2
 10
4.898174
 20
3.545304
 30
0.000000
  0
SEQEND
  8
MERGEDLAYER-2
  0
POLYLINE
  8
MERGEDLAYER-2
 66
  1
 70
  1
 62
  7
  0
VERTEX
  8
MERGEDLAYER-2
 10
4.302474
 20
3.495549
 30
0.000000
  0
VERTEX
  8
MERGEDLAYER-2
 10
4.421657
 20
3.495549
 30
0.000000
  0
VERTEX
  8
MERGEDLAYER-2
 10
4.421657
 20
3.405904
 30
0.000000
  0
VERTEX
  8
MERGEDLAYER-2
 10
4.302474
 20
3.405904
 30
0.000000
  0
SEQEND
  8
MERGEDLAYER-2
  0
POLYLINE
  8
MERGEDLAYER-2
 66
  1
 70
  1
 62
  7
  0
VERTEX
  8
MERGEDLAYER-2
 10
4.898174
 20
3.356148
 30
0.000000
  0
VERTEX
  8
MERGEDLAYER-2
 10
5.017357
 20
3.356148
 30
0.000000
  0
VERTEX
  8
MERGEDLAYER-2
 10
5.017357
 20
3.266503
 30
0.000000
  0
VERTEX
  8
MERGEDLAYER-2
 10
4.898174
 20
3.266503
 30
0.000000
  0
SEQEND
  8
MERGEDLAYER-2
  0
POLYLINE
  8
MERGEDLAYER-2
 66
  1
 70
  1
 62
  7
  0
VERTEX
  8
MERGEDLAYER-2
 10
4.302474
 20
3.216749
 30
0.000000
  0
VERTEX
  8
MERGEDLAYER-2
 10
4.421657
 20
3.216749
 30
0.000000
  0
VERTEX
  8
MERGEDLAYER-2
 10
4.421657
 20
3.127104
 30
0.000000
  0
VERTEX
  8
MERGEDLAYER-2
 10
4.302474
 20
3.127104
 30
0.000000
  0
SEQEND
  8
MERGEDLAYER-2
  0
POLYLINE
  8
MERGEDLAYER-2
 66
  1
 70
  1
 62
  7
  0
VERTEX
  8
MERGEDLAYER-2
 10
4.898174
 20
3.077348
 30
0.000000
  0
VERTEX
  8
MERGEDLAYER-2
 10
5.017357
 20
3.077348
 30
0.000000
  0
VERTEX
  8
MERGEDLAYER-2
 10
5.017357
 20
2.987704
 30
0.000000
  0
VERTEX
  8
MERGEDLAYER-2
 10
4.898174
 20
2.987704
 30
0.000000
  0
SEQEND
  8
MERGEDLAYER-2
  0
POLYLINE
  8
MERGEDLAYER-2
 66
  1
 70
  1
 62
  7
  0
VERTEX
  8
MERGEDLAYER-2
 10
4.302474
 20
2.937949
 30
0.000000
  0
VERTEX
  8
MERGEDLAYER-2
 10
4.421657
 20
2.937949
 30
0.000000
  0
VERTEX
  8
MERGEDLAYER-2
 10
4.421657
 20
2.848304
 30
0.000000
  0
VERTEX
  8
MERGEDLAYER-2
 10
4.302474
 20
2.848304
 30
0.000000
  0
SEQEND
  8
MERGEDLAYER-2
  0
POLYLINE
  8
MERGEDLAYER-2
 66
  1
 70
  1
 62
  7
  0
VERTEX
  8
MERGEDLAYER-2
 10
4.898174
 20
2.798548
 30
0.000000
  0
VERTEX
  8
MERGEDLAYER-2
 10
5.017357
 20
2.798548
 30
0.000000
  0
VERTEX
  8
MERGEDLAYER-2
 10
5.017357
 20
2.708904
 30
0.000000
  0
VERTEX
  8
MERGEDLAYER-2
 10
4.898174
 20
2.708904
 30
0.000000
  0
SEQEND
  8
MERGEDLAYER-2
  0
POLYLINE
  8
MERGEDLAYER-2
 66
  1
 70
  1
 62
  7
  0
VERTEX
  8
MERGEDLAYER-2
 10
5.493952
 20
5.168348
 30
0.000000
  0
VERTEX
  8
MERGEDLAYER-2
 10
5.613135
 20
5.168348
 30
0.000000
  0
VERTEX
  8
MERGEDLAYER-2
 10
5.613135
 20
5.078704
 30
0.000000
  0
VERTEX
  8
MERGEDLAYER-2
 10
5.493952
 20
5.078704
 30
0.000000
  0
SEQEND
  8
MERGEDLAYER-2
  0
POLYLINE
  8
MERGEDLAYER-2
 66
  1
 70
  1
 62
  7
  0
VERTEX
  8
MERGEDLAYER-2
 10
6.089652
 20
5.028948
 30
0.000000
  0
VERTEX
  8
MERGEDLAYER-2
 10
6.208835
 20
5.028948
 30
0.000000
  0
VERTEX
  8
MERGEDLAYER-2
 10
6.208835
 20
4.939304
 30
0.000000
  0
VERTEX
  8
MERGEDLAYER-2
 10
6.089652
 20
4.939304
 30
0.000000
  0
SEQEND
  8
MERGEDLAYER-2
  0
POLYLINE
  8
MERGEDLAYER-2
 66
  1
 70
  1
 62
  7
  0
VERTEX
  8
MERGEDLAYER-2
 10
5.493952
 20
4.889549
 30
0.000000
  0
VERTEX
  8
MERGEDLAYER-2
 10
5.613135
 20
4.889549
 30
0.000000
  0
VERTEX
  8
MERGEDLAYER-2
 10
5.613135
 20
4.799904
 30
0.000000
  0
VERTEX
  8
MERGEDLAYER-2
 10
5.493952
 20
4.799904
 30
0.000000
  0
SEQEND
  8
MERGEDLAYER-2
  0
POLYLINE
  8
MERGEDLAYER-2
 66
  1
 70
  1
 62
  7
  0
VERTEX
  8
MERGEDLAYER-2
 10
6.089652
 20
4.750148
 30
0.000000
  0
VERTEX
  8
MERGEDLAYER-2
 10
6.208835
 20
4.750148
 30
0.000000
  0
VERTEX
  8
MERGEDLAYER-2
 10
6.208835
 20
4.660503
 30
0.000000
  0
VERTEX
  8
MERGEDLAYER-2
 10
6.089652
 20
4.660503
 30
0.000000
  0
SEQEND
  8
MERGEDLAYER-2
  0
POLYLINE
  8
MERGEDLAYER-2
 66
  1
 70
  1
 62
  7
  0
VERTEX
  8
MERGEDLAYER-2
 10
5.493952
 20
4.610749
 30
0.000000
  0
VERTEX
  8
MERGEDLAYER-2
 10
5.613135
 20
4.610749
 30
0.000000
  0
VERTEX
  8
MERGEDLAYER-2
 10
5.613135
 20
4.521104
 30
0.000000
  0
VERTEX
  8
MERGEDLAYER-2
 10
5.493952
 20
4.521104
 30
0.000000
  0
SEQEND
  8
MERGEDLAYER-2
  0
POLYLINE
  8
MERGEDLAYER-2
 66
  1
 70
  1
 62
  7
  0
VERTEX
  8
MERGEDLAYER-2
 10
6.089652
 20
4.471348
 30
0.000000
  0
VERTEX
  8
MERGEDLAYER-2
 10
6.208835
 20
4.471348
 30
0.000000
  0
VERTEX
  8
MERGEDLAYER-2
 10
6.208835
 20
4.381703
 30
0.000000
  0
VERTEX
  8
MERGEDLAYER-2
 10
6.089652
 20
4.381703
 30
0.000000
  0
SEQEND
  8
MERGEDLAYER-2
  0
POLYLINE
  8
MERGEDLAYER-2
 66
  1
 70
  1
 62
  7
  0
VERTEX
  8
MERGEDLAYER-2
 10
5.493952
 20
4.331949
 30
0.000000
  0
VERTEX
  8
MERGEDLAYER-2
 10
5.613135
 20
4.331949
 30
0.000000
  0
VERTEX
  8
MERGEDLAYER-2
 10
5.613135
 20
4.242304
 30
0.000000
  0
VERTEX
  8
MERGEDLAYER-2
 10
5.493952
 20
4.242304
 30
0.000000
  0
SEQEND
  8
MERGEDLAYER-2
  0
POLYLINE
  8
MERGEDLAYER-2
 66
  1
 70
  1
 62
  7
  0
VERTEX
  8
MERGEDLAYER-2
 10
6.089652
 20
4.192548
 30
0.000000
  0
VERTEX
  8
MERGEDLAYER-2
 10
6.208835
 20
4.192548
 30
0.000000
  0
VERTEX
  8
MERGEDLAYER-2
 10
6.208835
 20
4.102904
 30
0.000000
  0
VERTEX
  8
MERGEDLAYER-2
 10
6.089652
 20
4.102904
 30
0.000000
  0
SEQEND
  8
MERGEDLAYER-2
  0
POLYLINE
  8
MERGEDLAYER-2
 66
  1
 70
  1
 62
  7
  0
VERTEX
  8
MERGEDLAYER-2
 10
5.493952
 20
4.053149
 30
0.000000
  0
VERTEX
  8
MERGEDLAYER-2
 10
5.613135
 20
4.053149
 30
0.000000
  0
VERTEX
  8
MERGEDLAYER-2
 10
5.613135
 20
3.963504
 30
0.000000
  0
VERTEX
  8
MERGEDLAYER-2
 10
5.493952
 20
3.963504
 30
0.000000
  0
SEQEND
  8
MERGEDLAYER-2
  0
POLYLINE
  8
MERGEDLAYER-2
 66
  1
 70
  1
 62
  7
  0
VERTEX
  8
MERGEDLAYER-2
 10
6.089652
 20
3.913748
 30
0.000000
  0
VERTEX
  8
MERGEDLAYER-2
 10
6.208835
 20
3.913748
 30
0.000000
  0
VERTEX
  8
MERGEDLAYER-2
 10
6.208835
 20
3.824103
 30
0.000000
  0
VERTEX
  8
MERGEDLAYER-2
 10
6.089652
 20
3.824103
 30
0.000000
  0
SEQEND
  8
MERGEDLAYER-2
  0
POLYLINE
  8
MERGEDLAYER-2
 66
  1
 70
  1
 62
  7
  0
VERTEX
  8
MERGEDLAYER-2
 10
5.493952
 20
3.774349
 30
0.000000
  0
VERTEX
  8
MERGEDLAYER-2
 10
5.613135
 20
3.774349
 30
0.000000
  0
VERTEX
  8
MERGEDLAYER-2
 10
5.613135
 20
3.684704
 30
0.000000
  0
VERTEX
  8
MERGEDLAYER-2
 10
5.493952
 20
3.684704
 30
0.000000
  0
SEQEND
  8
MERGEDLAYER-2
  0
POLYLINE
  8
MERGEDLAYER-2
 66
  1
 70
  1
 62
  7
  0
VERTEX
  8
MERGEDLAYER-2
 10
6.089652
 20
3.634948
 30
0.000000
  0
VERTEX
  8
MERGEDLAYER-2
 10
6.208835
 20
3.634948
 30
0.000000
  0
VERTEX
  8
MERGEDLAYER-2
 10
6.208835
 20
3.545304
 30
0.000000
  0
VERTEX
  8
MERGEDLAYER-2
 10
6.089652
 20
3.545304
 30
0.000000
  0
SEQEND
  8
MERGEDLAYER-2
  0
POLYLINE
  8
MERGEDLAYER-2
 66
  1
 70
  1
 62
  7
  0
VERTEX
  8
MERGEDLAYER-2
 10
5.493952
 20
3.495549
 30
0.000000
  0
VERTEX
  8
MERGEDLAYER-2
 10
5.613135
 20
3.495549
 30
0.000000
  0
VERTEX
  8
MERGEDLAYER-2
 10
5.613135
 20
3.405904
 30
0.000000
  0
VERTEX
  8
MERGEDLAYER-2
 10
5.493952
 20
3.405904
 30
0.000000
  0
SEQEND
  8
MERGEDLAYER-2
  0
POLYLINE
  8
MERGEDLAYER-2
 66
  1
 70
  1
 62
  7
  0
VERTEX
  8
MERGEDLAYER-2
 10
6.089652
 20
3.356148
 30
0.000000
  0
VERTEX
  8
MERGEDLAYER-2
 10
6.208835
 20
3.356148
 30
0.000000
  0
VERTEX
  8
MERGEDLAYER-2
 10
6.208835
 20
3.266503
 30
0.000000
  0
VERTEX
  8
MERGEDLAYER-2
 10
6.089652
 20
3.266503
 30
0.000000
  0
SEQEND
  8
MERGEDLAYER-2
  0
POLYLINE
  8
MERGEDLAYER-2
 66
  1
 70
  1
 62
  7
  0
VERTEX
  8
MERGEDLAYER-2
 10
5.493952
 20
3.216749
 30
0.000000
  0
VERTEX
  8
MERGEDLAYER-2
 10
5.613135
 20
3.216749
 30
0.000000
  0
VERTEX
  8
MERGEDLAYER-2
 10
5.613135
 20
3.127104
 30
0.000000
  0
VERTEX
  8
MERGEDLAYER-2
 10
5.493952
 20
3.127104
 30
0.000000
  0
SEQEND
  8
MERGEDLAYER-2
  0
POLYLINE
  8
MERGEDLAYER-2
 66
  1
 70
  1
 62
  7
  0
VERTEX
  8
MERGEDLAYER-2
 10
6.089652
 20
3.077348
 30
0.000000
  0
VERTEX
  8
MERGEDLAYER-2
 10
6.208835
 20
3.077348
 30
0.000000
  0
VERTEX
  8
MERGEDLAYER-2
 10
6.208835
 20
2.987704
 30
0.000000
  0
VERTEX
  8
MERGEDLAYER-2
 10
6.089652
 20
2.987704
 30
0.000000
  0
SEQEND
  8
MERGEDLAYER-2
  0
POLYLINE
  8
MERGEDLAYER-2
 66
  1
 70
  1
 62
  7
  0
VERTEX
  8
MERGEDLAYER-2
 10
5.493952
 20
2.937949
 30
0.000000
  0
VERTEX
  8
MERGEDLAYER-2
 10
5.613135
 20
2.937949
 30
0.000000
  0
VERTEX
  8
MERGEDLAYER-2
 10
5.613135
 20
2.848304
 30
0.000000
  0
VERTEX
  8
MERGEDLAYER-2
 10
5.493952
 20
2.848304
 30
0.000000
  0
SEQEND
  8
MERGEDLAYER-2
  0
POLYLINE
  8
MERGEDLAYER-2
 66
  1
 70
  1
 62
  7
  0
VERTEX
  8
MERGEDLAYER-2
 10
6.089652
 20
2.798548
 30
0.000000
  0
VERTEX
  8
MERGEDLAYER-2
 10
6.208835
 20
2.798548
 30
0.000000
  0
VERTEX
  8
MERGEDLAYER-2
 10
6.208835
 20
2.708904
 30
0.000000
  0
VERTEX
  8
MERGEDLAYER-2
 10
6.089652
 20
2.708904
 30
0.000000
  0
SEQEND
  8
MERGEDLAYER-2
  0
POLYLINE
  8
MERGEDLAYER-2
 66
  1
 70
  1
 62
  7
  0
VERTEX
  8
MERGEDLAYER-2
 10
6.684860
 20
5.168348
 30
0.000000
  0
VERTEX
  8
MERGEDLAYER-2
 10
6.804043
 20
5.168348
 30
0.000000
  0
VERTEX
  8
MERGEDLAYER-2
 10
6.804043
 20
5.078704
 30
0.000000
  0
VERTEX
  8
MERGEDLAYER-2
 10
6.684860
 20
5.078704
 30
0.000000
  0
SEQEND
  8
MERGEDLAYER-2
  0
POLYLINE
  8
MERGEDLAYER-2
 66
  1
 70
  1
 62
  7
  0
VERTEX
  8
MERGEDLAYER-2
 10
6.684860
 20
5.028948
 30
0.000000
  0
VERTEX
  8
MERGEDLAYER-2
 10
6.804043
 20
5.028948
 30
0.000000
  0
VERTEX
  8
MERGEDLAYER-2
 10
6.804043
 20
4.939304
 30
0.000000
  0
VERTEX
  8
MERGEDLAYER-2
 10
6.684860
 20
4.939304
 30
0.000000
  0
SEQEND
  8
MERGEDLAYER-2
  0
POLYLINE
  8
MERGEDLAYER-2
 66
  1
 70
  1
 62
  7
  0
VERTEX
  8
MERGEDLAYER-2
 10
6.684860
 20
4.889549
 30
0.000000
  0
VERTEX
  8
MERGEDLAYER-2
 10
6.804043
 20
4.889549
 30
0.000000
  0
VERTEX
  8
MERGEDLAYER-2
 10
6.804043
 20
4.799904
 30
0.000000
  0
VERTEX
  8
MERGEDLAYER-2
 10
6.684860
 20
4.799904
 30
0.000000
  0
SEQEND
  8
MERGEDLAYER-2
  0
POLYLINE
  8
MERGEDLAYER-2
 66
  1
 70
  1
 62
  7
  0
VERTEX
  8
MERGEDLAYER-2
 10
6.684860
 20
4.750148
 30
0.000000
  0
VERTEX
  8
MERGEDLAYER-2
 10
6.804043
 20
4.750148
 30
0.000000
  0
VERTEX
  8
MERGEDLAYER-2
 10
6.804043
 20
4.660503
 30
0.000000
  0
VERTEX
  8
MERGEDLAYER-2
 10
6.684860
 20
4.660503
 30
0.000000
  0
SEQEND
  8
MERGEDLAYER-2
  0
POLYLINE
  8
MERGEDLAYER-2
 66
  1
 70
  1
 62
  7
  0
VERTEX
  8
MERGEDLAYER-2
 10
6.684860
 20
4.610749
 30
0.000000
  0
VERTEX
  8
MERGEDLAYER-2
 10
6.804043
 20
4.610749
 30
0.000000
  0
VERTEX
  8
MERGEDLAYER-2
 10
6.804043
 20
4.521104
 30
0.000000
  0
VERTEX
  8
MERGEDLAYER-2
 10
6.684860
 20
4.521104
 30
0.000000
  0
SEQEND
  8
MERGEDLAYER-2
  0
POLYLINE
  8
MERGEDLAYER-2
 66
  1
 70
  1
 62
  7
  0
VERTEX
  8
MERGEDLAYER-2
 10
6.684860
 20
4.471348
 30
0.000000
  0
VERTEX
  8
MERGEDLAYER-2
 10
6.804043
 20
4.471348
 30
0.000000
  0
VERTEX
  8
MERGEDLAYER-2
 10
6.804043
 20
4.381703
 30
0.000000
  0
VERTEX
  8
MERGEDLAYER-2
 10
6.684860
 20
4.381703
 30
0.000000
  0
SEQEND
  8
MERGEDLAYER-2
  0
POLYLINE
  8
MERGEDLAYER-2
 66
  1
 70
  1
 62
  7
  0
VERTEX
  8
MERGEDLAYER-2
 10
6.684860
 20
4.331949
 30
0.000000
  0
VERTEX
  8
MERGEDLAYER-2
 10
6.804043
 20
4.331949
 30
0.000000
  0
VERTEX
  8
MERGEDLAYER-2
 10
6.804043
 20
4.242304
 30
0.000000
  0
VERTEX
  8
MERGEDLAYER-2
 10
6.684860
 20
4.242304
 30
0.000000
  0
SEQEND
  8
MERGEDLAYER-2
  0
POLYLINE
  8
MERGEDLAYER-2
 66
  1
 70
  1
 62
  7
  0
VERTEX
  8
MERGEDLAYER-2
 10
6.684860
 20
4.192548
 30
0.000000
  0
VERTEX
  8
MERGEDLAYER-2
 10
6.804043
 20
4.192548
 30
0.000000
  0
VERTEX
  8
MERGEDLAYER-2
 10
6.804043
 20
4.102904
 30
0.000000
  0
VERTEX
  8
MERGEDLAYER-2
 10
6.684860
 20
4.102904
 30
0.000000
  0
SEQEND
  8
MERGEDLAYER-2
  0
POLYLINE
  8
MERGEDLAYER-2
 66
  1
 70
  1
 62
  7
  0
VERTEX
  8
MERGEDLAYER-2
 10
6.684860
 20
4.053149
 30
0.000000
  0
VERTEX
  8
MERGEDLAYER-2
 10
6.804043
 20
4.053149
 30
0.000000
  0
VERTEX
  8
MERGEDLAYER-2
 10
6.804043
 20
3.963504
 30
0.000000
  0
VERTEX
  8
MERGEDLAYER-2
 10
6.684860
 20
3.963504
 30
0.000000
  0
SEQEND
  8
MERGEDLAYER-2
  0
POLYLINE
  8
MERGEDLAYER-2
 66
  1
 70
  1
 62
  7
  0
VERTEX
  8
MERGEDLAYER-2
 10
6.684860
 20
3.913748
 30
0.000000
  0
VERTEX
  8
MERGEDLAYER-2
 10
6.804043
 20
3.913748
 30
0.000000
  0
VERTEX
  8
MERGEDLAYER-2
 10
6.804043
 20
3.824103
 30
0.000000
  0
VERTEX
  8
MERGEDLAYER-2
 10
6.684860
 20
3.824103
 30
0.000000
  0
SEQEND
  8
MERGEDLAYER-2
  0
POLYLINE
  8
MERGEDLAYER-2
 66
  1
 70
  1
 62
  7
  0
VERTEX
  8
MERGEDLAYER-2
 10
6.684860
 20
3.774349
 30
0.000000
  0
VERTEX
  8
MERGEDLAYER-2
 10
6.804043
 20
3.774349
 30
0.000000
  0
VERTEX
  8
MERGEDLAYER-2
 10
6.804043
 20
3.684704
 30
0.000000
  0
VERTEX
  8
MERGEDLAYER-2
 10
6.684860
 20
3.684704
 30
0.000000
  0
SEQEND
  8
MERGEDLAYER-2
  0
POLYLINE
  8
MERGEDLAYER-2
 66
  1
 70
  1
 62
  7
  0
VERTEX
  8
MERGEDLAYER-2
 10
6.684860
 20
3.634948
 30
0.000000
  0
VERTEX
  8
MERGEDLAYER-2
 10
6.804043
 20
3.634948
 30
0.000000
  0
VERTEX
  8
MERGEDLAYER-2
 10
6.804043
 20
3.545304
 30
0.000000
  0
VERTEX
  8
MERGEDLAYER-2
 10
6.684860
 20
3.545304
 30
0.000000
  0
SEQEND
  8
MERGEDLAYER-2
  0
POLYLINE
  8
MERGEDLAYER-2
 66
  1
 70
  1
 62
  7
  0
VERTEX
  8
MERGEDLAYER-2
 10
6.684860
 20
3.495549
 30
0.000000
  0
VERTEX
  8
MERGEDLAYER-2
 10
6.804043
 20
3.495549
 30
0.000000
  0
VERTEX
  8
MERGEDLAYER-2
 10
6.804043
 20
3.405904
 30
0.000000
  0
VERTEX
  8
MERGEDLAYER-2
 10
6.684860
 20
3.405904
 30
0.000000
  0
SEQEND
  8
MERGEDLAYER-2
  0
POLYLINE
  8
MERGEDLAYER-2
 66
  1
 70
  1
 62
  7
  0
VERTEX
  8
MERGEDLAYER-2
 10
6.684860
 20
3.356148
 30
0.000000
  0
VERTEX
  8
MERGEDLAYER-2
 10
6.804043
 20
3.356148
 30
0.000000
  0
VERTEX
  8
MERGEDLAYER-2
 10
6.804043
 20
3.266503
 30
0.000000
  0
VERTEX
  8
MERGEDLAYER-2
 10
6.684860
 20
3.266503
 30
0.000000
  0
SEQEND
  8
MERGEDLAYER-2
  0
POLYLINE
  8
MERGEDLAYER-2
 66
  1
 70
  1
 62
  7
  0
VERTEX
  8
MERGEDLAYER-2
 10
6.684860
 20
3.216749
 30
0.000000
  0
VERTEX
  8
MERGEDLAYER-2
 10
6.804043
 20
3.216749
 30
0.000000
  0
VERTEX
  8
MERGEDLAYER-2
 10
6.804043
 20
3.127104
 30
0.000000
  0
VERTEX
  8
MERGEDLAYER-2
 10
6.684860
 20
3.127104
 30
0.000000
  0
SEQEND
  8
MERGEDLAYER-2
  0
POLYLINE
  8
MERGEDLAYER-2
 66
  1
 70
  1
 62
  7
  0
VERTEX
  8
MERGEDLAYER-2
 10
6.684860
 20
3.077348
 30
0.000000
  0
VERTEX
  8
MERGEDLAYER-2
 10
6.804043
 20
3.077348
 30
0.000000
  0
VERTEX
  8
MERGEDLAYER-2
 10
6.804043
 20
2.987704
 30
0.000000
  0
VERTEX
  8
MERGEDLAYER-2
 10
6.684860
 20
2.987704
 30
0.000000
  0
SEQEND
  8
MERGEDLAYER-2
  0
POLYLINE
  8
MERGEDLAYER-2
 66
  1
 70
  1
 62
  7
  0
VERTEX
  8
MERGEDLAYER-2
 10
6.684860
 20
2.937949
 30
0.000000
  0
VERTEX
  8
MERGEDLAYER-2
 10
6.804043
 20
2.937949
 30
0.000000
  0
VERTEX
  8
MERGEDLAYER-2
 10
6.804043
 20
2.848304
 30
0.000000
  0
VERTEX
  8
MERGEDLAYER-2
 10
6.684860
 20
2.848304
 30
0.000000
  0
SEQEND
  8
MERGEDLAYER-2
  0
POLYLINE
  8
MERGEDLAYER-2
 66
  1
 70
  1
 62
  7
  0
VERTEX
  8
MERGEDLAYER-2
 10
6.684860
 20
2.798548
 30
0.000000
  0
VERTEX
  8
MERGEDLAYER-2
 10
6.804043
 20
2.798548
 30
0.000000
  0
VERTEX
  8
MERGEDLAYER-2
 10
6.804043
 20
2.708904
 30
0.000000
  0
VERTEX
  8
MERGEDLAYER-2
 10
6.684860
 20
2.708904
 30
0.000000
  0
SEQEND
  8
MERGEDLAYER-2
  0
POLYLINE
  8
MERGEDLAYER-2
 66
  1
 70
  1
 62
  7
  0
VERTEX
  8
MERGEDLAYER-2
 10
0.728611
 20
5.028948
 30
0.000000
  0
VERTEX
  8
MERGEDLAYER-2
 10
0.847793
 20
5.028948
 30
0.000000
  0
VERTEX
  8
MERGEDLAYER-2
 10
0.847793
 20
4.939304
 30
0.000000
  0
VERTEX
  8
MERGEDLAYER-2
 10
0.728611
 20
4.939304
 30
0.000000
  0
SEQEND
  8
MERGEDLAYER-2
  0
POLYLINE
  8
MERGEDLAYER-2
 66
  1
 70
  1
 62
  7
  0
VERTEX
  8
MERGEDLAYER-2
 10
0.728611
 20
4.750148
 30
0.000000
  0
VERTEX
  8
MERGEDLAYER-2
 10
0.847793
 20
4.750148
 30
0.000000
  0
VERTEX
  8
MERGEDLAYER-2
 10
0.847793
 20
4.660503
 30
0.000000
  0
VERTEX
  8
MERGEDLAYER-2
 10
0.728611
 20
4.660503
 30
0.000000
  0
SEQEND
  8
MERGEDLAYER-2
  0
POLYLINE
  8
MERGEDLAYER-2
 66
  1
 70
  1
 62
  7
  0
VERTEX
  8
MERGEDLAYER-2
 10
0.728611
 20
4.471348
 30
0.000000
  0
VERTEX
  8
MERGEDLAYER-2
 10
0.847793
 20
4.471348
 30
0.000000
  0
VERTEX
  8
MERGEDLAYER-2
 10
0.847793
 20
4.381703
 30
0.000000
  0
VERTEX
  8
MERGEDLAYER-2
 10
0.728611
 20
4.381703
 30
0.000000
  0
SEQEND
  8
MERGEDLAYER-2
  0
POLYLINE
  8
MERGEDLAYER-2
 66
  1
 70
  1
 62
  7
  0
VERTEX
  8
MERGEDLAYER-2
 10
0.728611
 20
4.192548
 30
0.000000
  0
VERTEX
  8
MERGEDLAYER-2
 10
0.847793
 20
4.192548
 30
0.000000
  0
VERTEX
  8
MERGEDLAYER-2
 10
0.847793
 20
4.102904
 30
0.000000
  0
VERTEX
  8
MERGEDLAYER-2
 10
0.728611
 20
4.102904
 30
0.000000
  0
SEQEND
  8
MERGEDLAYER-2
  0
POLYLINE
  8
MERGEDLAYER-2
 66
  1
 70
  1
 62
  7
  0
VERTEX
  8
MERGEDLAYER-2
 10
0.728611
 20
3.913748
 30
0.000000
  0
VERTEX
  8
MERGEDLAYER-2
 10
0.847793
 20
3.913748
 30
0.000000
  0
VERTEX
  8
MERGEDLAYER-2
 10
0.847793
 20
3.824103
 30
0.000000
  0
VERTEX
  8
MERGEDLAYER-2
 10
0.728611
 20
3.824103
 30
0.000000
  0
SEQEND
  8
MERGEDLAYER-2
  0
POLYLINE
  8
MERGEDLAYER-2
 66
  1
 70
  1
 62
  7
  0
VERTEX
  8
MERGEDLAYER-2
 10
0.728611
 20
3.634948
 30
0.000000
  0
VERTEX
  8
MERGEDLAYER-2
 10
0.847793
 20
3.634948
 30
0.000000
  0
VERTEX
  8
MERGEDLAYER-2
 10
0.847793
 20
3.545304
 30
0.000000
  0
VERTEX
  8
MERGEDLAYER-2
 10
0.728611
 20
3.545304
 30
0.000000
  0
SEQEND
  8
MERGEDLAYER-2
  0
POLYLINE
  8
MERGEDLAYER-2
 66
  1
 70
  1
 62
  7
  0
VERTEX
  8
MERGEDLAYER-2
 10
0.728611
 20
3.356148
 30
0.000000
  0
VERTEX
  8
MERGEDLAYER-2
 10
0.847793
 20
3.356148
 30
0.000000
  0
VERTEX
  8
MERGEDLAYER-2
 10
0.847793
 20
3.266503
 30
0.000000
  0
VERTEX
  8
MERGEDLAYER-2
 10
0.728611
 20
3.266503
 30
0.000000
  0
SEQEND
  8
MERGEDLAYER-2
  0
POLYLINE
  8
MERGEDLAYER-2
 66
  1
 70
  1
 62
  7
  0
VERTEX
  8
MERGEDLAYER-2
 10
0.728611
 20
3.077348
 30
0.000000
  0
VERTEX
  8
MERGEDLAYER-2
 10
0.847793
 20
3.077348
 30
0.000000
  0
VERTEX
  8
MERGEDLAYER-2
 10
0.847793
 20
2.987704
 30
0.000000
  0
VERTEX
  8
MERGEDLAYER-2
 10
0.728611
 20
2.987704
 30
0.000000
  0
SEQEND
  8
MERGEDLAYER-2
  0
POLYLINE
  8
MERGEDLAYER-2
 66
  1
 70
  1
 62
  7
  0
VERTEX
  8
MERGEDLAYER-2
 10
0.728611
 20
2.798548
 30
0.000000
  0
VERTEX
  8
MERGEDLAYER-2
 10
0.847793
 20
2.798548
 30
0.000000
  0
VERTEX
  8
MERGEDLAYER-2
 10
0.847793
 20
2.708904
 30
0.000000
  0
VERTEX
  8
MERGEDLAYER-2
 10
0.728611
 20
2.708904
 30
0.000000
  0
SEQEND
  8
MERGEDLAYER-2
  0
POLYLINE
  8
MERGEDLAYER-2
 66
  1
 70
  1
 62
  7
  0
VERTEX
  8
MERGEDLAYER-2
 10
1.324350
 20
5.028948
 30
0.000000
  0
VERTEX
  8
MERGEDLAYER-2
 10
1.443532
 20
5.028948
 30
0.000000
  0
VERTEX
  8
MERGEDLAYER-2
 10
1.443532
 20
4.939304
 30
0.000000
  0
VERTEX
  8
MERGEDLAYER-2
 10
1.324350
 20
4.939304
 30
0.000000
  0
SEQEND
  8
MERGEDLAYER-2
  0
POLYLINE
  8
MERGEDLAYER-2
 66
  1
 70
  1
 62
  7
  0
VERTEX
  8
MERGEDLAYER-2
 10
1.324350
 20
4.750148
 30
0.000000
  0
VERTEX
  8
MERGEDLAYER-2
 10
1.443532
 20
4.750148
 30
0.000000
  0
VERTEX
  8
MERGEDLAYER-2
 10
1.443532
 20
4.660503
 30
0.000000
  0
VERTEX
  8
MERGEDLAYER-2
 10
1.324350
 20
4.660503
 30
0.000000
  0
SEQEND
  8
MERGEDLAYER-2
  0
POLYLINE
  8
MERGEDLAYER-2
 66
  1
 70
  1
 62
  7
  0
VERTEX
  8
MERGEDLAYER-2
 10
1.324350
 20
4.471348
 30
0.000000
  0
VERTEX
  8
MERGEDLAYER-2
 10
1.443532
 20
4.471348
 30
0.000000
  0
VERTEX
  8
MERGEDLAYER-2
 10
1.443532
 20
4.381703
 30
0.000000
  0
VERTEX
  8
MERGEDLAYER-2
 10
1.324350
 20
4.381703
 30
0.000000
  0
SEQEND
  8
MERGEDLAYER-2
  0
POLYLINE
  8
MERGEDLAYER-2
 66
  1
 70
  1
 62
  7
  0
VERTEX
  8
MERGEDLAYER-2
 10
1.324350
 20
4.192548
 30
0.000000
  0
VERTEX
  8
MERGEDLAYER-2
 10
1.443532
 20
4.192548
 30
0.000000
  0
VERTEX
  8
MERGEDLAYER-2
 10
1.443532
 20
4.102904
 30
0.000000
  0
VERTEX
  8
MERGEDLAYER-2
 10
1.324350
 20
4.102904
 30
0.000000
  0
SEQEND
  8
MERGEDLAYER-2
  0
POLYLINE
  8
MERGEDLAYER-2
 66
  1
 70
  1
 62
  7
  0
VERTEX
  8
MERGEDLAYER-2
 10
1.324350
 20
3.913748
 30
0.000000
  0
VERTEX
  8
MERGEDLAYER-2
 10
1.443532
 20
3.913748
 30
0.000000
  0
VERTEX
  8
MERGEDLAYER-2
 10
1.443532
 20
3.824103
 30
0.000000
  0
VERTEX
  8
MERGEDLAYER-2
 10
1.324350
 20
3.824103
 30
0.000000
  0
SEQEND
  8
MERGEDLAYER-2
  0
POLYLINE
  8
MERGEDLAYER-2
 66
  1
 70
  1
 62
  7
  0
VERTEX
  8
MERGEDLAYER-2
 10
1.324350
 20
3.634948
 30
0.000000
  0
VERTEX
  8
MERGEDLAYER-2
 10
1.443532
 20
3.634948
 30
0.000000
  0
VERTEX
  8
MERGEDLAYER-2
 10
1.443532
 20
3.545304
 30
0.000000
  0
VERTEX
  8
MERGEDLAYER-2
 10
1.324350
 20
3.545304
 30
0.000000
  0
SEQEND
  8
MERGEDLAYER-2
  0
POLYLINE
  8
MERGEDLAYER-2
 66
  1
 70
  1
 62
  7
  0
VERTEX
  8
MERGEDLAYER-2
 10
1.324350
 20
3.356148
 30
0.000000
  0
VERTEX
  8
MERGEDLAYER-2
 10
1.443532
 20
3.356148
 30
0.000000
  0
VERTEX
  8
MERGEDLAYER-2
 10
1.443532
 20
3.266503
 30
0.000000
  0
VERTEX
  8
MERGEDLAYER-2
 10
1.324350
 20
3.266503
 30
0.000000
  0
SEQEND
  8
MERGEDLAYER-2
  0
POLYLINE
  8
MERGEDLAYER-2
 66
  1
 70
  1
 62
  7
  0
VERTEX
  8
MERGEDLAYER-2
 10
1.324350
 20
3.077348
 30
0.000000
  0
VERTEX
  8
MERGEDLAYER-2
 10
1.443532
 20
3.077348
 30
0.000000
  0
VERTEX
  8
MERGEDLAYER-2
 10
1.443532
 20
2.987704
 30
0.000000
  0
VERTEX
  8
MERGEDLAYER-2
 10
1.324350
 20
2.987704
 30
0.000000
  0
SEQEND
  8
MERGEDLAYER-2
  0
POLYLINE
  8
MERGEDLAYER-2
 66
  1
 70
  1
 62
  7
  0
VERTEX
  8
MERGEDLAYER-2
 10
1.324350
 20
2.798548
 30
0.000000
  0
VERTEX
  8
MERGEDLAYER-2
 10
1.443532
 20
2.798548
 30
0.000000
  0
VERTEX
  8
MERGEDLAYER-2
 10
1.443532
 20
2.708904
 30
0.000000
  0
VERTEX
  8
MERGEDLAYER-2
 10
1.324350
 20
2.708904
 30
0.000000
  0
SEQEND
  8
MERGEDLAYER-2
  0
POLYLINE
  8
MERGEDLAYER-2
 66
  1
 70
  1
 62
  7
  0
VERTEX
  8
MERGEDLAYER-2
 10
2.515790
 20
5.028948
 30
0.000000
  0
VERTEX
  8
MERGEDLAYER-2
 10
2.634972
 20
5.028948
 30
0.000000
  0
VERTEX
  8
MERGEDLAYER-2
 10
2.634972
 20
4.939304
 30
0.000000
  0
VERTEX
  8
MERGEDLAYER-2
 10
2.515790
 20
4.939304
 30
0.000000
  0
SEQEND
  8
MERGEDLAYER-2
  0
POLYLINE
  8
MERGEDLAYER-2
 66
  1
 70
  1
 62
  7
  0
VERTEX
  8
MERGEDLAYER-2
 10
2.515790
 20
4.750148
 30
0.000000
  0
VERTEX
  8
MERGEDLAYER-2
 10
2.634972
 20
4.750148
 30
0.000000
  0
VERTEX
  8
MERGEDLAYER-2
 10
2.634972
 20
4.660503
 30
0.000000
  0
VERTEX
  8
MERGEDLAYER-2
 10
2.515790
 20
4.660503
 30
0.000000
  0
SEQEND
  8
MERGEDLAYER-2
  0
POLYLINE
  8
MERGEDLAYER-2
 66
  1
 70
  1
 62
  7
  0
VERTEX
  8
MERGEDLAYER-2
 10
2.515790
 20
4.471348
 30
0.000000
  0
VERTEX
  8
MERGEDLAYER-2
 10
2.634972
 20
4.471348
 30
0.000000
  0
VERTEX
  8
MERGEDLAYER-2
 10
2.634972
 20
4.381703
 30
0.000000
  0
VERTEX
  8
MERGEDLAYER-2
 10
2.515790
 20
4.381703
 30
0.000000
  0
SEQEND
  8
MERGEDLAYER-2
  0
POLYLINE
  8
MERGEDLAYER-2
 66
  1
 70
  1
 62
  7
  0
VERTEX
  8
MERGEDLAYER-2
 10
2.515790
 20
4.192548
 30
0.000000
  0
VERTEX
  8
MERGEDLAYER-2
 10
2.634972
 20
4.192548
 30
0.000000
  0
VERTEX
  8
MERGEDLAYER-2
 10
2.634972
 20
4.102904
 30
0.000000
  0
VERTEX
  8
MERGEDLAYER-2
 10
2.515790
 20
4.102904
 30
0.000000
  0
SEQEND
  8
MERGEDLAYER-2
  0
POLYLINE
  8
MERGEDLAYER-2
 66
  1
 70
  1
 62
  7
  0
VERTEX
  8
MERGEDLAYER-2
 10
2.515790
 20
3.913748
 30
0.000000
  0
VERTEX
  8
MERGEDLAYER-2
 10
2.634972
 20
3.913748
 30
0.000000
  0
VERTEX
  8
MERGEDLAYER-2
 10
2.634972
 20
3.824103
 30
0.000000
  0
VERTEX
  8
MERGEDLAYER-2
 10
2.515790
 20
3.824103
 30
0.000000
  0
SEQEND
  8
MERGEDLAYER-2
  0
POLYLINE
  8
MERGEDLAYER-2
 66
  1
 70
  1
 62
  7
  0
VERTEX
  8
MERGEDLAYER-2
 10
2.515790
 20
3.634948
 30
0.000000
  0
VERTEX
  8
MERGEDLAYER-2
 10
2.634972
 20
3.634948
 30
0.000000
  0
VERTEX
  8
MERGEDLAYER-2
 10
2.634972
 20
3.545304
 30
0.000000
  0
VERTEX
  8
MERGEDLAYER-2
 10
2.515790
 20
3.545304
 30
0.000000
  0
SEQEND
  8
MERGEDLAYER-2
  0
POLYLINE
  8
MERGEDLAYER-2
 66
  1
 70
  1
 62
  7
  0
VERTEX
  8
MERGEDLAYER-2
 10
2.515790
 20
3.356148
 30
0.000000
  0
VERTEX
  8
MERGEDLAYER-2
 10
2.634972
 20
3.356148
 30
0.000000
  0
VERTEX
  8
MERGEDLAYER-2
 10
2.634972
 20
3.266503
 30
0.000000
  0
VERTEX
  8
MERGEDLAYER-2
 10
2.515790
 20
3.266503
 30
0.000000
  0
SEQEND
  8
MERGEDLAYER-2
  0
POLYLINE
  8
MERGEDLAYER-2
 66
  1
 70
  1
 62
  7
  0
VERTEX
  8
MERGEDLAYER-2
 10
2.515790
 20
3.077348
 30
0.000000
  0
VERTEX
  8
MERGEDLAYER-2
 10
2.634972
 20
3.077348
 30
0.000000
  0
VERTEX
  8
MERGEDLAYER-2
 10
2.634972
 20
2.987704
 30
0.000000
  0
VERTEX
  8
MERGEDLAYER-2
 10
2.515790
 20
2.987704
 30
0.000000
  0
SEQEND
  8
MERGEDLAYER-2
  0
POLYLINE
  8
MERGEDLAYER-2
 66
  1
 70
  1
 62
  7
  0
VERTEX
  8
MERGEDLAYER-2
 10
2.515790
 20
2.798548
 30
0.000000
  0
VERTEX
  8
MERGEDLAYER-2
 10
2.634972
 20
2.798548
 30
0.000000
  0
VERTEX
  8
MERGEDLAYER-2
 10
2.634972
 20
2.708904
 30
0.000000
  0
VERTEX
  8
MERGEDLAYER-2
 10
2.515790
 20
2.708904
 30
0.000000
  0
SEQEND
  8
MERGEDLAYER-2
  0
POLYLINE
  8
MERGEDLAYER-2
 66
  1
 70
  1
 62
255
  0
VERTEX
  8
MERGEDLAYER-2
 10
0.591996
 20
2.351664
 30
0.000000
  0
VERTEX
  8
MERGEDLAYER-2
 10
6.940951
 20
2.351664
 30
0.000000
  0
VERTEX
  8
MERGEDLAYER-2
 10
6.940951
 20
0.016862
 30
0.000000
  0
VERTEX
  8
MERGEDLAYER-2
 10
0.591996
 20
0.016862
 30
0.000000
  0
SEQEND
  8
MERGEDLAYER-2
  0
ARC
  8
MERGEDLAYER-2
 62
  7
 10
5.471989
 20
8.977256
 30
0.000000
 40
0.254425
 50
270.000000
 51
90.000000
  0
POLYLINE
  8
MERGEDLAYER-2
 66
  1
 70
  0
 62
  7
 10
5.471989
 20
9.231682
 30
0.000000
  0
VERTEX
  8
MERGEDLAYER-2
 10
5.471989
 20
9.231682
 30
0.000000
  0
VERTEX
  8
MERGEDLAYER-2
 10
1.807067
 20
9.231682
 30
0.000000
  0
SEQEND
  8
MERGEDLAYER-2
  0
POLYLINE
  8
MERGEDLAYER-2
 66
  1
 70
  0
 62
  7
 10
1.807067
 20
9.231682
 30
0.000000
  0
VERTEX
  8
MERGEDLAYER-2
 10
1.807067
 20
9.231682
 30
0.000000
  0
VERTEX
  8
MERGEDLAYER-2
 10
1.807067
 20
8.722832
 30
0.000000
  0
SEQEND
  8
MERGEDLAYER-2
  0
POLYLINE
  8
MERGEDLAYER-2
 66
  1
 70
  0
 62
  7
 10
5.471989
 20
8.722832
 30
0.000000
  0
VERTEX
  8
MERGEDLAYER-2
 10
5.471989
 20
8.722832
 30
0.000000
  0
VERTEX
  8
MERGEDLAYER-2
 10
1.807067
 20
8.722832
 30
0.000000
  0
SEQEND
  8
MERGEDLAYER-2
  0
TEXT
  8
MERGEDLAYER-2
 62
  7
 10
3.598762
 20
9.530594
 30
0.000000
 40
0.340909
  1
MobilFlex
 72
  5
 11
5.807853
 21
9.530594
 31
0.000000
  0
POLYLINE
  8
MERGEDLAYER-2
 66
  1
 70
  1
 62
  7
  0
VERTEX
  8
MERGEDLAYER-2
 10
1.808571
 20
10.046276
 30
0.000000
  0
VERTEX
  8
MERGEDLAYER-2
 10
2.046418
 20
10.046276
 30
0.000000
  0
VERTEX
  8
MERGEDLAYER-2
 10
2.046418
 20
9.529330
 30
0.000000
  0
VERTEX
  8
MERGEDLAYER-2
 10
1.808571
 20
9.529330
 30
0.000000
  0
SEQEND
  8
MERGEDLAYER-2
  0
POLYLINE
  8
MERGEDLAYER-2
 66
  1
 70
  1
 62
  7
  0
VERTEX
  8
MERGEDLAYER-2
 10
2.121071
 20
10.046276
 30
0.000000
  0
VERTEX
  8
MERGEDLAYER-2
 10
2.358918
 20
10.046276
 30
0.000000
  0
VERTEX
  8
MERGEDLAYER-2
 10
2.358918
 20
9.529330
 30
0.000000
  0
VERTEX
  8
MERGEDLAYER-2
 10
2.121071
 20
9.529330
 30
0.000000
  0
SEQEND
  8
MERGEDLAYER-2
  0
POLYLINE
  8
MERGEDLAYER-2
 66
  1
 70
  1
 62
  7
  0
VERTEX
  8
MERGEDLAYER-2
 10
2.421418
 20
10.046276
 30
0.000000
  0
VERTEX
  8
MERGEDLAYER-2
 10
2.659265
 20
10.046276
 30
0.000000
  0
VERTEX
  8
MERGEDLAYER-2
 10
2.659265
 20
9.529330
 30
0.000000
  0
VERTEX
  8
MERGEDLAYER-2
 10
2.421418
 20
9.529330
 30
0.000000
  0
SEQEND
  8
MERGEDLAYER-2
  0
POLYLINE
  8
MERGEDLAYER-2
 66
  1
 70
  1
 62
  7
  0
VERTEX
  8
MERGEDLAYER-2
 10
2.725237
 20
10.046276
 30
0.000000
  0
VERTEX
  8
MERGEDLAYER-2
 10
2.963085
 20
10.046276
 30
0.000000
  0
VERTEX
  8
MERGEDLAYER-2
 10
2.963085
 20
9.529330
 30
0.000000
  0
VERTEX
  8
MERGEDLAYER-2
 10
2.725237
 20
9.529330
 30
0.000000
  0
SEQEND
  8
MERGEDLAYER-2
  0
POLYLINE
  8
MERGEDLAYER-2
 66
  1
 70
  1
 62
  7
  0
VERTEX
  8
MERGEDLAYER-2
 10
3.042078
 20
10.042361
 30
0.000000
  0
VERTEX
  8
MERGEDLAYER-2
 10
3.417512
 20
10.042361
 30
0.000000
  0
VERTEX
  8
MERGEDLAYER-2
 10
3.417512
 20
9.904339
 30
0.000000
  0
VERTEX
  8
MERGEDLAYER-2
 10
3.042078
 20
9.904339
 30
0.000000
  0
SEQEND
  8
MERGEDLAYER-2
  0
POLYLINE
  8
MERGEDLAYER-2
 66
  1
 70
  1
 62
  7
  0
VERTEX
  8
MERGEDLAYER-2
 10
3.041644
 20
9.814929
 30
0.000000
  0
VERTEX
  8
MERGEDLAYER-2
 10
3.349803
 20
9.814929
 30
0.000000
  0
VERTEX
  8
MERGEDLAYER-2
 10
3.349803
 20
9.680815
 30
0.000000
  0
VERTEX
  8
MERGEDLAYER-2
 10
3.041644
 20
9.680815
 30
0.000000
  0
SEQEND
  8
MERGEDLAYER-2
  0
POLYLINE
  8
MERGEDLAYER-2
 66
  1
 70
  1
 62
  7
  0
VERTEX
  8
MERGEDLAYER-2
 10
1.808571
 20
9.444704
 30
0.000000
  0
VERTEX
  8
MERGEDLAYER-2
 10
5.726973
 20
9.444704
 30
0.000000
  0
VERTEX
  8
MERGEDLAYER-2
 10
5.726973
 20
9.401302
 30
0.000000
  0
VERTEX
  8
MERGEDLAYER-2
 10
1.808571
 20
9.401302
 30
0.000000
  0
SEQEND
  8
MERGEDLAYER-2
  0
TEXT
  8
MERGEDLAYER-2
 62
  7
 10
1.953308
 20
8.866958
 30
0.000000
 40
0.170455
  1
âlÄvation modÅle  SLIM Roll-Flex
 72
  5
 11
5.553308
 21
8.866958
 31
0.000000
  0
TEXT
  8
MERGEDLAYER-2
 62
  7
 10
1.789671
 20
8.566958
 30
0.000000
 40
0.115909
  1
FERMETURE ╦ ENROULEMENT, AJOURâ QUINCONCE
 72
  5
 11
5.616944
 21
8.566958
 31
0.000000
  0
TEXT
  8
MERGEDLAYER-2
 62
  7
 10
1.789671
 20
8.385140
 30
0.000000
 40
0.115909
  1
Pour barils de 4" (102mm) & 4 
 72
  5
 11
3.935126
 21
8.385140
 31
0.000000
  0
TEXT
  8
MERGEDLAYER-2
 62
  7
 10
3.935126
 20
8.385140
 30
0.000000
 40
0.095455
  1
1/2
 72
  5
 11
4.162399
 21
8.385140
 31
0.000000
  0
TEXT
  8
MERGEDLAYER-2
 62
  7
 10
4.162399
 20
8.385140
 30
0.000000
 40
0.115909
  1
" (114mm) 
 72
  5
 11
4.962399
 21
8.385140
 31
0.000000
  0
POLYLINE
  8
MERGEDLAYER-2
 66
  1
 70
  0
 62
  7
 10
5.757399
 20
6.781962
 30
0.000000
  0
VERTEX
  8
MERGEDLAYER-2
 10
5.757399
 20
6.781962
 30
0.000000
  0
VERTEX
  8
MERGEDLAYER-2
 10
5.754993
 20
6.845497
 30
0.000000
  0
VERTEX
  8
MERGEDLAYER-2
 10
5.747782
 20
6.908879
 30
0.000000
  0
VERTEX
  8
MERGEDLAYER-2
 10
5.735783
 20
6.971955
 30
0.000000
  0
VERTEX
  8
MERGEDLAYER-2
 10
5.719024
 20
7.034574
 30
0.000000
  0
VERTEX
  8
MERGEDLAYER-2
 10
5.697546
 20
7.096584
 30
0.000000
  0
VERTEX
  8
MERGEDLAYER-2
 10
5.671402
 20
7.157836
 30
0.000000
  0
VERTEX
  8
MERGEDLAYER-2
 10
5.640654
 20
7.218182
 30
0.000000
  0
VERTEX
  8
MERGEDLAYER-2
 10
5.605376
 20
7.277478
 30
0.000000
  0
VERTEX
  8
MERGEDLAYER-2
 10
5.565652
 20
7.335580
 30
0.000000
  0
VERTEX
  8
MERGEDLAYER-2
 10
5.521579
 20
7.392348
 30
0.000000
  0
VERTEX
  8
MERGEDLAYER-2
 10
5.473261
 20
7.447645
 30
0.000000
  0
VERTEX
  8
MERGEDLAYER-2
 10
5.420819
 20
7.501339
 30
0.000000
  0
VERTEX
  8
MERGEDLAYER-2
 10
5.364374
 20
7.553300
 30
0.000000
  0
VERTEX
  8
MERGEDLAYER-2
 10
5.304067
 20
7.603403
 30
0.000000
  0
VERTEX
  8
MERGEDLAYER-2
 10
5.240040
 20
7.651527
 30
0.000000
  0
VERTEX
  8
MERGEDLAYER-2
 10
5.172448
 20
7.697556
 30
0.000000
  0
VERTEX
  8
MERGEDLAYER-2
 10
5.101454
 20
7.741379
 30
0.000000
  0
VERTEX
  8
MERGEDLAYER-2
 10
5.027228
 20
7.782891
 30
0.000000
  0
VERTEX
  8
MERGEDLAYER-2
 10
4.949950
 20
7.821992
 30
0.000000
  0
VERTEX
  8
MERGEDLAYER-2
 10
4.869806
 20
7.858587
 30
0.000000
  0
VERTEX
  8
MERGEDLAYER-2
 10
4.786990
 20
7.892588
 30
0.000000
  0
VERTEX
  8
MERGEDLAYER-2
 10
4.701700
 20
7.923914
 30
0.000000
  0
VERTEX
  8
MERGEDLAYER-2
 10
4.614141
 20
7.952488
 30
0.000000
  0
VERTEX
  8
MERGEDLAYER-2
 10
4.524526
 20
7.978243
 30
0.000000
  0
VERTEX
  8
MERGEDLAYER-2
 10
4.433070
 20
8.001115
 30
0.000000
  0
VERTEX
  8
MERGEDLAYER-2
 10
4.339992
 20
8.021052
 30
0.000000
  0
VERTEX
  8
MERGEDLAYER-2
 10
4.245518
 20
8.038002
 30
0.000000
  0
VERTEX
  8
MERGEDLAYER-2
 10
4.149875
 20
8.051927
 30
0.000000
  0
VERTEX
  8
MERGEDLAYER-2
 10
4.053293
 20
8.062792
 30
0.000000
  0
VERTEX
  8
MERGEDLAYER-2
 10
3.956005
 20
8.070572
 30
0.000000
  0
VERTEX
  8
MERGEDLAYER-2
 10
3.858246
 20
8.075247
 30
0.000000
  0
VERTEX
  8
MERGEDLAYER-2
 10
3.760250
 20
8.076807
 30
0.000000
  0
VERTEX
  8
MERGEDLAYER-2
 10
3.662254
 20
8.075247
 30
0.000000
  0
VERTEX
  8
MERGEDLAYER-2
 10
3.564495
 20
8.070572
 30
0.000000
  0
VERTEX
  8
MERGEDLAYER-2
 10
3.467208
 20
8.062792
 30
0.000000
  0
VERTEX
  8
MERGEDLAYER-2
 10
3.370626
 20
8.051927
 30
0.000000
  0
VERTEX
  8
MERGEDLAYER-2
 10
3.274983
 20
8.038002
 30
0.000000
  0
VERTEX
  8
MERGEDLAYER-2
 10
3.180508
 20
8.021052
 30
0.000000
  0
VERTEX
  8
MERGEDLAYER-2
 10
3.087431
 20
8.001115
 30
0.000000
  0
VERTEX
  8
MERGEDLAYER-2
 10
2.995974
 20
7.978243
 30
0.000000
  0
VERTEX
  8
MERGEDLAYER-2
 10
2.906359
 20
7.952488
 30
0.000000
  0
VERTEX
  8
MERGEDLAYER-2
 10
2.818801
 20
7.923914
 30
0.000000
  0
VERTEX
  8
MERGEDLAYER-2
 10
2.733511
 20
7.892588
 30
0.000000
  0
VERTEX
  8
MERGEDLAYER-2
 10
2.650694
 20
7.858587
 30
0.000000
  0
VERTEX
  8
MERGEDLAYER-2
 10
2.570550
 20
7.821992
 30
0.000000
  0
VERTEX
  8
MERGEDLAYER-2
 10
2.493273
 20
7.782891
 30
0.000000
  0
VERTEX
  8
MERGEDLAYER-2
 10
2.419047
 20
7.741379
 30
0.000000
  0
VERTEX
  8
MERGEDLAYER-2
 10
2.348053
 20
7.697556
 30
0.000000
  0
VERTEX
  8
MERGEDLAYER-2
 10
2.280460
 20
7.651527
 30
0.000000
  0
VERTEX
  8
MERGEDLAYER-2
 10
2.216433
 20
7.603403
 30
0.000000
  0
VERTEX
  8
MERGEDLAYER-2
 10
2.156125
 20
7.553300
 30
0.000000
  0
VERTEX
  8
MERGEDLAYER-2
 10
2.099682
 20
7.501339
 30
0.000000
  0
VERTEX
  8
MERGEDLAYER-2
 10
2.047239
 20
7.447645
 30
0.000000
  0
VERTEX
  8
MERGEDLAYER-2
 10
1.998922
 20
7.392348
 30
0.000000
  0
VERTEX
  8
MERGEDLAYER-2
 10
1.954849
 20
7.335580
 30
0.000000
  0
VERTEX
  8
MERGEDLAYER-2
 10
1.915125
 20
7.277478
 30
0.000000
  0
VERTEX
  8
MERGEDLAYER-2
 10
1.879847
 20
7.218182
 30
0.000000
  0
VERTEX
  8
MERGEDLAYER-2
 10
1.849098
 20
7.157836
 30
0.000000
  0
VERTEX
  8
MERGEDLAYER-2
 10
1.822953
 20
7.096584
 30
0.000000
  0
VERTEX
  8
MERGEDLAYER-2
 10
1.801476
 20
7.034574
 30
0.000000
  0
VERTEX
  8
MERGEDLAYER-2
 10
1.784717
 20
6.971955
 30
0.000000
  0
VERTEX
  8
MERGEDLAYER-2
 10
1.772718
 20
6.908879
 30
0.000000
  0
VERTEX
  8
MERGEDLAYER-2
 10
1.765507
 20
6.845497
 30
0.000000
  0
VERTEX
  8
MERGEDLAYER-2
 10
1.763101
 20
6.781962
 30
0.000000
  0
VERTEX
  8
MERGEDLAYER-2
 10
1.765507
 20
6.718427
 30
0.000000
  0
VERTEX
  8
MERGEDLAYER-2
 10
1.772718
 20
6.655045
 30
0.000000
  0
VERTEX
  8
MERGEDLAYER-2
 10
1.784717
 20
6.591969
 30
0.000000
  0
VERTEX
  8
MERGEDLAYER-2
 10
1.801476
 20
6.529350
 30
0.000000
  0
VERTEX
  8
MERGEDLAYER-2
 10
1.822953
 20
6.467341
 30
0.000000
  0
VERTEX
  8
MERGEDLAYER-2
 10
1.849098
 20
6.406089
 30
0.000000
  0
VERTEX
  8
MERGEDLAYER-2
 10
1.879847
 20
6.345742
 30
0.000000
  0
VERTEX
  8
MERGEDLAYER-2
 10
1.915125
 20
6.286446
 30
0.000000
  0
VERTEX
  8
MERGEDLAYER-2
 10
1.954849
 20
6.228345
 30
0.000000
  0
VERTEX
  8
MERGEDLAYER-2
 10
1.998922
 20
6.171576
 30
0.000000
  0
VERTEX
  8
MERGEDLAYER-2
 10
2.047239
 20
6.116279
 30
0.000000
  0
VERTEX
  8
MERGEDLAYER-2
 10
2.099682
 20
6.062584
 30
0.000000
  0
VERTEX
  8
MERGEDLAYER-2
 10
2.156125
 20
6.010623
 30
0.000000
  0
VERTEX
  8
MERGEDLAYER-2
 10
2.216433
 20
5.960521
 30
0.000000
  0
VERTEX
  8
MERGEDLAYER-2
 10
2.280460
 20
5.912397
 30
0.000000
  0
VERTEX
  8
MERGEDLAYER-2
 10
2.348053
 20
5.866369
 30
0.000000
  0
VERTEX
  8
MERGEDLAYER-2
 10
2.419047
 20
5.822545
 30
0.000000
  0
VERTEX
  8
MERGEDLAYER-2
 10
2.493273
 20
5.781033
 30
0.000000
  0
VERTEX
  8
MERGEDLAYER-2
 10
2.570550
 20
5.741933
 30
0.000000
  0
VERTEX
  8
MERGEDLAYER-2
 10
2.650694
 20
5.705338
 30
0.000000
  0
VERTEX
  8
MERGEDLAYER-2
 10
2.733511
 20
5.671336
 30
0.000000
  0
VERTEX
  8
MERGEDLAYER-2
 10
2.818801
 20
5.640011
 30
0.000000
  0
VERTEX
  8
MERGEDLAYER-2
 10
2.906359
 20
5.611436
 30
0.000000
  0
VERTEX
  8
MERGEDLAYER-2
 10
2.995974
 20
5.585681
 30
0.000000
  0
VERTEX
  8
MERGEDLAYER-2
 10
3.087431
 20
5.562809
 30
0.000000
  0
VERTEX
  8
MERGEDLAYER-2
 10
3.180508
 20
5.542873
 30
0.000000
  0
VERTEX
  8
MERGEDLAYER-2
 10
3.274983
 20
5.525922
 30
0.000000
  0
VERTEX
  8
MERGEDLAYER-2
 10
3.370626
 20
5.511997
 30
0.000000
  0
VERTEX
  8
MERGEDLAYER-2
 10
3.467208
 20
5.501132
 30
0.000000
  0
VERTEX
  8
MERGEDLAYER-2
 10
3.564495
 20
5.493352
 30
0.000000
  0
VERTEX
  8
MERGEDLAYER-2
 10
3.662254
 20
5.488677
 30
0.000000
  0
VERTEX
  8
MERGEDLAYER-2
 10
3.760250
 20
5.487117
 30
0.000000
  0
VERTEX
  8
MERGEDLAYER-2
 10
3.858246
 20
5.488677
 30
0.000000
  0
VERTEX
  8
MERGEDLAYER-2
 10
3.956005
 20
5.493352
 30
0.000000
  0
VERTEX
  8
MERGEDLAYER-2
 10
4.053293
 20
5.501132
 30
0.000000
  0
VERTEX
  8
MERGEDLAYER-2
 10
4.149875
 20
5.511997
 30
0.000000
  0
VERTEX
  8
MERGEDLAYER-2
 10
4.245518
 20
5.525922
 30
0.000000
  0
VERTEX
  8
MERGEDLAYER-2
 10
4.339992
 20
5.542873
 30
0.000000
  0
VERTEX
  8
MERGEDLAYER-2
 10
4.433070
 20
5.562809
 30
0.000000
  0
VERTEX
  8
MERGEDLAYER-2
 10
4.524526
 20
5.585681
 30
0.000000
  0
VERTEX
  8
MERGEDLAYER-2
 10
4.614141
 20
5.611436
 30
0.000000
  0
VERTEX
  8
MERGEDLAYER-2
 10
4.701700
 20
5.640011
 30
0.000000
  0
VERTEX
  8
MERGEDLAYER-2
 10
4.786990
 20
5.671336
 30
0.000000
  0
VERTEX
  8
MERGEDLAYER-2
 10
4.869806
 20
5.705338
 30
0.000000
  0
VERTEX
  8
MERGEDLAYER-2
 10
4.949950
 20
5.741933
 30
0.000000
  0
VERTEX
  8
MERGEDLAYER-2
 10
5.027228
 20
5.781033
 30
0.000000
  0
VERTEX
  8
MERGEDLAYER-2
 10
5.101454
 20
5.822545
 30
0.000000
  0
VERTEX
  8
MERGEDLAYER-2
 10
5.172448
 20
5.866369
 30
0.000000
  0
VERTEX
  8
MERGEDLAYER-2
 10
5.240040
 20
5.912397
 30
0.000000
  0
VERTEX
  8
MERGEDLAYER-2
 10
5.304067
 20
5.960521
 30
0.000000
  0
VERTEX
  8
MERGEDLAYER-2
 10
5.364374
 20
6.010623
 30
0.000000
  0
VERTEX
  8
MERGEDLAYER-2
 10
5.420819
 20
6.062584
 30
0.000000
  0
VERTEX
  8
MERGEDLAYER-2
 10
5.473261
 20
6.116279
 30
0.000000
  0
VERTEX
  8
MERGEDLAYER-2
 10
5.521579
 20
6.171576
 30
0.000000
  0
VERTEX
  8
MERGEDLAYER-2
 10
5.565652
 20
6.228345
 30
0.000000
  0
VERTEX
  8
MERGEDLAYER-2
 10
5.605376
 20
6.286446
 30
0.000000
  0
VERTEX
  8
MERGEDLAYER-2
 10
5.640654
 20
6.345742
 30
0.000000
  0
VERTEX
  8
MERGEDLAYER-2
 10
5.671402
 20
6.406089
 30
0.000000
  0
VERTEX
  8
MERGEDLAYER-2
 10
5.697546
 20
6.467341
 30
0.000000
  0
VERTEX
  8
MERGEDLAYER-2
 10
5.719024
 20
6.529350
 30
0.000000
  0
VERTEX
  8
MERGEDLAYER-2
 10
5.735783
 20
6.591969
 30
0.000000
  0
VERTEX
  8
MERGEDLAYER-2
 10
5.747782
 20
6.655045
 30
0.000000
  0
VERTEX
  8
MERGEDLAYER-2
 10
5.754993
 20
6.718427
 30
0.000000
  0
VERTEX
  8
MERGEDLAYER-2
 10
5.757399
 20
6.781962
 30
0.000000
  0
SEQEND
  8
MERGEDLAYER-2
  0
POLYLINE
  8
MERGEDLAYER-2
 66
  1
 70
  1
 62
254
  0
VERTEX
  8
MERGEDLAYER-2
 10
2.149217
 20
7.281512
 30
0.000000
  0
VERTEX
  8
MERGEDLAYER-2
 10
5.537439
 20
7.281512
 30
0.000000
  0
VERTEX
  8
MERGEDLAYER-2
 10
5.537439
 20
6.281602
 30
0.000000
  0
VERTEX
  8
MERGEDLAYER-2
 10
2.149217
 20
6.281602
 30
0.000000
  0
SEQEND
  8
MERGEDLAYER-2
  0
POLYLINE
  8
MERGEDLAYER-2
 66
  1
 70
  1
 62
  7
  0
VERTEX
  8
MERGEDLAYER-2
 10
2.589579
 20
6.582104
 30
0.000000
  0
VERTEX
  8
MERGEDLAYER-2
 10
5.055890
 20
6.582104
 30
0.000000
  0
VERTEX
  8
MERGEDLAYER-2
 10
5.055890
 20
6.380862
 30
0.000000
  0
VERTEX
  8
MERGEDLAYER-2
 10
2.589579
 20
6.380862
 30
0.000000
  0
SEQEND
  8
MERGEDLAYER-2
  0
POLYLINE
  8
MERGEDLAYER-2
 66
  1
 70
  1
 62
  7
  0
VERTEX
  8
MERGEDLAYER-2
 10
2.090831
 20
6.883594
 30
0.000000
  0
VERTEX
  8
MERGEDLAYER-2
 10
3.706299
 20
6.883594
 30
0.000000
  0
VERTEX
  8
MERGEDLAYER-2
 10
3.706299
 20
6.681322
 30
0.000000
  0
VERTEX
  8
MERGEDLAYER-2
 10
2.090831
 20
6.681322
 30
0.000000
  0
SEQEND
  8
MERGEDLAYER-2
  0
POLYLINE
  8
MERGEDLAYER-2
 66
  1
 70
  0
 62
  7
 10
3.706299
 20
6.883594
 30
0.000000
  0
VERTEX
  8
MERGEDLAYER-2
 10
3.706299
 20
6.883594
 30
0.000000
  0
VERTEX
  8
MERGEDLAYER-2
 10
3.706299
 20
6.681322
 30
0.000000
  0
SEQEND
  8
MERGEDLAYER-2
  0
POLYLINE
  8
MERGEDLAYER-2
 66
  1
 70
  1
 62
  7
  0
VERTEX
  8
MERGEDLAYER-2
 10
2.076508
 20
6.582417
 30
0.000000
  0
VERTEX
  8
MERGEDLAYER-2
 10
2.316513
 20
6.582417
 30
0.000000
  0
VERTEX
  8
MERGEDLAYER-2
 10
2.316513
 20
6.380168
 30
0.000000
  0
VERTEX
  8
MERGEDLAYER-2
 10
2.076508
 20
6.380168
 30
0.000000
  0
SEQEND
  8
MERGEDLAYER-2
  0
POLYLINE
  8
MERGEDLAYER-2
 66
  1
 70
  0
 62
  7
 10
2.315912
 20
6.582417
 30
0.000000
  0
VERTEX
  8
MERGEDLAYER-2
 10
2.315912
 20
6.582417
 30
0.000000
  0
VERTEX
  8
MERGEDLAYER-2
 10
2.315912
 20
6.380168
 30
0.000000
  0
SEQEND
  8
MERGEDLAYER-2
  0
POLYLINE
  8
MERGEDLAYER-2
 66
  1
 70
  1
 62
  7
  0
VERTEX
  8
MERGEDLAYER-2
 10
3.980299
 20
6.883594
 30
0.000000
  0
VERTEX
  8
MERGEDLAYER-2
 10
5.553064
 20
6.883594
 30
0.000000
  0
VERTEX
  8
MERGEDLAYER-2
 10
5.553064
 20
6.681322
 30
0.000000
  0
VERTEX
  8
MERGEDLAYER-2
 10
3.980299
 20
6.681322
 30
0.000000
  0
SEQEND
  8
MERGEDLAYER-2
  0
POLYLINE
  8
MERGEDLAYER-2
 66
  1
 70
  1
 62
  7
  0
VERTEX
  8
MERGEDLAYER-2
 10
5.330887
 20
6.582417
 30
0.000000
  0
VERTEX
  8
MERGEDLAYER-2
 10
5.551762
 20
6.582417
 30
0.000000
  0
VERTEX
  8
MERGEDLAYER-2
 10
5.551762
 20
6.380168
 30
0.000000
  0
VERTEX
  8
MERGEDLAYER-2
 10
5.330887
 20
6.380168
 30
0.000000
  0
SEQEND
  8
MERGEDLAYER-2
  0
POLYLINE
  8
MERGEDLAYER-2
 66
  1
 70
  0
 62
  7
 10
5.330288
 20
6.582417
 30
0.000000
  0
VERTEX
  8
MERGEDLAYER-2
 10
5.330288
 20
6.582417
 30
0.000000
  0
VERTEX
  8
MERGEDLAYER-2
 10
5.330288
 20
6.380168
 30
0.000000
  0
SEQEND
  8
MERGEDLAYER-2
  0
TEXT
  8
MERGEDLAYER-2
 62
  7
 10
6.171490
 20
5.348776
 30
0.000000
 40
0.122727
  1
Guide
 72
  5
 11
6.653308
 21
5.348776
 31
0.000000
  0
POLYLINE
  8
MERGEDLAYER-2
 66
  1
 70
  0
 62
  7
 10
6.682238
 20
5.377551
 30
0.000000
  0
VERTEX
  8
MERGEDLAYER-2
 10
6.682238
 20
5.377551
 30
0.000000
  0
VERTEX
  8
MERGEDLAYER-2
 10
6.788149
 20
5.235072
 30
0.000000
  0
SEQEND
  8
MERGEDLAYER-2
  0
POLYLINE
  8
MERGEDLAYER-2
 66
  1
 70
  1
 62
  7
  0
VERTEX
  8
MERGEDLAYER-2
 10
6.799893
 20
5.219274
 30
0.000000
  0
VERTEX
  8
MERGEDLAYER-2
 10
6.750888
 20
5.239484
 30
0.000000
  0
VERTEX
  8
MERGEDLAYER-2
 10
6.772776
 20
5.255754
 30
0.000000
  0
VERTEX
  8
MERGEDLAYER-2
 10
6.794663
 20
5.272024
 30
0.000000
  0
VERTEX
  8
MERGEDLAYER-2
 10
6.799893
 20
5.219274
 30
0.000000
  0
SEQEND
  8
MERGEDLAYER-2
  0
TEXT
  8
MERGEDLAYER-2
 62
  7
 10
3.298762
 20
5.821503
 30
0.000000
 40
0.150000
  1
entre
 72
  5
 11
3.789671
 21
5.821503
 31
0.000000
  0
TEXT
  8
MERGEDLAYER-2
 62
  7
 10
3.298762
 20
5.585140
 30
0.000000
 40
0.150000
  1
connecteurs
 72
  5
 11
4.416944
 21
5.585140
 31
0.000000
  0
TEXT
  8
MERGEDLAYER-2
 62
  7
 10
2.698762
 20
6.085140
 30
0.000000
 40
0.150000
  1
1 
 72
  5
 11
2.907853
 21
6.085140
 31
0.000000
  0
TEXT
  8
MERGEDLAYER-2
 62
  7
 10
2.907853
 20
6.085140
 30
0.000000
 40
0.122727
  1
3/8
 72
  5
 11
3.180581
 21
6.085140
 31
0.000000
  0
TEXT
  8
MERGEDLAYER-2
 62
  7
 10
3.180581
 20
6.085140
 30
0.000000
 40
0.150000
  1
"
 72
  5
 11
3.298762
 21
6.085140
 31
0.000000
  0
TEXT
  8
MERGEDLAYER-2
 62
  7
 10
2.698762
 20
5.848776
 30
0.000000
 40
0.150000
  1
35
 72
  5
 11
2.962399
 21
5.848776
 31
0.000000
  0
TEXT
  8
MERGEDLAYER-2
 62
  7
 10
2.962399
 20
5.848776
 30
0.000000
 40
0.122727
  1
mm
 72
  5
 11
3.280581
 21
5.848776
 31
0.000000
  0
TEXT
  8
MERGEDLAYER-2
 62
  7
 10
4.462399
 20
6.085140
 30
0.000000
 40
0.150000
  1
1 
 72
  5
 11
4.671490
 21
6.085140
 31
0.000000
  0
TEXT
  8
MERGEDLAYER-2
 62
  7
 10
4.671490
 20
6.085140
 30
0.000000
 40
0.122727
  1
3/4
 72
  5
 11
4.944217
 21
6.085140
 31
0.000000
  0
TEXT
  8
MERGEDLAYER-2
 62
  7
 10
4.944217
 20
6.085140
 30
0.000000
 40
0.150000
  1
"
 72
  5
 11
5.062399
 21
6.085140
 31
0.000000
  0
TEXT
  8
MERGEDLAYER-2
 62
  7
 10
4.462399
 20
5.848776
 30
0.000000
 40
0.150000
  1
44
 72
  5
 11
4.726035
 21
5.848776
 31
0.000000
  0
TEXT
  8
MERGEDLAYER-2
 62
  7
 10
4.726035
 20
5.848776
 30
0.000000
 40
0.122727
  1
mm
 72
  5
 11
5.044217
 21
5.848776
 31
0.000000
  0
LINE
  8
MERGEDLAYER-2
 62
  7
 10
2.589959
 20
7.616996
 30
0.000000
 11
5.056270
 21
7.616996
 31
0.000000
  0
LINE
  8
MERGEDLAYER-2
 62
  7
 10
2.589959
 20
7.247539
 30
0.000000
 11
2.589959
 21
7.741996
 31
0.000000
  0
LINE
  8
MERGEDLAYER-2
 62
  7
 10
5.056270
 20
7.247539
 30
0.000000
 11
5.056270
 21
7.741996
 31
0.000000
  0
LINE
  8
MERGEDLAYER-2
 62
  7
 10
2.609244
 20
7.636281
 30
0.000000
 11
2.570675
 21
7.597712
 31
0.000000
  0
LINE
  8
MERGEDLAYER-2
 62
  7
 10
5.075555
 20
7.636281
 30
0.000000
 11
5.036985
 21
7.597712
 31
0.000000
  0
TEXT
  8
MERGEDLAYER-2
 62
  7
 10
3.591461
 20
7.713200
 30
0.000000
 40
0.081818
  1
 
  0
TEXT
  8
MERGEDLAYER-2
 62
  7
 10
3.116944
 20
7.712412
 30
0.000000
 40
0.150000
  1
15 
 72
  5
 11
3.435126
 21
7.712412
 31
0.000000
  0
TEXT
  8
MERGEDLAYER-2
 62
  7
 10
3.435126
 20
7.712412
 30
0.000000
 40
0.122727
  1
3/4
 72
  5
 11
3.707853
 21
7.712412
 31
0.000000
  0
TEXT
  8
MERGEDLAYER-2
 62
  7
 10
3.707853
 20
7.712412
 30
0.000000
 40
0.150000
  1
" (400
 72
  5
 11
4.271490
 21
7.712412
 31
0.000000
  0
TEXT
  8
MERGEDLAYER-2
 62
  7
 10
4.271490
 20
7.712412
 30
0.000000
 40
0.122727
  1
mm)
 72
  5
 11
4.644217
 21
7.712412
 31
0.000000
  0
TEXT
  8
MERGEDLAYER-2
 62
  7
 10
3.162399
 20
7.357867
 30
0.000000
 40
0.150000
  1
ouverture libre
 72
  5
 11
4.462399
 21
7.357867
 31
0.000000
  0
POLYLINE
  8
MERGEDLAYER-2
 66
  1
 70
  0
 62
  7
 10
5.329807
 20
6.269913
 30
0.000000
  0
VERTEX
  8
MERGEDLAYER-2
 10
5.329807
 20
6.269913
 30
0.000000
  0
VERTEX
  8
MERGEDLAYER-2
 10
5.329807
 20
6.023384
 30
0.000000
  0
SEQEND
  8
MERGEDLAYER-2
  0
POLYLINE
  8
MERGEDLAYER-2
 66
  1
 70
  0
 62
  7
 10
5.054633
 20
6.023384
 30
0.000000
  0
VERTEX
  8
MERGEDLAYER-2
 10
5.054633
 20
6.023384
 30
0.000000
  0
VERTEX
  8
MERGEDLAYER-2
 10
5.054633
 20
6.269913
 30
0.000000
  0
SEQEND
  8
MERGEDLAYER-2
  0
POLYLINE
  8
MERGEDLAYER-2
 66
  1
 70
  0
 62
  7
 10
5.330155
 20
6.096300
 30
0.000000
  0
VERTEX
  8
MERGEDLAYER-2
 10
5.330155
 20
6.096300
 30
0.000000
  0
VERTEX
  8
MERGEDLAYER-2
 10
5.054633
 20
6.096300
 30
0.000000
  0
SEQEND
  8
MERGEDLAYER-2
  0
LINE
  8
MERGEDLAYER-2
 62
  7
 10
5.310870
 20
6.077016
 30
0.000000
 11
5.349440
 21
6.115585
 31
0.000000
  0
LINE
  8
MERGEDLAYER-2
 62
  7
 10
5.035348
 20
6.077016
 30
0.000000
 11
5.073918
 21
6.115585
 31
0.000000
  0
POLYLINE
  8
MERGEDLAYER-2
 66
  1
 70
  0
 62
  7
 10
5.054633
 20
6.096300
 30
0.000000
  0
VERTEX
  8
MERGEDLAYER-2
 10
5.054633
 20
6.096300
 30
0.000000
  0
VERTEX
  8
MERGEDLAYER-2
 10
4.946994
 20
6.096300
 30
0.000000
  0
SEQEND
  8
MERGEDLAYER-2
  0
POLYLINE
  8
MERGEDLAYER-2
 66
  1
 70
  1
 62
  7
  0
VERTEX
  8
MERGEDLAYER-2
 10
0.591996
 20
2.351664
 30
0.000000
  0
VERTEX
  8
MERGEDLAYER-2
 10
6.940951
 20
2.351664
 30
0.000000
  0
VERTEX
  8
MERGEDLAYER-2
 10
6.940951
 20
0.019108
 30
0.000000
  0
VERTEX
  8
MERGEDLAYER-2
 10
0.591996
 20
0.019108
 30
0.000000
  0
SEQEND
  8
MERGEDLAYER-2
  0
POLYLINE
  8
MERGEDLAYER-2
 66
  1
 70
  0
 62
  7
 40
0.018182
 41
0.018182
 10
0.018182
 20
0.018182
 30
0.000000
  0
VERTEX
  8
MERGEDLAYER-2
 10
0.018182
 20
0.018182
 30
0.000000
  0
VERTEX
  8
MERGEDLAYER-2
 10
7.518178
 20
0.018182
 30
0.000000
  0
SEQEND
  8
MERGEDLAYER-2
  0
POLYLINE
  8
MERGEDLAYER-2
 66
  1
 70
  0
 62
  7
 10
0.592828
 20
1.948734
 30
0.000000
  0
VERTEX
  8
MERGEDLAYER-2
 10
0.592828
 20
1.948734
 30
0.000000
  0
VERTEX
  8
MERGEDLAYER-2
 10
6.939217
 20
1.948734
 30
0.000000
  0
SEQEND
  8
MERGEDLAYER-2
  0
POLYLINE
  8
MERGEDLAYER-2
 66
  1
 70
  0
 62
  7
 10
0.632267
 20
1.948734
 30
0.000000
  0
VERTEX
  8
MERGEDLAYER-2
 10
0.632267
 20
1.948734
 30
0.000000
  0
VERTEX
  8
MERGEDLAYER-2
 10
0.632267
 20
0.019108
 30
0.000000
  0
SEQEND
  8
MERGEDLAYER-2
  0
POLYLINE
  8
MERGEDLAYER-2
 66
  1
 70
  0
 62
  7
 10
6.891900
 20
0.019108
 30
0.000000
  0
VERTEX
  8
MERGEDLAYER-2
 10
6.891900
 20
0.019108
 30
0.000000
  0
VERTEX
  8
MERGEDLAYER-2
 10
6.891900
 20
1.948734
 30
0.000000
  0
SEQEND
  8
MERGEDLAYER-2
  0
POLYLINE
  8
MERGEDLAYER-2
 66
  1
 70
  0
 62
  7
 10
5.638442
 20
2.221603
 30
0.000000
  0
VERTEX
  8
MERGEDLAYER-2
 10
5.638442
 20
2.221603
 30
0.000000
  0
VERTEX
  8
MERGEDLAYER-2
 10
5.398646
 20
2.341013
 30
0.000000
  0
SEQEND
  8
MERGEDLAYER-2
  0
POLYLINE
  8
MERGEDLAYER-2
 66
  1
 70
  1
 62
  7
  0
VERTEX
  8
MERGEDLAYER-2
 10
5.381026
 20
2.349787
 30
0.000000
  0
VERTEX
  8
MERGEDLAYER-2
 10
5.433871
 20
2.353940
 30
0.000000
  0
VERTEX
  8
MERGEDLAYER-2
 10
5.421714
 20
2.329526
 30
0.000000
  0
VERTEX
  8
MERGEDLAYER-2
 10
5.409557
 20
2.305113
 30
0.000000
  0
VERTEX
  8
MERGEDLAYER-2
 10
5.381026
 20
2.349787
 30
0.000000
  0
SEQEND
  8
MERGEDLAYER-2
  0
POLYLINE
  8
MERGEDLAYER-2
 66
  1
 70
  0
 62
  7
 10
3.936580
 20
2.214372
 30
0.000000
  0
VERTEX
  8
MERGEDLAYER-2
 10
3.936580
 20
2.214372
 30
0.000000
  0
VERTEX
  8
MERGEDLAYER-2
 10
3.815916
 20
2.386906
 30
0.000000
  0
SEQEND
  8
MERGEDLAYER-2
  0
POLYLINE
  8
MERGEDLAYER-2
 66
  1
 70
  1
 62
  7
  0
VERTEX
  8
MERGEDLAYER-2
 10
3.804634
 20
2.403037
 30
0.000000
  0
VERTEX
  8
MERGEDLAYER-2
 10
3.853034
 20
2.381419
 30
0.000000
  0
VERTEX
  8
MERGEDLAYER-2
 10
3.830684
 20
2.365789
 30
0.000000
  0
VERTEX
  8
MERGEDLAYER-2
 10
3.808335
 20
2.350158
 30
0.000000
  0
VERTEX
  8
MERGEDLAYER-2
 10
3.804634
 20
2.403037
 30
0.000000
  0
SEQEND
  8
MERGEDLAYER-2
  0
POLYLINE
  8
MERGEDLAYER-2
 66
  1
 70
  0
 62
  7
 10
3.365905
 20
2.235206
 30
0.000000
  0
VERTEX
  8
MERGEDLAYER-2
 10
3.365905
 20
2.235206
 30
0.000000
  0
VERTEX
  8
MERGEDLAYER-2
 10
3.482334
 20
2.438048
 30
0.000000
  0
SEQEND
  8
MERGEDLAYER-2
  0
POLYLINE
  8
MERGEDLAYER-2
 66
  1
 70
  1
 62
  7
  0
VERTEX
  8
MERGEDLAYER-2
 10
3.492133
 20
2.455120
 30
0.000000
  0
VERTEX
  8
MERGEDLAYER-2
 10
3.493159
 20
2.402121
 30
0.000000
  0
VERTEX
  8
MERGEDLAYER-2
 10
3.469505
 20
2.415698
 30
0.000000
  0
VERTEX
  8
MERGEDLAYER-2
 10
3.445852
 20
2.429275
 30
0.000000
  0
VERTEX
  8
MERGEDLAYER-2
 10
3.492133
 20
2.455120
 30
0.000000
  0
SEQEND
  8
MERGEDLAYER-2
  0
POLYLINE
  8
MERGEDLAYER-2
 66
  1
 70
  1
 62
  7
  0
VERTEX
  8
MERGEDLAYER-2
 10
2.681878
 20
2.328514
 30
0.000000
  0
VERTEX
  8
MERGEDLAYER-2
 10
3.353752
 20
2.328514
 30
0.000000
  0
VERTEX
  8
MERGEDLAYER-2
 10
3.353752
 20
2.117574
 30
0.000000
  0
VERTEX
  8
MERGEDLAYER-2
 10
2.681878
 20
2.117574
 30
0.000000
  0
SEQEND
  8
MERGEDLAYER-2
  0
TEXT
  8
MERGEDLAYER-2
 62
  7
 10
2.707853
 20
2.176049
 30
0.000000
 40
0.122727
  1
PoignÄe
 72
  5
 11
3.353308
 21
2.176049
 31
0.000000
  0
POLYLINE
  8
MERGEDLAYER-2
 66
  1
 70
  1
 62
  7
  0
VERTEX
  8
MERGEDLAYER-2
 10
3.932674
 20
2.329815
 30
0.000000
  0
VERTEX
  8
MERGEDLAYER-2
 10
4.608456
 20
2.329815
 30
0.000000
  0
VERTEX
  8
MERGEDLAYER-2
 10
4.608456
 20
2.118877
 30
0.000000
  0
VERTEX
  8
MERGEDLAYER-2
 10
3.932674
 20
2.118877
 30
0.000000
  0
SEQEND
  8
MERGEDLAYER-2
  0
POLYLINE
  8
MERGEDLAYER-2
 66
  1
 70
  1
 62
  7
  0
VERTEX
  8
MERGEDLAYER-2
 10
5.639232
 20
2.328513
 30
0.000000
  0
VERTEX
  8
MERGEDLAYER-2
 10
6.674861
 20
2.328513
 30
0.000000
  0
VERTEX
  8
MERGEDLAYER-2
 10
6.674861
 20
2.117576
 30
0.000000
  0
VERTEX
  8
MERGEDLAYER-2
 10
5.639232
 20
2.117576
 30
0.000000
  0
SEQEND
  8
MERGEDLAYER-2
  0
TEXT
  8
MERGEDLAYER-2
 62
  7
 10
3.962399
 20
2.176049
 30
0.000000
 40
0.122727
  1
Cylindre
 72
  5
 11
4.607853
 21
2.176049
 31
0.000000
  0
TEXT
  8
MERGEDLAYER-2
 62
  7
 10
5.680581
 20
2.176049
 30
0.000000
 40
0.122727
  1
Barre du bas
 72
  5
 11
6.662399
 21
2.176049
 31
0.000000
  0
POLYLINE
  8
MERGEDLAYER-2
 66
  1
 70
  0
 62
  7
 10
2.692933
 20
1.948734
 30
0.000000
  0
VERTEX
  8
MERGEDLAYER-2
 10
2.692933
 20
1.948734
 30
0.000000
  0
VERTEX
  8
MERGEDLAYER-2
 10
2.692933
 20
0.019108
 30
0.000000
  0
SEQEND
  8
MERGEDLAYER-2
  0
POLYLINE
  8
MERGEDLAYER-2
 66
  1
 70
  0
 62
  7
 10
2.733234
 20
1.948734
 30
0.000000
  0
VERTEX
  8
MERGEDLAYER-2
 10
2.733234
 20
1.948734
 30
0.000000
  0
VERTEX
  8
MERGEDLAYER-2
 10
2.733234
 20
0.019108
 30
0.000000
  0
SEQEND
  8
MERGEDLAYER-2
  0
POLYLINE
  8
MERGEDLAYER-2
 66
  1
 70
  0
 62
  7
 10
4.793246
 20
1.948734
 30
0.000000
  0
VERTEX
  8
MERGEDLAYER-2
 10
4.793246
 20
1.948734
 30
0.000000
  0
VERTEX
  8
MERGEDLAYER-2
 10
4.793246
 20
0.019108
 30
0.000000
  0
SEQEND
  8
MERGEDLAYER-2
  0
POLYLINE
  8
MERGEDLAYER-2
 66
  1
 70
  0
 62
  7
 10
4.833547
 20
1.948734
 30
0.000000
  0
VERTEX
  8
MERGEDLAYER-2
 10
4.833547
 20
1.948734
 30
0.000000
  0
VERTEX
  8
MERGEDLAYER-2
 10
4.833547
 20
0.019108
 30
0.000000
  0
SEQEND
  8
MERGEDLAYER-2
  0
POLYLINE
  8
MERGEDLAYER-2
 66
  1
 70
  1
 62
  7
  0
VERTEX
  8
MERGEDLAYER-2
 10
2.589959
 20
7.182381
 30
0.000000
  0
VERTEX
  8
MERGEDLAYER-2
 10
5.056270
 20
7.182381
 30
0.000000
  0
VERTEX
  8
MERGEDLAYER-2
 10
5.056270
 20
6.981139
 30
0.000000
  0
VERTEX
  8
MERGEDLAYER-2
 10
2.589959
 20
6.981139
 30
0.000000
  0
SEQEND
  8
MERGEDLAYER-2
  0
POLYLINE
  8
MERGEDLAYER-2
 66
  1
 70
  1
 62
  7
  0
VERTEX
  8
MERGEDLAYER-2
 10
2.134581
 20
7.183593
 30
0.000000
  0
VERTEX
  8
MERGEDLAYER-2
 10
2.315912
 20
7.183593
 30
0.000000
  0
VERTEX
  8
MERGEDLAYER-2
 10
2.315912
 20
6.981417
 30
0.000000
  0
VERTEX
  8
MERGEDLAYER-2
 10
2.134581
 20
6.981417
 30
0.000000
  0
SEQEND
  8
MERGEDLAYER-2
  0
POLYLINE
  8
MERGEDLAYER-2
 66
  1
 70
  0
 62
  7
 10
2.315912
 20
7.183593
 30
0.000000
  0
VERTEX
  8
MERGEDLAYER-2
 10
2.315912
 20
7.183593
 30
0.000000
  0
VERTEX
  8
MERGEDLAYER-2
 10
2.315912
 20
6.981321
 30
0.000000
  0
SEQEND
  8
MERGEDLAYER-2
  0
POLYLINE
  8
MERGEDLAYER-2
 66
  1
 70
  1
 62
  7
  0
VERTEX
  8
MERGEDLAYER-2
 10
5.330288
 20
7.183593
 30
0.000000
  0
VERTEX
  8
MERGEDLAYER-2
 10
5.553064
 20
7.183593
 30
0.000000
  0
VERTEX
  8
MERGEDLAYER-2
 10
5.553064
 20
6.981321
 30
0.000000
  0
VERTEX
  8
MERGEDLAYER-2
 10
5.330288
 20
6.981321
 30
0.000000
  0
SEQEND
  8
MERGEDLAYER-2
  0
POLYLINE
  8
MERGEDLAYER-2
 66
  1
 70
  0
 62
  7
 10
5.330288
 20
7.183593
 30
0.000000
  0
VERTEX
  8
MERGEDLAYER-2
 10
5.330288
 20
7.183593
 30
0.000000
  0
VERTEX
  8
MERGEDLAYER-2
 10
5.330288
 20
6.981321
 30
0.000000
  0
SEQEND
  8
MERGEDLAYER-2
  0
CIRCLE
  8
MERGEDLAYER-2
 62
  7
 10
2.020631
 20
6.633266
 30
0.000000
 40
0.011368
  0
POLYLINE
  8
MERGEDLAYER-2
 66
  1
 70
  0
 62
  7
 10
2.031212
 20
6.593068
 30
0.000000
  0
VERTEX
  8
MERGEDLAYER-2
 10
2.031212
 20
6.593068
 30
0.000000
  0
VERTEX
  8
MERGEDLAYER-2
 10
2.033102
 20
6.603446
 30
0.000000
  0
VERTEX
  8
MERGEDLAYER-2
 10
2.029883
 20
6.612122
 30
0.000000
  0
VERTEX
  8
MERGEDLAYER-2
 10
2.021473
 20
6.615980
 30
0.000000
  0
VERTEX
  8
MERGEDLAYER-2
 10
2.012797
 20
6.612761
 30
0.000000
  0
VERTEX
  8
MERGEDLAYER-2
 10
2.008939
 20
6.604350
 30
0.000000
  0
VERTEX
  8
MERGEDLAYER-2
 10
2.012158
 20
6.595675
 30
0.000000
  0
VERTEX
  8
MERGEDLAYER-2
 10
2.018734
 20
6.590613
 30
0.000000
  0
SEQEND
  8
MERGEDLAYER-2
  0
POLYLINE
  8
MERGEDLAYER-2
 66
  1
 70
  0
 62
  7
 10
2.016656
 20
6.582693
 30
0.000000
  0
VERTEX
  8
MERGEDLAYER-2
 10
2.016656
 20
6.582693
 30
0.000000
  0
VERTEX
  8
MERGEDLAYER-2
 10
2.011605
 20
6.582693
 30
0.000000
  0
SEQEND
  8
MERGEDLAYER-2
  0
POLYLINE
  8
MERGEDLAYER-2
 66
  1
 70
  0
 62
  7
 10
2.018734
 20
6.590613
 30
0.000000
  0
VERTEX
  8
MERGEDLAYER-2
 10
2.018734
 20
6.590613
 30
0.000000
  0
VERTEX
  8
MERGEDLAYER-2
 10
2.018729
 20
6.584763
 30
0.000000
  0
SEQEND
  8
MERGEDLAYER-2
  0
POLYLINE
  8
MERGEDLAYER-2
 66
  1
 70
  0
 62
  7
 10
2.016656
 20
6.582693
 30
0.000000
  0
VERTEX
  8
MERGEDLAYER-2
 10
2.016656
 20
6.582693
 30
0.000000
  0
VERTEX
  8
MERGEDLAYER-2
 10
2.018729
 20
6.584763
 30
0.000000
  0
SEQEND
  8
MERGEDLAYER-2
  0
POLYLINE
  8
MERGEDLAYER-2
 66
  1
 70
  0
 62
  7
 10
2.041252
 20
6.633221
 30
0.000000
  0
VERTEX
  8
MERGEDLAYER-2
 10
2.041252
 20
6.633221
 30
0.000000
  0
VERTEX
  8
MERGEDLAYER-2
 10
2.045150
 20
6.594357
 30
0.000000
  0
SEQEND
  8
MERGEDLAYER-2
  0
POLYLINE
  8
MERGEDLAYER-2
 66
  1
 70
  0
 62
  7
 10
2.042936
 20
6.588150
 30
0.000000
  0
VERTEX
  8
MERGEDLAYER-2
 10
2.042936
 20
6.588150
 30
0.000000
  0
VERTEX
  8
MERGEDLAYER-2
 10
2.045150
 20
6.594357
 30
0.000000
  0
SEQEND
  8
MERGEDLAYER-2
  0
POLYLINE
  8
MERGEDLAYER-2
 66
  1
 70
  0
 62
  7
 10
2.031212
 20
6.593067
 30
0.000000
  0
VERTEX
  8
MERGEDLAYER-2
 10
2.031212
 20
6.593067
 30
0.000000
  0
VERTEX
  8
MERGEDLAYER-2
 10
2.034684
 20
6.584022
 30
0.000000
  0
SEQEND
  8
MERGEDLAYER-2
  0
POLYLINE
  8
MERGEDLAYER-2
 66
  1
 70
  0
 62
  7
 10
2.038085
 20
6.583299
 30
0.000000
  0
VERTEX
  8
MERGEDLAYER-2
 10
2.038085
 20
6.583299
 30
0.000000
  0
VERTEX
  8
MERGEDLAYER-2
 10
2.042936
 20
6.588150
 30
0.000000
  0
SEQEND
  8
MERGEDLAYER-2
  0
POLYLINE
  8
MERGEDLAYER-2
 66
  1
 70
  0
 62
  7
 10
2.034684
 20
6.584022
 30
0.000000
  0
VERTEX
  8
MERGEDLAYER-2
 10
2.034684
 20
6.584022
 30
0.000000
  0
VERTEX
  8
MERGEDLAYER-2
 10
2.038084
 20
6.583300
 30
0.000000
  0
SEQEND
  8
MERGEDLAYER-2
  0
POLYLINE
  8
MERGEDLAYER-2
 66
  1
 70
  0
 62
  7
 10
2.003691
 20
6.590606
 30
0.000000
  0
VERTEX
  8
MERGEDLAYER-2
 10
2.003691
 20
6.590606
 30
0.000000
  0
VERTEX
  8
MERGEDLAYER-2
 10
2.011605
 20
6.582693
 30
0.000000
  0
SEQEND
  8
MERGEDLAYER-2
  0
POLYLINE
  8
MERGEDLAYER-2
 66
  1
 70
  0
 62
  7
 10
2.003691
 20
6.590606
 30
0.000000
  0
VERTEX
  8
MERGEDLAYER-2
 10
2.003691
 20
6.590606
 30
0.000000
  0
VERTEX
  8
MERGEDLAYER-2
 10
2.000532
 20
6.613313
 30
0.000000
  0
SEQEND
  8
MERGEDLAYER-2
  0
POLYLINE
  8
MERGEDLAYER-2
 66
  1
 70
  0
 62
  7
 10
2.005396
 20
6.618176
 30
0.000000
  0
VERTEX
  8
MERGEDLAYER-2
 10
2.005396
 20
6.618176
 30
0.000000
  0
VERTEX
  8
MERGEDLAYER-2
 10
1.999856
 20
6.623716
 30
0.000000
  0
SEQEND
  8
MERGEDLAYER-2
  0
POLYLINE
  8
MERGEDLAYER-2
 66
  1
 70
  0
 62
  7
 10
2.005396
 20
6.618176
 30
0.000000
  0
VERTEX
  8
MERGEDLAYER-2
 10
2.005396
 20
6.618176
 30
0.000000
  0
VERTEX
  8
MERGEDLAYER-2
 10
2.000532
 20
6.613313
 30
0.000000
  0
SEQEND
  8
MERGEDLAYER-2
  0
POLYLINE
  8
MERGEDLAYER-2
 66
  1
 70
  0
 62
  7
 10
1.999856
 20
6.623716
 30
0.000000
  0
VERTEX
  8
MERGEDLAYER-2
 10
1.999856
 20
6.623716
 30
0.000000
  0
VERTEX
  8
MERGEDLAYER-2
 10
1.999856
 20
6.642725
 30
0.000000
  0
SEQEND
  8
MERGEDLAYER-2
  0
POLYLINE
  8
MERGEDLAYER-2
 66
  1
 70
  0
 62
  7
 10
2.018734
 20
6.675828
 30
0.000000
  0
VERTEX
  8
MERGEDLAYER-2
 10
2.018734
 20
6.675828
 30
0.000000
  0
VERTEX
  8
MERGEDLAYER-2
 10
2.010009
 20
6.671473
 30
0.000000
  0
VERTEX
  8
MERGEDLAYER-2
 10
2.009704
 20
6.662225
 30
0.000000
  0
VERTEX
  8
MERGEDLAYER-2
 10
2.016028
 20
6.655469
 30
0.000000
  0
VERTEX
  8
MERGEDLAYER-2
 10
2.025276
 20
6.655164
 30
0.000000
  0
VERTEX
  8
MERGEDLAYER-2
 10
2.032031
 20
6.661487
 30
0.000000
  0
VERTEX
  8
MERGEDLAYER-2
 10
2.032337
 20
6.670735
 30
0.000000
  0
VERTEX
  8
MERGEDLAYER-2
 10
2.031212
 20
6.673374
 30
0.000000
  0
SEQEND
  8
MERGEDLAYER-2
  0
POLYLINE
  8
MERGEDLAYER-2
 66
  1
 70
  0
 62
  7
 10
2.016656
 20
6.683749
 30
0.000000
  0
VERTEX
  8
MERGEDLAYER-2
 10
2.016656
 20
6.683749
 30
0.000000
  0
VERTEX
  8
MERGEDLAYER-2
 10
2.011605
 20
6.683749
 30
0.000000
  0
SEQEND
  8
MERGEDLAYER-2
  0
POLYLINE
  8
MERGEDLAYER-2
 66
  1
 70
  0
 62
  7
 10
2.018734
 20
6.675828
 30
0.000000
  0
VERTEX
  8
MERGEDLAYER-2
 10
2.018734
 20
6.675828
 30
0.000000
  0
VERTEX
  8
MERGEDLAYER-2
 10
2.018729
 20
6.681678
 30
0.000000
  0
SEQEND
  8
MERGEDLAYER-2
  0
POLYLINE
  8
MERGEDLAYER-2
 66
  1
 70
  0
 62
  7
 10
2.018729
 20
6.681678
 30
0.000000
  0
VERTEX
  8
MERGEDLAYER-2
 10
2.018729
 20
6.681678
 30
0.000000
  0
VERTEX
  8
MERGEDLAYER-2
 10
2.016656
 20
6.683749
 30
0.000000
  0
SEQEND
  8
MERGEDLAYER-2
  0
POLYLINE
  8
MERGEDLAYER-2
 66
  1
 70
  0
 62
  7
 10
2.041252
 20
6.633221
 30
0.000000
  0
VERTEX
  8
MERGEDLAYER-2
 10
2.041252
 20
6.633221
 30
0.000000
  0
VERTEX
  8
MERGEDLAYER-2
 10
2.045150
 20
6.672084
 30
0.000000
  0
SEQEND
  8
MERGEDLAYER-2
  0
POLYLINE
  8
MERGEDLAYER-2
 66
  1
 70
  0
 62
  7
 10
2.045150
 20
6.672084
 30
0.000000
  0
VERTEX
  8
MERGEDLAYER-2
 10
2.045150
 20
6.672084
 30
0.000000
  0
VERTEX
  8
MERGEDLAYER-2
 10
2.042936
 20
6.678290
 30
0.000000
  0
SEQEND
  8
MERGEDLAYER-2
  0
POLYLINE
  8
MERGEDLAYER-2
 66
  1
 70
  0
 62
  7
 10
2.031212
 20
6.673374
 30
0.000000
  0
VERTEX
  8
MERGEDLAYER-2
 10
2.031212
 20
6.673374
 30
0.000000
  0
VERTEX
  8
MERGEDLAYER-2
 10
2.034684
 20
6.682419
 30
0.000000
  0
SEQEND
  8
MERGEDLAYER-2
  0
POLYLINE
  8
MERGEDLAYER-2
 66
  1
 70
  0
 62
  7
 10
2.038085
 20
6.683142
 30
0.000000
  0
VERTEX
  8
MERGEDLAYER-2
 10
2.038085
 20
6.683142
 30
0.000000
  0
VERTEX
  8
MERGEDLAYER-2
 10
2.042936
 20
6.678290
 30
0.000000
  0
SEQEND
  8
MERGEDLAYER-2
  0
POLYLINE
  8
MERGEDLAYER-2
 66
  1
 70
  0
 62
  7
 10
2.038084
 20
6.683142
 30
0.000000
  0
VERTEX
  8
MERGEDLAYER-2
 10
2.038084
 20
6.683142
 30
0.000000
  0
VERTEX
  8
MERGEDLAYER-2
 10
2.034684
 20
6.682419
 30
0.000000
  0
SEQEND
  8
MERGEDLAYER-2
  0
POLYLINE
  8
MERGEDLAYER-2
 66
  1
 70
  0
 62
  7
 10
2.003691
 20
6.675835
 30
0.000000
  0
VERTEX
  8
MERGEDLAYER-2
 10
2.003691
 20
6.675835
 30
0.000000
  0
VERTEX
  8
MERGEDLAYER-2
 10
2.011605
 20
6.683749
 30
0.000000
  0
SEQEND
  8
MERGEDLAYER-2
  0
POLYLINE
  8
MERGEDLAYER-2
 66
  1
 70
  0
 62
  7
 10
2.003691
 20
6.675835
 30
0.000000
  0
VERTEX
  8
MERGEDLAYER-2
 10
2.003691
 20
6.675835
 30
0.000000
  0
VERTEX
  8
MERGEDLAYER-2
 10
2.000532
 20
6.653128
 30
0.000000
  0
SEQEND
  8
MERGEDLAYER-2
  0
POLYLINE
  8
MERGEDLAYER-2
 66
  1
 70
  0
 62
  7
 10
2.005396
 20
6.648264
 30
0.000000
  0
VERTEX
  8
MERGEDLAYER-2
 10
2.005396
 20
6.648264
 30
0.000000
  0
VERTEX
  8
MERGEDLAYER-2
 10
1.999856
 20
6.642725
 30
0.000000
  0
SEQEND
  8
MERGEDLAYER-2
  0
POLYLINE
  8
MERGEDLAYER-2
 66
  1
 70
  0
 62
  7
 10
2.005396
 20
6.648264
 30
0.000000
  0
VERTEX
  8
MERGEDLAYER-2
 10
2.005396
 20
6.648264
 30
0.000000
  0
VERTEX
  8
MERGEDLAYER-2
 10
2.000532
 20
6.653128
 30
0.000000
  0
SEQEND
  8
MERGEDLAYER-2
  0
CIRCLE
  8
MERGEDLAYER-2
 62
  7
 10
2.020706
 20
6.332557
 30
0.000000
 40
0.011368
  0
POLYLINE
  8
MERGEDLAYER-2
 66
  1
 70
  0
 62
  7
 10
2.031287
 20
6.292359
 30
0.000000
  0
VERTEX
  8
MERGEDLAYER-2
 10
2.031287
 20
6.292359
 30
0.000000
  0
VERTEX
  8
MERGEDLAYER-2
 10
2.033177
 20
6.302738
 30
0.000000
  0
VERTEX
  8
MERGEDLAYER-2
 10
2.029959
 20
6.311412
 30
0.000000
  0
VERTEX
  8
MERGEDLAYER-2
 10
2.021548
 20
6.315271
 30
0.000000
  0
VERTEX
  8
MERGEDLAYER-2
 10
2.012873
 20
6.312052
 30
0.000000
  0
VERTEX
  8
MERGEDLAYER-2
 10
2.009015
 20
6.303642
 30
0.000000
  0
VERTEX
  8
MERGEDLAYER-2
 10
2.012233
 20
6.294966
 30
0.000000
  0
VERTEX
  8
MERGEDLAYER-2
 10
2.018809
 20
6.289905
 30
0.000000
  0
SEQEND
  8
MERGEDLAYER-2
  0
POLYLINE
  8
MERGEDLAYER-2
 66
  1
 70
  0
 62
  7
 10
2.016732
 20
6.281983
 30
0.000000
  0
VERTEX
  8
MERGEDLAYER-2
 10
2.016732
 20
6.281983
 30
0.000000
  0
VERTEX
  8
MERGEDLAYER-2
 10
2.011680
 20
6.281984
 30
0.000000
  0
SEQEND
  8
MERGEDLAYER-2
  0
POLYLINE
  8
MERGEDLAYER-2
 66
  1
 70
  0
 62
  7
 10
2.018809
 20
6.289904
 30
0.000000
  0
VERTEX
  8
MERGEDLAYER-2
 10
2.018809
 20
6.289904
 30
0.000000
  0
VERTEX
  8
MERGEDLAYER-2
 10
2.018805
 20
6.284054
 30
0.000000
  0
SEQEND
  8
MERGEDLAYER-2
  0
POLYLINE
  8
MERGEDLAYER-2
 66
  1
 70
  0
 62
  7
 10
2.016732
 20
6.281984
 30
0.000000
  0
VERTEX
  8
MERGEDLAYER-2
 10
2.016732
 20
6.281984
 30
0.000000
  0
VERTEX
  8
MERGEDLAYER-2
 10
2.018805
 20
6.284054
 30
0.000000
  0
SEQEND
  8
MERGEDLAYER-2
  0
POLYLINE
  8
MERGEDLAYER-2
 66
  1
 70
  0
 62
  7
 10
2.041328
 20
6.332511
 30
0.000000
  0
VERTEX
  8
MERGEDLAYER-2
 10
2.041328
 20
6.332511
 30
0.000000
  0
VERTEX
  8
MERGEDLAYER-2
 10
2.045226
 20
6.293648
 30
0.000000
  0
SEQEND
  8
MERGEDLAYER-2
  0
POLYLINE
  8
MERGEDLAYER-2
 66
  1
 70
  0
 62
  7
 10
2.043012
 20
6.287441
 30
0.000000
  0
VERTEX
  8
MERGEDLAYER-2
 10
2.043012
 20
6.287441
 30
0.000000
  0
VERTEX
  8
MERGEDLAYER-2
 10
2.045226
 20
6.293647
 30
0.000000
  0
SEQEND
  8
MERGEDLAYER-2
  0
POLYLINE
  8
MERGEDLAYER-2
 66
  1
 70
  0
 62
  7
 10
2.031287
 20
6.292359
 30
0.000000
  0
VERTEX
  8
MERGEDLAYER-2
 10
2.031287
 20
6.292359
 30
0.000000
  0
VERTEX
  8
MERGEDLAYER-2
 10
2.034759
 20
6.283313
 30
0.000000
  0
SEQEND
  8
MERGEDLAYER-2
  0
POLYLINE
  8
MERGEDLAYER-2
 66
  1
 70
  0
 62
  7
 10
2.038160
 20
6.282591
 30
0.000000
  0
VERTEX
  8
MERGEDLAYER-2
 10
2.038160
 20
6.282591
 30
0.000000
  0
VERTEX
  8
MERGEDLAYER-2
 10
2.043012
 20
6.287442
 30
0.000000
  0
SEQEND
  8
MERGEDLAYER-2
  0
POLYLINE
  8
MERGEDLAYER-2
 66
  1
 70
  0
 62
  7
 10
2.034759
 20
6.283313
 30
0.000000
  0
VERTEX
  8
MERGEDLAYER-2
 10
2.034759
 20
6.283313
 30
0.000000
  0
VERTEX
  8
MERGEDLAYER-2
 10
2.038160
 20
6.282591
 30
0.000000
  0
SEQEND
  8
MERGEDLAYER-2
  0
POLYLINE
  8
MERGEDLAYER-2
 66
  1
 70
  0
 62
  7
 10
2.003766
 20
6.289897
 30
0.000000
  0
VERTEX
  8
MERGEDLAYER-2
 10
2.003766
 20
6.289897
 30
0.000000
  0
VERTEX
  8
MERGEDLAYER-2
 10
2.011680
 20
6.281984
 30
0.000000
  0
SEQEND
  8
MERGEDLAYER-2
  0
POLYLINE
  8
MERGEDLAYER-2
 66
  1
 70
  0
 62
  7
 10
2.003766
 20
6.289897
 30
0.000000
  0
VERTEX
  8
MERGEDLAYER-2
 10
2.003766
 20
6.289897
 30
0.000000
  0
VERTEX
  8
MERGEDLAYER-2
 10
2.000608
 20
6.312604
 30
0.000000
  0
SEQEND
  8
MERGEDLAYER-2
  0
POLYLINE
  8
MERGEDLAYER-2
 66
  1
 70
  0
 62
  7
 10
2.005471
 20
6.317467
 30
0.000000
  0
VERTEX
  8
MERGEDLAYER-2
 10
2.005471
 20
6.317467
 30
0.000000
  0
VERTEX
  8
MERGEDLAYER-2
 10
1.999931
 20
6.323007
 30
0.000000
  0
SEQEND
  8
MERGEDLAYER-2
  0
POLYLINE
  8
MERGEDLAYER-2
 66
  1
 70
  0
 62
  7
 10
2.005471
 20
6.317467
 30
0.000000
  0
VERTEX
  8
MERGEDLAYER-2
 10
2.005471
 20
6.317467
 30
0.000000
  0
VERTEX
  8
MERGEDLAYER-2
 10
2.000608
 20
6.312604
 30
0.000000
  0
SEQEND
  8
MERGEDLAYER-2
  0
POLYLINE
  8
MERGEDLAYER-2
 66
  1
 70
  0
 62
  7
 10
1.999931
 20
6.323007
 30
0.000000
  0
VERTEX
  8
MERGEDLAYER-2
 10
1.999931
 20
6.323007
 30
0.000000
  0
VERTEX
  8
MERGEDLAYER-2
 10
1.999931
 20
6.342015
 30
0.000000
  0
SEQEND
  8
MERGEDLAYER-2
  0
POLYLINE
  8
MERGEDLAYER-2
 66
  1
 70
  0
 62
  7
 10
2.018809
 20
6.375118
 30
0.000000
  0
VERTEX
  8
MERGEDLAYER-2
 10
2.018809
 20
6.375118
 30
0.000000
  0
VERTEX
  8
MERGEDLAYER-2
 10
2.010085
 20
6.370764
 30
0.000000
  0
VERTEX
  8
MERGEDLAYER-2
 10
2.009780
 20
6.361515
 30
0.000000
  0
VERTEX
  8
MERGEDLAYER-2
 10
2.016103
 20
6.354760
 30
0.000000
  0
VERTEX
  8
MERGEDLAYER-2
 10
2.025351
 20
6.354454
 30
0.000000
  0
VERTEX
  8
MERGEDLAYER-2
 10
2.032107
 20
6.360778
 30
0.000000
  0
VERTEX
  8
MERGEDLAYER-2
 10
2.032412
 20
6.370026
 30
0.000000
  0
VERTEX
  8
MERGEDLAYER-2
 10
2.031287
 20
6.372665
 30
0.000000
  0
SEQEND
  8
MERGEDLAYER-2
  0
POLYLINE
  8
MERGEDLAYER-2
 66
  1
 70
  0
 62
  7
 10
2.016732
 20
6.383039
 30
0.000000
  0
VERTEX
  8
MERGEDLAYER-2
 10
2.016732
 20
6.383039
 30
0.000000
  0
VERTEX
  8
MERGEDLAYER-2
 10
2.011680
 20
6.383039
 30
0.000000
  0
SEQEND
  8
MERGEDLAYER-2
  0
POLYLINE
  8
MERGEDLAYER-2
 66
  1
 70
  0
 62
  7
 10
2.018809
 20
6.375118
 30
0.000000
  0
VERTEX
  8
MERGEDLAYER-2
 10
2.018809
 20
6.375118
 30
0.000000
  0
VERTEX
  8
MERGEDLAYER-2
 10
2.018805
 20
6.380968
 30
0.000000
  0
SEQEND
  8
MERGEDLAYER-2
  0
POLYLINE
  8
MERGEDLAYER-2
 66
  1
 70
  0
 62
  7
 10
2.018805
 20
6.380968
 30
0.000000
  0
VERTEX
  8
MERGEDLAYER-2
 10
2.018805
 20
6.380968
 30
0.000000
  0
VERTEX
  8
MERGEDLAYER-2
 10
2.016732
 20
6.383039
 30
0.000000
  0
SEQEND
  8
MERGEDLAYER-2
  0
POLYLINE
  8
MERGEDLAYER-2
 66
  1
 70
  0
 62
  7
 10
2.041328
 20
6.332511
 30
0.000000
  0
VERTEX
  8
MERGEDLAYER-2
 10
2.041328
 20
6.332511
 30
0.000000
  0
VERTEX
  8
MERGEDLAYER-2
 10
2.045226
 20
6.371375
 30
0.000000
  0
SEQEND
  8
MERGEDLAYER-2
  0
POLYLINE
  8
MERGEDLAYER-2
 66
  1
 70
  0
 62
  7
 10
2.045226
 20
6.371375
 30
0.000000
  0
VERTEX
  8
MERGEDLAYER-2
 10
2.045226
 20
6.371375
 30
0.000000
  0
VERTEX
  8
MERGEDLAYER-2
 10
2.043012
 20
6.377580
 30
0.000000
  0
SEQEND
  8
MERGEDLAYER-2
  0
POLYLINE
  8
MERGEDLAYER-2
 66
  1
 70
  0
 62
  7
 10
2.031287
 20
6.372665
 30
0.000000
  0
VERTEX
  8
MERGEDLAYER-2
 10
2.031287
 20
6.372665
 30
0.000000
  0
VERTEX
  8
MERGEDLAYER-2
 10
2.034759
 20
6.381709
 30
0.000000
  0
SEQEND
  8
MERGEDLAYER-2
  0
POLYLINE
  8
MERGEDLAYER-2
 66
  1
 70
  0
 62
  7
 10
2.038160
 20
6.382432
 30
0.000000
  0
VERTEX
  8
MERGEDLAYER-2
 10
2.038160
 20
6.382432
 30
0.000000
  0
VERTEX
  8
MERGEDLAYER-2
 10
2.043012
 20
6.377581
 30
0.000000
  0
SEQEND
  8
MERGEDLAYER-2
  0
POLYLINE
  8
MERGEDLAYER-2
 66
  1
 70
  0
 62
  7
 10
2.038160
 20
6.382432
 30
0.000000
  0
VERTEX
  8
MERGEDLAYER-2
 10
2.038160
 20
6.382432
 30
0.000000
  0
VERTEX
  8
MERGEDLAYER-2
 10
2.034759
 20
6.381709
 30
0.000000
  0
SEQEND
  8
MERGEDLAYER-2
  0
POLYLINE
  8
MERGEDLAYER-2
 66
  1
 70
  0
 62
  7
 10
2.003766
 20
6.375125
 30
0.000000
  0
VERTEX
  8
MERGEDLAYER-2
 10
2.003766
 20
6.375125
 30
0.000000
  0
VERTEX
  8
MERGEDLAYER-2
 10
2.011680
 20
6.383039
 30
0.000000
  0
SEQEND
  8
MERGEDLAYER-2
  0
POLYLINE
  8
MERGEDLAYER-2
 66
  1
 70
  0
 62
  7
 10
2.003766
 20
6.375125
 30
0.000000
  0
VERTEX
  8
MERGEDLAYER-2
 10
2.003766
 20
6.375125
 30
0.000000
  0
VERTEX
  8
MERGEDLAYER-2
 10
2.000608
 20
6.352418
 30
0.000000
  0
SEQEND
  8
MERGEDLAYER-2
  0
POLYLINE
  8
MERGEDLAYER-2
 66
  1
 70
  0
 62
  7
 10
2.005471
 20
6.347555
 30
0.000000
  0
VERTEX
  8
MERGEDLAYER-2
 10
2.005471
 20
6.347555
 30
0.000000
  0
VERTEX
  8
MERGEDLAYER-2
 10
1.999931
 20
6.342015
 30
0.000000
  0
SEQEND
  8
MERGEDLAYER-2
  0
POLYLINE
  8
MERGEDLAYER-2
 66
  1
 70
  0
 62
  7
 10
2.005471
 20
6.347555
 30
0.000000
  0
VERTEX
  8
MERGEDLAYER-2
 10
2.005471
 20
6.347555
 30
0.000000
  0
VERTEX
  8
MERGEDLAYER-2
 10
2.000608
 20
6.352418
 30
0.000000
  0
SEQEND
  8
MERGEDLAYER-2
  0
POLYLINE
  8
MERGEDLAYER-2
 66
  1
 70
  0
 62
  7
 10
2.018899
 20
6.393750
 30
0.000000
  0
VERTEX
  8
MERGEDLAYER-2
 10
2.018899
 20
6.393750
 30
0.000000
  0
VERTEX
  8
MERGEDLAYER-2
 10
2.018899
 20
6.571184
 30
0.000000
  0
SEQEND
  8
MERGEDLAYER-2
  0
POLYLINE
  8
MERGEDLAYER-2
 66
  1
 70
  0
 62
  7
 10
2.026477
 20
6.393773
 30
0.000000
  0
VERTEX
  8
MERGEDLAYER-2
 10
2.026477
 20
6.393773
 30
0.000000
  0
VERTEX
  8
MERGEDLAYER-2
 10
2.026477
 20
6.571160
 30
0.000000
  0
SEQEND
  8
MERGEDLAYER-2
  0
POLYLINE
  8
MERGEDLAYER-2
 66
  1
 70
  0
 62
  7
 10
2.017952
 20
6.373844
 30
0.000000
  0
VERTEX
  8
MERGEDLAYER-2
 10
2.017952
 20
6.373844
 30
0.000000
  0
VERTEX
  8
MERGEDLAYER-2
 10
2.010062
 20
6.369436
 30
0.000000
  0
VERTEX
  8
MERGEDLAYER-2
 10
2.010383
 20
6.360740
 30
0.000000
  0
VERTEX
  8
MERGEDLAYER-2
 10
2.016760
 20
6.354818
 30
0.000000
  0
VERTEX
  8
MERGEDLAYER-2
 10
2.025456
 20
6.355140
 30
0.000000
  0
VERTEX
  8
MERGEDLAYER-2
 10
2.031378
 20
6.361516
 30
0.000000
  0
VERTEX
  8
MERGEDLAYER-2
 10
2.031056
 20
6.370213
 30
0.000000
  0
VERTEX
  8
MERGEDLAYER-2
 10
2.027425
 20
6.373844
 30
0.000000
  0
SEQEND
  8
MERGEDLAYER-2
  0
POLYLINE
  8
MERGEDLAYER-2
 66
  1
 70
  0
 62
  7
 10
2.017929
 20
6.373834
 30
0.000000
  0
VERTEX
  8
MERGEDLAYER-2
 10
2.017929
 20
6.373834
 30
0.000000
  0
VERTEX
  8
MERGEDLAYER-2
 10
2.010053
 20
6.369413
 30
0.000000
  0
VERTEX
  8
MERGEDLAYER-2
 10
2.010394
 20
6.360717
 30
0.000000
  0
VERTEX
  8
MERGEDLAYER-2
 10
2.016784
 20
6.354809
 30
0.000000
  0
VERTEX
  8
MERGEDLAYER-2
 10
2.025480
 20
6.355150
 30
0.000000
  0
VERTEX
  8
MERGEDLAYER-2
 10
2.031387
 20
6.361540
 30
0.000000
  0
VERTEX
  8
MERGEDLAYER-2
 10
2.031046
 20
6.370236
 30
0.000000
  0
VERTEX
  8
MERGEDLAYER-2
 10
2.027510
 20
6.373805
 30
0.000000
  0
SEQEND
  8
MERGEDLAYER-2
  0
POLYLINE
  8
MERGEDLAYER-2
 66
  1
 70
  0
 62
  7
 10
2.017952
 20
6.392802
 30
0.000000
  0
VERTEX
  8
MERGEDLAYER-2
 10
2.017952
 20
6.392802
 30
0.000000
  0
VERTEX
  8
MERGEDLAYER-2
 10
2.017952
 20
6.373833
 30
0.000000
  0
SEQEND
  8
MERGEDLAYER-2
  0
POLYLINE
  8
MERGEDLAYER-2
 66
  1
 70
  0
 62
  7
 10
2.027424
 20
6.392826
 30
0.000000
  0
VERTEX
  8
MERGEDLAYER-2
 10
2.027424
 20
6.392826
 30
0.000000
  0
VERTEX
  8
MERGEDLAYER-2
 10
2.027424
 20
6.373844
 30
0.000000
  0
SEQEND
  8
MERGEDLAYER-2
  0
POLYLINE
  8
MERGEDLAYER-2
 66
  1
 70
  0
 62
  7
 10
2.027424
 20
6.392826
 30
0.000000
  0
VERTEX
  8
MERGEDLAYER-2
 10
2.027424
 20
6.392826
 30
0.000000
  0
VERTEX
  8
MERGEDLAYER-2
 10
2.026477
 20
6.393773
 30
0.000000
  0
SEQEND
  8
MERGEDLAYER-2
  0
POLYLINE
  8
MERGEDLAYER-2
 66
  1
 70
  0
 62
  7
 10
2.017952
 20
6.392802
 30
0.000000
  0
VERTEX
  8
MERGEDLAYER-2
 10
2.017952
 20
6.392802
 30
0.000000
  0
VERTEX
  8
MERGEDLAYER-2
 10
2.018899
 20
6.393750
 30
0.000000
  0
SEQEND
  8
MERGEDLAYER-2
  0
POLYLINE
  8
MERGEDLAYER-2
 66
  1
 70
  0
 62
  7
 10
2.027425
 20
6.591090
 30
0.000000
  0
VERTEX
  8
MERGEDLAYER-2
 10
2.027425
 20
6.591090
 30
0.000000
  0
VERTEX
  8
MERGEDLAYER-2
 10
2.031378
 20
6.599435
 30
0.000000
  0
VERTEX
  8
MERGEDLAYER-2
 10
2.031056
 20
6.608131
 30
0.000000
  0
VERTEX
  8
MERGEDLAYER-2
 10
2.024680
 20
6.614053
 30
0.000000
  0
VERTEX
  8
MERGEDLAYER-2
 10
2.015983
 20
6.613732
 30
0.000000
  0
VERTEX
  8
MERGEDLAYER-2
 10
2.010062
 20
6.607355
 30
0.000000
  0
VERTEX
  8
MERGEDLAYER-2
 10
2.010383
 20
6.598658
 30
0.000000
  0
VERTEX
  8
MERGEDLAYER-2
 10
2.017952
 20
6.591090
 30
0.000000
  0
SEQEND
  8
MERGEDLAYER-2
  0
POLYLINE
  8
MERGEDLAYER-2
 66
  1
 70
  0
 62
  7
 10
2.027510
 20
6.591129
 30
0.000000
  0
VERTEX
  8
MERGEDLAYER-2
 10
2.027510
 20
6.591129
 30
0.000000
  0
VERTEX
  8
MERGEDLAYER-2
 10
2.031410
 20
6.599523
 30
0.000000
  0
VERTEX
  8
MERGEDLAYER-2
 10
2.031017
 20
6.608216
 30
0.000000
  0
VERTEX
  8
MERGEDLAYER-2
 10
2.024592
 20
6.614085
 30
0.000000
  0
VERTEX
  8
MERGEDLAYER-2
 10
2.015899
 20
6.613692
 30
0.000000
  0
VERTEX
  8
MERGEDLAYER-2
 10
2.010029
 20
6.607267
 30
0.000000
  0
VERTEX
  8
MERGEDLAYER-2
 10
2.010423
 20
6.598573
 30
0.000000
  0
VERTEX
  8
MERGEDLAYER-2
 10
2.017929
 20
6.591100
 30
0.000000
  0
SEQEND
  8
MERGEDLAYER-2
  0
POLYLINE
  8
MERGEDLAYER-2
 66
  1
 70
  0
 62
  7
 10
2.017952
 20
6.572131
 30
0.000000
  0
VERTEX
  8
MERGEDLAYER-2
 10
2.017952
 20
6.572131
 30
0.000000
  0
VERTEX
  8
MERGEDLAYER-2
 10
2.017952
 20
6.591101
 30
0.000000
  0
SEQEND
  8
MERGEDLAYER-2
  0
POLYLINE
  8
MERGEDLAYER-2
 66
  1
 70
  0
 62
  7
 10
2.027424
 20
6.572108
 30
0.000000
  0
VERTEX
  8
MERGEDLAYER-2
 10
2.027424
 20
6.572108
 30
0.000000
  0
VERTEX
  8
MERGEDLAYER-2
 10
2.027424
 20
6.591090
 30
0.000000
  0
SEQEND
  8
MERGEDLAYER-2
  0
POLYLINE
  8
MERGEDLAYER-2
 66
  1
 70
  0
 62
  7
 10
2.027424
 20
6.572108
 30
0.000000
  0
VERTEX
  8
MERGEDLAYER-2
 10
2.027424
 20
6.572108
 30
0.000000
  0
VERTEX
  8
MERGEDLAYER-2
 10
2.026477
 20
6.571160
 30
0.000000
  0
SEQEND
  8
MERGEDLAYER-2
  0
POLYLINE
  8
MERGEDLAYER-2
 66
  1
 70
  0
 62
  7
 10
2.017952
 20
6.572131
 30
0.000000
  0
VERTEX
  8
MERGEDLAYER-2
 10
2.017952
 20
6.572131
 30
0.000000
  0
VERTEX
  8
MERGEDLAYER-2
 10
2.018899
 20
6.571184
 30
0.000000
  0
SEQEND
  8
MERGEDLAYER-2
  0
CIRCLE
  8
MERGEDLAYER-2
 62
  7
 10
2.020706
 20
6.933884
 30
0.000000
 40
0.011368
  0
POLYLINE
  8
MERGEDLAYER-2
 66
  1
 70
  0
 62
  7
 10
2.031287
 20
6.893686
 30
0.000000
  0
VERTEX
  8
MERGEDLAYER-2
 10
2.031287
 20
6.893686
 30
0.000000
  0
VERTEX
  8
MERGEDLAYER-2
 10
2.033177
 20
6.904065
 30
0.000000
  0
VERTEX
  8
MERGEDLAYER-2
 10
2.029959
 20
6.912741
 30
0.000000
  0
VERTEX
  8
MERGEDLAYER-2
 10
2.021548
 20
6.916599
 30
0.000000
  0
VERTEX
  8
MERGEDLAYER-2
 10
2.012873
 20
6.913380
 30
0.000000
  0
VERTEX
  8
MERGEDLAYER-2
 10
2.009015
 20
6.904969
 30
0.000000
  0
VERTEX
  8
MERGEDLAYER-2
 10
2.012233
 20
6.896294
 30
0.000000
  0
VERTEX
  8
MERGEDLAYER-2
 10
2.018809
 20
6.891233
 30
0.000000
  0
SEQEND
  8
MERGEDLAYER-2
  0
POLYLINE
  8
MERGEDLAYER-2
 66
  1
 70
  0
 62
  7
 10
2.016732
 20
6.883311
 30
0.000000
  0
VERTEX
  8
MERGEDLAYER-2
 10
2.016732
 20
6.883311
 30
0.000000
  0
VERTEX
  8
MERGEDLAYER-2
 10
2.011680
 20
6.883312
 30
0.000000
  0
SEQEND
  8
MERGEDLAYER-2
  0
POLYLINE
  8
MERGEDLAYER-2
 66
  1
 70
  0
 62
  7
 10
2.018809
 20
6.891232
 30
0.000000
  0
VERTEX
  8
MERGEDLAYER-2
 10
2.018809
 20
6.891232
 30
0.000000
  0
VERTEX
  8
MERGEDLAYER-2
 10
2.018805
 20
6.885383
 30
0.000000
  0
SEQEND
  8
MERGEDLAYER-2
  0
POLYLINE
  8
MERGEDLAYER-2
 66
  1
 70
  0
 62
  7
 10
2.016732
 20
6.883311
 30
0.000000
  0
VERTEX
  8
MERGEDLAYER-2
 10
2.016732
 20
6.883311
 30
0.000000
  0
VERTEX
  8
MERGEDLAYER-2
 10
2.018805
 20
6.885383
 30
0.000000
  0
SEQEND
  8
MERGEDLAYER-2
  0
POLYLINE
  8
MERGEDLAYER-2
 66
  1
 70
  0
 62
  7
 10
2.041328
 20
6.933840
 30
0.000000
  0
VERTEX
  8
MERGEDLAYER-2
 10
2.041328
 20
6.933840
 30
0.000000
  0
VERTEX
  8
MERGEDLAYER-2
 10
2.045226
 20
6.894976
 30
0.000000
  0
SEQEND
  8
MERGEDLAYER-2
  0
POLYLINE
  8
MERGEDLAYER-2
 66
  1
 70
  0
 62
  7
 10
2.043012
 20
6.888770
 30
0.000000
  0
VERTEX
  8
MERGEDLAYER-2
 10
2.043012
 20
6.888770
 30
0.000000
  0
VERTEX
  8
MERGEDLAYER-2
 10
2.045226
 20
6.894976
 30
0.000000
  0
SEQEND
  8
MERGEDLAYER-2
  0
POLYLINE
  8
MERGEDLAYER-2
 66
  1
 70
  0
 62
  7
 10
2.031287
 20
6.893687
 30
0.000000
  0
VERTEX
  8
MERGEDLAYER-2
 10
2.031287
 20
6.893687
 30
0.000000
  0
VERTEX
  8
MERGEDLAYER-2
 10
2.034759
 20
6.884641
 30
0.000000
  0
SEQEND
  8
MERGEDLAYER-2
  0
POLYLINE
  8
MERGEDLAYER-2
 66
  1
 70
  0
 62
  7
 10
2.038160
 20
6.883918
 30
0.000000
  0
VERTEX
  8
MERGEDLAYER-2
 10
2.038160
 20
6.883918
 30
0.000000
  0
VERTEX
  8
MERGEDLAYER-2
 10
2.043012
 20
6.888771
 30
0.000000
  0
SEQEND
  8
MERGEDLAYER-2
  0
POLYLINE
  8
MERGEDLAYER-2
 66
  1
 70
  0
 62
  7
 10
2.034759
 20
6.884641
 30
0.000000
  0
VERTEX
  8
MERGEDLAYER-2
 10
2.034759
 20
6.884641
 30
0.000000
  0
VERTEX
  8
MERGEDLAYER-2
 10
2.038160
 20
6.883919
 30
0.000000
  0
SEQEND
  8
MERGEDLAYER-2
  0
POLYLINE
  8
MERGEDLAYER-2
 66
  1
 70
  0
 62
  7
 10
2.003766
 20
6.891225
 30
0.000000
  0
VERTEX
  8
MERGEDLAYER-2
 10
2.003766
 20
6.891225
 30
0.000000
  0
VERTEX
  8
MERGEDLAYER-2
 10
2.011680
 20
6.883312
 30
0.000000
  0
SEQEND
  8
MERGEDLAYER-2
  0
POLYLINE
  8
MERGEDLAYER-2
 66
  1
 70
  0
 62
  7
 10
2.003766
 20
6.891225
 30
0.000000
  0
VERTEX
  8
MERGEDLAYER-2
 10
2.003766
 20
6.891225
 30
0.000000
  0
VERTEX
  8
MERGEDLAYER-2
 10
2.000608
 20
6.913932
 30
0.000000
  0
SEQEND
  8
MERGEDLAYER-2
  0
POLYLINE
  8
MERGEDLAYER-2
 66
  1
 70
  0
 62
  7
 10
2.005471
 20
6.918795
 30
0.000000
  0
VERTEX
  8
MERGEDLAYER-2
 10
2.005471
 20
6.918795
 30
0.000000
  0
VERTEX
  8
MERGEDLAYER-2
 10
1.999931
 20
6.924336
 30
0.000000
  0
SEQEND
  8
MERGEDLAYER-2
  0
POLYLINE
  8
MERGEDLAYER-2
 66
  1
 70
  0
 62
  7
 10
2.005471
 20
6.918795
 30
0.000000
  0
VERTEX
  8
MERGEDLAYER-2
 10
2.005471
 20
6.918795
 30
0.000000
  0
VERTEX
  8
MERGEDLAYER-2
 10
2.000608
 20
6.913932
 30
0.000000
  0
SEQEND
  8
MERGEDLAYER-2
  0
POLYLINE
  8
MERGEDLAYER-2
 66
  1
 70
  0
 62
  7
 10
1.999931
 20
6.924336
 30
0.000000
  0
VERTEX
  8
MERGEDLAYER-2
 10
1.999931
 20
6.924336
 30
0.000000
  0
VERTEX
  8
MERGEDLAYER-2
 10
1.999931
 20
6.943344
 30
0.000000
  0
SEQEND
  8
MERGEDLAYER-2
  0
POLYLINE
  8
MERGEDLAYER-2
 66
  1
 70
  0
 62
  7
 10
2.018809
 20
6.976447
 30
0.000000
  0
VERTEX
  8
MERGEDLAYER-2
 10
2.018809
 20
6.976447
 30
0.000000
  0
VERTEX
  8
MERGEDLAYER-2
 10
2.010085
 20
6.972093
 30
0.000000
  0
VERTEX
  8
MERGEDLAYER-2
 10
2.009780
 20
6.962844
 30
0.000000
  0
VERTEX
  8
MERGEDLAYER-2
 10
2.016103
 20
6.956089
 30
0.000000
  0
VERTEX
  8
MERGEDLAYER-2
 10
2.025351
 20
6.955783
 30
0.000000
  0
VERTEX
  8
MERGEDLAYER-2
 10
2.032107
 20
6.962107
 30
0.000000
  0
VERTEX
  8
MERGEDLAYER-2
 10
2.032412
 20
6.971355
 30
0.000000
  0
VERTEX
  8
MERGEDLAYER-2
 10
2.031287
 20
6.973993
 30
0.000000
  0
SEQEND
  8
MERGEDLAYER-2
  0
POLYLINE
  8
MERGEDLAYER-2
 66
  1
 70
  0
 62
  7
 10
2.016732
 20
6.984368
 30
0.000000
  0
VERTEX
  8
MERGEDLAYER-2
 10
2.016732
 20
6.984368
 30
0.000000
  0
VERTEX
  8
MERGEDLAYER-2
 10
2.011680
 20
6.984368
 30
0.000000
  0
SEQEND
  8
MERGEDLAYER-2
  0
POLYLINE
  8
MERGEDLAYER-2
 66
  1
 70
  0
 62
  7
 10
2.018809
 20
6.976447
 30
0.000000
  0
VERTEX
  8
MERGEDLAYER-2
 10
2.018809
 20
6.976447
 30
0.000000
  0
VERTEX
  8
MERGEDLAYER-2
 10
2.018805
 20
6.982298
 30
0.000000
  0
SEQEND
  8
MERGEDLAYER-2
  0
POLYLINE
  8
MERGEDLAYER-2
 66
  1
 70
  0
 62
  7
 10
2.018805
 20
6.982298
 30
0.000000
  0
VERTEX
  8
MERGEDLAYER-2
 10
2.018805
 20
6.982298
 30
0.000000
  0
VERTEX
  8
MERGEDLAYER-2
 10
2.016732
 20
6.984368
 30
0.000000
  0
SEQEND
  8
MERGEDLAYER-2
  0
POLYLINE
  8
MERGEDLAYER-2
 66
  1
 70
  0
 62
  7
 10
2.041328
 20
6.933840
 30
0.000000
  0
VERTEX
  8
MERGEDLAYER-2
 10
2.041328
 20
6.933840
 30
0.000000
  0
VERTEX
  8
MERGEDLAYER-2
 10
2.045226
 20
6.972703
 30
0.000000
  0
SEQEND
  8
MERGEDLAYER-2
  0
POLYLINE
  8
MERGEDLAYER-2
 66
  1
 70
  0
 62
  7
 10
2.045226
 20
6.972704
 30
0.000000
  0
VERTEX
  8
MERGEDLAYER-2
 10
2.045226
 20
6.972704
 30
0.000000
  0
VERTEX
  8
MERGEDLAYER-2
 10
2.043012
 20
6.978910
 30
0.000000
  0
SEQEND
  8
MERGEDLAYER-2
  0
POLYLINE
  8
MERGEDLAYER-2
 66
  1
 70
  0
 62
  7
 10
2.031287
 20
6.973993
 30
0.000000
  0
VERTEX
  8
MERGEDLAYER-2
 10
2.031287
 20
6.973993
 30
0.000000
  0
VERTEX
  8
MERGEDLAYER-2
 10
2.034759
 20
6.983039
 30
0.000000
  0
SEQEND
  8
MERGEDLAYER-2
  0
POLYLINE
  8
MERGEDLAYER-2
 66
  1
 70
  0
 62
  7
 10
2.038160
 20
6.983761
 30
0.000000
  0
VERTEX
  8
MERGEDLAYER-2
 10
2.038160
 20
6.983761
 30
0.000000
  0
VERTEX
  8
MERGEDLAYER-2
 10
2.043012
 20
6.978910
 30
0.000000
  0
SEQEND
  8
MERGEDLAYER-2
  0
POLYLINE
  8
MERGEDLAYER-2
 66
  1
 70
  0
 62
  7
 10
2.038160
 20
6.983761
 30
0.000000
  0
VERTEX
  8
MERGEDLAYER-2
 10
2.038160
 20
6.983761
 30
0.000000
  0
VERTEX
  8
MERGEDLAYER-2
 10
2.034759
 20
6.983038
 30
0.000000
  0
SEQEND
  8
MERGEDLAYER-2
  0
POLYLINE
  8
MERGEDLAYER-2
 66
  1
 70
  0
 62
  7
 10
2.003766
 20
6.976454
 30
0.000000
  0
VERTEX
  8
MERGEDLAYER-2
 10
2.003766
 20
6.976454
 30
0.000000
  0
VERTEX
  8
MERGEDLAYER-2
 10
2.011680
 20
6.984368
 30
0.000000
  0
SEQEND
  8
MERGEDLAYER-2
  0
POLYLINE
  8
MERGEDLAYER-2
 66
  1
 70
  0
 62
  7
 10
2.003766
 20
6.976454
 30
0.000000
  0
VERTEX
  8
MERGEDLAYER-2
 10
2.003766
 20
6.976454
 30
0.000000
  0
VERTEX
  8
MERGEDLAYER-2
 10
2.000608
 20
6.953748
 30
0.000000
  0
SEQEND
  8
MERGEDLAYER-2
  0
POLYLINE
  8
MERGEDLAYER-2
 66
  1
 70
  0
 62
  7
 10
2.005471
 20
6.948884
 30
0.000000
  0
VERTEX
  8
MERGEDLAYER-2
 10
2.005471
 20
6.948884
 30
0.000000
  0
VERTEX
  8
MERGEDLAYER-2
 10
1.999931
 20
6.943344
 30
0.000000
  0
SEQEND
  8
MERGEDLAYER-2
  0
POLYLINE
  8
MERGEDLAYER-2
 66
  1
 70
  0
 62
  7
 10
2.005471
 20
6.948884
 30
0.000000
  0
VERTEX
  8
MERGEDLAYER-2
 10
2.005471
 20
6.948884
 30
0.000000
  0
VERTEX
  8
MERGEDLAYER-2
 10
2.000608
 20
6.953748
 30
0.000000
  0
SEQEND
  8
MERGEDLAYER-2
  0
POLYLINE
  8
MERGEDLAYER-2
 66
  1
 70
  0
 62
  7
 10
2.018899
 20
6.694759
 30
0.000000
  0
VERTEX
  8
MERGEDLAYER-2
 10
2.018899
 20
6.694759
 30
0.000000
  0
VERTEX
  8
MERGEDLAYER-2
 10
2.018899
 20
6.872192
 30
0.000000
  0
SEQEND
  8
MERGEDLAYER-2
  0
POLYLINE
  8
MERGEDLAYER-2
 66
  1
 70
  0
 62
  7
 10
2.026477
 20
6.694783
 30
0.000000
  0
VERTEX
  8
MERGEDLAYER-2
 10
2.026477
 20
6.694783
 30
0.000000
  0
VERTEX
  8
MERGEDLAYER-2
 10
2.026477
 20
6.872169
 30
0.000000
  0
SEQEND
  8
MERGEDLAYER-2
  0
POLYLINE
  8
MERGEDLAYER-2
 66
  1
 70
  0
 62
  7
 10
2.017952
 20
6.674854
 30
0.000000
  0
VERTEX
  8
MERGEDLAYER-2
 10
2.017952
 20
6.674854
 30
0.000000
  0
VERTEX
  8
MERGEDLAYER-2
 10
2.010062
 20
6.670445
 30
0.000000
  0
VERTEX
  8
MERGEDLAYER-2
 10
2.010383
 20
6.661749
 30
0.000000
  0
VERTEX
  8
MERGEDLAYER-2
 10
2.016760
 20
6.655827
 30
0.000000
  0
VERTEX
  8
MERGEDLAYER-2
 10
2.025456
 20
6.656149
 30
0.000000
  0
VERTEX
  8
MERGEDLAYER-2
 10
2.031378
 20
6.662526
 30
0.000000
  0
VERTEX
  8
MERGEDLAYER-2
 10
2.031056
 20
6.671221
 30
0.000000
  0
VERTEX
  8
MERGEDLAYER-2
 10
2.027425
 20
6.674854
 30
0.000000
  0
SEQEND
  8
MERGEDLAYER-2
  0
POLYLINE
  8
MERGEDLAYER-2
 66
  1
 70
  0
 62
  7
 10
2.017929
 20
6.674842
 30
0.000000
  0
VERTEX
  8
MERGEDLAYER-2
 10
2.017929
 20
6.674842
 30
0.000000
  0
VERTEX
  8
MERGEDLAYER-2
 10
2.010053
 20
6.670421
 30
0.000000
  0
VERTEX
  8
MERGEDLAYER-2
 10
2.010394
 20
6.661725
 30
0.000000
  0
VERTEX
  8
MERGEDLAYER-2
 10
2.016784
 20
6.655818
 30
0.000000
  0
VERTEX
  8
MERGEDLAYER-2
 10
2.025480
 20
6.656159
 30
0.000000
  0
VERTEX
  8
MERGEDLAYER-2
 10
2.031387
 20
6.662549
 30
0.000000
  0
VERTEX
  8
MERGEDLAYER-2
 10
2.031046
 20
6.671245
 30
0.000000
  0
VERTEX
  8
MERGEDLAYER-2
 10
2.027510
 20
6.674814
 30
0.000000
  0
SEQEND
  8
MERGEDLAYER-2
  0
POLYLINE
  8
MERGEDLAYER-2
 66
  1
 70
  0
 62
  7
 10
2.017952
 20
6.693812
 30
0.000000
  0
VERTEX
  8
MERGEDLAYER-2
 10
2.017952
 20
6.693812
 30
0.000000
  0
VERTEX
  8
MERGEDLAYER-2
 10
2.017952
 20
6.674842
 30
0.000000
  0
SEQEND
  8
MERGEDLAYER-2
  0
POLYLINE
  8
MERGEDLAYER-2
 66
  1
 70
  0
 62
  7
 10
2.027424
 20
6.693835
 30
0.000000
  0
VERTEX
  8
MERGEDLAYER-2
 10
2.027424
 20
6.693835
 30
0.000000
  0
VERTEX
  8
MERGEDLAYER-2
 10
2.027424
 20
6.674854
 30
0.000000
  0
SEQEND
  8
MERGEDLAYER-2
  0
POLYLINE
  8
MERGEDLAYER-2
 66
  1
 70
  0
 62
  7
 10
2.027424
 20
6.693835
 30
0.000000
  0
VERTEX
  8
MERGEDLAYER-2
 10
2.027424
 20
6.693835
 30
0.000000
  0
VERTEX
  8
MERGEDLAYER-2
 10
2.026477
 20
6.694783
 30
0.000000
  0
SEQEND
  8
MERGEDLAYER-2
  0
POLYLINE
  8
MERGEDLAYER-2
 66
  1
 70
  0
 62
  7
 10
2.017952
 20
6.693812
 30
0.000000
  0
VERTEX
  8
MERGEDLAYER-2
 10
2.017952
 20
6.693812
 30
0.000000
  0
VERTEX
  8
MERGEDLAYER-2
 10
2.018899
 20
6.694759
 30
0.000000
  0
SEQEND
  8
MERGEDLAYER-2
  0
POLYLINE
  8
MERGEDLAYER-2
 66
  1
 70
  0
 62
  7
 10
2.027425
 20
6.892099
 30
0.000000
  0
VERTEX
  8
MERGEDLAYER-2
 10
2.027425
 20
6.892099
 30
0.000000
  0
VERTEX
  8
MERGEDLAYER-2
 10
2.031378
 20
6.900444
 30
0.000000
  0
VERTEX
  8
MERGEDLAYER-2
 10
2.031056
 20
6.909140
 30
0.000000
  0
VERTEX
  8
MERGEDLAYER-2
 10
2.024680
 20
6.915062
 30
0.000000
  0
VERTEX
  8
MERGEDLAYER-2
 10
2.015983
 20
6.914740
 30
0.000000
  0
VERTEX
  8
MERGEDLAYER-2
 10
2.010062
 20
6.908363
 30
0.000000
  0
VERTEX
  8
MERGEDLAYER-2
 10
2.010383
 20
6.899667
 30
0.000000
  0
VERTEX
  8
MERGEDLAYER-2
 10
2.017952
 20
6.892099
 30
0.000000
  0
SEQEND
  8
MERGEDLAYER-2
  0
POLYLINE
  8
MERGEDLAYER-2
 66
  1
 70
  0
 62
  7
 10
2.027510
 20
6.892138
 30
0.000000
  0
VERTEX
  8
MERGEDLAYER-2
 10
2.027510
 20
6.892138
 30
0.000000
  0
VERTEX
  8
MERGEDLAYER-2
 10
2.031410
 20
6.900532
 30
0.000000
  0
VERTEX
  8
MERGEDLAYER-2
 10
2.031017
 20
6.909225
 30
0.000000
  0
VERTEX
  8
MERGEDLAYER-2
 10
2.024592
 20
6.915094
 30
0.000000
  0
VERTEX
  8
MERGEDLAYER-2
 10
2.015899
 20
6.914701
 30
0.000000
  0
VERTEX
  8
MERGEDLAYER-2
 10
2.010029
 20
6.908275
 30
0.000000
  0
VERTEX
  8
MERGEDLAYER-2
 10
2.010423
 20
6.899582
 30
0.000000
  0
VERTEX
  8
MERGEDLAYER-2
 10
2.017929
 20
6.892109
 30
0.000000
  0
SEQEND
  8
MERGEDLAYER-2
  0
POLYLINE
  8
MERGEDLAYER-2
 66
  1
 70
  0
 62
  7
 10
2.017952
 20
6.873140
 30
0.000000
  0
VERTEX
  8
MERGEDLAYER-2
 10
2.017952
 20
6.873140
 30
0.000000
  0
VERTEX
  8
MERGEDLAYER-2
 10
2.017952
 20
6.892109
 30
0.000000
  0
SEQEND
  8
MERGEDLAYER-2
  0
POLYLINE
  8
MERGEDLAYER-2
 66
  1
 70
  0
 62
  7
 10
2.027424
 20
6.873117
 30
0.000000
  0
VERTEX
  8
MERGEDLAYER-2
 10
2.027424
 20
6.873117
 30
0.000000
  0
VERTEX
  8
MERGEDLAYER-2
 10
2.027424
 20
6.892099
 30
0.000000
  0
SEQEND
  8
MERGEDLAYER-2
  0
POLYLINE
  8
MERGEDLAYER-2
 66
  1
 70
  0
 62
  7
 10
2.027424
 20
6.873117
 30
0.000000
  0
VERTEX
  8
MERGEDLAYER-2
 10
2.027424
 20
6.873117
 30
0.000000
  0
VERTEX
  8
MERGEDLAYER-2
 10
2.026477
 20
6.872169
 30
0.000000
  0
SEQEND
  8
MERGEDLAYER-2
  0
POLYLINE
  8
MERGEDLAYER-2
 66
  1
 70
  0
 62
  7
 10
2.017952
 20
6.873140
 30
0.000000
  0
VERTEX
  8
MERGEDLAYER-2
 10
2.017952
 20
6.873140
 30
0.000000
  0
VERTEX
  8
MERGEDLAYER-2
 10
2.018899
 20
6.872192
 30
0.000000
  0
SEQEND
  8
MERGEDLAYER-2
  0
CIRCLE
  8
MERGEDLAYER-2
 62
  7
 10
2.021487
 20
7.234666
 30
0.000000
 40
0.011368
  0
POLYLINE
  8
MERGEDLAYER-2
 66
  1
 70
  0
 62
  7
 10
2.032069
 20
7.194467
 30
0.000000
  0
VERTEX
  8
MERGEDLAYER-2
 10
2.032069
 20
7.194467
 30
0.000000
  0
VERTEX
  8
MERGEDLAYER-2
 10
2.033959
 20
7.204846
 30
0.000000
  0
VERTEX
  8
MERGEDLAYER-2
 10
2.030740
 20
7.213522
 30
0.000000
  0
VERTEX
  8
MERGEDLAYER-2
 10
2.022329
 20
7.217380
 30
0.000000
  0
VERTEX
  8
MERGEDLAYER-2
 10
2.013654
 20
7.214161
 30
0.000000
  0
VERTEX
  8
MERGEDLAYER-2
 10
2.009796
 20
7.205751
 30
0.000000
  0
VERTEX
  8
MERGEDLAYER-2
 10
2.013015
 20
7.197075
 30
0.000000
  0
VERTEX
  8
MERGEDLAYER-2
 10
2.019590
 20
7.192014
 30
0.000000
  0
SEQEND
  8
MERGEDLAYER-2
  0
POLYLINE
  8
MERGEDLAYER-2
 66
  1
 70
  0
 62
  7
 10
2.017513
 20
7.184093
 30
0.000000
  0
VERTEX
  8
MERGEDLAYER-2
 10
2.017513
 20
7.184093
 30
0.000000
  0
VERTEX
  8
MERGEDLAYER-2
 10
2.012462
 20
7.184093
 30
0.000000
  0
SEQEND
  8
MERGEDLAYER-2
  0
POLYLINE
  8
MERGEDLAYER-2
 66
  1
 70
  0
 62
  7
 10
2.019590
 20
7.192013
 30
0.000000
  0
VERTEX
  8
MERGEDLAYER-2
 10
2.019590
 20
7.192013
 30
0.000000
  0
VERTEX
  8
MERGEDLAYER-2
 10
2.019586
 20
7.186164
 30
0.000000
  0
SEQEND
  8
MERGEDLAYER-2
  0
POLYLINE
  8
MERGEDLAYER-2
 66
  1
 70
  0
 62
  7
 10
2.017513
 20
7.184093
 30
0.000000
  0
VERTEX
  8
MERGEDLAYER-2
 10
2.017513
 20
7.184093
 30
0.000000
  0
VERTEX
  8
MERGEDLAYER-2
 10
2.019586
 20
7.186164
 30
0.000000
  0
SEQEND
  8
MERGEDLAYER-2
  0
POLYLINE
  8
MERGEDLAYER-2
 66
  1
 70
  0
 62
  7
 10
2.042109
 20
7.234621
 30
0.000000
  0
VERTEX
  8
MERGEDLAYER-2
 10
2.042109
 20
7.234621
 30
0.000000
  0
VERTEX
  8
MERGEDLAYER-2
 10
2.046007
 20
7.195758
 30
0.000000
  0
SEQEND
  8
MERGEDLAYER-2
  0
POLYLINE
  8
MERGEDLAYER-2
 66
  1
 70
  0
 62
  7
 10
2.043793
 20
7.189551
 30
0.000000
  0
VERTEX
  8
MERGEDLAYER-2
 10
2.043793
 20
7.189551
 30
0.000000
  0
VERTEX
  8
MERGEDLAYER-2
 10
2.046007
 20
7.195758
 30
0.000000
  0
SEQEND
  8
MERGEDLAYER-2
  0
POLYLINE
  8
MERGEDLAYER-2
 66
  1
 70
  0
 62
  7
 10
2.032069
 20
7.194468
 30
0.000000
  0
VERTEX
  8
MERGEDLAYER-2
 10
2.032069
 20
7.194468
 30
0.000000
  0
VERTEX
  8
MERGEDLAYER-2
 10
2.035540
 20
7.185423
 30
0.000000
  0
SEQEND
  8
MERGEDLAYER-2
  0
POLYLINE
  8
MERGEDLAYER-2
 66
  1
 70
  0
 62
  7
 10
2.038942
 20
7.184700
 30
0.000000
  0
VERTEX
  8
MERGEDLAYER-2
 10
2.038942
 20
7.184700
 30
0.000000
  0
VERTEX
  8
MERGEDLAYER-2
 10
2.043793
 20
7.189552
 30
0.000000
  0
SEQEND
  8
MERGEDLAYER-2
  0
POLYLINE
  8
MERGEDLAYER-2
 66
  1
 70
  0
 62
  7
 10
2.035540
 20
7.185423
 30
0.000000
  0
VERTEX
  8
MERGEDLAYER-2
 10
2.035540
 20
7.185423
 30
0.000000
  0
VERTEX
  8
MERGEDLAYER-2
 10
2.038941
 20
7.184700
 30
0.000000
  0
SEQEND
  8
MERGEDLAYER-2
  0
POLYLINE
  8
MERGEDLAYER-2
 66
  1
 70
  0
 62
  7
 10
2.004547
 20
7.192007
 30
0.000000
  0
VERTEX
  8
MERGEDLAYER-2
 10
2.004547
 20
7.192007
 30
0.000000
  0
VERTEX
  8
MERGEDLAYER-2
 10
2.012462
 20
7.184093
 30
0.000000
  0
SEQEND
  8
MERGEDLAYER-2
  0
POLYLINE
  8
MERGEDLAYER-2
 66
  1
 70
  0
 62
  7
 10
2.004547
 20
7.192007
 30
0.000000
  0
VERTEX
  8
MERGEDLAYER-2
 10
2.004547
 20
7.192007
 30
0.000000
  0
VERTEX
  8
MERGEDLAYER-2
 10
2.001389
 20
7.214713
 30
0.000000
  0
SEQEND
  8
MERGEDLAYER-2
  0
POLYLINE
  8
MERGEDLAYER-2
 66
  1
 70
  0
 62
  7
 10
2.006252
 20
7.219577
 30
0.000000
  0
VERTEX
  8
MERGEDLAYER-2
 10
2.006252
 20
7.219577
 30
0.000000
  0
VERTEX
  8
MERGEDLAYER-2
 10
2.000712
 20
7.225117
 30
0.000000
  0
SEQEND
  8
MERGEDLAYER-2
  0
POLYLINE
  8
MERGEDLAYER-2
 66
  1
 70
  0
 62
  7
 10
2.006252
 20
7.219577
 30
0.000000
  0
VERTEX
  8
MERGEDLAYER-2
 10
2.006252
 20
7.219577
 30
0.000000
  0
VERTEX
  8
MERGEDLAYER-2
 10
2.001389
 20
7.214713
 30
0.000000
  0
SEQEND
  8
MERGEDLAYER-2
  0
POLYLINE
  8
MERGEDLAYER-2
 66
  1
 70
  0
 62
  7
 10
2.000712
 20
7.225117
 30
0.000000
  0
VERTEX
  8
MERGEDLAYER-2
 10
2.000712
 20
7.225117
 30
0.000000
  0
VERTEX
  8
MERGEDLAYER-2
 10
2.000712
 20
7.244125
 30
0.000000
  0
SEQEND
  8
MERGEDLAYER-2
  0
POLYLINE
  8
MERGEDLAYER-2
 66
  1
 70
  0
 62
  7
 10
2.019590
 20
7.277228
 30
0.000000
  0
VERTEX
  8
MERGEDLAYER-2
 10
2.019590
 20
7.277228
 30
0.000000
  0
VERTEX
  8
MERGEDLAYER-2
 10
2.010866
 20
7.272874
 30
0.000000
  0
VERTEX
  8
MERGEDLAYER-2
 10
2.010561
 20
7.263625
 30
0.000000
  0
VERTEX
  8
MERGEDLAYER-2
 10
2.016884
 20
7.256870
 30
0.000000
  0
VERTEX
  8
MERGEDLAYER-2
 10
2.026132
 20
7.256565
 30
0.000000
  0
VERTEX
  8
MERGEDLAYER-2
 10
2.032888
 20
7.262888
 30
0.000000
  0
VERTEX
  8
MERGEDLAYER-2
 10
2.033193
 20
7.272136
 30
0.000000
  0
VERTEX
  8
MERGEDLAYER-2
 10
2.032069
 20
7.274775
 30
0.000000
  0
SEQEND
  8
MERGEDLAYER-2
  0
POLYLINE
  8
MERGEDLAYER-2
 66
  1
 70
  0
 62
  7
 10
2.017513
 20
7.285150
 30
0.000000
  0
VERTEX
  8
MERGEDLAYER-2
 10
2.017513
 20
7.285150
 30
0.000000
  0
VERTEX
  8
MERGEDLAYER-2
 10
2.012462
 20
7.285150
 30
0.000000
  0
SEQEND
  8
MERGEDLAYER-2
  0
POLYLINE
  8
MERGEDLAYER-2
 66
  1
 70
  0
 62
  7
 10
2.019590
 20
7.277228
 30
0.000000
  0
VERTEX
  8
MERGEDLAYER-2
 10
2.019590
 20
7.277228
 30
0.000000
  0
VERTEX
  8
MERGEDLAYER-2
 10
2.019586
 20
7.283079
 30
0.000000
  0
SEQEND
  8
MERGEDLAYER-2
  0
POLYLINE
  8
MERGEDLAYER-2
 66
  1
 70
  0
 62
  7
 10
2.019586
 20
7.283079
 30
0.000000
  0
VERTEX
  8
MERGEDLAYER-2
 10
2.019586
 20
7.283079
 30
0.000000
  0
VERTEX
  8
MERGEDLAYER-2
 10
2.017513
 20
7.285150
 30
0.000000
  0
SEQEND
  8
MERGEDLAYER-2
  0
POLYLINE
  8
MERGEDLAYER-2
 66
  1
 70
  0
 62
  7
 10
2.042109
 20
7.234621
 30
0.000000
  0
VERTEX
  8
MERGEDLAYER-2
 10
2.042109
 20
7.234621
 30
0.000000
  0
VERTEX
  8
MERGEDLAYER-2
 10
2.046007
 20
7.273484
 30
0.000000
  0
SEQEND
  8
MERGEDLAYER-2
  0
POLYLINE
  8
MERGEDLAYER-2
 66
  1
 70
  0
 62
  7
 10
2.046007
 20
7.273485
 30
0.000000
  0
VERTEX
  8
MERGEDLAYER-2
 10
2.046007
 20
7.273485
 30
0.000000
  0
VERTEX
  8
MERGEDLAYER-2
 10
2.043793
 20
7.279691
 30
0.000000
  0
SEQEND
  8
MERGEDLAYER-2
  0
POLYLINE
  8
MERGEDLAYER-2
 66
  1
 70
  0
 62
  7
 10
2.032069
 20
7.274775
 30
0.000000
  0
VERTEX
  8
MERGEDLAYER-2
 10
2.032069
 20
7.274775
 30
0.000000
  0
VERTEX
  8
MERGEDLAYER-2
 10
2.035540
 20
7.283820
 30
0.000000
  0
SEQEND
  8
MERGEDLAYER-2
  0
POLYLINE
  8
MERGEDLAYER-2
 66
  1
 70
  0
 62
  7
 10
2.038942
 20
7.284543
 30
0.000000
  0
VERTEX
  8
MERGEDLAYER-2
 10
2.038942
 20
7.284543
 30
0.000000
  0
VERTEX
  8
MERGEDLAYER-2
 10
2.043793
 20
7.279691
 30
0.000000
  0
SEQEND
  8
MERGEDLAYER-2
  0
POLYLINE
  8
MERGEDLAYER-2
 66
  1
 70
  0
 62
  7
 10
2.038941
 20
7.284543
 30
0.000000
  0
VERTEX
  8
MERGEDLAYER-2
 10
2.038941
 20
7.284543
 30
0.000000
  0
VERTEX
  8
MERGEDLAYER-2
 10
2.035540
 20
7.283820
 30
0.000000
  0
SEQEND
  8
MERGEDLAYER-2
  0
POLYLINE
  8
MERGEDLAYER-2
 66
  1
 70
  0
 62
  7
 10
2.004547
 20
7.277236
 30
0.000000
  0
VERTEX
  8
MERGEDLAYER-2
 10
2.004547
 20
7.277236
 30
0.000000
  0
VERTEX
  8
MERGEDLAYER-2
 10
2.012462
 20
7.285150
 30
0.000000
  0
SEQEND
  8
MERGEDLAYER-2
  0
POLYLINE
  8
MERGEDLAYER-2
 66
  1
 70
  0
 62
  7
 10
2.004547
 20
7.277236
 30
0.000000
  0
VERTEX
  8
MERGEDLAYER-2
 10
2.004547
 20
7.277236
 30
0.000000
  0
VERTEX
  8
MERGEDLAYER-2
 10
2.001389
 20
7.254529
 30
0.000000
  0
SEQEND
  8
MERGEDLAYER-2
  0
POLYLINE
  8
MERGEDLAYER-2
 66
  1
 70
  0
 62
  7
 10
2.006252
 20
7.249665
 30
0.000000
  0
VERTEX
  8
MERGEDLAYER-2
 10
2.006252
 20
7.249665
 30
0.000000
  0
VERTEX
  8
MERGEDLAYER-2
 10
2.000712
 20
7.244125
 30
0.000000
  0
SEQEND
  8
MERGEDLAYER-2
  0
POLYLINE
  8
MERGEDLAYER-2
 66
  1
 70
  0
 62
  7
 10
2.006252
 20
7.249665
 30
0.000000
  0
VERTEX
  8
MERGEDLAYER-2
 10
2.006252
 20
7.249665
 30
0.000000
  0
VERTEX
  8
MERGEDLAYER-2
 10
2.001389
 20
7.254529
 30
0.000000
  0
SEQEND
  8
MERGEDLAYER-2
  0
POLYLINE
  8
MERGEDLAYER-2
 66
  1
 70
  0
 62
  7
 10
2.019680
 20
6.995541
 30
0.000000
  0
VERTEX
  8
MERGEDLAYER-2
 10
2.019680
 20
6.995541
 30
0.000000
  0
VERTEX
  8
MERGEDLAYER-2
 10
2.019680
 20
7.172974
 30
0.000000
  0
SEQEND
  8
MERGEDLAYER-2
  0
POLYLINE
  8
MERGEDLAYER-2
 66
  1
 70
  0
 62
  7
 10
2.027259
 20
6.995564
 30
0.000000
  0
VERTEX
  8
MERGEDLAYER-2
 10
2.027259
 20
6.995564
 30
0.000000
  0
VERTEX
  8
MERGEDLAYER-2
 10
2.027259
 20
7.172950
 30
0.000000
  0
SEQEND
  8
MERGEDLAYER-2
  0
POLYLINE
  8
MERGEDLAYER-2
 66
  1
 70
  0
 62
  7
 10
2.018733
 20
6.975635
 30
0.000000
  0
VERTEX
  8
MERGEDLAYER-2
 10
2.018733
 20
6.975635
 30
0.000000
  0
VERTEX
  8
MERGEDLAYER-2
 10
2.010843
 20
6.971226
 30
0.000000
  0
VERTEX
  8
MERGEDLAYER-2
 10
2.011164
 20
6.962530
 30
0.000000
  0
VERTEX
  8
MERGEDLAYER-2
 10
2.017541
 20
6.956608
 30
0.000000
  0
VERTEX
  8
MERGEDLAYER-2
 10
2.026238
 20
6.956930
 30
0.000000
  0
VERTEX
  8
MERGEDLAYER-2
 10
2.032159
 20
6.963307
 30
0.000000
  0
VERTEX
  8
MERGEDLAYER-2
 10
2.031838
 20
6.972003
 30
0.000000
  0
VERTEX
  8
MERGEDLAYER-2
 10
2.028206
 20
6.975635
 30
0.000000
  0
SEQEND
  8
MERGEDLAYER-2
  0
POLYLINE
  8
MERGEDLAYER-2
 66
  1
 70
  0
 62
  7
 10
2.018710
 20
6.975624
 30
0.000000
  0
VERTEX
  8
MERGEDLAYER-2
 10
2.018710
 20
6.975624
 30
0.000000
  0
VERTEX
  8
MERGEDLAYER-2
 10
2.010834
 20
6.971203
 30
0.000000
  0
VERTEX
  8
MERGEDLAYER-2
 10
2.011175
 20
6.962507
 30
0.000000
  0
VERTEX
  8
MERGEDLAYER-2
 10
2.017565
 20
6.956600
 30
0.000000
  0
VERTEX
  8
MERGEDLAYER-2
 10
2.026261
 20
6.956940
 30
0.000000
  0
VERTEX
  8
MERGEDLAYER-2
 10
2.032168
 20
6.963331
 30
0.000000
  0
VERTEX
  8
MERGEDLAYER-2
 10
2.031827
 20
6.972026
 30
0.000000
  0
VERTEX
  8
MERGEDLAYER-2
 10
2.028291
 20
6.975595
 30
0.000000
  0
SEQEND
  8
MERGEDLAYER-2
  0
POLYLINE
  8
MERGEDLAYER-2
 66
  1
 70
  0
 62
  7
 10
2.018733
 20
6.994593
 30
0.000000
  0
VERTEX
  8
MERGEDLAYER-2
 10
2.018733
 20
6.994593
 30
0.000000
  0
VERTEX
  8
MERGEDLAYER-2
 10
2.018733
 20
6.975624
 30
0.000000
  0
SEQEND
  8
MERGEDLAYER-2
  0
POLYLINE
  8
MERGEDLAYER-2
 66
  1
 70
  0
 62
  7
 10
2.028206
 20
6.994617
 30
0.000000
  0
VERTEX
  8
MERGEDLAYER-2
 10
2.028206
 20
6.994617
 30
0.000000
  0
VERTEX
  8
MERGEDLAYER-2
 10
2.028206
 20
6.975635
 30
0.000000
  0
SEQEND
  8
MERGEDLAYER-2
  0
POLYLINE
  8
MERGEDLAYER-2
 66
  1
 70
  0
 62
  7
 10
2.028206
 20
6.994617
 30
0.000000
  0
VERTEX
  8
MERGEDLAYER-2
 10
2.028206
 20
6.994617
 30
0.000000
  0
VERTEX
  8
MERGEDLAYER-2
 10
2.027259
 20
6.995564
 30
0.000000
  0
SEQEND
  8
MERGEDLAYER-2
  0
POLYLINE
  8
MERGEDLAYER-2
 66
  1
 70
  0
 62
  7
 10
2.018733
 20
6.994593
 30
0.000000
  0
VERTEX
  8
MERGEDLAYER-2
 10
2.018733
 20
6.994593
 30
0.000000
  0
VERTEX
  8
MERGEDLAYER-2
 10
2.019680
 20
6.995541
 30
0.000000
  0
SEQEND
  8
MERGEDLAYER-2
  0
POLYLINE
  8
MERGEDLAYER-2
 66
  1
 70
  0
 62
  7
 10
2.028206
 20
7.192880
 30
0.000000
  0
VERTEX
  8
MERGEDLAYER-2
 10
2.028206
 20
7.192880
 30
0.000000
  0
VERTEX
  8
MERGEDLAYER-2
 10
2.032159
 20
7.201225
 30
0.000000
  0
VERTEX
  8
MERGEDLAYER-2
 10
2.031838
 20
7.209921
 30
0.000000
  0
VERTEX
  8
MERGEDLAYER-2
 10
2.025461
 20
7.215843
 30
0.000000
  0
VERTEX
  8
MERGEDLAYER-2
 10
2.016765
 20
7.215521
 30
0.000000
  0
VERTEX
  8
MERGEDLAYER-2
 10
2.010843
 20
7.209144
 30
0.000000
  0
VERTEX
  8
MERGEDLAYER-2
 10
2.011164
 20
7.200448
 30
0.000000
  0
VERTEX
  8
MERGEDLAYER-2
 10
2.018733
 20
7.192880
 30
0.000000
  0
SEQEND
  8
MERGEDLAYER-2
  0
POLYLINE
  8
MERGEDLAYER-2
 66
  1
 70
  0
 62
  7
 10
2.028291
 20
7.192919
 30
0.000000
  0
VERTEX
  8
MERGEDLAYER-2
 10
2.028291
 20
7.192919
 30
0.000000
  0
VERTEX
  8
MERGEDLAYER-2
 10
2.032191
 20
7.201313
 30
0.000000
  0
VERTEX
  8
MERGEDLAYER-2
 10
2.031798
 20
7.210006
 30
0.000000
  0
VERTEX
  8
MERGEDLAYER-2
 10
2.025373
 20
7.215875
 30
0.000000
  0
VERTEX
  8
MERGEDLAYER-2
 10
2.016680
 20
7.215482
 30
0.000000
  0
VERTEX
  8
MERGEDLAYER-2
 10
2.010811
 20
7.209057
 30
0.000000
  0
VERTEX
  8
MERGEDLAYER-2
 10
2.011204
 20
7.200363
 30
0.000000
  0
VERTEX
  8
MERGEDLAYER-2
 10
2.018710
 20
7.192890
 30
0.000000
  0
SEQEND
  8
MERGEDLAYER-2
  0
POLYLINE
  8
MERGEDLAYER-2
 66
  1
 70
  0
 62
  7
 10
2.018733
 20
7.173921
 30
0.000000
  0
VERTEX
  8
MERGEDLAYER-2
 10
2.018733
 20
7.173921
 30
0.000000
  0
VERTEX
  8
MERGEDLAYER-2
 10
2.018733
 20
7.192891
 30
0.000000
  0
SEQEND
  8
MERGEDLAYER-2
  0
POLYLINE
  8
MERGEDLAYER-2
 66
  1
 70
  0
 62
  7
 10
2.028206
 20
7.173898
 30
0.000000
  0
VERTEX
  8
MERGEDLAYER-2
 10
2.028206
 20
7.173898
 30
0.000000
  0
VERTEX
  8
MERGEDLAYER-2
 10
2.028206
 20
7.192880
 30
0.000000
  0
SEQEND
  8
MERGEDLAYER-2
  0
POLYLINE
  8
MERGEDLAYER-2
 66
  1
 70
  0
 62
  7
 10
2.028206
 20
7.173898
 30
0.000000
  0
VERTEX
  8
MERGEDLAYER-2
 10
2.028206
 20
7.173898
 30
0.000000
  0
VERTEX
  8
MERGEDLAYER-2
 10
2.027259
 20
7.172950
 30
0.000000
  0
SEQEND
  8
MERGEDLAYER-2
  0
POLYLINE
  8
MERGEDLAYER-2
 66
  1
 70
  0
 62
  7
 10
2.018733
 20
7.173921
 30
0.000000
  0
VERTEX
  8
MERGEDLAYER-2
 10
2.018733
 20
7.173921
 30
0.000000
  0
VERTEX
  8
MERGEDLAYER-2
 10
2.019680
 20
7.172974
 30
0.000000
  0
SEQEND
  8
MERGEDLAYER-2
  0
POLYLINE
  8
MERGEDLAYER-2
 66
  1
 70
  0
 62
  7
 10
2.147081
 20
6.681322
 30
0.000000
  0
VERTEX
  8
MERGEDLAYER-2
 10
2.147081
 20
6.681322
 30
0.000000
  0
VERTEX
  8
MERGEDLAYER-2
 10
5.537439
 20
6.681322
 30
0.000000
  0
SEQEND
  8
MERGEDLAYER-2
  0
POLYLINE
  8
MERGEDLAYER-2
 66
  1
 70
  0
 62
  7
 10
2.147583
 20
6.647838
 30
0.000000
  0
VERTEX
  8
MERGEDLAYER-2
 10
2.147583
 20
6.647838
 30
0.000000
  0
VERTEX
  8
MERGEDLAYER-2
 10
5.537439
 20
6.647838
 30
0.000000
  0
SEQEND
  8
MERGEDLAYER-2
  0
POLYLINE
  8
MERGEDLAYER-2
 66
  1
 70
  0
 62
  7
 10
2.147622
 20
6.617662
 30
0.000000
  0
VERTEX
  8
MERGEDLAYER-2
 10
2.147622
 20
6.617662
 30
0.000000
  0
VERTEX
  8
MERGEDLAYER-2
 10
5.537439
 20
6.617662
 30
0.000000
  0
SEQEND
  8
MERGEDLAYER-2
  0
POLYLINE
  8
MERGEDLAYER-2
 66
  1
 70
  0
 62
  7
 10
2.147081
 20
6.582417
 30
0.000000
  0
VERTEX
  8
MERGEDLAYER-2
 10
2.147081
 20
6.582417
 30
0.000000
  0
VERTEX
  8
MERGEDLAYER-2
 10
5.537439
 20
6.582417
 30
0.000000
  0
SEQEND
  8
MERGEDLAYER-2
  0
POLYLINE
  8
MERGEDLAYER-2
 66
  1
 70
  0
 62
  7
 10
2.147081
 20
6.981417
 30
0.000000
  0
VERTEX
  8
MERGEDLAYER-2
 10
2.147081
 20
6.981417
 30
0.000000
  0
VERTEX
  8
MERGEDLAYER-2
 10
5.537439
 20
6.981417
 30
0.000000
  0
SEQEND
  8
MERGEDLAYER-2
  0
POLYLINE
  8
MERGEDLAYER-2
 66
  1
 70
  0
 62
  7
 10
2.147583
 20
6.947848
 30
0.000000
  0
VERTEX
  8
MERGEDLAYER-2
 10
2.147583
 20
6.947848
 30
0.000000
  0
VERTEX
  8
MERGEDLAYER-2
 10
5.537439
 20
6.947848
 30
0.000000
  0
SEQEND
  8
MERGEDLAYER-2
  0
POLYLINE
  8
MERGEDLAYER-2
 66
  1
 70
  0
 62
  7
 10
2.147612
 20
6.918049
 30
0.000000
  0
VERTEX
  8
MERGEDLAYER-2
 10
2.147612
 20
6.918049
 30
0.000000
  0
VERTEX
  8
MERGEDLAYER-2
 10
5.537439
 20
6.918049
 30
0.000000
  0
SEQEND
  8
MERGEDLAYER-2
  0
POLYLINE
  8
MERGEDLAYER-2
 66
  1
 70
  0
 62
  7
 10
2.147081
 20
6.883594
 30
0.000000
  0
VERTEX
  8
MERGEDLAYER-2
 10
2.147081
 20
6.883594
 30
0.000000
  0
VERTEX
  8
MERGEDLAYER-2
 10
5.537439
 20
6.883594
 30
0.000000
  0
SEQEND
  8
MERGEDLAYER-2
  0
POLYLINE
  8
MERGEDLAYER-2
 66
  1
 70
  0
 62
  7
 10
2.147081
 20
6.380168
 30
0.000000
  0
VERTEX
  8
MERGEDLAYER-2
 10
2.147081
 20
6.380168
 30
0.000000
  0
VERTEX
  8
MERGEDLAYER-2
 10
5.537439
 20
6.380168
 30
0.000000
  0
SEQEND
  8
MERGEDLAYER-2
  0
POLYLINE
  8
MERGEDLAYER-2
 66
  1
 70
  0
 62
  7
 10
2.147583
 20
6.347228
 30
0.000000
  0
VERTEX
  8
MERGEDLAYER-2
 10
2.147583
 20
6.347228
 30
0.000000
  0
VERTEX
  8
MERGEDLAYER-2
 10
5.537439
 20
6.347228
 30
0.000000
  0
SEQEND
  8
MERGEDLAYER-2
  0
POLYLINE
  8
MERGEDLAYER-2
 66
  1
 70
  0
 62
  7
 10
2.147549
 20
6.316503
 30
0.000000
  0
VERTEX
  8
MERGEDLAYER-2
 10
2.147549
 20
6.316503
 30
0.000000
  0
VERTEX
  8
MERGEDLAYER-2
 10
5.537439
 20
6.316503
 30
0.000000
  0
SEQEND
  8
MERGEDLAYER-2
  0
POLYLINE
  8
MERGEDLAYER-2
 66
  1
 70
  0
 62
  7
 10
2.147081
 20
6.281602
 30
0.000000
  0
VERTEX
  8
MERGEDLAYER-2
 10
2.147081
 20
6.281602
 30
0.000000
  0
VERTEX
  8
MERGEDLAYER-2
 10
5.537439
 20
6.281602
 30
0.000000
  0
SEQEND
  8
MERGEDLAYER-2
  0
POLYLINE
  8
MERGEDLAYER-2
 66
  1
 70
  0
 62
  7
 10
2.147081
 20
7.281416
 30
0.000000
  0
VERTEX
  8
MERGEDLAYER-2
 10
2.147081
 20
7.281416
 30
0.000000
  0
VERTEX
  8
MERGEDLAYER-2
 10
5.537439
 20
7.281416
 30
0.000000
  0
SEQEND
  8
MERGEDLAYER-2
  0
POLYLINE
  8
MERGEDLAYER-2
 66
  1
 70
  0
 62
  7
 10
2.147583
 20
7.247847
 30
0.000000
  0
VERTEX
  8
MERGEDLAYER-2
 10
2.147583
 20
7.247847
 30
0.000000
  0
VERTEX
  8
MERGEDLAYER-2
 10
5.537439
 20
7.247847
 30
0.000000
  0
SEQEND
  8
MERGEDLAYER-2
  0
POLYLINE
  8
MERGEDLAYER-2
 66
  1
 70
  0
 62
  7
 10
2.147612
 20
7.218048
 30
0.000000
  0
VERTEX
  8
MERGEDLAYER-2
 10
2.147612
 20
7.218048
 30
0.000000
  0
VERTEX
  8
MERGEDLAYER-2
 10
5.537439
 20
7.218048
 30
0.000000
  0
SEQEND
  8
MERGEDLAYER-2
  0
POLYLINE
  8
MERGEDLAYER-2
 66
  1
 70
  0
 62
  7
 10
2.147081
 20
7.183593
 30
0.000000
  0
VERTEX
  8
MERGEDLAYER-2
 10
2.147081
 20
7.183593
 30
0.000000
  0
VERTEX
  8
MERGEDLAYER-2
 10
5.537439
 20
7.183593
 30
0.000000
  0
SEQEND
  8
MERGEDLAYER-2
  0
POLYLINE
  8
MERGEDLAYER-2
 66
  1
 70
  0
 62
  7
 10
3.980299
 20
6.883594
 30
0.000000
  0
VERTEX
  8
MERGEDLAYER-2
 10
3.980299
 20
6.883594
 30
0.000000
  0
VERTEX
  8
MERGEDLAYER-2
 10
3.980299
 20
6.681322
 30
0.000000
  0
SEQEND
  8
MERGEDLAYER-2
  0
POLYLINE
  8
MERGEDLAYER-2
 66
  1
 70
  0
 62
  7
 10
2.664753
 20
6.131520
 30
0.000000
  0
VERTEX
  8
MERGEDLAYER-2
 10
2.664753
 20
6.131520
 30
0.000000
  0
VERTEX
  8
MERGEDLAYER-2
 10
2.265645
 20
6.131520
 30
0.000000
  0
SEQEND
  8
MERGEDLAYER-2
  0
POLYLINE
  8
MERGEDLAYER-2
 66
  1
 70
  0
 62
  7
 10
2.265645
 20
6.586430
 30
0.000000
  0
VERTEX
  8
MERGEDLAYER-2
 10
2.265645
 20
6.586430
 30
0.000000
  0
VERTEX
  8
MERGEDLAYER-2
 10
2.265645
 20
6.384607
 30
0.000000
  0
SEQEND
  8
MERGEDLAYER-2
  0
LINE
  8
MERGEDLAYER-2
 62
  7
 10
2.284930
 20
6.567145
 30
0.000000
 11
2.246360
 21
6.605715
 31
0.000000
  0
LINE
  8
MERGEDLAYER-2
 62
  7
 10
2.284930
 20
6.365322
 30
0.000000
 11
2.246360
 21
6.403891
 31
0.000000
  0
POLYLINE
  8
MERGEDLAYER-2
 66
  1
 70
  0
 62
  7
 10
2.265645
 20
6.384607
 30
0.000000
  0
VERTEX
  8
MERGEDLAYER-2
 10
2.265645
 20
6.384607
 30
0.000000
  0
VERTEX
  8
MERGEDLAYER-2
 10
2.265645
 20
6.131520
 30
0.000000
  0
SEQEND
  8
MERGEDLAYER-2
  0
ENDSEC
  0
EOF
